  0
SECTION
  2
HEADER
  9
$ACADVER
  1
AC1006
  9
$INSBASE
 10
0.0
 20
0.0
 30
0.0
  9
$EXTMIN
 10
0.000000
 20
0.000000
  9
$EXTMAX
 10
10.000000
 20
10.000000
  9
$LIMMIN
 10
0.0
 20
0.0
  9
$LIMMAX
 10
12.0
 20
9.0
  9
$ORTHOMODE
 70
     0
  9
$REGENMODE
 70
     1
  9
$FILLMODE
 70
     1
  9
$QTEXTMODE
 70
     0
  9
$MIRRTEXT
 70
     1
  9
$DRAGMODE
 70
     2
  9
$LTSCALE
 40
10.000000
  9
$OSMODE
 70
     0
  9
$ATTMODE
 70
     1
  9
$TEXTSIZE
 40
0.2
  9
$TRACEWID
 40
0.05
  9
$TEXTSTYLE
  7
STANDARD
  9
$CLAYER
  8
0
  9
$CELTYPE
  6
BYLAYER
  9
$CECOLOR
 62
   256
  9
$DIMSCALE
 40
1.0
  9
$DIMASZ
 40
0.18
  9
$DIMEXO
 40
0.0625
  9
$DIMDLI
 40
0.38
  9
$DIMRND
 40
0.0
  9
$DIMDLE
 40
0.0
  9
$DIMEXE
 40
0.18
  9
$DIMTP
 40
0.0
  9
$DIMTM
 40
0.0
  9
$DIMTXT
 40
0.18
  9
$DIMCEN
 40
0.09
  9
$DIMTSZ
 40
0.0
  9
$DIMTOL
 70
     0
  9
$DIMLIM
 70
     0
  9
$DIMTIH
 70
     1
  9
$DIMTOH
 70
     1
  9
$DIMSE1
 70
     0
  9
$DIMSE2
 70
     0
  9
$DIMTAD
 70
     0
  9
$DIMZIN
 70
     0
  9
$DIMBLK
  1

  9
$DIMASO
 70
     1
  9
$DIMSHO
 70
     0
  9
$DIMPOST
  1

  9
$DIMAPOST
  1

  9
$DIMALT
 70
     0
  9
$DIMALTD
 70
     2
  9
$DIMALTF
 40
25.4
  9
$DIMLFAC
 40
1.0
  9
$DIMTOFL
 70
     0
  9
$DIMTVP
 40
0.0
  9
$DIMTIX
 70
     0
  9
$DIMSOXD
 70
     0
  9
$DIMSAH
 70
     0
  9
$DIMBLK1
  1

  9
$DIMBLK2
  1

  9
$LUNITS
 70
     2
  9
$LUPREC
 70
     4
  9
$AXISMODE
 70
     0
  9
$AXISUNIT
 10
0.0
 20
0.0
  9
$SKETCHINC
 40
0.1
  9
$FILLETRAD
 40
0.0
  9
$AUNITS
 70
     0
  9
$AUPREC
 70
     0
  9
$MENU
  1
acad
  9
$ELEVATION
 40
0.0
  9
$THICKNESS
 40
0.0
  9
$LIMCHECK
 70
     0
  9
$BLIPMODE
 70
     1
  9
$CHAMFERA
 40
0.0
  9
$CHAMFERB
 40
0.0
  9
$SKPOLY
 70
     0
  9
$TDCREATE
 40
2448751.5905787037
  9
$TDUPDATE
 40
2448751.5905787037
  9
$TDINDWG
 40
0.0000000000
  9
$TDUSRTIMER
 40
0.0000000000
  9
$USRTIMER
 70
     1
  9
$ANGBASE
 50
0.0
  9
$ANGDIR
 70
     0
  9
$PDMODE
 70
     0
  9
$PDSIZE
 40
0.0
  9
$PLINEWID
 40
0.0
  9
$COORDS
 70
     0
  9
$SPLFRAME
 70
     0
  9
$SPLINETYPE
 70
     6
  9
$SPLINESEGS
 70
     8
  9
$ATTDIA
 70
     0
  9
$ATTREQ
 70
     1
  9
$HANDLING
 70
     0
  9
$HANDSEED
  5
0
  9
$SURFTAB1
 70
     6
  9
$SURFTAB2
 70
     6
  9
$SURFTYPE
 70
     6
  9
$SURFU
 70
     6
  9
$SURFV
 70
     6
  9
$FLATLAND
 70
     0
  9
$UCSNAME
  2

  9
$UCSORG
 10
0.0
 20
0.0
 30
0.0
  9
$UCSXDIR
 10
1.0
 20
0.0
 30
0.0
  9
$UCSYDIR
 10
0.0
 20
1.0
 30
0.0
  9
$USERI1
 70
     0
  9
$USERI2
 70
     0
  9
$USERI3
 70
     0
  9
$USERI4
 70
     0
  9
$USERI5
 70
     0
  9
$USERR1
 40
0.0
  9
$USERR2
 40
0.0
  9
$USERR3
 40
0.0
  9
$USERR4
 40
0.0
  9
$USERR5
 40
0.0
  9
$WORLDVIEW
 70
     1
  0
ENDSEC
  0
SECTION
  2
TABLES
  0
TABLE
  2
VPORT
 70
     2
  0
VPORT
  2
*ACTIVE
 70
     0
 10
0.0
 20
0.0
 11
1.0
 21
1.0
 12
7.914286
 22
4.5
 13
0.0
 23
0.0
 14
1.0
 24
1.0
 15
0.0
 25
0.0
 16
0.0
 26
0.0
 36
1.0
 17
0.0
 27
0.0
 37
0.0
 40
9.0
 41
1.75873
 42
50.0
 43
0.0
 44
0.0
 50
0.0
 51
0.0
 71
     0
 72
   100
 73
     1
 74
     1
 75
     0
 76
     0
 77
     0
 78
     0
  0
ENDTAB
  0
TABLE
  2
LTYPE
 70
     9
  0
LTYPE
  2
CONTINUOUS
 70
    64
  3
実線
 72
    65
 73
     0
 40
0.0
  0
LTYPE
  2
DASHED
 70
    64
  3
__ __ __ __ __ __ __ __ __ __ __ __ __ __ __
 72
    65
 73
     2
 40
0.75
 49
0.5
 49
-0.25
  0
LTYPE
  2
HIDDEN
 70
    64
  3
_ _ _ _ _ _ _ _ _ _ _ _ _ _ _ _ _ _ _ _ _ _ _
 72
    65
 73
     2
 40
0.375
 49
0.25
 49
-0.125
  0
LTYPE
  2
CENTER
 70
    64
  3
____ _ ____ _ ____ _ ____ _ ____ _ ____ _ ____
 72
    65
 73
     4
 40
2.0
 49
1.25
 49
-0.25
 49
0.25
 49
-0.25
  0
LTYPE
  2
PHANTOM
 70
    64
  3
_____ _ _ _____ _ _ _____ _ _ _____ _ _ ____
 72
    65
 73
     6
 40
2.5
 49
1.25
 49
-0.25
 49
0.25
 49
-0.25
 49
0.25
 49
-0.25
  0
LTYPE
  2
DOT
 70
    64
  3
...............................................
 72
    65
 73
     2
 40
0.25
 49
0.0
 49
-0.25
  0
LTYPE
  2
DASHDOT
 70
    64
  3
__ . __ . __ . __ . __ . __ . __ . __ . __ . __
 72
    65
 73
     4
 40
1.0
 49
0.5
 49
-0.25
 49
0.0
 49
-0.25
  0
LTYPE
  2
DIVIDE
 70
    64
  3
__ . . __ . . __ . . __ . . __ . . __ . . __
 72
    65
 73
     6
 40
1.25
 49
0.5
 49
-0.25
 49
0.0
 49
-0.25
 49
0.0
 49
-0.25
  0
LTYPE
  2
BORDER
 70
    64
  3
__ __ . __ __ . __ __ . __ __ . __ __ . __ __
 72
    65
 73
     6
 40
1.75
 49
0.5
 49
-0.25
 49
0.5
 49
-0.25
 49
0.0
 49
-0.25
  0
ENDTAB
  0
TABLE
  2
LAYER
 70
     2
  0
LAYER
  2
0
 70
     0
 62
     7
  6
CONTINUOUS
  0
LAYER
  2
PV
 70
     0
 62
     7
  6
CONTINUOUS
  0
ENDTAB
  0
TABLE
  2
STYLE
 70
     3
  0
STYLE
  2
STANDARD
 70
     0
 40
0.0
 41
1.0
 50
0.0
 71
     0
 42
0.2
  3
txt
  4

  0
STYLE
  2
FONT1
 70
     0
 40
0.0
 41
1.0
 50
0.0
 71
     0
 42
0.2
  3
MONOTXT
  4

  0
STYLE
  2
FONT2
 70
     0
 40
0.0
 41
1.0
 50
0.0
 71
     0
 42
0.2
  3
MONOTXT
  4
BIGFONT
  0
ENDTAB
  0
TABLE
  2
VIEW
 70
     0
  0
ENDTAB
  0
TABLE
  2
UCS
 70
     0
  0
ENDTAB
  0
TABLE
  2
DWGMGR
 70
     0
  0
ENDTAB
  0
ENDSEC
  0
SECTION
  2
BLOCKS
  0
ENDSEC
  0
SECTION
  2
ENTITIES
  0
LINE
  8
PV
  6
CENTER
 62
     1
 10
3.074840E+002
 20
4.118640E+002
 30
0.000000E+000
 11
3.074840E+002
 21
1.171010E+002
 31
0.000000E+000
  0
LINE
  8
PV
 62
     7
 10
1.226040E+002
 20
2.117770E+002
 30
0.000000E+000
 11
1.226040E+002
 21
2.751000E+002
 31
0.000000E+000
  0
LINE
  8
PV
 62
     7
 10
7.885990E+001
 20
2.117770E+002
 30
0.000000E+000
 11
7.885990E+001
 21
2.751000E+002
 31
0.000000E+000
  0
LINE
  8
PV
 62
     7
 10
1.318820E+002
 20
2.117770E+002
 30
0.000000E+000
 11
1.318820E+002
 21
2.751000E+002
 31
0.000000E+000
  0
LINE
  8
PV
 62
     7
 10
6.958210E+001
 20
2.117770E+002
 30
0.000000E+000
 11
6.958210E+001
 21
2.751000E+002
 31
0.000000E+000
  0
LINE
  8
PV
 62
     7
 10
2.550830E+002
 20
2.116000E+002
 30
0.000000E+000
 11
2.550830E+002
 21
2.751000E+002
 31
0.000000E+000
  0
LINE
  8
PV
 62
     7
 10
2.474750E+002
 20
2.116000E+002
 30
0.000000E+000
 11
2.474750E+002
 21
2.751000E+002
 31
0.000000E+000
  0
LINE
  8
PV
 62
     7
 10
2.070790E+002
 20
2.751000E+002
 30
0.000000E+000
 11
2.070790E+002
 21
2.116000E+002
 31
0.000000E+000
  0
LINE
  8
PV
 62
     7
 10
2.595240E+002
 20
2.116000E+002
 30
0.000000E+000
 11
2.595240E+002
 21
2.751000E+002
 31
0.000000E+000
  0
LINE
  8
PV
 62
     7
 10
2.027250E+002
 20
2.116000E+002
 30
0.000000E+000
 11
2.027250E+002
 21
2.751000E+002
 31
0.000000E+000
  0
LINE
  8
PV
  6
CENTER
 62
     1
 10
1.007320E+002
 20
1.081000E+002
 30
0.000000E+000
 11
1.007320E+002
 21
3.021000E+002
 31
0.000000E+000
  0
LINE
  8
PV
  6
CENTER
 62
     1
 10
2.309210E+002
 20
3.021000E+002
 30
0.000000E+000
 11
2.309210E+002
 21
1.081000E+002
 31
0.000000E+000
  0
LINE
  8
PV
 62
     7
 10
1.203800E+002
 20
1.269910E+002
 30
0.000000E+000
 11
1.110130E+002
 21
1.205000E+002
 31
0.000000E+000
  0
LINE
  8
PV
 62
     7
 10
1.110320E+002
 20
1.205130E+002
 30
0.000000E+000
 11
1.203800E+002
 21
1.269910E+002
 31
0.000000E+000
  0
LINE
  8
PV
 62
     7
 10
6.958210E+001
 20
2.117770E+002
 30
0.000000E+000
 11
1.318820E+002
 21
2.117770E+002
 31
0.000000E+000
  0
LINE
  8
PV
 62
     7
 10
7.885990E+001
 20
2.117770E+002
 30
0.000000E+000
 11
8.051620E+001
 21
1.334170E+002
 31
0.000000E+000
  0
LINE
  8
PV
 62
     7
 10
9.383620E+001
 20
1.159730E+002
 30
0.000000E+000
 11
9.383620E+001
 21
1.151790E+002
 31
0.000000E+000
  0
LINE
  8
PV
 62
     7
 10
1.076280E+002
 20
1.151790E+002
 30
0.000000E+000
 11
1.076280E+002
 21
1.159730E+002
 31
0.000000E+000
  0
LINE
  8
PV
 62
     7
 10
9.383620E+001
 20
1.151790E+002
 30
0.000000E+000
 11
1.076280E+002
 21
1.151790E+002
 31
0.000000E+000
  0
LINE
  8
PV
 62
     7
 10
9.559580E+001
 20
1.131000E+002
 30
0.000000E+000
 11
9.559580E+001
 21
1.151790E+002
 31
0.000000E+000
  0
LINE
  8
PV
 62
     7
 10
1.058680E+002
 20
1.131000E+002
 30
0.000000E+000
 11
1.058680E+002
 21
1.151790E+002
 31
0.000000E+000
  0
LINE
  8
PV
 62
     7
 10
9.045160E+001
 20
1.159730E+002
 30
0.000000E+000
 11
1.110130E+002
 21
1.159730E+002
 31
0.000000E+000
  0
LINE
  8
PV
 62
     7
 10
9.045160E+001
 20
1.190770E+002
 30
0.000000E+000
 11
1.110130E+002
 21
1.190770E+002
 31
0.000000E+000
  0
LINE
  8
PV
 62
     7
 10
8.108460E+001
 20
1.269910E+002
 30
0.000000E+000
 11
8.051620E+001
 21
1.334170E+002
 31
0.000000E+000
  0
LINE
  8
PV
 62
     7
 10
8.108460E+001
 20
1.269910E+002
 30
0.000000E+000
 11
9.045160E+001
 21
1.205000E+002
 31
0.000000E+000
  0
LINE
  8
PV
 62
     7
 10
9.043210E+001
 20
1.205130E+002
 30
0.000000E+000
 11
9.045160E+001
 21
1.159730E+002
 31
0.000000E+000
  0
LINE
  8
PV
 62
     7
 10
1.110130E+002
 20
1.159730E+002
 30
0.000000E+000
 11
1.110130E+002
 21
1.205000E+002
 31
0.000000E+000
  0
LINE
  8
PV
 62
     7
 10
2.112740E+002
 20
1.269910E+002
 30
0.000000E+000
 11
2.206410E+002
 21
1.205000E+002
 31
0.000000E+000
  0
LINE
  8
PV
 62
     7
 10
2.027250E+002
 20
2.116000E+002
 30
0.000000E+000
 11
2.595240E+002
 21
2.116000E+002
 31
0.000000E+000
  0
LINE
  8
PV
 62
     7
 10
1.181690E+002
 20
2.086040E+002
 30
0.000000E+000
 11
1.155500E+002
 21
1.316040E+002
 31
0.000000E+000
  0
LINE
  8
PV
 62
     7
 10
1.332150E+002
 20
2.086040E+002
 30
0.000000E+000
 11
1.332150E+002
 21
1.316040E+002
 31
0.000000E+000
  0
LINE
  8
PV
 62
     7
 10
2.105320E+002
 20
2.116000E+002
 30
0.000000E+000
 11
2.112740E+002
 21
1.269910E+002
 31
0.000000E+000
  0
LINE
  8
PV
 62
     7
 10
1.155500E+002
 20
1.316040E+002
 30
0.000000E+000
 11
1.332150E+002
 21
1.316040E+002
 31
0.000000E+000
  0
LINE
  8
PV
 62
     7
 10
1.207780E+002
 20
1.316040E+002
 30
0.000000E+000
 11
1.203800E+002
 21
1.269910E+002
 31
0.000000E+000
  0
LINE
  8
PV
 62
     7
 10
1.181690E+002
 20
2.086040E+002
 30
0.000000E+000
 11
1.332150E+002
 21
2.086040E+002
 31
0.000000E+000
  0
LINE
  8
PV
 62
     7
 10
1.226040E+002
 20
2.117770E+002
 30
0.000000E+000
 11
1.222600E+002
 21
2.086040E+002
 31
0.000000E+000
  0
LINE
  8
PV
 62
     7
 10
2.366910E+002
 20
1.425000E+002
 30
0.000000E+000
 11
2.366910E+002
 21
1.971000E+002
 31
0.000000E+000
  0
LINE
  8
PV
 62
     7
 10
2.416910E+002
 20
1.971000E+002
 30
0.000000E+000
 11
2.416910E+002
 21
1.425000E+002
 31
0.000000E+000
  0
LINE
  8
PV
 62
     7
 10
2.340210E+002
 20
1.313000E+002
 30
0.000000E+000
 11
2.340210E+002
 21
2.083000E+002
 31
0.000000E+000
  0
LINE
  8
PV
 62
     7
 10
2.443610E+002
 20
2.083000E+002
 30
0.000000E+000
 11
2.443610E+002
 21
1.313000E+002
 31
0.000000E+000
  0
LINE
  8
PV
 62
     7
 10
2.309210E+002
 20
1.313000E+002
 30
0.000000E+000
 11
2.309210E+002
 21
2.083000E+002
 31
0.000000E+000
  0
LINE
  8
PV
 62
     7
 10
2.474610E+002
 20
2.083000E+002
 30
0.000000E+000
 11
2.474610E+002
 21
1.313000E+002
 31
0.000000E+000
  0
LINE
  8
PV
 62
     7
 10
2.505690E+002
 20
1.269910E+002
 30
0.000000E+000
 11
2.516640E+002
 21
2.116000E+002
 31
0.000000E+000
  0
LINE
  8
PV
 62
     7
 10
2.378170E+002
 20
1.151790E+002
 30
0.000000E+000
 11
2.378170E+002
 21
1.159730E+002
 31
0.000000E+000
  0
LINE
  8
PV
 62
     7
 10
2.240250E+002
 20
1.159730E+002
 30
0.000000E+000
 11
2.240250E+002
 21
1.151790E+002
 31
0.000000E+000
  0
LINE
  8
PV
 62
     7
 10
2.240250E+002
 20
1.151790E+002
 30
0.000000E+000
 11
2.378170E+002
 21
1.151790E+002
 31
0.000000E+000
  0
LINE
  8
PV
 62
     7
 10
2.257850E+002
 20
1.131000E+002
 30
0.000000E+000
 11
2.257850E+002
 21
1.151790E+002
 31
0.000000E+000
  0
LINE
  8
PV
 62
     7
 10
2.360570E+002
 20
1.131000E+002
 30
0.000000E+000
 11
2.360570E+002
 21
1.151790E+002
 31
0.000000E+000
  0
LINE
  8
PV
 62
     7
 10
2.474610E+002
 20
1.313000E+002
 30
0.000000E+000
 11
2.309210E+002
 21
1.313000E+002
 31
0.000000E+000
  0
LINE
  8
PV
 62
     7
 10
2.206410E+002
 20
1.190770E+002
 30
0.000000E+000
 11
2.412020E+002
 21
1.190770E+002
 31
0.000000E+000
  0
LINE
  8
PV
 62
     7
 10
2.206410E+002
 20
1.159730E+002
 30
0.000000E+000
 11
2.412020E+002
 21
1.159730E+002
 31
0.000000E+000
  0
LINE
  8
PV
 62
     7
 10
2.206210E+002
 20
1.205130E+002
 30
0.000000E+000
 11
2.206410E+002
 21
1.159730E+002
 31
0.000000E+000
  0
LINE
  8
PV
 62
     7
 10
2.412210E+002
 20
1.205130E+002
 30
0.000000E+000
 11
2.505690E+002
 21
1.269910E+002
 31
0.000000E+000
  0
LINE
  8
PV
 62
     7
 10
2.505690E+002
 20
1.269910E+002
 30
0.000000E+000
 11
2.412020E+002
 21
1.205000E+002
 31
0.000000E+000
  0
LINE
  8
PV
 62
     7
 10
2.412020E+002
 20
1.159730E+002
 30
0.000000E+000
 11
2.412020E+002
 21
1.205000E+002
 31
0.000000E+000
  0
CIRCLE
  8
PV
 62
     7
 10
2.391910E+002
 20
1.364000E+002
 30
0.000000E+000
 40
1.675000E+000
  0
LINE
  8
PV
 62
     7
 10
2.416910E+002
 20
1.425000E+002
 30
0.000000E+000
 11
2.366910E+002
 21
1.425000E+002
 31
0.000000E+000
  0
LINE
  8
PV
 62
     7
 10
2.309210E+002
 20
2.083000E+002
 30
0.000000E+000
 11
2.474610E+002
 21
2.083000E+002
 31
0.000000E+000
  0
LINE
  8
PV
 62
     7
 10
2.366910E+002
 20
1.971000E+002
 30
0.000000E+000
 11
2.416910E+002
 21
1.971000E+002
 31
0.000000E+000
  0
CIRCLE
  8
PV
 62
     7
 10
2.391910E+002
 20
2.032000E+002
 30
0.000000E+000
 40
1.675000E+000
  0
TEXT
  8
PV
 62
     7
 10
1.015517E+002
 20
3.955960E+002
 30
0.000000E+000
 40
6.400000E+000
  1
L73C-*BP-EDN
  7
FONT1
 72
     1
 11
1.388850E+002
 21
3.955960E+002
 31
0.000000E+000
  0
TEXT
  8
PV
 62
     7
 10
3.280787E+001
 20
4.069780E+002
 30
0.000000E+000
 40
6.400000E+000
  1
MODEL No. : L73M-*BP-EDN
 41
9.445000E-001
  7
FONT1
 72
     1
 11
1.043380E+002
 21
4.069780E+002
 31
0.000000E+000
  0
LINE
  8
PV
 62
     7
 10
1.016890E+002
 20
2.518560E+002
 30
0.000000E+000
 11
1.291750E+002
 21
3.022830E+002
 31
0.000000E+000
  0
LINE
  8
PV
 62
     7
 10
8.855510E+001
 20
2.766000E+002
 30
0.000000E+000
 11
1.155350E+002
 21
2.766000E+002
 31
0.000000E+000
  0
LINE
  8
PV
  6
CENTER
 62
     1
 10
1.368820E+002
 20
2.501000E+002
 30
0.000000E+000
 11
6.458210E+001
 21
2.501000E+002
 31
0.000000E+000
  0
LINE
  8
PV
 62
     7
 10
8.855510E+001
 20
2.874110E+002
 30
0.000000E+000
 11
8.855510E+001
 21
2.751000E+002
 31
0.000000E+000
  0
LINE
  8
PV
 62
     7
 10
7.240910E+001
 20
2.751000E+002
 30
0.000000E+000
 11
7.240910E+001
 21
2.874110E+002
 31
0.000000E+000
  0
LINE
  8
PV
 62
     7
 10
1.104620E+002
 20
2.926600E+002
 30
0.000000E+000
 11
1.107670E+002
 21
2.786000E+002
 31
0.000000E+000
  0
LINE
  8
PV
 62
     7
 10
9.105600E+001
 20
2.926600E+002
 30
0.000000E+000
 11
9.075060E+001
 21
2.786000E+002
 31
0.000000E+000
  0
POLYLINE
  8
PV
 62
     7
 66
     1
 10
0.0
 20
0.0
 30
0.0
  0
VERTEX
  8
PV
 62
     7
 10
1.019820E+002
 20
2.516970E+002
 30
0.000000E+000
  0
VERTEX
  8
PV
 62
     7
 10
1.013970E+002
 20
2.520160E+002
 30
0.000000E+000
  0
VERTEX
  8
PV
 62
     7
 10
1.007320E+002
 20
2.501000E+002
 30
0.000000E+000
  0
VERTEX
  8
PV
 62
     7
 10
1.019820E+002
 20
2.516970E+002
 30
0.000000E+000
  0
SEQEND
  8
PV
 62
     7
  0
CIRCLE
  8
PV
 62
     7
 10
1.007320E+002
 20
2.501000E+002
 30
0.000000E+000
 40
6.000000E+000
  0
LINE
  8
PV
 62
     7
 10
7.885990E+001
 20
2.479240E+002
 30
0.000000E+000
 11
6.958210E+001
 21
2.479240E+002
 31
0.000000E+000
  0
LINE
  8
PV
 62
     7
 10
1.149820E+002
 20
2.786000E+002
 30
0.000000E+000
 11
8.855510E+001
 21
2.786000E+002
 31
0.000000E+000
  0
LINE
  8
PV
 62
     7
 10
6.958210E+001
 20
2.526360E+002
 30
0.000000E+000
 11
7.885990E+001
 21
2.526360E+002
 31
0.000000E+000
  0
LINE
  8
PV
 62
     7
 10
1.150350E+002
 20
2.766000E+002
 30
0.000000E+000
 11
1.149820E+002
 21
2.786000E+002
 31
0.000000E+000
  0
LINE
  8
PV
 62
     7
 10
9.430880E+001
 20
2.944750E+002
 30
0.000000E+000
 11
9.105600E+001
 21
2.926600E+002
 31
0.000000E+000
  0
LINE
  8
PV
 62
     7
 10
1.104620E+002
 20
2.926600E+002
 30
0.000000E+000
 11
9.105600E+001
 21
2.926600E+002
 31
0.000000E+000
  0
LINE
  8
PV
 62
     7
 10
7.240910E+001
 20
2.874110E+002
 30
0.000000E+000
 11
8.855510E+001
 21
2.874110E+002
 31
0.000000E+000
  0
LINE
  8
PV
 62
     7
 10
1.073990E+002
 20
2.944750E+002
 30
0.000000E+000
 11
9.430880E+001
 21
2.944750E+002
 31
0.000000E+000
  0
LINE
  8
PV
 62
     7
 10
9.375880E+001
 20
2.941680E+002
 30
0.000000E+000
 11
9.155600E+001
 21
2.929390E+002
 31
0.000000E+000
  0
LINE
  8
PV
 62
     7
 10
9.430880E+001
 20
2.971000E+002
 30
0.000000E+000
 11
9.430880E+001
 21
2.944750E+002
 31
0.000000E+000
  0
LINE
  8
PV
 62
     7
 10
1.077210E+002
 20
2.941890E+002
 30
0.000000E+000
 11
1.099600E+002
 21
2.929400E+002
 31
0.000000E+000
  0
LINE
  8
PV
 62
     7
 10
1.072090E+002
 20
2.944750E+002
 30
0.000000E+000
 11
1.104620E+002
 21
2.926600E+002
 31
0.000000E+000
  0
LINE
  8
PV
 62
     7
 10
1.072090E+002
 20
2.971000E+002
 30
0.000000E+000
 11
1.072090E+002
 21
2.944750E+002
 31
0.000000E+000
  0
LINE
  8
PV
  6
CENTER
 62
     1
 10
1.921240E+002
 20
2.501000E+002
 30
0.000000E+000
 11
2.701240E+002
 21
2.501000E+002
 31
0.000000E+000
  0
LINE
  8
PV
 62
     7
 10
2.027250E+002
 20
2.477470E+002
 30
0.000000E+000
 11
2.595240E+002
 21
2.477470E+002
 31
0.000000E+000
  0
LINE
  8
PV
 62
     7
 10
2.027250E+002
 20
2.524590E+002
 30
0.000000E+000
 11
2.595240E+002
 21
2.524590E+002
 31
0.000000E+000
  0
LINE
  8
PV
 62
     7
 10
2.389710E+002
 20
2.786000E+002
 30
0.000000E+000
 11
2.105240E+002
 21
2.786000E+002
 31
0.000000E+000
  0
LINE
  8
PV
 62
     7
 10
2.100240E+002
 20
2.766000E+002
 30
0.000000E+000
 11
2.395240E+002
 21
2.766000E+002
 31
0.000000E+000
  0
LINE
  8
PV
 62
     7
 10
1.318820E+002
 20
2.478960E+002
 30
0.000000E+000
 11
1.226040E+002
 21
2.478960E+002
 31
0.000000E+000
  0
LINE
  8
PV
 62
     7
 10
1.318820E+002
 20
2.526610E+002
 30
0.000000E+000
 11
1.226040E+002
 21
2.526610E+002
 31
0.000000E+000
  0
LINE
  8
PV
 62
     7
 10
1.155350E+002
 20
2.766000E+002
 30
0.000000E+000
 11
1.155350E+002
 21
2.751000E+002
 31
0.000000E+000
  0
LINE
  8
PV
 62
     7
 10
1.971240E+002
 20
2.678500E+002
 30
0.000000E+000
 11
1.971240E+002
 21
2.323500E+002
 31
0.000000E+000
  0
LINE
  8
PV
 62
     7
 10
1.991240E+002
 20
2.323500E+002
 30
0.000000E+000
 11
2.006540E+002
 21
2.350000E+002
 31
0.000000E+000
  0
LINE
  8
PV
 62
     7
 10
1.971240E+002
 20
2.323500E+002
 30
0.000000E+000
 11
1.991240E+002
 21
2.323500E+002
 31
0.000000E+000
  0
LINE
  8
PV
 62
     7
 10
2.006540E+002
 20
2.350000E+002
 30
0.000000E+000
 11
2.027250E+002
 21
2.350000E+002
 31
0.000000E+000
  0
LINE
  8
PV
 62
     7
 10
2.006540E+002
 20
2.652000E+002
 30
0.000000E+000
 11
1.991240E+002
 21
2.678500E+002
 31
0.000000E+000
  0
LINE
  8
PV
 62
     7
 10
1.991240E+002
 20
2.678500E+002
 30
0.000000E+000
 11
1.971240E+002
 21
2.678500E+002
 31
0.000000E+000
  0
LINE
  8
PV
 62
     7
 10
2.027250E+002
 20
2.652000E+002
 30
0.000000E+000
 11
2.006540E+002
 21
2.652000E+002
 31
0.000000E+000
  0
LINE
  8
PV
 62
     7
 10
2.105240E+002
 20
2.786000E+002
 30
0.000000E+000
 11
2.105240E+002
 21
2.766000E+002
 31
0.000000E+000
  0
LINE
  8
PV
 62
     7
 10
2.100240E+002
 20
2.751000E+002
 30
0.000000E+000
 11
2.100240E+002
 21
2.766000E+002
 31
0.000000E+000
  0
TEXT
  8
PV
 62
     7
 10
1.290720E+002
 20
2.999940E+002
 30
0.000000E+000
 40
4.600000E+000
  1
-P.P
 41
8.335000E-001
  7
FONT1
  0
LINE
  8
PV
 62
     7
 10
2.318780E+002
 20
2.518560E+002
 30
0.000000E+000
 11
2.593630E+002
 21
3.022830E+002
 31
0.000000E+000
  0
LINE
  8
PV
 62
     7
 10
2.150450E+002
 20
2.926600E+002
 30
0.000000E+000
 11
2.147400E+002
 21
2.786000E+002
 31
0.000000E+000
  0
LINE
  8
PV
 62
     7
 10
2.344510E+002
 20
2.926600E+002
 30
0.000000E+000
 11
2.347560E+002
 21
2.786000E+002
 31
0.000000E+000
  0
LINE
  8
PV
 62
     7
 10
2.472510E+002
 20
2.751000E+002
 30
0.000000E+000
 11
2.472510E+002
 21
2.874110E+002
 31
0.000000E+000
  0
POLYLINE
  8
PV
 62
     7
 66
     1
 10
0.0
 20
0.0
 30
0.0
  0
VERTEX
  8
PV
 62
     7
 10
2.321710E+002
 20
2.516970E+002
 30
0.000000E+000
  0
VERTEX
  8
PV
 62
     7
 10
2.315860E+002
 20
2.520160E+002
 30
0.000000E+000
  0
VERTEX
  8
PV
 62
     7
 10
2.309210E+002
 20
2.501000E+002
 30
0.000000E+000
  0
VERTEX
  8
PV
 62
     7
 10
2.321710E+002
 20
2.516970E+002
 30
0.000000E+000
  0
SEQEND
  8
PV
 62
     7
  0
LINE
  8
PV
 62
     7
 10
2.390240E+002
 20
2.766000E+002
 30
0.000000E+000
 11
2.389710E+002
 21
2.786000E+002
 31
0.000000E+000
  0
LINE
  8
PV
 62
     7
 10
2.395240E+002
 20
2.766000E+002
 30
0.000000E+000
 11
2.395240E+002
 21
2.751000E+002
 31
0.000000E+000
  0
LINE
  8
PV
 62
     7
 10
2.651240E+002
 20
2.678500E+002
 30
0.000000E+000
 11
2.651240E+002
 21
2.323500E+002
 31
0.000000E+000
  0
LINE
  8
PV
 62
     7
 10
2.631240E+002
 20
2.323500E+002
 30
0.000000E+000
 11
2.615940E+002
 21
2.350000E+002
 31
0.000000E+000
  0
LINE
  8
PV
 62
     7
 10
2.651240E+002
 20
2.323500E+002
 30
0.000000E+000
 11
2.631240E+002
 21
2.323500E+002
 31
0.000000E+000
  0
LINE
  8
PV
 62
     7
 10
2.615940E+002
 20
2.350000E+002
 30
0.000000E+000
 11
2.595240E+002
 21
2.350000E+002
 31
0.000000E+000
  0
LINE
  8
PV
 62
     7
 10
2.631240E+002
 20
2.678500E+002
 30
0.000000E+000
 11
2.651240E+002
 21
2.678500E+002
 31
0.000000E+000
  0
LINE
  8
PV
 62
     7
 10
2.615940E+002
 20
2.652000E+002
 30
0.000000E+000
 11
2.631240E+002
 21
2.678500E+002
 31
0.000000E+000
  0
LINE
  8
PV
 62
     7
 10
2.595240E+002
 20
2.652000E+002
 30
0.000000E+000
 11
2.615940E+002
 21
2.652000E+002
 31
0.000000E+000
  0
TEXT
  8
PV
 62
     7
 10
2.592610E+002
 20
2.999940E+002
 30
0.000000E+000
 40
4.600000E+000
  1
-P.P
 41
8.335000E-001
  7
FONT1
  0
LINE
  8
PV
 62
     7
 10
2.472510E+002
 20
2.874110E+002
 30
0.000000E+000
 11
2.345650E+002
 21
2.874110E+002
 31
0.000000E+000
  0
LINE
  8
PV
 62
     7
 10
2.313880E+002
 20
2.944750E+002
 30
0.000000E+000
 11
2.182980E+002
 21
2.944750E+002
 31
0.000000E+000
  0
LINE
  8
PV
 62
     7
 10
2.344510E+002
 20
2.926600E+002
 30
0.000000E+000
 11
2.150450E+002
 21
2.926600E+002
 31
0.000000E+000
  0
LINE
  8
PV
 62
     7
 10
2.182980E+002
 20
2.944750E+002
 30
0.000000E+000
 11
2.150450E+002
 21
2.926600E+002
 31
0.000000E+000
  0
LINE
  8
PV
 62
     7
 10
2.177480E+002
 20
2.941680E+002
 30
0.000000E+000
 11
2.155450E+002
 21
2.929390E+002
 31
0.000000E+000
  0
LINE
  8
PV
 62
     7
 10
2.182980E+002
 20
2.971000E+002
 30
0.000000E+000
 11
2.182980E+002
 21
2.944750E+002
 31
0.000000E+000
  0
LINE
  8
PV
 62
     7
 10
2.311980E+002
 20
2.944750E+002
 30
0.000000E+000
 11
2.344510E+002
 21
2.926600E+002
 31
0.000000E+000
  0
LINE
  8
PV
 62
     7
 10
2.317100E+002
 20
2.941890E+002
 30
0.000000E+000
 11
2.339490E+002
 21
2.929400E+002
 31
0.000000E+000
  0
LINE
  8
PV
 62
     7
 10
2.311980E+002
 20
2.971000E+002
 30
0.000000E+000
 11
2.311980E+002
 21
2.944750E+002
 31
0.000000E+000
  0
CIRCLE
  8
PV
 62
     7
 10
2.246740E+002
 20
4.002310E+002
 30
0.000000E+000
 40
1.347570E+001
  0
LINE
  8
PV
 62
     7
 10
2.073740E+002
 20
4.243310E+002
 30
0.000000E+000
 11
2.146740E+002
 21
4.285800E+002
 31
0.000000E+000
  0
LINE
  8
PV
 62
     7
 10
2.069790E+002
 20
3.776310E+002
 30
0.000000E+000
 11
2.181690E+002
 21
3.723340E+002
 31
0.000000E+000
  0
LINE
  8
PV
  6
CENTER
 62
     1
 10
2.700240E+002
 20
4.009810E+002
 30
0.000000E+000
 11
1.920240E+002
 21
4.009810E+002
 31
0.000000E+000
  0
LINE
  8
PV
 62
     7
 10
2.026250E+002
 20
4.243310E+002
 30
0.000000E+000
 11
2.026250E+002
 21
3.776310E+002
 31
0.000000E+000
  0
LINE
  8
PV
 62
     7
 10
1.970240E+002
 20
4.187310E+002
 30
0.000000E+000
 11
1.970240E+002
 21
3.832300E+002
 31
0.000000E+000
  0
LINE
  8
PV
 62
     7
 10
1.990240E+002
 20
3.832300E+002
 30
0.000000E+000
 11
2.005540E+002
 21
3.858810E+002
 31
0.000000E+000
  0
LINE
  8
PV
 62
     7
 10
1.970240E+002
 20
3.832300E+002
 30
0.000000E+000
 11
1.990240E+002
 21
3.832300E+002
 31
0.000000E+000
  0
LINE
  8
PV
 62
     7
 10
2.026250E+002
 20
3.776310E+002
 30
0.000000E+000
 11
2.069790E+002
 21
3.776310E+002
 31
0.000000E+000
  0
LINE
  8
PV
 62
     7
 10
2.005540E+002
 20
3.858810E+002
 30
0.000000E+000
 11
2.026250E+002
 21
3.858810E+002
 31
0.000000E+000
  0
LINE
  8
PV
 62
     7
 10
2.005540E+002
 20
4.160810E+002
 30
0.000000E+000
 11
1.990240E+002
 21
4.187310E+002
 31
0.000000E+000
  0
LINE
  8
PV
 62
     7
 10
1.990240E+002
 20
4.187310E+002
 30
0.000000E+000
 11
1.970240E+002
 21
4.187310E+002
 31
0.000000E+000
  0
LINE
  8
PV
 62
     7
 10
2.026250E+002
 20
4.160810E+002
 30
0.000000E+000
 11
2.005540E+002
 21
4.160810E+002
 31
0.000000E+000
  0
LINE
  8
PV
 62
     7
 10
2.026250E+002
 20
4.243310E+002
 30
0.000000E+000
 11
2.073740E+002
 21
4.243310E+002
 31
0.000000E+000
  0
LINE
  8
PV
 62
     7
 10
2.594240E+002
 20
3.776310E+002
 30
0.000000E+000
 11
2.594240E+002
 21
4.243310E+002
 31
0.000000E+000
  0
LINE
  8
PV
  6
CENTER
 62
     1
 10
2.309210E+002
 20
4.369810E+002
 30
0.000000E+000
 11
2.309210E+002
 21
3.649810E+002
 31
0.000000E+000
  0
LINE
  8
PV
 62
     7
 10
2.614940E+002
 20
3.858810E+002
 30
0.000000E+000
 11
2.594240E+002
 21
3.858810E+002
 31
0.000000E+000
  0
LINE
  8
PV
 62
     7
 10
2.594240E+002
 20
4.160810E+002
 30
0.000000E+000
 11
2.614940E+002
 21
4.160810E+002
 31
0.000000E+000
  0
LINE
  8
PV
 62
     7
 10
2.181690E+002
 20
3.723340E+002
 30
0.000000E+000
 11
2.302390E+002
 21
3.699810E+002
 31
0.000000E+000
  0
LINE
  8
PV
 62
     7
 10
2.483740E+002
 20
3.699810E+002
 30
0.000000E+000
 11
2.483740E+002
 21
3.734120E+002
 31
0.000000E+000
  0
LINE
  8
PV
 62
     7
 10
2.382390E+002
 20
3.776810E+002
 30
0.000000E+000
 11
2.378540E+002
 21
3.797000E+002
 31
0.000000E+000
  0
LINE
  8
PV
 62
     7
 10
2.434020E+002
 20
3.776810E+002
 30
0.000000E+000
 11
2.378540E+002
 21
3.797000E+002
 31
0.000000E+000
  0
CIRCLE
  8
PV
 62
     7
 10
2.403240E+002
 20
3.776810E+002
 30
0.000000E+000
 40
4.000000E+000
  0
LINE
  8
PV
 62
     7
 10
2.378540E+002
 20
3.756610E+002
 30
0.000000E+000
 11
2.434020E+002
 21
3.776810E+002
 31
0.000000E+000
  0
LINE
  8
PV
 62
     7
 10
2.378540E+002
 20
3.756610E+002
 30
0.000000E+000
 11
2.382390E+002
 21
3.776810E+002
 31
0.000000E+000
  0
LINE
  8
PV
 62
     7
 10
2.483740E+002
 20
3.734120E+002
 30
0.000000E+000
 11
2.546300E+002
 21
3.776310E+002
 31
0.000000E+000
  0
LINE
  8
PV
 62
     7
 10
2.546300E+002
 20
3.776310E+002
 30
0.000000E+000
 11
2.594240E+002
 21
3.776310E+002
 31
0.000000E+000
  0
LINE
  8
PV
 62
     7
 10
2.469150E+002
 20
4.210770E+002
 30
0.000000E+000
 11
2.316370E+002
 21
4.210770E+002
 31
0.000000E+000
  0
LINE
  8
PV
 62
     7
 10
2.469150E+002
 20
4.195630E+002
 30
0.000000E+000
 11
2.316350E+002
 21
4.195630E+002
 31
0.000000E+000
  0
CIRCLE
  8
PV
 62
     7
 10
2.246740E+002
 20
4.002310E+002
 30
0.000000E+000
 40
9.705000E+000
  0
CIRCLE
  8
PV
 62
     7
 10
2.246740E+002
 20
4.002310E+002
 30
0.000000E+000
 40
6.477000E+000
  0
CIRCLE
  8
PV
 62
     7
 10
2.246740E+002
 20
4.002310E+002
 30
0.000000E+000
 40
3.962400E+000
  0
LINE
  8
PV
 62
     7
 10
2.650240E+002
 20
4.187310E+002
 30
0.000000E+000
 11
2.650240E+002
 21
3.832300E+002
 31
0.000000E+000
  0
LINE
  8
PV
 62
     7
 10
2.630240E+002
 20
3.832300E+002
 30
0.000000E+000
 11
2.614940E+002
 21
3.858810E+002
 31
0.000000E+000
  0
LINE
  8
PV
 62
     7
 10
2.650240E+002
 20
3.832300E+002
 30
0.000000E+000
 11
2.630240E+002
 21
3.832300E+002
 31
0.000000E+000
  0
LINE
  8
PV
 62
     7
 10
2.630240E+002
 20
4.187310E+002
 30
0.000000E+000
 11
2.650240E+002
 21
4.187310E+002
 31
0.000000E+000
  0
LINE
  8
PV
 62
     7
 10
2.614940E+002
 20
4.160810E+002
 30
0.000000E+000
 11
2.630240E+002
 21
4.187310E+002
 31
0.000000E+000
  0
LINE
  8
PV
 62
     7
 10
2.321630E+002
 20
4.319810E+002
 30
0.000000E+000
 11
2.438010E+002
 21
4.296250E+002
 31
0.000000E+000
  0
LINE
  8
PV
 62
     7
 10
2.146740E+002
 20
4.319810E+002
 30
0.000000E+000
 11
2.146740E+002
 21
4.285800E+002
 31
0.000000E+000
  0
LINE
  8
PV
 62
     7
 10
2.438010E+002
 20
4.296250E+002
 30
0.000000E+000
 11
2.550690E+002
 21
4.243310E+002
 31
0.000000E+000
  0
LINE
  8
PV
 62
     7
 10
2.594240E+002
 20
4.243310E+002
 30
0.000000E+000
 11
2.550690E+002
 21
4.243310E+002
 31
0.000000E+000
  0
LINE
  8
PV
 62
     7
 10
4.895200E+002
 20
2.591780E+002
 30
0.000000E+000
 11
5.124090E+002
 21
2.591780E+002
 31
0.000000E+000
  0
LINE
  8
PV
 62
     7
 10
4.454090E+002
 20
2.237060E+002
 30
0.000000E+000
 11
5.124090E+002
 21
2.237060E+002
 31
0.000000E+000
  0
LINE
  8
PV
 62
     7
 10
4.584370E+002
 20
2.264550E+002
 30
0.000000E+000
 11
5.003670E+002
 21
2.264550E+002
 31
0.000000E+000
  0
LINE
  8
PV
 62
     7
 10
4.584370E+002
 20
2.320180E+002
 30
0.000000E+000
 11
5.003670E+002
 21
2.320180E+002
 31
0.000000E+000
  0
LINE
  8
PV
 62
     7
 10
4.753660E+002
 20
2.513190E+002
 30
0.000000E+000
 11
5.028510E+002
 21
3.017450E+002
 31
0.000000E+000
  0
TEXT
  8
PV
 62
     7
 10
3.277553E+002
 20
3.375910E+002
 30
0.000000E+000
 40
4.500000E+000
  1
MODEL NO. : 4424-50
 41
9.211222E-001
  7
FONT1
  0
TEXT
  8
PV
 62
     7
 10
4.032330E+002
 20
2.994560E+002
 30
0.000000E+000
 40
4.600000E+000
  1
-P.P
 41
8.335000E-001
  7
FONT1
  0
LINE
  8
PV
 62
     7
 10
3.939740E+002
 20
2.590390E+002
 30
0.000000E+000
 11
4.039870E+002
 21
2.590390E+002
 31
0.000000E+000
  0
LINE
  8
PV
 62
     7
 10
4.039870E+002
 20
2.235630E+002
 30
0.000000E+000
 11
3.457990E+002
 21
2.235630E+002
 31
0.000000E+000
  0
LINE
  8
PV
 62
     7
 10
3.758500E+002
 20
2.513190E+002
 30
0.000000E+000
 11
4.033360E+002
 21
3.017450E+002
 31
0.000000E+000
  0
ARC
  8
PV
 62
     7
 10
3.553930E+002
 20
2.785630E+002
 30
0.000000E+000
 40
3.500000E+000
 50
9.000000E+001
 51
2.700000E+002
  0
LINE
  8
PV
 62
     7
 10
3.558120E+002
 20
2.590390E+002
 30
0.000000E+000
 11
3.457990E+002
 21
2.590390E+002
 31
0.000000E+000
  0
LINE
  8
PV
 62
     7
 10
3.663930E+002
 20
2.820630E+002
 30
0.000000E+000
 11
3.553930E+002
 21
2.820630E+002
 31
0.000000E+000
  0
LINE
  8
PV
 62
     7
 10
3.663930E+002
 20
2.750630E+002
 30
0.000000E+000
 11
3.553930E+002
 21
2.750630E+002
 31
0.000000E+000
  0
LINE
  8
PV
 62
     7
 10
3.478930E+002
 20
2.845630E+002
 30
0.000000E+000
 11
4.018930E+002
 21
2.845630E+002
 31
0.000000E+000
  0
CIRCLE
  8
PV
 62
     7
 10
3.512960E+002
 20
2.530830E+002
 30
0.000000E+000
 40
2.225180E+000
  0
LINE
  8
PV
 62
     7
 10
3.457990E+002
 20
2.590390E+002
 30
0.000000E+000
 11
3.457990E+002
 21
2.235630E+002
 31
0.000000E+000
  0
LINE
  8
PV
 62
     7
 10
3.478930E+002
 20
2.845630E+002
 30
0.000000E+000
 11
3.478930E+002
 21
2.590390E+002
 31
0.000000E+000
  0
CIRCLE
  8
PV
 62
     7
 10
3.984900E+002
 20
2.530830E+002
 30
0.000000E+000
 40
2.225180E+000
  0
LINE
  8
PV
 62
     7
 10
3.939740E+002
 20
2.590390E+002
 30
0.000000E+000
 11
3.939740E+002
 21
2.235630E+002
 31
0.000000E+000
  0
LINE
  8
PV
 62
     7
 10
3.558120E+002
 20
2.590390E+002
 30
0.000000E+000
 11
3.558120E+002
 21
2.235630E+002
 31
0.000000E+000
  0
ARC
  8
PV
 62
     7
 10
3.663930E+002
 20
2.305630E+002
 30
0.000000E+000
 40
3.500000E+000
 50
2.700000E+002
 51
9.000000E+001
  0
LINE
  8
PV
 62
     7
 10
3.663930E+002
 20
2.340630E+002
 30
0.000000E+000
 11
3.558120E+002
 21
2.340630E+002
 31
0.000000E+000
  0
LINE
  8
PV
 62
     7
 10
3.663930E+002
 20
2.270630E+002
 30
0.000000E+000
 11
3.558120E+002
 21
2.270630E+002
 31
0.000000E+000
  0
POLYLINE
  8
PV
 62
     7
 66
     1
 10
0.0
 20
0.0
 30
0.0
  0
VERTEX
  8
PV
 62
     7
 10
3.761430E+002
 20
2.511590E+002
 30
0.000000E+000
  0
VERTEX
  8
PV
 62
     7
 10
3.755580E+002
 20
2.514780E+002
 30
0.000000E+000
  0
VERTEX
  8
PV
 62
     7
 10
3.748930E+002
 20
2.495630E+002
 30
0.000000E+000
  0
VERTEX
  8
PV
 62
     7
 10
3.761430E+002
 20
2.511590E+002
 30
0.000000E+000
  0
SEQEND
  8
PV
 62
     7
  0
LINE
  8
PV
 62
     7
 10
3.833930E+002
 20
2.270630E+002
 30
0.000000E+000
 11
3.939740E+002
 21
2.270630E+002
 31
0.000000E+000
  0
LINE
  8
PV
 62
     7
 10
3.833930E+002
 20
2.340630E+002
 30
0.000000E+000
 11
3.939740E+002
 21
2.340630E+002
 31
0.000000E+000
  0
ARC
  8
PV
 62
     7
 10
3.833930E+002
 20
2.305630E+002
 30
0.000000E+000
 40
3.500000E+000
 50
9.000000E+001
 51
2.700000E+002
  0
ARC
  8
PV
 62
     7
 10
3.663930E+002
 20
2.785630E+002
 30
0.000000E+000
 40
3.500000E+000
 50
2.700000E+002
 51
9.000000E+001
  0
LINE
  8
PV
 62
     7
 10
4.018930E+002
 20
2.845630E+002
 30
0.000000E+000
 11
4.018930E+002
 21
2.590390E+002
 31
0.000000E+000
  0
LINE
  8
PV
 62
     7
 10
3.833930E+002
 20
2.820630E+002
 30
0.000000E+000
 11
3.943930E+002
 21
2.820630E+002
 31
0.000000E+000
  0
LINE
  8
PV
 62
     7
 10
3.833930E+002
 20
2.750630E+002
 30
0.000000E+000
 11
3.943930E+002
 21
2.750630E+002
 31
0.000000E+000
  0
ARC
  8
PV
 62
     7
 10
3.833930E+002
 20
2.785630E+002
 30
0.000000E+000
 40
3.500000E+000
 50
9.000000E+001
 51
2.700000E+002
  0
ARC
  8
PV
 62
     7
 10
3.943930E+002
 20
2.785630E+002
 30
0.000000E+000
 40
3.500000E+000
 50
2.700000E+002
 51
9.000000E+001
  0
TEXT
  8
PV
 62
     7
 10
3.277554E+002
 20
3.475910E+002
 30
0.000000E+000
 40
4.500000E+000
  1
MOUNTING BRACKET 
 41
9.803911E-001
  7
FONT1
  0
LINE
  8
PV
 62
     7
 10
4.454090E+002
 20
2.591780E+002
 30
0.000000E+000
 11
4.582370E+002
 21
2.591780E+002
 31
0.000000E+000
  0
LINE
  8
PV
 62
     7
 10
4.454090E+002
 20
2.591780E+002
 30
0.000000E+000
 11
4.454090E+002
 21
2.237060E+002
 31
0.000000E+000
  0
LINE
  8
PV
 62
     7
 10
4.039870E+002
 20
2.590390E+002
 30
0.000000E+000
 11
4.039870E+002
 21
2.235630E+002
 31
0.000000E+000
  0
LINE
  8
PV
 62
     7
 10
4.895200E+002
 20
2.591780E+002
 30
0.000000E+000
 11
4.895200E+002
 21
2.337190E+002
 31
0.000000E+000
  0
LINE
  8
PV
 62
     7
 10
4.582370E+002
 20
2.591780E+002
 30
0.000000E+000
 11
4.582370E+002
 21
2.337190E+002
 31
0.000000E+000
  0
LINE
  8
PV
 62
     7
 10
4.582370E+002
 20
2.337190E+002
 30
0.000000E+000
 11
4.895200E+002
 21
2.337190E+002
 31
0.000000E+000
  0
ARC
  8
PV
 62
     7
 10
4.584370E+002
 20
2.292040E+002
 30
0.000000E+000
 40
2.748760E+000
 50
9.000000E+001
 51
2.700000E+002
  0
POLYLINE
  8
PV
 62
     7
 66
     1
 10
0.0
 20
0.0
 30
0.0
  0
VERTEX
  8
PV
 62
     7
 10
4.756580E+002
 20
2.511590E+002
 30
0.000000E+000
  0
VERTEX
  8
PV
 62
     7
 10
4.750730E+002
 20
2.514780E+002
 30
0.000000E+000
  0
VERTEX
  8
PV
 62
     7
 10
4.744090E+002
 20
2.495630E+002
 30
0.000000E+000
  0
VERTEX
  8
PV
 62
     7
 10
4.756580E+002
 20
2.511590E+002
 30
0.000000E+000
  0
SEQEND
  8
PV
 62
     7
  0
LINE
  8
PV
 62
     7
 10
5.124090E+002
 20
2.847020E+002
 30
0.000000E+000
 11
5.124090E+002
 21
2.237060E+002
 31
0.000000E+000
  0
ARC
  8
PV
 62
     7
 10
5.003670E+002
 20
2.292040E+002
 30
0.000000E+000
 40
2.748760E+000
 50
2.700000E+002
 51
9.000000E+001
  0
LINE
  8
PV
 62
     7
 10
5.107730E+002
 20
2.847020E+002
 30
0.000000E+000
 11
5.107730E+002
 21
2.591780E+002
 31
0.000000E+000
  0
TEXT
  8
PV
 62
     7
 10
5.027490E+002
 20
2.994560E+002
 30
0.000000E+000
 40
4.600000E+000
  1
-P.P
 41
8.335000E-001
  7
FONT1
  0
POLYLINE
  8
PV
 62
     7
 66
     1
 10
0.0
 20
0.0
 30
0.0
  0
VERTEX
  8
PV
 62
     7
 10
1.964410E+002
 20
2.520090E+002
 30
0.000000E+000
  0
VERTEX
  8
PV
 62
     7
 10
1.958590E+002
 20
2.516840E+002
 30
0.000000E+000
  0
VERTEX
  8
PV
 62
     7
 10
1.971240E+002
 20
2.501000E+002
 30
0.000000E+000
  0
VERTEX
  8
PV
 62
     7
 10
1.964410E+002
 20
2.520090E+002
 30
0.000000E+000
  0
SEQEND
  8
PV
 62
     7
  0
LINE
  8
PV
 62
     7
 10
1.961500E+002
 20
2.518470E+002
 30
0.000000E+000
 11
1.828290E+002
 21
2.757090E+002
 31
0.000000E+000
  0
TEXT
  8
PV
 62
     7
 10
1.720050E+002
 20
2.734090E+002
 30
0.000000E+000
 40
4.600000E+000
  1
IN-
 41
8.888891E-001
  7
FONT1
  0
TEXT
  8
PV
 62
     7
 10
1.579749E+002
 20
2.663060E+002
 30
0.000000E+000
 40
4.600000E+000
  1
Rc1/4
 41
9.333326E-001
  7
FONT1
  0
TEXT
  8
PV
 62
     7
 10
1.579747E+002
 20
2.598700E+002
 30
0.000000E+000
 40
4.600000E+000
  1
Rc3/8
  7
FONT1
  0
LINE
  8
PV
 62
     7
 10
2.257850E+002
 20
1.131000E+002
 30
0.000000E+000
 11
2.360570E+002
 21
1.131000E+002
 31
0.000000E+000
  0
LINE
  8
PV
 62
     7
 10
1.058680E+002
 20
1.131000E+002
 30
0.000000E+000
 11
9.559580E+001
 21
1.131000E+002
 31
0.000000E+000
  0
LINE
  8
PV
 62
     7
 10
2.027250E+002
 20
2.751000E+002
 30
0.000000E+000
 11
2.595240E+002
 21
2.751000E+002
 31
0.000000E+000
  0
LINE
  8
PV
 62
     7
 10
2.182980E+002
 20
2.971000E+002
 30
0.000000E+000
 11
2.311980E+002
 21
2.971000E+002
 31
0.000000E+000
  0
LINE
  8
PV
 62
     7
 10
1.318820E+002
 20
2.751000E+002
 30
0.000000E+000
 11
6.958210E+001
 21
2.751000E+002
 31
0.000000E+000
  0
LINE
  8
PV
 62
     7
 10
1.072090E+002
 20
2.971000E+002
 30
0.000000E+000
 11
9.430880E+001
 21
2.971000E+002
 31
0.000000E+000
  0
LINE
  8
PV
 62
     7
 10
2.483740E+002
 20
3.699810E+002
 30
0.000000E+000
 11
2.302390E+002
 21
3.699810E+002
 31
0.000000E+000
  0
LINE
  8
PV
 62
     7
 10
2.321630E+002
 20
4.319810E+002
 30
0.000000E+000
 11
2.146740E+002
 21
4.319810E+002
 31
0.000000E+000
  0
ENDSEC
  0
EOF
