  0
SECTION
  2
HEADER
  9
$ACADVER
  1
AC1006
  9
$INSBASE
 10
0.0
 20
0.0
 30
0.0
  9
$EXTMIN
 10
0.000000
 20
0.000000
  9
$EXTMAX
 10
10.000000
 20
10.000000
  9
$LIMMIN
 10
0.0
 20
0.0
  9
$LIMMAX
 10
12.0
 20
9.0
  9
$ORTHOMODE
 70
     0
  9
$REGENMODE
 70
     1
  9
$FILLMODE
 70
     1
  9
$QTEXTMODE
 70
     0
  9
$MIRRTEXT
 70
     1
  9
$DRAGMODE
 70
     2
  9
$LTSCALE
 40
10.000000
  9
$OSMODE
 70
     0
  9
$ATTMODE
 70
     1
  9
$TEXTSIZE
 40
0.2
  9
$TRACEWID
 40
0.05
  9
$TEXTSTYLE
  7
STANDARD
  9
$CLAYER
  8
0
  9
$CELTYPE
  6
BYLAYER
  9
$CECOLOR
 62
   256
  9
$DIMSCALE
 40
1.0
  9
$DIMASZ
 40
0.18
  9
$DIMEXO
 40
0.0625
  9
$DIMDLI
 40
0.38
  9
$DIMRND
 40
0.0
  9
$DIMDLE
 40
0.0
  9
$DIMEXE
 40
0.18
  9
$DIMTP
 40
0.0
  9
$DIMTM
 40
0.0
  9
$DIMTXT
 40
0.18
  9
$DIMCEN
 40
0.09
  9
$DIMTSZ
 40
0.0
  9
$DIMTOL
 70
     0
  9
$DIMLIM
 70
     0
  9
$DIMTIH
 70
     1
  9
$DIMTOH
 70
     1
  9
$DIMSE1
 70
     0
  9
$DIMSE2
 70
     0
  9
$DIMTAD
 70
     0
  9
$DIMZIN
 70
     0
  9
$DIMBLK
  1

  9
$DIMASO
 70
     1
  9
$DIMSHO
 70
     0
  9
$DIMPOST
  1

  9
$DIMAPOST
  1

  9
$DIMALT
 70
     0
  9
$DIMALTD
 70
     2
  9
$DIMALTF
 40
25.4
  9
$DIMLFAC
 40
1.0
  9
$DIMTOFL
 70
     0
  9
$DIMTVP
 40
0.0
  9
$DIMTIX
 70
     0
  9
$DIMSOXD
 70
     0
  9
$DIMSAH
 70
     0
  9
$DIMBLK1
  1

  9
$DIMBLK2
  1

  9
$LUNITS
 70
     2
  9
$LUPREC
 70
     4
  9
$AXISMODE
 70
     0
  9
$AXISUNIT
 10
0.0
 20
0.0
  9
$SKETCHINC
 40
0.1
  9
$FILLETRAD
 40
0.0
  9
$AUNITS
 70
     0
  9
$AUPREC
 70
     0
  9
$MENU
  1
acad
  9
$ELEVATION
 40
0.0
  9
$THICKNESS
 40
0.0
  9
$LIMCHECK
 70
     0
  9
$BLIPMODE
 70
     1
  9
$CHAMFERA
 40
0.0
  9
$CHAMFERB
 40
0.0
  9
$SKPOLY
 70
     0
  9
$TDCREATE
 40
2448751.5905787037
  9
$TDUPDATE
 40
2448751.5905787037
  9
$TDINDWG
 40
0.0000000000
  9
$TDUSRTIMER
 40
0.0000000000
  9
$USRTIMER
 70
     1
  9
$ANGBASE
 50
0.0
  9
$ANGDIR
 70
     0
  9
$PDMODE
 70
     0
  9
$PDSIZE
 40
0.0
  9
$PLINEWID
 40
0.0
  9
$COORDS
 70
     0
  9
$SPLFRAME
 70
     0
  9
$SPLINETYPE
 70
     6
  9
$SPLINESEGS
 70
     8
  9
$ATTDIA
 70
     0
  9
$ATTREQ
 70
     1
  9
$HANDLING
 70
     0
  9
$HANDSEED
  5
0
  9
$SURFTAB1
 70
     6
  9
$SURFTAB2
 70
     6
  9
$SURFTYPE
 70
     6
  9
$SURFU
 70
     6
  9
$SURFV
 70
     6
  9
$FLATLAND
 70
     0
  9
$UCSNAME
  2

  9
$UCSORG
 10
0.0
 20
0.0
 30
0.0
  9
$UCSXDIR
 10
1.0
 20
0.0
 30
0.0
  9
$UCSYDIR
 10
0.0
 20
1.0
 30
0.0
  9
$USERI1
 70
     0
  9
$USERI2
 70
     0
  9
$USERI3
 70
     0
  9
$USERI4
 70
     0
  9
$USERI5
 70
     0
  9
$USERR1
 40
0.0
  9
$USERR2
 40
0.0
  9
$USERR3
 40
0.0
  9
$USERR4
 40
0.0
  9
$USERR5
 40
0.0
  9
$WORLDVIEW
 70
     1
  0
ENDSEC
  0
SECTION
  2
TABLES
  0
TABLE
  2
VPORT
 70
     2
  0
VPORT
  2
*ACTIVE
 70
     0
 10
0.0
 20
0.0
 11
1.0
 21
1.0
 12
7.914286
 22
4.5
 13
0.0
 23
0.0
 14
1.0
 24
1.0
 15
0.0
 25
0.0
 16
0.0
 26
0.0
 36
1.0
 17
0.0
 27
0.0
 37
0.0
 40
9.0
 41
1.75873
 42
50.0
 43
0.0
 44
0.0
 50
0.0
 51
0.0
 71
     0
 72
   100
 73
     1
 74
     1
 75
     0
 76
     0
 77
     0
 78
     0
  0
ENDTAB
  0
TABLE
  2
LTYPE
 70
     9
  0
LTYPE
  2
CONTINUOUS
 70
    64
  3
実線
 72
    65
 73
     0
 40
0.0
  0
LTYPE
  2
DASHED
 70
    64
  3
__ __ __ __ __ __ __ __ __ __ __ __ __ __ __
 72
    65
 73
     2
 40
0.75
 49
0.5
 49
-0.25
  0
LTYPE
  2
HIDDEN
 70
    64
  3
_ _ _ _ _ _ _ _ _ _ _ _ _ _ _ _ _ _ _ _ _ _ _
 72
    65
 73
     2
 40
0.375
 49
0.25
 49
-0.125
  0
LTYPE
  2
CENTER
 70
    64
  3
____ _ ____ _ ____ _ ____ _ ____ _ ____ _ ____
 72
    65
 73
     4
 40
2.0
 49
1.25
 49
-0.25
 49
0.25
 49
-0.25
  0
LTYPE
  2
PHANTOM
 70
    64
  3
_____ _ _ _____ _ _ _____ _ _ _____ _ _ ____
 72
    65
 73
     6
 40
2.5
 49
1.25
 49
-0.25
 49
0.25
 49
-0.25
 49
0.25
 49
-0.25
  0
LTYPE
  2
DOT
 70
    64
  3
...............................................
 72
    65
 73
     2
 40
0.25
 49
0.0
 49
-0.25
  0
LTYPE
  2
DASHDOT
 70
    64
  3
__ . __ . __ . __ . __ . __ . __ . __ . __ . __
 72
    65
 73
     4
 40
1.0
 49
0.5
 49
-0.25
 49
0.0
 49
-0.25
  0
LTYPE
  2
DIVIDE
 70
    64
  3
__ . . __ . . __ . . __ . . __ . . __ . . __
 72
    65
 73
     6
 40
1.25
 49
0.5
 49
-0.25
 49
0.0
 49
-0.25
 49
0.0
 49
-0.25
  0
LTYPE
  2
BORDER
 70
    64
  3
__ __ . __ __ . __ __ . __ __ . __ __ . __ __
 72
    65
 73
     6
 40
1.75
 49
0.5
 49
-0.25
 49
0.5
 49
-0.25
 49
0.0
 49
-0.25
  0
ENDTAB
  0
TABLE
  2
LAYER
 70
     2
  0
LAYER
  2
0
 70
     0
 62
     7
  6
CONTINUOUS
  0
LAYER
  2
PV
 70
     0
 62
     7
  6
CONTINUOUS
  0
ENDTAB
  0
TABLE
  2
STYLE
 70
     3
  0
STYLE
  2
STANDARD
 70
     0
 40
0.0
 41
1.0
 50
0.0
 71
     0
 42
0.2
  3
txt
  4

  0
STYLE
  2
FONT1
 70
     0
 40
0.0
 41
1.0
 50
0.0
 71
     0
 42
0.2
  3
MONOTXT
  4

  0
STYLE
  2
FONT2
 70
     0
 40
0.0
 41
1.0
 50
0.0
 71
     0
 42
0.2
  3
MONOTXT
  4
BIGFONT
  0
ENDTAB
  0
TABLE
  2
VIEW
 70
     0
  0
ENDTAB
  0
TABLE
  2
UCS
 70
     0
  0
ENDTAB
  0
TABLE
  2
DWGMGR
 70
     0
  0
ENDTAB
  0
ENDSEC
  0
SECTION
  2
BLOCKS
  0
ENDSEC
  0
SECTION
  2
ENTITIES
  0
LINE
  8
PV
 62
     7
 10
2.322300E+002
 20
3.140690E+002
 30
0.000000E+000
 11
2.150000E+002
 21
3.050000E+002
 31
0.000000E+000
  0
LINE
  8
PV
 62
     7
 10
5.397090E+001
 20
2.528000E+002
 30
0.000000E+000
 11
5.850000E+001
 21
9.700000E+001
 31
0.000000E+000
  0
LINE
  8
PV
 62
     7
 10
1.460290E+002
 20
2.528000E+002
 30
0.000000E+000
 11
1.415000E+002
 21
9.700000E+001
 31
0.000000E+000
  0
LINE
  8
PV
  6
CENTER
 62
     1
 10
1.000000E+002
 20
3.520000E+002
 30
0.000000E+000
 11
1.000000E+002
 21
4.165950E+001
 31
0.000000E+000
  0
ARC
  8
PV
 62
     7
 10
1.155000E+002
 20
9.700000E+001
 30
0.000000E+000
 40
2.600000E+001
 50
2.700000E+002
 51
0.000000E+000
  0
ARC
  8
PV
 62
     7
 10
8.450000E+001
 20
9.700000E+001
 30
0.000000E+000
 40
2.600000E+001
 50
1.800000E+002
 51
2.700000E+002
  0
LINE
  8
PV
 62
     7
 10
1.057500E+002
 20
6.644400E+001
 30
0.000000E+000
 11
1.057500E+002
 21
4.600000E+001
 31
0.000000E+000
  0
LINE
  8
PV
 62
     7
 10
9.425000E+001
 20
6.644400E+001
 30
0.000000E+000
 11
9.425000E+001
 21
4.600000E+001
 31
0.000000E+000
  0
LINE
  8
PV
 62
     7
 10
1.100000E+002
 20
6.307600E+001
 30
0.000000E+000
 11
1.100000E+002
 21
5.818800E+001
 31
0.000000E+000
  0
LINE
  8
PV
 62
     7
 10
9.000000E+001
 20
5.818800E+001
 30
0.000000E+000
 11
9.000000E+001
 21
6.307600E+001
 31
0.000000E+000
  0
LINE
  8
PV
 62
     7
 10
1.057500E+002
 20
5.818800E+001
 30
0.000000E+000
 11
1.100000E+002
 21
5.818800E+001
 31
0.000000E+000
  0
LINE
  8
PV
 62
     7
 10
1.057500E+002
 20
4.600000E+001
 30
0.000000E+000
 11
9.425000E+001
 21
4.600000E+001
 31
0.000000E+000
  0
LINE
  8
PV
 62
     7
 10
9.000000E+001
 20
5.818800E+001
 30
0.000000E+000
 11
9.425000E+001
 21
5.818800E+001
 31
0.000000E+000
  0
LINE
  8
PV
 62
     7
 10
1.155000E+002
 20
7.100000E+001
 30
0.000000E+000
 11
8.450000E+001
 21
7.100000E+001
 31
0.000000E+000
  0
LINE
  8
PV
 62
     7
 10
1.075440E+002
 20
6.644400E+001
 30
0.000000E+000
 11
9.245600E+001
 21
6.644400E+001
 31
0.000000E+000
  0
LINE
  8
PV
 62
     7
 10
1.057500E+002
 20
6.307600E+001
 30
0.000000E+000
 11
1.100000E+002
 21
6.307600E+001
 31
0.000000E+000
  0
ARC
  8
PV
 62
     7
 10
9.259800E+001
 20
6.834200E+001
 30
0.000000E+000
 40
1.897980E+000
 50
9.184180E+001
 51
2.700000E+002
  0
LINE
  8
PV
 62
     7
 10
9.253700E+001
 20
7.100000E+001
 30
0.000000E+000
 11
9.253700E+001
 21
7.023900E+001
 31
0.000000E+000
  0
LINE
  8
PV
 62
     7
 10
9.000000E+001
 20
6.307600E+001
 30
0.000000E+000
 11
9.425000E+001
 21
6.307600E+001
 31
0.000000E+000
  0
ARC
  8
PV
 62
     7
 10
1.074020E+002
 20
6.834200E+001
 30
0.000000E+000
 40
1.897980E+000
 50
2.700000E+002
 51
8.815820E+001
  0
LINE
  8
PV
 62
     7
 10
1.074630E+002
 20
7.100000E+001
 30
0.000000E+000
 11
1.074630E+002
 21
7.023900E+001
 31
0.000000E+000
  0
LINE
  8
PV
 62
     7
 10
4.500000E+001
 20
2.928000E+002
 30
0.000000E+000
 11
4.500000E+001
 21
2.528000E+002
 31
0.000000E+000
  0
LINE
  8
PV
 62
     7
 10
1.550000E+002
 20
2.928000E+002
 30
0.000000E+000
 11
1.550000E+002
 21
2.528000E+002
 31
0.000000E+000
  0
TEXT
  8
PV
 62
     7
 10
1.849000E+002
 20
2.850000E+002
 30
0.000000E+000
 40
4.500000E+000
  1
Rc 1
 41
9.166667E-001
  7
FONT1
  0
LINE
  8
PV
 62
     7
 10
1.550000E+002
 20
2.528000E+002
 30
0.000000E+000
 11
4.500000E+001
 21
2.528000E+002
 31
0.000000E+000
  0
LINE
  8
PV
 62
     7
 10
1.420000E+002
 20
3.470000E+002
 30
0.000000E+000
 11
5.800000E+001
 21
3.470000E+002
 31
0.000000E+000
  0
LINE
  8
PV
 62
     7
 10
4.500000E+001
 20
2.928000E+002
 30
0.000000E+000
 11
1.550000E+002
 21
2.928000E+002
 31
0.000000E+000
  0
LINE
  8
PV
  6
CENTER
 62
     1
 10
5.300000E+001
 20
3.150000E+002
 30
0.000000E+000
 11
1.470000E+002
 21
3.150000E+002
 31
0.000000E+000
  0
LINE
  8
PV
 62
     7
 10
1.052770E+002
 20
3.506400E+002
 30
0.000000E+000
 11
1.347770E+002
 21
3.506400E+002
 31
0.000000E+000
  0
LINE
  8
PV
 62
     7
 10
6.175000E+001
 20
3.630000E+002
 30
0.000000E+000
 11
6.175000E+001
 21
3.470000E+002
 31
0.000000E+000
  0
LINE
  8
PV
 62
     7
 10
8.225000E+001
 20
3.630000E+002
 30
0.000000E+000
 11
8.225000E+001
 21
3.470000E+002
 31
0.000000E+000
  0
LINE
  8
PV
 62
     7
 10
1.297150E+002
 20
3.641270E+002
 30
0.000000E+000
 11
1.300080E+002
 21
3.506400E+002
 31
0.000000E+000
  0
LINE
  8
PV
 62
     7
 10
1.102850E+002
 20
3.641270E+002
 30
0.000000E+000
 11
1.099920E+002
 21
3.506400E+002
 31
0.000000E+000
  0
LINE
  8
PV
 62
     7
 10
7.750000E+001
 20
3.378000E+002
 30
0.000000E+000
 11
1.225000E+002
 21
3.378000E+002
 31
0.000000E+000
  0
LINE
  8
PV
 62
     7
 10
7.750000E+001
 20
3.378000E+002
 30
0.000000E+000
 11
7.750000E+001
 21
2.928000E+002
 31
0.000000E+000
  0
LINE
  8
PV
 62
     7
 10
5.800000E+001
 20
3.470000E+002
 30
0.000000E+000
 11
5.800000E+001
 21
2.928000E+002
 31
0.000000E+000
  0
LINE
  8
PV
 62
     7
 10
1.225000E+002
 20
3.378000E+002
 30
0.000000E+000
 11
1.225000E+002
 21
2.928000E+002
 31
0.000000E+000
  0
CIRCLE
  8
PV
 62
     7
 10
1.000000E+002
 20
3.150000E+002
 30
0.000000E+000
 40
1.205850E+001
  0
LINE
  8
PV
 62
     7
 10
1.052770E+002
 20
3.470000E+002
 30
0.000000E+000
 11
1.052770E+002
 21
3.506400E+002
 31
0.000000E+000
  0
LINE
  8
PV
 62
     7
 10
1.174000E+002
 20
3.506400E+002
 30
0.000000E+000
 11
1.194000E+002
 21
3.506400E+002
 31
0.000000E+000
  0
LINE
  8
PV
 62
     7
 10
8.225000E+001
 20
3.630000E+002
 30
0.000000E+000
 11
6.175000E+001
 21
3.630000E+002
 31
0.000000E+000
  0
LINE
  8
PV
 62
     7
 10
1.263500E+002
 20
3.690000E+002
 30
0.000000E+000
 11
1.136500E+002
 21
3.690000E+002
 31
0.000000E+000
  0
LINE
  8
PV
 62
     7
 10
1.266400E+002
 20
3.665150E+002
 30
0.000000E+000
 11
1.133590E+002
 21
3.665150E+002
 31
0.000000E+000
  0
LINE
  8
PV
 62
     7
 10
1.295200E+002
 20
3.647000E+002
 30
0.000000E+000
 11
1.104800E+002
 21
3.647000E+002
 31
0.000000E+000
  0
LINE
  8
PV
 62
     7
 10
1.130000E+002
 20
3.662080E+002
 30
0.000000E+000
 11
1.107970E+002
 21
3.649790E+002
 31
0.000000E+000
  0
LINE
  8
PV
 62
     7
 10
1.130000E+002
 20
3.662080E+002
 30
0.000000E+000
 11
1.107970E+002
 21
3.649790E+002
 31
0.000000E+000
  0
ARC
  8
PV
 62
     7
 10
1.112840E+002
 20
3.641060E+002
 30
0.000000E+000
 40
1.000000E+000
 50
1.191620E+002
 51
1.787560E+002
  0
ARC
  8
PV
 62
     7
 10
1.125500E+002
 20
3.671020E+002
 30
0.000000E+000
 40
1.000000E+000
 50
2.991620E+002
 51
0.000000E+000
  0
ARC
  8
PV
 62
     7
 10
1.136500E+002
 20
3.689000E+002
 30
0.000000E+000
 40
1.000000E-001
 50
9.000000E+001
 51
1.800000E+002
  0
LINE
  8
PV
 62
     7
 10
1.135500E+002
 20
3.689000E+002
 30
0.000000E+000
 11
1.135500E+002
 21
3.671020E+002
 31
0.000000E+000
  0
LINE
  8
PV
 62
     7
 10
1.269630E+002
 20
3.662290E+002
 30
0.000000E+000
 11
1.292030E+002
 21
3.649790E+002
 31
0.000000E+000
  0
LINE
  8
PV
 62
     7
 10
1.269630E+002
 20
3.662290E+002
 30
0.000000E+000
 11
1.292010E+002
 21
3.649800E+002
 31
0.000000E+000
  0
ARC
  8
PV
 62
     7
 10
1.263500E+002
 20
3.689000E+002
 30
0.000000E+000
 40
1.000000E-001
 50
0.000000E+000
 51
9.000000E+001
  0
LINE
  8
PV
 62
     7
 10
1.264500E+002
 20
3.689000E+002
 30
0.000000E+000
 11
1.264500E+002
 21
3.671020E+002
 31
0.000000E+000
  0
ARC
  8
PV
 62
     7
 10
1.274500E+002
 20
3.671020E+002
 30
0.000000E+000
 40
1.000000E+000
 50
1.800000E+002
 51
2.408380E+002
  0
ARC
  8
PV
 62
     7
 10
1.287150E+002
 20
3.641060E+002
 30
0.000000E+000
 40
1.000000E+000
 50
1.244080E+000
 51
6.083840E+001
  0
LINE
  8
PV
 62
     7
 10
1.420000E+002
 20
3.470000E+002
 30
0.000000E+000
 11
1.420000E+002
 21
2.928000E+002
 31
0.000000E+000
  0
LINE
  8
PV
 62
     7
 10
1.347770E+002
 20
3.470000E+002
 30
0.000000E+000
 11
1.347770E+002
 21
3.506400E+002
 31
0.000000E+000
  0
TEXT
  8
PV
 62
     7
 10
1.849000E+002
 20
2.950000E+002
 30
0.000000E+000
 40
4.500000E+000
  1
Rc 3/4
  7
FONT1
  0
TEXT
  8
PV
 62
     7
 10
2.049000E+002
 20
3.027500E+002
 30
0.000000E+000
 40
4.500000E+000
  1
IN
 41
8.333333E-001
  7
FONT1
  0
LINE
  8
PV
 62
     7
 10
2.150000E+002
 20
3.050000E+002
 30
0.000000E+000
 11
2.130000E+002
 21
3.050000E+002
 31
0.000000E+000
  0
LINE
  8
PV
 62
     7
 10
4.725000E+002
 20
2.288000E+002
 30
0.000000E+000
 11
4.725000E+002
 21
1.120000E+002
 31
0.000000E+000
  0
LINE
  8
PV
 62
     7
 10
4.875000E+002
 20
2.288000E+002
 30
0.000000E+000
 11
4.875000E+002
 21
1.120000E+002
 31
0.000000E+000
  0
LINE
  8
PV
 62
     7
 10
4.670000E+002
 20
9.700000E+001
 30
0.000000E+000
 11
4.670000E+002
 21
2.438000E+002
 31
0.000000E+000
  0
LINE
  8
PV
 62
     7
 10
4.930000E+002
 20
9.700000E+001
 30
0.000000E+000
 11
4.930000E+002
 21
2.438000E+002
 31
0.000000E+000
  0
LINE
  8
PV
  6
CENTER
 62
     1
 10
2.910000E+002
 20
3.680000E+002
 30
0.000000E+000
 11
2.910000E+002
 21
4.165160E+001
 31
0.000000E+000
  0
LINE
  8
PV
 62
     7
 10
3.370290E+002
 20
2.528000E+002
 30
0.000000E+000
 11
3.325000E+002
 21
9.700000E+001
 31
0.000000E+000
  0
LINE
  8
PV
 62
     7
 10
2.449710E+002
 20
2.528000E+002
 30
0.000000E+000
 11
2.495000E+002
 21
9.700000E+001
 31
0.000000E+000
  0
LINE
  8
PV
 62
     7
 10
3.435000E+002
 20
9.700000E+001
 30
0.000000E+000
 11
3.435000E+002
 21
2.438000E+002
 31
0.000000E+000
  0
LINE
  8
PV
 62
     7
 10
3.535000E+002
 20
1.120000E+002
 30
0.000000E+000
 11
3.535000E+002
 21
2.288000E+002
 31
0.000000E+000
  0
LINE
  8
PV
  6
CENTER
 62
     1
 10
4.800000E+002
 20
3.520000E+002
 30
0.000000E+000
 11
4.800000E+002
 21
4.217210E+001
 31
0.000000E+000
  0
LINE
  8
PV
 62
     7
 10
4.339710E+002
 20
2.528000E+002
 30
0.000000E+000
 11
4.385000E+002
 21
9.700000E+001
 31
0.000000E+000
  0
LINE
  8
PV
 62
     7
 10
5.260290E+002
 20
2.528000E+002
 30
0.000000E+000
 11
5.215000E+002
 21
9.700000E+001
 31
0.000000E+000
  0
ARC
  8
PV
 62
     7
 10
3.065000E+002
 20
9.700000E+001
 30
0.000000E+000
 40
2.600000E+001
 50
2.700000E+002
 51
0.000000E+000
  0
LINE
  8
PV
 62
     7
 10
3.032420E+002
 20
6.307600E+001
 30
0.000000E+000
 11
3.194230E+002
 21
6.307600E+001
 31
0.000000E+000
  0
LINE
  8
PV
 62
     7
 10
3.059940E+002
 20
5.818800E+001
 30
0.000000E+000
 11
3.194230E+002
 21
5.818800E+001
 31
0.000000E+000
  0
ARC
  8
PV
 62
     7
 10
2.755000E+002
 20
9.700000E+001
 30
0.000000E+000
 40
2.600000E+001
 50
1.800000E+002
 51
2.700000E+002
  0
LINE
  8
PV
 62
     7
 10
2.834550E+002
 20
5.633800E+001
 30
0.000000E+000
 11
2.834550E+002
 21
6.644400E+001
 31
0.000000E+000
  0
LINE
  8
PV
 62
     7
 10
2.985450E+002
 20
5.633800E+001
 30
0.000000E+000
 11
2.985450E+002
 21
6.644400E+001
 31
0.000000E+000
  0
LINE
  8
PV
 62
     7
 10
2.856210E+002
 20
4.600000E+001
 30
0.000000E+000
 11
2.963790E+002
 21
4.600000E+001
 31
0.000000E+000
  0
LINE
  8
PV
 62
     7
 10
2.856210E+002
 20
5.288800E+001
 30
0.000000E+000
 11
2.856210E+002
 21
4.600000E+001
 31
0.000000E+000
  0
LINE
  8
PV
 62
     7
 10
2.834550E+002
 20
5.633800E+001
 30
0.000000E+000
 11
2.856210E+002
 21
5.288800E+001
 31
0.000000E+000
  0
LINE
  8
PV
 62
     7
 10
3.040020E+002
 20
5.633800E+001
 30
0.000000E+000
 11
3.059940E+002
 21
5.818800E+001
 31
0.000000E+000
  0
LINE
  8
PV
 62
     7
 10
2.963790E+002
 20
5.306700E+001
 30
0.000000E+000
 11
2.963790E+002
 21
4.600000E+001
 31
0.000000E+000
  0
LINE
  8
PV
 62
     7
 10
2.963790E+002
 20
5.306700E+001
 30
0.000000E+000
 11
2.985450E+002
 21
5.633800E+001
 31
0.000000E+000
  0
LINE
  8
PV
 62
     7
 10
3.040020E+002
 20
5.633800E+001
 30
0.000000E+000
 11
2.985450E+002
 21
5.633800E+001
 31
0.000000E+000
  0
LINE
  8
PV
 62
     7
 10
2.755000E+002
 20
7.100000E+001
 30
0.000000E+000
 11
3.065000E+002
 21
7.100000E+001
 31
0.000000E+000
  0
CIRCLE
  8
PV
 62
     7
 10
2.835980E+002
 20
6.834200E+001
 30
0.000000E+000
 40
1.897980E+000
  0
LINE
  8
PV
 62
     7
 10
2.854950E+002
 20
7.024000E+001
 30
0.000000E+000
 11
2.830280E+002
 21
7.024000E+001
 31
0.000000E+000
  0
LINE
  8
PV
 62
     7
 10
2.854950E+002
 20
7.024000E+001
 30
0.000000E+000
 11
2.830760E+002
 21
7.024000E+001
 31
0.000000E+000
  0
LINE
  8
PV
 62
     7
 10
2.830280E+002
 20
7.024000E+001
 30
0.000000E+000
 11
2.830280E+002
 21
7.100000E+001
 31
0.000000E+000
  0
LINE
  8
PV
 62
     7
 10
2.854950E+002
 20
6.644400E+001
 30
0.000000E+000
 11
2.834550E+002
 21
6.644400E+001
 31
0.000000E+000
  0
LINE
  8
PV
 62
     7
 10
2.854950E+002
 20
6.644400E+001
 30
0.000000E+000
 11
2.854950E+002
 21
7.024000E+001
 31
0.000000E+000
  0
LINE
  8
PV
 62
     7
 10
3.040020E+002
 20
6.435700E+001
 30
0.000000E+000
 11
3.058640E+002
 21
6.307600E+001
 31
0.000000E+000
  0
LINE
  8
PV
 62
     7
 10
2.989720E+002
 20
7.024000E+001
 30
0.000000E+000
 11
2.989720E+002
 21
7.100000E+001
 31
0.000000E+000
  0
LINE
  8
PV
 62
     7
 10
2.965050E+002
 20
7.024000E+001
 30
0.000000E+000
 11
2.989240E+002
 21
7.024000E+001
 31
0.000000E+000
  0
LINE
  8
PV
 62
     7
 10
2.965050E+002
 20
7.024000E+001
 30
0.000000E+000
 11
2.989720E+002
 21
7.024000E+001
 31
0.000000E+000
  0
LINE
  8
PV
 62
     7
 10
2.965050E+002
 20
6.644400E+001
 30
0.000000E+000
 11
2.985450E+002
 21
6.644400E+001
 31
0.000000E+000
  0
CIRCLE
  8
PV
 62
     7
 10
2.984020E+002
 20
6.834200E+001
 30
0.000000E+000
 40
1.897980E+000
  0
LINE
  8
PV
 62
     7
 10
2.965050E+002
 20
6.644400E+001
 30
0.000000E+000
 11
2.965050E+002
 21
7.024000E+001
 31
0.000000E+000
  0
LINE
  8
PV
 62
     7
 10
3.017240E+002
 20
6.165200E+001
 30
0.000000E+000
 11
3.032420E+002
 21
6.307600E+001
 31
0.000000E+000
  0
LINE
  8
PV
 62
     7
 10
3.040020E+002
 20
6.435700E+001
 30
0.000000E+000
 11
2.985450E+002
 21
6.435700E+001
 31
0.000000E+000
  0
LINE
  8
PV
 62
     7
 10
2.985450E+002
 20
6.165200E+001
 30
0.000000E+000
 11
3.017240E+002
 21
6.165200E+001
 31
0.000000E+000
  0
LINE
  8
PV
 62
     7
 10
3.194230E+002
 20
5.818800E+001
 30
0.000000E+000
 11
3.194230E+002
 21
6.307600E+001
 31
0.000000E+000
  0
LINE
  8
PV
 62
     7
 10
3.475000E+002
 20
9.700000E+001
 30
0.000000E+000
 11
3.325000E+002
 21
9.700000E+001
 31
0.000000E+000
  0
LINE
  8
PV
 62
     7
 10
3.475000E+002
 20
9.700000E+001
 30
0.000000E+000
 11
3.475000E+002
 21
1.120000E+002
 31
0.000000E+000
  0
LINE
  8
PV
 62
     7
 10
3.535000E+002
 20
1.120000E+002
 30
0.000000E+000
 11
3.435000E+002
 21
1.120000E+002
 31
0.000000E+000
  0
ARC
  8
PV
 62
     7
 10
4.955000E+002
 20
9.700000E+001
 30
0.000000E+000
 40
2.600000E+001
 50
2.700000E+002
 51
0.000000E+000
  0
ARC
  8
PV
 62
     7
 10
4.645000E+002
 20
9.700000E+001
 30
0.000000E+000
 40
2.600000E+001
 50
1.800000E+002
 51
2.700000E+002
  0
LINE
  8
PV
 62
     7
 10
4.900000E+002
 20
6.307600E+001
 30
0.000000E+000
 11
4.900000E+002
 21
5.818800E+001
 31
0.000000E+000
  0
LINE
  8
PV
 62
     7
 10
4.700000E+002
 20
5.818800E+001
 30
0.000000E+000
 11
4.700000E+002
 21
6.307600E+001
 31
0.000000E+000
  0
LINE
  8
PV
 62
     7
 10
4.857500E+002
 20
4.600000E+001
 30
0.000000E+000
 11
4.742500E+002
 21
4.600000E+001
 31
0.000000E+000
  0
LINE
  8
PV
 62
     7
 10
4.900000E+002
 20
5.818800E+001
 30
0.000000E+000
 11
4.700000E+002
 21
5.818800E+001
 31
0.000000E+000
  0
LINE
  8
PV
 62
     7
 10
4.742500E+002
 20
5.818800E+001
 30
0.000000E+000
 11
4.742500E+002
 21
4.600000E+001
 31
0.000000E+000
  0
LINE
  8
PV
 62
     7
 10
4.857500E+002
 20
5.818800E+001
 30
0.000000E+000
 11
4.857500E+002
 21
4.600000E+001
 31
0.000000E+000
  0
LINE
  8
PV
 62
     7
 10
4.645000E+002
 20
7.100000E+001
 30
0.000000E+000
 11
4.955000E+002
 21
7.100000E+001
 31
0.000000E+000
  0
LINE
  8
PV
 62
     7
 10
4.875440E+002
 20
6.644400E+001
 30
0.000000E+000
 11
4.724560E+002
 21
6.644400E+001
 31
0.000000E+000
  0
LINE
  8
PV
 62
     7
 10
4.700000E+002
 20
6.307600E+001
 30
0.000000E+000
 11
4.900000E+002
 21
6.307600E+001
 31
0.000000E+000
  0
LINE
  8
PV
 62
     7
 10
4.742500E+002
 20
6.644400E+001
 30
0.000000E+000
 11
4.742500E+002
 21
6.307600E+001
 31
0.000000E+000
  0
ARC
  8
PV
 62
     7
 10
4.725980E+002
 20
6.834200E+001
 30
0.000000E+000
 40
1.897980E+000
 50
9.184180E+001
 51
2.700000E+002
  0
LINE
  8
PV
 62
     7
 10
4.725370E+002
 20
7.100000E+001
 30
0.000000E+000
 11
4.725370E+002
 21
7.023900E+001
 31
0.000000E+000
  0
LINE
  8
PV
 62
     7
 10
4.857500E+002
 20
6.644400E+001
 30
0.000000E+000
 11
4.857500E+002
 21
6.307600E+001
 31
0.000000E+000
  0
LINE
  8
PV
 62
     7
 10
4.874630E+002
 20
7.100000E+001
 30
0.000000E+000
 11
4.874630E+002
 21
7.023900E+001
 31
0.000000E+000
  0
ARC
  8
PV
 62
     7
 10
4.874020E+002
 20
6.834200E+001
 30
0.000000E+000
 40
1.897980E+000
 50
2.700000E+002
 51
8.815820E+001
  0
LINE
  8
PV
 62
     7
 10
4.930000E+002
 20
9.700000E+001
 30
0.000000E+000
 11
4.670000E+002
 21
9.700000E+001
 31
0.000000E+000
  0
LINE
  8
PV
 62
     7
 10
4.875000E+002
 20
1.120000E+002
 30
0.000000E+000
 11
4.725000E+002
 21
1.120000E+002
 31
0.000000E+000
  0
LINE
  8
PV
 62
     7
 10
4.670000E+002
 20
1.050000E+002
 30
0.000000E+000
 11
4.725000E+002
 21
1.120000E+002
 31
0.000000E+000
  0
LINE
  8
PV
 62
     7
 10
4.930000E+002
 20
1.050000E+002
 30
0.000000E+000
 11
4.875000E+002
 21
1.120000E+002
 31
0.000000E+000
  0
LINE
  8
PV
 62
     7
 10
2.360000E+002
 20
2.928000E+002
 30
0.000000E+000
 11
2.360000E+002
 21
2.528000E+002
 31
0.000000E+000
  0
LINE
  8
PV
 62
     7
 10
3.460000E+002
 20
2.928000E+002
 30
0.000000E+000
 11
3.460000E+002
 21
2.528000E+002
 31
0.000000E+000
  0
LINE
  8
PV
 62
     7
 10
2.360000E+002
 20
2.528000E+002
 30
0.000000E+000
 11
3.460000E+002
 21
2.528000E+002
 31
0.000000E+000
  0
LINE
  8
PV
 62
     7
 10
3.367670E+002
 20
2.438000E+002
 30
0.000000E+000
 11
3.475000E+002
 21
2.438000E+002
 31
0.000000E+000
  0
LINE
  8
PV
 62
     7
 10
3.475000E+002
 20
2.288000E+002
 30
0.000000E+000
 11
3.475000E+002
 21
2.438000E+002
 31
0.000000E+000
  0
LINE
  8
PV
 62
     7
 10
3.435000E+002
 20
2.288000E+002
 30
0.000000E+000
 11
3.535000E+002
 21
2.288000E+002
 31
0.000000E+000
  0
LINE
  8
PV
 62
     7
 10
2.490000E+002
 20
3.470000E+002
 30
0.000000E+000
 11
3.330000E+002
 21
3.470000E+002
 31
0.000000E+000
  0
LINE
  8
PV
 62
     7
 10
3.480000E+002
 20
2.928000E+002
 30
0.000000E+000
 11
2.340000E+002
 21
2.928000E+002
 31
0.000000E+000
  0
LINE
  8
PV
  6
CENTER
 62
     1
 10
2.290000E+002
 20
3.150000E+002
 30
0.000000E+000
 11
3.530000E+002
 21
3.150000E+002
 31
0.000000E+000
  0
LINE
  8
PV
 62
     7
 10
2.920830E+002
 20
3.166810E+002
 30
0.000000E+000
 11
3.200000E+002
 21
3.600000E+002
 31
0.000000E+000
  0
LINE
  8
PV
 62
     7
 10
3.012500E+002
 20
3.630000E+002
 30
0.000000E+000
 11
3.012500E+002
 21
3.470000E+002
 31
0.000000E+000
  0
LINE
  8
PV
 62
     7
 10
2.847150E+002
 20
3.641270E+002
 30
0.000000E+000
 11
2.850080E+002
 21
3.506400E+002
 31
0.000000E+000
  0
LINE
  8
PV
 62
     7
 10
2.652850E+002
 20
3.641270E+002
 30
0.000000E+000
 11
2.649920E+002
 21
3.506400E+002
 31
0.000000E+000
  0
LINE
  8
PV
 62
     7
 10
2.602770E+002
 20
3.506400E+002
 30
0.000000E+000
 11
2.897770E+002
 21
3.506400E+002
 31
0.000000E+000
  0
LINE
  8
PV
 62
     7
 10
2.340000E+002
 20
3.378000E+002
 30
0.000000E+000
 11
2.340000E+002
 21
2.925000E+002
 31
0.000000E+000
  0
LINE
  8
PV
 62
     7
 10
2.555350E+002
 20
3.378000E+002
 30
0.000000E+000
 11
2.555350E+002
 21
2.928000E+002
 31
0.000000E+000
  0
POLYLINE
  8
PV
 62
     7
 66
     1
 10
0.0
 20
0.0
 30
0.0
  0
VERTEX
  8
PV
 62
     7
 10
2.320750E+002
 20
3.143630E+002
 30
0.000000E+000
  0
VERTEX
  8
PV
 62
     7
 10
2.323850E+002
 20
3.137740E+002
 30
0.000000E+000
  0
VERTEX
  8
PV
 62
     7
 10
2.340000E+002
 20
3.150000E+002
 30
0.000000E+000
  0
VERTEX
  8
PV
 62
     7
 10
2.320750E+002
 20
3.143630E+002
 30
0.000000E+000
  0
SEQEND
  8
PV
 62
     7
  0
LINE
  8
PV
 62
     7
 10
2.555350E+002
 20
3.378000E+002
 30
0.000000E+000
 11
2.340000E+002
 21
3.378000E+002
 31
0.000000E+000
  0
LINE
  8
PV
 62
     7
 10
2.490000E+002
 20
3.470000E+002
 30
0.000000E+000
 11
2.490000E+002
 21
3.378000E+002
 31
0.000000E+000
  0
LINE
  8
PV
 62
     7
 10
2.602770E+002
 20
3.470000E+002
 30
0.000000E+000
 11
2.602770E+002
 21
3.506400E+002
 31
0.000000E+000
  0
POLYLINE
  8
PV
 62
     7
 66
     1
 10
0.0
 20
0.0
 30
0.0
  0
VERTEX
  8
PV
 62
     7
 10
2.923640E+002
 20
3.165010E+002
 30
0.000000E+000
  0
VERTEX
  8
PV
 62
     7
 10
2.918030E+002
 20
3.168620E+002
 30
0.000000E+000
  0
VERTEX
  8
PV
 62
     7
 10
2.910000E+002
 20
3.150000E+002
 30
0.000000E+000
  0
VERTEX
  8
PV
 62
     7
 10
2.923640E+002
 20
3.165010E+002
 30
0.000000E+000
  0
SEQEND
  8
PV
 62
     7
  0
LINE
  8
PV
 62
     7
 10
2.724000E+002
 20
3.506400E+002
 30
0.000000E+000
 11
2.744000E+002
 21
3.506400E+002
 31
0.000000E+000
  0
LINE
  8
PV
 62
     7
 10
2.897770E+002
 20
3.470000E+002
 30
0.000000E+000
 11
2.897770E+002
 21
3.506400E+002
 31
0.000000E+000
  0
LINE
  8
PV
 62
     7
 10
2.813500E+002
 20
3.690000E+002
 30
0.000000E+000
 11
2.686500E+002
 21
3.690000E+002
 31
0.000000E+000
  0
LINE
  8
PV
 62
     7
 10
2.816400E+002
 20
3.665150E+002
 30
0.000000E+000
 11
2.683590E+002
 21
3.665150E+002
 31
0.000000E+000
  0
LINE
  8
PV
 62
     7
 10
2.845200E+002
 20
3.647000E+002
 30
0.000000E+000
 11
2.654800E+002
 21
3.647000E+002
 31
0.000000E+000
  0
LINE
  8
PV
 62
     7
 10
2.680000E+002
 20
3.662080E+002
 30
0.000000E+000
 11
2.657970E+002
 21
3.649790E+002
 31
0.000000E+000
  0
LINE
  8
PV
 62
     7
 10
2.680000E+002
 20
3.662080E+002
 30
0.000000E+000
 11
2.657970E+002
 21
3.649790E+002
 31
0.000000E+000
  0
ARC
  8
PV
 62
     7
 10
2.662840E+002
 20
3.641060E+002
 30
0.000000E+000
 40
1.000000E+000
 50
1.191620E+002
 51
1.787560E+002
  0
ARC
  8
PV
 62
     7
 10
2.675500E+002
 20
3.671020E+002
 30
0.000000E+000
 40
1.000000E+000
 50
2.991620E+002
 51
0.000000E+000
  0
ARC
  8
PV
 62
     7
 10
2.686500E+002
 20
3.689000E+002
 30
0.000000E+000
 40
1.000000E-001
 50
9.000000E+001
 51
1.800000E+002
  0
LINE
  8
PV
 62
     7
 10
2.685500E+002
 20
3.689000E+002
 30
0.000000E+000
 11
2.685500E+002
 21
3.671020E+002
 31
0.000000E+000
  0
LINE
  8
PV
 62
     7
 10
3.012500E+002
 20
3.630000E+002
 30
0.000000E+000
 11
2.847390E+002
 21
3.630000E+002
 31
0.000000E+000
  0
LINE
  8
PV
 62
     7
 10
2.819630E+002
 20
3.662290E+002
 30
0.000000E+000
 11
2.842030E+002
 21
3.649790E+002
 31
0.000000E+000
  0
LINE
  8
PV
 62
     7
 10
2.819630E+002
 20
3.662290E+002
 30
0.000000E+000
 11
2.842010E+002
 21
3.649800E+002
 31
0.000000E+000
  0
ARC
  8
PV
 62
     7
 10
2.813500E+002
 20
3.689000E+002
 30
0.000000E+000
 40
1.000000E-001
 50
0.000000E+000
 51
9.000000E+001
  0
LINE
  8
PV
 62
     7
 10
2.814500E+002
 20
3.689000E+002
 30
0.000000E+000
 11
2.814500E+002
 21
3.671020E+002
 31
0.000000E+000
  0
ARC
  8
PV
 62
     7
 10
2.824500E+002
 20
3.671020E+002
 30
0.000000E+000
 40
1.000000E+000
 50
1.800000E+002
 51
2.408380E+002
  0
ARC
  8
PV
 62
     7
 10
2.837150E+002
 20
3.641060E+002
 30
0.000000E+000
 40
1.000000E+000
 50
1.244080E+000
 51
6.083840E+001
  0
LINE
  8
PV
 62
     7
 10
3.480000E+002
 20
3.378000E+002
 30
0.000000E+000
 11
3.480000E+002
 21
2.925000E+002
 31
0.000000E+000
  0
LINE
  8
PV
 62
     7
 10
3.264650E+002
 20
3.378000E+002
 30
0.000000E+000
 11
3.264650E+002
 21
2.928000E+002
 31
0.000000E+000
  0
LINE
  8
PV
 62
     7
 10
3.264650E+002
 20
3.378000E+002
 30
0.000000E+000
 11
3.480000E+002
 21
3.378000E+002
 31
0.000000E+000
  0
LINE
  8
PV
 62
     7
 10
3.330000E+002
 20
3.470000E+002
 30
0.000000E+000
 11
3.330000E+002
 21
3.378000E+002
 31
0.000000E+000
  0
TEXT
  8
PV
 62
     7
 10
3.239000E+002
 20
3.577500E+002
 30
0.000000E+000
 40
4.500000E+000
  1
P.P
 41
7.780000E-001
  7
FONT1
  0
LINE
  8
PV
 62
     7
 10
3.200000E+002
 20
3.600000E+002
 30
0.000000E+000
 11
3.220000E+002
 21
3.600000E+002
 31
0.000000E+000
  0
LINE
  8
PV
 62
     7
 10
4.250000E+002
 20
2.928000E+002
 30
0.000000E+000
 11
4.250000E+002
 21
2.528000E+002
 31
0.000000E+000
  0
LINE
  8
PV
 62
     7
 10
5.350000E+002
 20
2.928000E+002
 30
0.000000E+000
 11
5.350000E+002
 21
2.528000E+002
 31
0.000000E+000
  0
LINE
  8
PV
 62
     7
 10
4.250000E+002
 20
2.528000E+002
 30
0.000000E+000
 11
5.350000E+002
 21
2.528000E+002
 31
0.000000E+000
  0
LINE
  8
PV
 62
     7
 10
4.930000E+002
 20
2.438000E+002
 30
0.000000E+000
 11
4.670000E+002
 21
2.438000E+002
 31
0.000000E+000
  0
LINE
  8
PV
 62
     7
 10
4.725000E+002
 20
2.288000E+002
 30
0.000000E+000
 11
4.875000E+002
 21
2.288000E+002
 31
0.000000E+000
  0
LINE
  8
PV
 62
     7
 10
4.670000E+002
 20
2.358000E+002
 30
0.000000E+000
 11
4.725000E+002
 21
2.288000E+002
 31
0.000000E+000
  0
LINE
  8
PV
 62
     7
 10
4.930000E+002
 20
2.358000E+002
 30
0.000000E+000
 11
4.875000E+002
 21
2.288000E+002
 31
0.000000E+000
  0
LINE
  8
PV
  6
CENTER
 62
     1
 10
5.270000E+002
 20
3.150000E+002
 30
0.000000E+000
 11
4.330000E+002
 21
3.150000E+002
 31
0.000000E+000
  0
LINE
  8
PV
 62
     7
 10
5.350000E+002
 20
2.928000E+002
 30
0.000000E+000
 11
4.250000E+002
 21
2.928000E+002
 31
0.000000E+000
  0
LINE
  8
PV
 62
     7
 10
4.380000E+002
 20
3.470000E+002
 30
0.000000E+000
 11
5.220000E+002
 21
3.470000E+002
 31
0.000000E+000
  0
LINE
  8
PV
 62
     7
 10
5.025000E+002
 20
3.378000E+002
 30
0.000000E+000
 11
4.575000E+002
 21
3.378000E+002
 31
0.000000E+000
  0
LINE
  8
PV
 62
     7
 10
4.977500E+002
 20
3.630000E+002
 30
0.000000E+000
 11
5.182500E+002
 21
3.630000E+002
 31
0.000000E+000
  0
TEXT
  8
PV
 62
     7
 10
4.939000E+002
 20
3.727500E+002
 30
0.000000E+000
 40
4.500000E+000
  1
P.P
 41
7.780000E-001
  7
FONT1
  0
LINE
  8
PV
 62
     7
 10
4.977500E+002
 20
3.630000E+002
 30
0.000000E+000
 11
4.977500E+002
 21
3.470000E+002
 31
0.000000E+000
  0
LINE
  8
PV
 62
     7
 10
4.803290E+002
 20
3.169730E+002
 30
0.000000E+000
 11
4.900000E+002
 21
3.750000E+002
 31
0.000000E+000
  0
LINE
  8
PV
 62
     7
 10
4.380000E+002
 20
3.470000E+002
 30
0.000000E+000
 11
4.380000E+002
 21
2.928000E+002
 31
0.000000E+000
  0
LINE
  8
PV
 62
     7
 10
4.575000E+002
 20
3.378000E+002
 30
0.000000E+000
 11
4.575000E+002
 21
2.928000E+002
 31
0.000000E+000
  0
CIRCLE
  8
PV
 62
     7
 10
4.800000E+002
 20
3.150000E+002
 30
0.000000E+000
 40
1.205850E+001
  0
POLYLINE
  8
PV
 62
     7
 66
     1
 10
0.0
 20
0.0
 30
0.0
  0
VERTEX
  8
PV
 62
     7
 10
4.806580E+002
 20
3.169180E+002
 30
0.000000E+000
  0
VERTEX
  8
PV
 62
     7
 10
4.800000E+002
 20
3.170280E+002
 30
0.000000E+000
  0
VERTEX
  8
PV
 62
     7
 10
4.800000E+002
 20
3.150000E+002
 30
0.000000E+000
  0
VERTEX
  8
PV
 62
     7
 10
4.806580E+002
 20
3.169180E+002
 30
0.000000E+000
  0
SEQEND
  8
PV
 62
     7
  0
LINE
  8
PV
 62
     7
 10
4.900000E+002
 20
3.750000E+002
 30
0.000000E+000
 11
4.920000E+002
 21
3.750000E+002
 31
0.000000E+000
  0
LINE
  8
PV
 62
     7
 10
5.182500E+002
 20
3.630000E+002
 30
0.000000E+000
 11
5.182500E+002
 21
3.470000E+002
 31
0.000000E+000
  0
LINE
  8
PV
 62
     7
 10
5.220000E+002
 20
3.470000E+002
 30
0.000000E+000
 11
5.220000E+002
 21
2.928000E+002
 31
0.000000E+000
  0
LINE
  8
PV
 62
     7
 10
5.025000E+002
 20
3.378000E+002
 30
0.000000E+000
 11
5.025000E+002
 21
2.928000E+002
 31
0.000000E+000
  0
TEXT
  8
PV
 62
     7
 10
5.990002E+001
 20
5.700000E+002
 30
0.000000E+000
 40
4.500000E+000
  1
MODEL No. : L17- 00-MPDB
 41
9.167222E-001
  7
FONT1
  0
TEXT
  8
PV
 62
     7
 10
1.239000E+002
 20
5.670000E+002
 30
0.000000E+000
 40
4.500000E+000
  1
8
  7
FONT1
  0
TEXT
  8
PV
 62
     7
 10
1.239000E+002
 20
5.730000E+002
 30
0.000000E+000
 40
4.500000E+000
  1
6
  7
FONT1
  0
LINE
  8
PV
  6
CENTER
 62
     1
 10
2.910000E+002
 20
5.650000E+002
 30
0.000000E+000
 11
2.910000E+002
 21
4.450000E+002
 31
0.000000E+000
  0
ARC
  8
PV
 62
     7
 10
2.910000E+002
 20
5.050000E+002
 30
0.000000E+000
 40
5.500000E+001
 50
2.414770E+001
 51
1.558520E+002
  0
CIRCLE
  8
PV
 62
     7
 10
2.910000E+002
 20
5.050000E+002
 30
0.000000E+000
 40
4.200000E+001
  0
LINE
  8
PV
  6
CENTER
 62
     1
 10
2.290000E+002
 20
5.050000E+002
 30
0.000000E+000
 11
3.530000E+002
 21
5.050000E+002
 31
0.000000E+000
  0
ARC
  8
PV
 62
     7
 10
2.910000E+002
 20
5.050000E+002
 30
0.000000E+000
 40
5.500000E+001
 50
2.041480E+002
 51
3.358520E+002
  0
LINE
  8
PV
 62
     7
 10
2.340000E+002
 20
5.275000E+002
 30
0.000000E+000
 11
2.340000E+002
 21
4.825000E+002
 31
0.000000E+000
  0
CIRCLE
  8
PV
 62
     7
 10
2.750000E+002
 20
4.850000E+002
 30
0.000000E+000
 40
1.475000E+001
  0
CIRCLE
  8
PV
 62
     7
 10
2.750000E+002
 20
4.850000E+002
 30
0.000000E+000
 40
1.000800E+001
  0
CIRCLE
  8
PV
 62
     7
 10
2.750000E+002
 20
4.850000E+002
 30
0.000000E+000
 40
3.962400E+000
  0
LINE
  8
PV
 62
     7
 10
2.340000E+002
 20
4.825000E+002
 30
0.000000E+000
 11
2.555350E+002
 21
4.825000E+002
 31
0.000000E+000
  0
LINE
  8
PV
 62
     7
 10
2.340000E+002
 20
5.275000E+002
 30
0.000000E+000
 11
2.555350E+002
 21
5.275000E+002
 31
0.000000E+000
  0
LINE
  8
PV
 62
     7
 10
2.923380E+002
 20
5.035130E+002
 30
0.000000E+000
 11
3.000000E+002
 21
4.950000E+002
 31
0.000000E+000
  0
POLYLINE
  8
PV
 62
     7
 66
     1
 10
0.0
 20
0.0
 30
0.0
  0
VERTEX
  8
PV
 62
     7
 10
2.920900E+002
 20
5.032900E+002
 30
0.000000E+000
  0
VERTEX
  8
PV
 62
     7
 10
2.925860E+002
 20
5.037360E+002
 30
0.000000E+000
  0
VERTEX
  8
PV
 62
     7
 10
2.910000E+002
 20
5.050000E+002
 30
0.000000E+000
  0
VERTEX
  8
PV
 62
     7
 10
2.920900E+002
 20
5.032900E+002
 30
0.000000E+000
  0
SEQEND
  8
PV
 62
     7
  0
TEXT
  8
PV
 62
     7
 10
3.039000E+002
 20
4.927500E+002
 30
0.000000E+000
 40
4.500000E+000
  1
P.P
 41
7.780000E-001
  7
FONT1
  0
LINE
  8
PV
 62
     7
 10
3.000000E+002
 20
4.950000E+002
 30
0.000000E+000
 11
3.020000E+002
 21
4.950000E+002
 31
0.000000E+000
  0
CIRCLE
  8
PV
 62
     7
 10
2.910000E+002
 20
5.330000E+002
 30
0.000000E+000
 40
1.025000E+001
  0
LINE
  8
PV
 62
     7
 10
3.480000E+002
 20
5.275000E+002
 30
0.000000E+000
 11
3.480000E+002
 21
4.825000E+002
 31
0.000000E+000
  0
LINE
  8
PV
 62
     7
 10
3.480000E+002
 20
4.825000E+002
 30
0.000000E+000
 11
3.264650E+002
 21
4.825000E+002
 31
0.000000E+000
  0
LINE
  8
PV
 62
     7
 10
3.480000E+002
 20
5.275000E+002
 30
0.000000E+000
 11
3.264650E+002
 21
5.275000E+002
 31
0.000000E+000
  0
LINE
  8
PV
 62
     7
 10
7.770000E+002
 20
4.076000E+002
 30
0.000000E+000
 11
7.770000E+002
 21
4.836000E+002
 31
0.000000E+000
  0
LINE
  8
PV
 62
     7
 10
8.020000E+002
 20
4.076000E+002
 30
0.000000E+000
 11
8.020000E+002
 21
4.836000E+002
 31
0.000000E+000
  0
LINE
  8
PV
  6
CENTER
 62
     1
 10
7.895000E+002
 20
4.141000E+002
 30
0.000000E+000
 11
7.895000E+002
 21
4.351000E+002
 31
0.000000E+000
  0
CIRCLE
  8
PV
 62
     7
 10
7.895000E+002
 20
4.246000E+002
 30
0.000000E+000
 40
4.300000E+000
  0
CIRCLE
  8
PV
 62
     7
 10
6.395000E+002
 20
4.246000E+002
 30
0.000000E+000
 40
4.300000E+000
  0
LINE
  8
PV
  6
CENTER
 62
     1
 10
6.395000E+002
 20
4.141000E+002
 30
0.000000E+000
 11
6.395000E+002
 21
4.351000E+002
 31
0.000000E+000
  0
LINE
  8
PV
 62
     7
 10
6.520000E+002
 20
4.076000E+002
 30
0.000000E+000
 11
6.520000E+002
 21
4.836000E+002
 31
0.000000E+000
  0
LINE
  8
PV
 62
     7
 10
6.270000E+002
 20
4.076000E+002
 30
0.000000E+000
 11
6.270000E+002
 21
4.836000E+002
 31
0.000000E+000
  0
LINE
  8
PV
 62
     7
 10
9.910000E+002
 20
4.836000E+002
 30
0.000000E+000
 11
9.910000E+002
 21
4.076000E+002
 31
0.000000E+000
  0
LINE
  8
PV
 62
     7
 10
9.860000E+002
 20
4.786000E+002
 30
0.000000E+000
 11
9.860000E+002
 21
4.076000E+002
 31
0.000000E+000
  0
LINE
  8
PV
  6
CENTER
 62
     1
 10
6.000000E+002
 20
7.200000E+002
 30
0.000000E+000
 11
6.000000E+002
 21
4.500000E+001
 31
0.000000E+000
  0
LINE
  8
PV
  6
CENTER
 62
     1
 10
6.000000E+002
 20
3.850000E+002
 30
0.000000E+000
 11
1.010000E+003
 21
3.850000E+002
 31
0.000000E+000
  0
LINE
  8
PV
 62
     7
 10
8.610000E+002
 20
1.420000E+002
 30
0.000000E+000
 11
9.860000E+002
 21
1.420000E+002
 31
0.000000E+000
  0
LINE
  8
PV
 62
     7
 10
8.610000E+002
 20
1.470000E+002
 30
0.000000E+000
 11
9.910000E+002
 21
1.470000E+002
 31
0.000000E+000
  0
LINE
  8
PV
 62
     7
 10
9.280000E+002
 20
1.730000E+002
 30
0.000000E+000
 11
9.280000E+002
 21
1.560000E+002
 31
0.000000E+000
  0
LINE
  8
PV
 62
     7
 10
9.350000E+002
 20
1.730000E+002
 30
0.000000E+000
 11
9.350000E+002
 21
1.560000E+002
 31
0.000000E+000
  0
LINE
  8
PV
 62
     7
 10
8.850000E+002
 20
1.730000E+002
 30
0.000000E+000
 11
8.850000E+002
 21
1.560000E+002
 31
0.000000E+000
  0
LINE
  8
PV
 62
     7
 10
8.920000E+002
 20
1.730000E+002
 30
0.000000E+000
 11
8.920000E+002
 21
1.560000E+002
 31
0.000000E+000
  0
LINE
  8
PV
 62
     7
 10
9.103580E+002
 20
1.269680E+002
 30
0.000000E+000
 11
9.200000E+002
 21
1.800000E+002
 31
0.000000E+000
  0
LINE
  8
PV
 62
     7
 10
7.930000E+002
 20
1.730000E+002
 30
0.000000E+000
 11
7.930000E+002
 21
1.560000E+002
 31
0.000000E+000
  0
LINE
  8
PV
 62
     7
 10
7.860000E+002
 20
1.730000E+002
 30
0.000000E+000
 11
7.860000E+002
 21
1.560000E+002
 31
0.000000E+000
  0
LINE
  8
PV
 62
     7
 10
6.360000E+002
 20
1.730000E+002
 30
0.000000E+000
 11
6.360000E+002
 21
1.560000E+002
 31
0.000000E+000
  0
LINE
  8
PV
 62
     7
 10
6.430000E+002
 20
1.730000E+002
 30
0.000000E+000
 11
6.430000E+002
 21
1.560000E+002
 31
0.000000E+000
  0
LINE
  8
PV
 62
     7
 10
7.152230E+002
 20
1.268650E+002
 30
0.000000E+000
 11
7.300000E+002
 21
1.650000E+002
 31
0.000000E+000
  0
LINE
  8
PV
  6
CENTER
 62
     1
 10
8.000000E+002
 20
1.310000E+002
 30
0.000000E+000
 11
7.790000E+002
 21
1.310000E+002
 31
0.000000E+000
  0
LINE
  8
PV
  6
CENTER
 62
     1
 10
8.000000E+002
 20
8.800000E+001
 30
0.000000E+000
 11
7.790000E+002
 21
8.800000E+001
 31
0.000000E+000
  0
LINE
  8
PV
 62
     7
 10
7.770000E+002
 20
7.100000E+001
 30
0.000000E+000
 11
8.020000E+002
 21
7.100000E+001
 31
0.000000E+000
  0
LINE
  8
PV
 62
     7
 10
7.770000E+002
 20
1.470000E+002
 30
0.000000E+000
 11
8.020000E+002
 21
1.470000E+002
 31
0.000000E+000
  0
LINE
  8
PV
 62
     7
 10
7.770000E+002
 20
1.420000E+002
 30
0.000000E+000
 11
8.020000E+002
 21
1.420000E+002
 31
0.000000E+000
  0
LINE
  8
PV
 62
     7
 10
6.270000E+002
 20
7.100000E+001
 30
0.000000E+000
 11
6.270000E+002
 21
1.470000E+002
 31
0.000000E+000
  0
LINE
  8
PV
 62
     7
 10
6.520000E+002
 20
7.100000E+001
 30
0.000000E+000
 11
6.520000E+002
 21
1.470000E+002
 31
0.000000E+000
  0
LINE
  8
PV
  6
CENTER
 62
     1
 10
6.395000E+002
 20
7.750000E+001
 30
0.000000E+000
 11
6.395000E+002
 21
9.850000E+001
 31
0.000000E+000
  0
CIRCLE
  8
PV
 62
     7
 10
6.395000E+002
 20
8.800000E+001
 30
0.000000E+000
 40
4.300000E+000
  0
LINE
  8
PV
 62
     7
 10
6.270000E+002
 20
7.100000E+001
 30
0.000000E+000
 11
6.520000E+002
 21
7.100000E+001
 31
0.000000E+000
  0
LINE
  8
PV
  6
CENTER
 62
     1
 10
6.500000E+002
 20
8.800000E+001
 30
0.000000E+000
 11
6.290000E+002
 21
8.800000E+001
 31
0.000000E+000
  0
LINE
  8
PV
 62
     7
 10
6.270000E+002
 20
1.420000E+002
 30
0.000000E+000
 11
6.520000E+002
 21
1.420000E+002
 31
0.000000E+000
  0
LINE
  8
PV
 62
     7
 10
6.270000E+002
 20
1.470000E+002
 30
0.000000E+000
 11
6.520000E+002
 21
1.470000E+002
 31
0.000000E+000
  0
LINE
  8
PV
  6
CENTER
 62
     1
 10
6.500000E+002
 20
1.310000E+002
 30
0.000000E+000
 11
6.290000E+002
 21
1.310000E+002
 31
0.000000E+000
  0
ARC
  8
PV
 62
     7
 10
6.395000E+002
 20
1.045000E+002
 30
0.000000E+000
 40
3.500000E+000
 50
1.800000E+002
 51
0.000000E+000
  0
LINE
  8
PV
 62
     7
 10
6.315000E+002
 20
1.490000E+002
 30
0.000000E+000
 11
6.475000E+002
 21
1.490000E+002
 31
0.000000E+000
  0
LINE
  8
PV
 62
     7
 10
6.325720E+002
 20
1.560000E+002
 30
0.000000E+000
 11
6.464280E+002
 21
1.560000E+002
 31
0.000000E+000
  0
LINE
  8
PV
  6
CENTER
 62
     1
 10
6.395000E+002
 20
1.205000E+002
 30
0.000000E+000
 11
6.395000E+002
 21
1.415000E+002
 31
0.000000E+000
  0
LINE
  8
PV
 62
     7
 10
6.360000E+002
 20
1.420000E+002
 30
0.000000E+000
 11
6.360000E+002
 21
1.045000E+002
 31
0.000000E+000
  0
ARC
  8
PV
 62
     7
 10
6.395000E+002
 20
1.310000E+002
 30
0.000000E+000
 40
4.300000E+000
 50
1.444840E+002
 51
2.155160E+002
  0
LINE
  8
PV
 62
     7
 10
6.315000E+002
 20
1.490000E+002
 30
0.000000E+000
 11
6.315000E+002
 21
1.470000E+002
 31
0.000000E+000
  0
LINE
  8
PV
 62
     7
 10
6.325720E+002
 20
1.560000E+002
 30
0.000000E+000
 11
6.325720E+002
 21
1.490000E+002
 31
0.000000E+000
  0
LINE
  8
PV
 62
     7
 10
6.430000E+002
 20
1.420000E+002
 30
0.000000E+000
 11
6.430000E+002
 21
1.045000E+002
 31
0.000000E+000
  0
ARC
  8
PV
 62
     7
 10
6.395000E+002
 20
1.310000E+002
 30
0.000000E+000
 40
4.300000E+000
 50
3.244840E+002
 51
3.551600E+001
  0
LINE
  8
PV
 62
     7
 10
6.475000E+002
 20
1.490000E+002
 30
0.000000E+000
 11
6.475000E+002
 21
1.470000E+002
 31
0.000000E+000
  0
LINE
  8
PV
 62
     7
 10
6.464280E+002
 20
1.560000E+002
 30
0.000000E+000
 11
6.464280E+002
 21
1.490000E+002
 31
0.000000E+000
  0
LINE
  8
PV
 62
     7
 10
7.770000E+002
 20
7.100000E+001
 30
0.000000E+000
 11
7.770000E+002
 21
1.470000E+002
 31
0.000000E+000
  0
POLYLINE
  8
PV
 62
     7
 66
     1
 10
0.0
 20
0.0
 30
0.0
  0
VERTEX
  8
PV
 62
     7
 10
7.155330E+002
 20
1.267440E+002
 30
0.000000E+000
  0
VERTEX
  8
PV
 62
     7
 10
7.149120E+002
 20
1.269850E+002
 30
0.000000E+000
  0
VERTEX
  8
PV
 62
     7
 10
7.145000E+002
 20
1.250000E+002
 30
0.000000E+000
  0
VERTEX
  8
PV
 62
     7
 10
7.155330E+002
 20
1.267440E+002
 30
0.000000E+000
  0
SEQEND
  8
PV
 62
     7
  0
CIRCLE
  8
PV
 62
     7
 10
7.895000E+002
 20
8.800000E+001
 30
0.000000E+000
 40
4.300000E+000
  0
LINE
  8
PV
  6
CENTER
 62
     1
 10
7.895000E+002
 20
7.750000E+001
 30
0.000000E+000
 11
7.895000E+002
 21
9.850000E+001
 31
0.000000E+000
  0
LINE
  8
PV
 62
     7
 10
8.020000E+002
 20
7.100000E+001
 30
0.000000E+000
 11
8.020000E+002
 21
1.470000E+002
 31
0.000000E+000
  0
LINE
  8
PV
 62
     7
 10
7.860000E+002
 20
1.420000E+002
 30
0.000000E+000
 11
7.860000E+002
 21
1.045000E+002
 31
0.000000E+000
  0
LINE
  8
PV
 62
     7
 10
7.930000E+002
 20
1.420000E+002
 30
0.000000E+000
 11
7.930000E+002
 21
1.045000E+002
 31
0.000000E+000
  0
LINE
  8
PV
  6
CENTER
 62
     1
 10
7.895000E+002
 20
1.205000E+002
 30
0.000000E+000
 11
7.895000E+002
 21
1.415000E+002
 31
0.000000E+000
  0
ARC
  8
PV
 62
     7
 10
7.895000E+002
 20
1.045000E+002
 30
0.000000E+000
 40
3.500000E+000
 50
1.800000E+002
 51
0.000000E+000
  0
ARC
  8
PV
 62
     7
 10
7.895000E+002
 20
1.310000E+002
 30
0.000000E+000
 40
4.300000E+000
 50
1.444840E+002
 51
2.155160E+002
  0
ARC
  8
PV
 62
     7
 10
7.895000E+002
 20
1.310000E+002
 30
0.000000E+000
 40
4.300000E+000
 50
3.244840E+002
 51
3.551600E+001
  0
LINE
  8
PV
 62
     7
 10
7.825720E+002
 20
1.560000E+002
 30
0.000000E+000
 11
7.964280E+002
 21
1.560000E+002
 31
0.000000E+000
  0
LINE
  8
PV
 62
     7
 10
7.815000E+002
 20
1.490000E+002
 30
0.000000E+000
 11
7.975000E+002
 21
1.490000E+002
 31
0.000000E+000
  0
LINE
  8
PV
 62
     7
 10
7.825720E+002
 20
1.560000E+002
 30
0.000000E+000
 11
7.825720E+002
 21
1.490000E+002
 31
0.000000E+000
  0
LINE
  8
PV
 62
     7
 10
7.815000E+002
 20
1.490000E+002
 30
0.000000E+000
 11
7.815000E+002
 21
1.470000E+002
 31
0.000000E+000
  0
LINE
  8
PV
 62
     7
 10
7.964280E+002
 20
1.560000E+002
 30
0.000000E+000
 11
7.964280E+002
 21
1.490000E+002
 31
0.000000E+000
  0
LINE
  8
PV
 62
     7
 10
7.975000E+002
 20
1.490000E+002
 30
0.000000E+000
 11
7.975000E+002
 21
1.470000E+002
 31
0.000000E+000
  0
LINE
  8
PV
 62
     7
 10
8.610000E+002
 20
1.470000E+002
 30
0.000000E+000
 11
8.610000E+002
 21
1.420000E+002
 31
0.000000E+000
  0
ARC
  8
PV
 62
     7
 10
9.100000E+002
 20
1.260000E+002
 30
0.000000E+000
 40
2.500000E+001
 50
1.800000E+002
 51
0.000000E+000
  0
ARC
  8
PV
 62
     7
 10
9.100000E+002
 20
1.260000E+002
 30
0.000000E+000
 40
1.800000E+001
 50
1.800000E+002
 51
0.000000E+000
  0
LINE
  8
PV
 62
     7
 10
8.780000E+002
 20
1.490000E+002
 30
0.000000E+000
 11
9.420000E+002
 21
1.490000E+002
 31
0.000000E+000
  0
LINE
  8
PV
 62
     7
 10
8.920000E+002
 20
1.420000E+002
 30
0.000000E+000
 11
8.920000E+002
 21
1.260000E+002
 31
0.000000E+000
  0
LINE
  8
PV
 62
     7
 10
8.850000E+002
 20
1.420000E+002
 30
0.000000E+000
 11
8.850000E+002
 21
1.260000E+002
 31
0.000000E+000
  0
LINE
  8
PV
 62
     7
 10
8.825000E+002
 20
1.560000E+002
 30
0.000000E+000
 11
8.945000E+002
 21
1.560000E+002
 31
0.000000E+000
  0
LINE
  8
PV
 62
     7
 10
8.825000E+002
 20
1.560000E+002
 30
0.000000E+000
 11
8.825000E+002
 21
1.490000E+002
 31
0.000000E+000
  0
LINE
  8
PV
 62
     7
 10
8.780000E+002
 20
1.490000E+002
 30
0.000000E+000
 11
8.780000E+002
 21
1.470000E+002
 31
0.000000E+000
  0
LINE
  8
PV
 62
     7
 10
8.945000E+002
 20
1.560000E+002
 30
0.000000E+000
 11
8.945000E+002
 21
1.490000E+002
 31
0.000000E+000
  0
POLYLINE
  8
PV
 62
     7
 66
     1
 10
0.0
 20
0.0
 30
0.0
  0
VERTEX
  8
PV
 62
     7
 10
9.106860E+002
 20
1.269080E+002
 30
0.000000E+000
  0
VERTEX
  8
PV
 62
     7
 10
9.100300E+002
 20
1.270270E+002
 30
0.000000E+000
  0
VERTEX
  8
PV
 62
     7
 10
9.100000E+002
 20
1.250000E+002
 30
0.000000E+000
  0
VERTEX
  8
PV
 62
     7
 10
9.106860E+002
 20
1.269080E+002
 30
0.000000E+000
  0
SEQEND
  8
PV
 62
     7
  0
LINE
  8
PV
 62
     7
 10
9.350000E+002
 20
1.420000E+002
 30
0.000000E+000
 11
9.350000E+002
 21
1.260000E+002
 31
0.000000E+000
  0
LINE
  8
PV
 62
     7
 10
9.280000E+002
 20
1.420000E+002
 30
0.000000E+000
 11
9.280000E+002
 21
1.260000E+002
 31
0.000000E+000
  0
LINE
  8
PV
 62
     7
 10
9.255000E+002
 20
1.560000E+002
 30
0.000000E+000
 11
9.375000E+002
 21
1.560000E+002
 31
0.000000E+000
  0
LINE
  8
PV
 62
     7
 10
9.255000E+002
 20
1.560000E+002
 30
0.000000E+000
 11
9.255000E+002
 21
1.490000E+002
 31
0.000000E+000
  0
LINE
  8
PV
 62
     7
 10
9.375000E+002
 20
1.560000E+002
 30
0.000000E+000
 11
9.375000E+002
 21
1.490000E+002
 31
0.000000E+000
  0
LINE
  8
PV
 62
     7
 10
9.420000E+002
 20
1.490000E+002
 30
0.000000E+000
 11
9.420000E+002
 21
1.470000E+002
 31
0.000000E+000
  0
LINE
  8
PV
 62
     7
 10
7.770000E+002
 20
4.076000E+002
 30
0.000000E+000
 11
8.020000E+002
 21
4.076000E+002
 31
0.000000E+000
  0
LINE
  8
PV
 62
     7
 10
8.020000E+002
 20
2.060000E+002
 30
0.000000E+000
 11
7.770000E+002
 21
2.060000E+002
 31
0.000000E+000
  0
LINE
  8
PV
 62
     7
 10
8.020000E+002
 20
3.360000E+002
 30
0.000000E+000
 11
7.770000E+002
 21
3.360000E+002
 31
0.000000E+000
  0
LINE
  8
PV
 62
     7
 10
6.270000E+002
 20
2.060000E+002
 30
0.000000E+000
 11
6.270000E+002
 21
3.360000E+002
 31
0.000000E+000
  0
LINE
  8
PV
 62
     7
 10
6.520000E+002
 20
2.060000E+002
 30
0.000000E+000
 11
6.520000E+002
 21
3.360000E+002
 31
0.000000E+000
  0
LINE
  8
PV
 62
     7
 10
7.770000E+002
 20
2.060000E+002
 30
0.000000E+000
 11
7.770000E+002
 21
3.360000E+002
 31
0.000000E+000
  0
LINE
  8
PV
 62
     7
 10
6.315000E+002
 20
2.870000E+002
 30
0.000000E+000
 11
6.315000E+002
 21
2.230000E+002
 31
0.000000E+000
  0
LINE
  8
PV
 62
     7
 10
6.475000E+002
 20
2.870000E+002
 30
0.000000E+000
 11
6.475000E+002
 21
2.230000E+002
 31
0.000000E+000
  0
LINE
  8
PV
 62
     7
 10
6.520000E+002
 20
2.060000E+002
 30
0.000000E+000
 11
6.270000E+002
 21
2.060000E+002
 31
0.000000E+000
  0
LINE
  8
PV
 62
     7
 10
6.315000E+002
 20
2.230000E+002
 30
0.000000E+000
 11
6.475000E+002
 21
2.230000E+002
 31
0.000000E+000
  0
LINE
  8
PV
 62
     7
 10
6.430000E+002
 20
1.730000E+002
 30
0.000000E+000
 11
6.360000E+002
 21
1.730000E+002
 31
0.000000E+000
  0
CIRCLE
  8
PV
 62
     7
 10
6.395000E+002
 20
2.765000E+002
 30
0.000000E+000
 40
3.500000E+000
  0
LINE
  8
PV
 62
     7
 10
6.360360E+002
 20
2.705000E+002
 30
0.000000E+000
 11
6.429640E+002
 21
2.705000E+002
 31
0.000000E+000
  0
LINE
  8
PV
 62
     7
 10
6.429640E+002
 20
2.825000E+002
 30
0.000000E+000
 11
6.360360E+002
 21
2.825000E+002
 31
0.000000E+000
  0
LINE
  8
PV
 62
     7
 10
6.315000E+002
 20
2.870000E+002
 30
0.000000E+000
 11
6.475000E+002
 21
2.870000E+002
 31
0.000000E+000
  0
LINE
  8
PV
 62
     7
 10
6.429640E+002
 20
2.275000E+002
 30
0.000000E+000
 11
6.360360E+002
 21
2.275000E+002
 31
0.000000E+000
  0
LINE
  8
PV
 62
     7
 10
6.360360E+002
 20
2.395000E+002
 30
0.000000E+000
 11
6.429640E+002
 21
2.395000E+002
 31
0.000000E+000
  0
CIRCLE
  8
PV
 62
     7
 10
6.395000E+002
 20
2.335000E+002
 30
0.000000E+000
 40
3.500000E+000
  0
LINE
  8
PV
 62
     7
 10
6.325720E+002
 20
2.335000E+002
 30
0.000000E+000
 11
6.360360E+002
 21
2.395000E+002
 31
0.000000E+000
  0
LINE
  8
PV
 62
     7
 10
6.360360E+002
 20
2.275000E+002
 30
0.000000E+000
 11
6.325720E+002
 21
2.335000E+002
 31
0.000000E+000
  0
LINE
  8
PV
 62
     7
 10
6.325720E+002
 20
2.765000E+002
 30
0.000000E+000
 11
6.360360E+002
 21
2.705000E+002
 31
0.000000E+000
  0
LINE
  8
PV
 62
     7
 10
6.360360E+002
 20
2.825000E+002
 30
0.000000E+000
 11
6.325720E+002
 21
2.765000E+002
 31
0.000000E+000
  0
LINE
  8
PV
 62
     7
 10
6.464280E+002
 20
2.335000E+002
 30
0.000000E+000
 11
6.429640E+002
 21
2.275000E+002
 31
0.000000E+000
  0
LINE
  8
PV
 62
     7
 10
6.429640E+002
 20
2.395000E+002
 30
0.000000E+000
 11
6.464280E+002
 21
2.335000E+002
 31
0.000000E+000
  0
LINE
  8
PV
 62
     7
 10
6.429640E+002
 20
2.705000E+002
 30
0.000000E+000
 11
6.464280E+002
 21
2.765000E+002
 31
0.000000E+000
  0
LINE
  8
PV
 62
     7
 10
6.464280E+002
 20
2.765000E+002
 30
0.000000E+000
 11
6.429640E+002
 21
2.825000E+002
 31
0.000000E+000
  0
LINE
  8
PV
 62
     7
 10
7.300000E+002
 20
1.650000E+002
 30
0.000000E+000
 11
7.320000E+002
 21
1.650000E+002
 31
0.000000E+000
  0
TEXT
  8
PV
 62
     7
 10
7.339000E+002
 20
1.627500E+002
 30
0.000000E+000
 40
4.500000E+000
  1
P.P
 41
7.780000E-001
  7
FONT1
  0
TEXT
  8
PV
 62
     7
 10
7.289000E+002
 20
2.427500E+002
 30
0.000000E+000
 40
4.500000E+000
  1
P.P
 41
7.780000E-001
  7
FONT1
  0
LINE
  8
PV
 62
     7
 10
7.159480E+002
 20
2.536210E+002
 30
0.000000E+000
 11
7.250000E+002
 21
2.450000E+002
 31
0.000000E+000
  0
POLYLINE
  8
PV
 62
     7
 66
     1
 10
0.0
 20
0.0
 30
0.0
  0
VERTEX
  8
PV
 62
     7
 10
7.157180E+002
 20
2.533790E+002
 30
0.000000E+000
  0
VERTEX
  8
PV
 62
     7
 10
7.161780E+002
 20
2.538620E+002
 30
0.000000E+000
  0
VERTEX
  8
PV
 62
     7
 10
7.145000E+002
 20
2.550000E+002
 30
0.000000E+000
  0
VERTEX
  8
PV
 62
     7
 10
7.157180E+002
 20
2.533790E+002
 30
0.000000E+000
  0
SEQEND
  8
PV
 62
     7
  0
LINE
  8
PV
 62
     7
 10
7.250000E+002
 20
2.450000E+002
 30
0.000000E+000
 11
7.270000E+002
 21
2.450000E+002
 31
0.000000E+000
  0
TEXT
  8
PV
 62
     7
 10
6.198996E+002
 20
3.600000E+002
 30
0.000000E+000
 40
4.500000E+000
  1
MODEL No. : 6212-50
 41
9.035800E-001
  7
FONT1
  0
LINE
  8
PV
 62
     7
 10
6.520000E+002
 20
3.360000E+002
 30
0.000000E+000
 11
6.270000E+002
 21
3.360000E+002
 31
0.000000E+000
  0
TEXT
  8
PV
 62
     7
 10
6.198999E+002
 20
3.500000E+002
 30
0.000000E+000
 40
4.500000E+000
  1
(L17-800-MPDB)
 41
9.047622E-001
  7
FONT1
  0
LINE
  8
PV
  6
CENTER
 62
     1
 10
6.395000E+002
 20
3.410000E+002
 30
0.000000E+000
 11
6.395000E+002
 21
3.310000E+002
 31
0.000000E+000
  0
LINE
  8
PV
 62
     7
 10
6.270000E+002
 20
4.076000E+002
 30
0.000000E+000
 11
6.520000E+002
 21
4.076000E+002
 31
0.000000E+000
  0
TEXT
  8
PV
 62
     7
 10
6.199000E+002
 20
3.700000E+002
 30
0.000000E+000
 40
4.500000E+000
  1
L TYPE BRACKET
  7
FONT1
  0
LINE
  8
PV
 62
     7
 10
8.020000E+002
 20
2.060000E+002
 30
0.000000E+000
 11
8.020000E+002
 21
3.360000E+002
 31
0.000000E+000
  0
LINE
  8
PV
 62
     7
 10
7.975000E+002
 20
2.870000E+002
 30
0.000000E+000
 11
7.975000E+002
 21
2.230000E+002
 31
0.000000E+000
  0
LINE
  8
PV
 62
     7
 10
7.815000E+002
 20
2.870000E+002
 30
0.000000E+000
 11
7.815000E+002
 21
2.230000E+002
 31
0.000000E+000
  0
LINE
  8
PV
 62
     7
 10
7.930000E+002
 20
1.730000E+002
 30
0.000000E+000
 11
7.860000E+002
 21
1.730000E+002
 31
0.000000E+000
  0
LINE
  8
PV
 62
     7
 10
7.815000E+002
 20
2.230000E+002
 30
0.000000E+000
 11
7.975000E+002
 21
2.230000E+002
 31
0.000000E+000
  0
CIRCLE
  8
PV
 62
     7
 10
7.895000E+002
 20
2.335000E+002
 30
0.000000E+000
 40
3.500000E+000
  0
LINE
  8
PV
 62
     7
 10
7.860360E+002
 20
2.395000E+002
 30
0.000000E+000
 11
7.929640E+002
 21
2.395000E+002
 31
0.000000E+000
  0
LINE
  8
PV
 62
     7
 10
7.929640E+002
 20
2.275000E+002
 30
0.000000E+000
 11
7.860360E+002
 21
2.275000E+002
 31
0.000000E+000
  0
LINE
  8
PV
 62
     7
 10
7.860360E+002
 20
2.275000E+002
 30
0.000000E+000
 11
7.825720E+002
 21
2.335000E+002
 31
0.000000E+000
  0
LINE
  8
PV
 62
     7
 10
7.825720E+002
 20
2.335000E+002
 30
0.000000E+000
 11
7.860360E+002
 21
2.395000E+002
 31
0.000000E+000
  0
LINE
  8
PV
 62
     7
 10
7.929640E+002
 20
2.395000E+002
 30
0.000000E+000
 11
7.964280E+002
 21
2.335000E+002
 31
0.000000E+000
  0
LINE
  8
PV
 62
     7
 10
7.964280E+002
 20
2.335000E+002
 30
0.000000E+000
 11
7.929640E+002
 21
2.275000E+002
 31
0.000000E+000
  0
LINE
  8
PV
 62
     7
 10
7.929640E+002
 20
2.705000E+002
 30
0.000000E+000
 11
7.964280E+002
 21
2.765000E+002
 31
0.000000E+000
  0
LINE
  8
PV
 62
     7
 10
7.825720E+002
 20
2.765000E+002
 30
0.000000E+000
 11
7.860360E+002
 21
2.705000E+002
 31
0.000000E+000
  0
LINE
  8
PV
 62
     7
 10
7.860360E+002
 20
2.705000E+002
 30
0.000000E+000
 11
7.929640E+002
 21
2.705000E+002
 31
0.000000E+000
  0
LINE
  8
PV
 62
     7
 10
7.815000E+002
 20
2.870000E+002
 30
0.000000E+000
 11
7.975000E+002
 21
2.870000E+002
 31
0.000000E+000
  0
LINE
  8
PV
 62
     7
 10
7.929640E+002
 20
2.825000E+002
 30
0.000000E+000
 11
7.860360E+002
 21
2.825000E+002
 31
0.000000E+000
  0
CIRCLE
  8
PV
 62
     7
 10
7.895000E+002
 20
2.765000E+002
 30
0.000000E+000
 40
3.500000E+000
  0
LINE
  8
PV
 62
     7
 10
7.860360E+002
 20
2.825000E+002
 30
0.000000E+000
 11
7.825720E+002
 21
2.765000E+002
 31
0.000000E+000
  0
LINE
  8
PV
 62
     7
 10
7.964280E+002
 20
2.765000E+002
 30
0.000000E+000
 11
7.929640E+002
 21
2.825000E+002
 31
0.000000E+000
  0
LINE
  8
PV
 62
     7
 10
8.920000E+002
 20
1.730000E+002
 30
0.000000E+000
 11
8.850000E+002
 21
1.730000E+002
 31
0.000000E+000
  0
LINE
  8
PV
 62
     7
 10
9.350000E+002
 20
1.730000E+002
 30
0.000000E+000
 11
9.280000E+002
 21
1.730000E+002
 31
0.000000E+000
  0
TEXT
  8
PV
 62
     7
 10
9.239000E+002
 20
1.777500E+002
 30
0.000000E+000
 40
4.500000E+000
  1
P.P
 41
7.780000E-001
  7
FONT1
  0
LINE
  8
PV
 62
     7
 10
9.200000E+002
 20
1.800000E+002
 30
0.000000E+000
 11
9.220000E+002
 21
1.800000E+002
 31
0.000000E+000
  0
LINE
  8
PV
  6
CENTER
 62
     1
 10
7.895000E+002
 20
3.410000E+002
 30
0.000000E+000
 11
7.895000E+002
 21
3.310000E+002
 31
0.000000E+000
  0
LINE
  8
PV
 62
     7
 10
9.860000E+002
 20
1.420000E+002
 30
0.000000E+000
 11
9.860000E+002
 21
7.100000E+001
 31
0.000000E+000
  0
LINE
  8
PV
 62
     7
 10
9.910000E+002
 20
1.470000E+002
 30
0.000000E+000
 11
9.910000E+002
 21
7.100000E+001
 31
0.000000E+000
  0
LINE
  8
PV
  6
CENTER
 62
     1
 10
9.960000E+002
 20
8.800000E+001
 30
0.000000E+000
 11
9.810000E+002
 21
8.800000E+001
 31
0.000000E+000
  0
LINE
  8
PV
 62
     7
 10
9.860000E+002
 20
7.100000E+001
 30
0.000000E+000
 11
9.910000E+002
 21
7.100000E+001
 31
0.000000E+000
  0
LINE
  8
PV
  6
CENTER
 62
     1
 10
9.960000E+002
 20
1.310000E+002
 30
0.000000E+000
 11
9.810000E+002
 21
1.310000E+002
 31
0.000000E+000
  0
LINE
  8
PV
 62
     7
 10
9.860000E+002
 20
4.076000E+002
 30
0.000000E+000
 11
9.910000E+002
 21
4.076000E+002
 31
0.000000E+000
  0
LINE
  8
PV
 62
     7
 10
8.610000E+002
 20
4.836000E+002
 30
0.000000E+000
 11
9.910000E+002
 21
4.836000E+002
 31
0.000000E+000
  0
LINE
  8
PV
 62
     7
 10
8.610000E+002
 20
4.786000E+002
 30
0.000000E+000
 11
9.860000E+002
 21
4.786000E+002
 31
0.000000E+000
  0
LINE
  8
PV
 62
     7
 10
8.020000E+002
 20
6.760000E+002
 30
0.000000E+000
 11
7.770000E+002
 21
6.760000E+002
 31
0.000000E+000
  0
LINE
  8
PV
 62
     7
 10
8.020000E+002
 20
5.460000E+002
 30
0.000000E+000
 11
7.770000E+002
 21
5.460000E+002
 31
0.000000E+000
  0
LINE
  8
PV
 62
     7
 10
7.770000E+002
 20
4.786000E+002
 30
0.000000E+000
 11
8.020000E+002
 21
4.786000E+002
 31
0.000000E+000
  0
LINE
  8
PV
 62
     7
 10
7.770000E+002
 20
4.836000E+002
 30
0.000000E+000
 11
8.020000E+002
 21
4.836000E+002
 31
0.000000E+000
  0
LINE
  8
PV
  6
CENTER
 62
     1
 10
8.000000E+002
 20
4.246000E+002
 30
0.000000E+000
 11
7.790000E+002
 21
4.246000E+002
 31
0.000000E+000
  0
LINE
  8
PV
  6
CENTER
 62
     1
 10
8.000000E+002
 20
4.676000E+002
 30
0.000000E+000
 11
7.790000E+002
 21
4.676000E+002
 31
0.000000E+000
  0
LINE
  8
PV
 62
     7
 10
7.770000E+002
 20
5.460000E+002
 30
0.000000E+000
 11
7.770000E+002
 21
6.760000E+002
 31
0.000000E+000
  0
LINE
  8
PV
 62
     7
 10
6.520000E+002
 20
5.460000E+002
 30
0.000000E+000
 11
6.520000E+002
 21
6.760000E+002
 31
0.000000E+000
  0
LINE
  8
PV
 62
     7
 10
6.270000E+002
 20
5.460000E+002
 30
0.000000E+000
 11
6.270000E+002
 21
6.760000E+002
 31
0.000000E+000
  0
LINE
  8
PV
 62
     7
 10
6.464280E+002
 20
4.926000E+002
 30
0.000000E+000
 11
6.464280E+002
 21
4.856000E+002
 31
0.000000E+000
  0
LINE
  8
PV
 62
     7
 10
6.325720E+002
 20
4.926000E+002
 30
0.000000E+000
 11
6.325720E+002
 21
4.856000E+002
 31
0.000000E+000
  0
LINE
  8
PV
 62
     7
 10
6.315000E+002
 20
4.856000E+002
 30
0.000000E+000
 11
6.475000E+002
 21
4.856000E+002
 31
0.000000E+000
  0
ARC
  8
PV
 62
     7
 10
6.395000E+002
 20
4.479000E+002
 30
0.000000E+000
 40
3.500000E+000
 50
1.800000E+002
 51
0.000000E+000
  0
LINE
  8
PV
  6
CENTER
 62
     1
 10
6.500000E+002
 20
4.676000E+002
 30
0.000000E+000
 11
6.290000E+002
 21
4.676000E+002
 31
0.000000E+000
  0
LINE
  8
PV
  6
CENTER
 62
     1
 10
6.500000E+002
 20
4.246000E+002
 30
0.000000E+000
 11
6.290000E+002
 21
4.246000E+002
 31
0.000000E+000
  0
LINE
  8
PV
 62
     7
 10
6.270000E+002
 20
4.836000E+002
 30
0.000000E+000
 11
6.520000E+002
 21
4.836000E+002
 31
0.000000E+000
  0
LINE
  8
PV
 62
     7
 10
6.270000E+002
 20
4.786000E+002
 30
0.000000E+000
 11
6.520000E+002
 21
4.786000E+002
 31
0.000000E+000
  0
LINE
  8
PV
 62
     7
 10
6.360000E+002
 20
4.786000E+002
 30
0.000000E+000
 11
6.360000E+002
 21
4.479000E+002
 31
0.000000E+000
  0
ARC
  8
PV
 62
     7
 10
6.395000E+002
 20
4.676000E+002
 30
0.000000E+000
 40
4.300000E+000
 50
1.444840E+002
 51
2.155160E+002
  0
LINE
  8
PV
  6
CENTER
 62
     1
 10
6.395000E+002
 20
4.571000E+002
 30
0.000000E+000
 11
6.395000E+002
 21
4.781000E+002
 31
0.000000E+000
  0
LINE
  8
PV
 62
     7
 10
6.315000E+002
 20
4.856000E+002
 30
0.000000E+000
 11
6.315000E+002
 21
4.836000E+002
 31
0.000000E+000
  0
LINE
  8
PV
 62
     7
 10
6.430000E+002
 20
4.786000E+002
 30
0.000000E+000
 11
6.430000E+002
 21
4.479000E+002
 31
0.000000E+000
  0
ARC
  8
PV
 62
     7
 10
6.395000E+002
 20
4.676000E+002
 30
0.000000E+000
 40
4.300000E+000
 50
3.244840E+002
 51
3.551600E+001
  0
LINE
  8
PV
 62
     7
 10
6.475000E+002
 20
4.856000E+002
 30
0.000000E+000
 11
6.475000E+002
 21
4.836000E+002
 31
0.000000E+000
  0
LINE
  8
PV
 62
     7
 10
6.520000E+002
 20
5.460000E+002
 30
0.000000E+000
 11
6.270000E+002
 21
5.460000E+002
 31
0.000000E+000
  0
LINE
  8
PV
 62
     7
 10
6.325720E+002
 20
4.926000E+002
 30
0.000000E+000
 11
6.464280E+002
 21
4.926000E+002
 31
0.000000E+000
  0
LINE
  8
PV
 62
     7
 10
6.430000E+002
 20
5.164000E+002
 30
0.000000E+000
 11
6.360000E+002
 21
5.164000E+002
 31
0.000000E+000
  0
LINE
  8
PV
 62
     7
 10
6.360000E+002
 20
5.164000E+002
 30
0.000000E+000
 11
6.360000E+002
 21
4.926000E+002
 31
0.000000E+000
  0
LINE
  8
PV
 62
     7
 10
6.430000E+002
 20
5.164000E+002
 30
0.000000E+000
 11
6.430000E+002
 21
4.926000E+002
 31
0.000000E+000
  0
LINE
  8
PV
 62
     7
 10
7.152230E+002
 20
4.668650E+002
 30
0.000000E+000
 11
7.300000E+002
 21
5.050000E+002
 31
0.000000E+000
  0
POLYLINE
  8
PV
 62
     7
 66
     1
 10
0.0
 20
0.0
 30
0.0
  0
VERTEX
  8
PV
 62
     7
 10
7.155330E+002
 20
4.667440E+002
 30
0.000000E+000
  0
VERTEX
  8
PV
 62
     7
 10
7.149120E+002
 20
4.669850E+002
 30
0.000000E+000
  0
VERTEX
  8
PV
 62
     7
 10
7.145000E+002
 20
4.650000E+002
 30
0.000000E+000
  0
VERTEX
  8
PV
 62
     7
 10
7.155330E+002
 20
4.667440E+002
 30
0.000000E+000
  0
SEQEND
  8
PV
 62
     7
  0
LINE
  8
PV
 62
     7
 10
7.300000E+002
 20
5.050000E+002
 30
0.000000E+000
 11
7.320000E+002
 21
5.050000E+002
 31
0.000000E+000
  0
TEXT
  8
PV
 62
     7
 10
7.339000E+002
 20
5.027500E+002
 30
0.000000E+000
 40
4.500000E+000
  1
P.P
 41
7.780000E-001
  7
FONT1
  0
LINE
  8
PV
 62
     7
 10
6.475000E+002
 20
6.270000E+002
 30
0.000000E+000
 11
6.475000E+002
 21
5.630000E+002
 31
0.000000E+000
  0
LINE
  8
PV
 62
     7
 10
6.315000E+002
 20
6.270000E+002
 30
0.000000E+000
 11
6.315000E+002
 21
5.630000E+002
 31
0.000000E+000
  0
LINE
  8
PV
 62
     7
 10
6.464280E+002
 20
6.165000E+002
 30
0.000000E+000
 11
6.429640E+002
 21
6.225000E+002
 31
0.000000E+000
  0
LINE
  8
PV
 62
     7
 10
6.360360E+002
 20
6.225000E+002
 30
0.000000E+000
 11
6.325720E+002
 21
6.165000E+002
 31
0.000000E+000
  0
CIRCLE
  8
PV
 62
     7
 10
6.395000E+002
 20
6.165000E+002
 30
0.000000E+000
 40
3.500000E+000
  0
CIRCLE
  8
PV
 62
     7
 10
6.395000E+002
 20
5.735000E+002
 30
0.000000E+000
 40
3.500000E+000
  0
LINE
  8
PV
 62
     7
 10
6.360360E+002
 20
5.795000E+002
 30
0.000000E+000
 11
6.429640E+002
 21
5.795000E+002
 31
0.000000E+000
  0
LINE
  8
PV
 62
     7
 10
6.429640E+002
 20
5.675000E+002
 30
0.000000E+000
 11
6.360360E+002
 21
5.675000E+002
 31
0.000000E+000
  0
LINE
  8
PV
 62
     7
 10
6.315000E+002
 20
5.630000E+002
 30
0.000000E+000
 11
6.475000E+002
 21
5.630000E+002
 31
0.000000E+000
  0
LINE
  8
PV
 62
     7
 10
6.360360E+002
 20
6.105000E+002
 30
0.000000E+000
 11
6.429640E+002
 21
6.105000E+002
 31
0.000000E+000
  0
LINE
  8
PV
 62
     7
 10
6.360360E+002
 20
5.675000E+002
 30
0.000000E+000
 11
6.325720E+002
 21
5.735000E+002
 31
0.000000E+000
  0
LINE
  8
PV
 62
     7
 10
6.325720E+002
 20
5.735000E+002
 30
0.000000E+000
 11
6.360360E+002
 21
5.795000E+002
 31
0.000000E+000
  0
LINE
  8
PV
 62
     7
 10
6.325720E+002
 20
6.165000E+002
 30
0.000000E+000
 11
6.360360E+002
 21
6.105000E+002
 31
0.000000E+000
  0
LINE
  8
PV
 62
     7
 10
6.464280E+002
 20
5.735000E+002
 30
0.000000E+000
 11
6.429640E+002
 21
5.675000E+002
 31
0.000000E+000
  0
LINE
  8
PV
 62
     7
 10
6.429640E+002
 20
5.795000E+002
 30
0.000000E+000
 11
6.464280E+002
 21
5.735000E+002
 31
0.000000E+000
  0
LINE
  8
PV
 62
     7
 10
6.429640E+002
 20
6.105000E+002
 30
0.000000E+000
 11
6.464280E+002
 21
6.165000E+002
 31
0.000000E+000
  0
LINE
  8
PV
 62
     7
 10
6.315000E+002
 20
6.270000E+002
 30
0.000000E+000
 11
6.475000E+002
 21
6.270000E+002
 31
0.000000E+000
  0
LINE
  8
PV
 62
     7
 10
6.429640E+002
 20
6.225000E+002
 30
0.000000E+000
 11
6.360360E+002
 21
6.225000E+002
 31
0.000000E+000
  0
LINE
  8
PV
 62
     7
 10
6.520000E+002
 20
6.760000E+002
 30
0.000000E+000
 11
6.270000E+002
 21
6.760000E+002
 31
0.000000E+000
  0
LINE
  8
PV
  6
CENTER
 62
     1
 10
6.395000E+002
 20
6.810000E+002
 30
0.000000E+000
 11
6.395000E+002
 21
6.710000E+002
 31
0.000000E+000
  0
TEXT
  8
PV
 62
     7
 10
7.289000E+002
 20
5.827500E+002
 30
0.000000E+000
 40
4.500000E+000
  1
P.P
 41
7.780000E-001
  7
FONT1
  0
LINE
  8
PV
 62
     7
 10
7.159480E+002
 20
5.936210E+002
 30
0.000000E+000
 11
7.250000E+002
 21
5.850000E+002
 31
0.000000E+000
  0
POLYLINE
  8
PV
 62
     7
 66
     1
 10
0.0
 20
0.0
 30
0.0
  0
VERTEX
  8
PV
 62
     7
 10
7.157180E+002
 20
5.933790E+002
 30
0.000000E+000
  0
VERTEX
  8
PV
 62
     7
 10
7.161780E+002
 20
5.938620E+002
 30
0.000000E+000
  0
VERTEX
  8
PV
 62
     7
 10
7.145000E+002
 20
5.950000E+002
 30
0.000000E+000
  0
VERTEX
  8
PV
 62
     7
 10
7.157180E+002
 20
5.933790E+002
 30
0.000000E+000
  0
SEQEND
  8
PV
 62
     7
  0
LINE
  8
PV
 62
     7
 10
7.250000E+002
 20
5.850000E+002
 30
0.000000E+000
 11
7.270000E+002
 21
5.850000E+002
 31
0.000000E+000
  0
LINE
  8
PV
 62
     7
 10
8.020000E+002
 20
5.460000E+002
 30
0.000000E+000
 11
8.020000E+002
 21
6.760000E+002
 31
0.000000E+000
  0
LINE
  8
PV
 62
     7
 10
7.825720E+002
 20
4.926000E+002
 30
0.000000E+000
 11
7.825720E+002
 21
4.856000E+002
 31
0.000000E+000
  0
LINE
  8
PV
 62
     7
 10
7.964280E+002
 20
4.926000E+002
 30
0.000000E+000
 11
7.964280E+002
 21
4.856000E+002
 31
0.000000E+000
  0
LINE
  8
PV
 62
     7
 10
7.930000E+002
 20
4.786000E+002
 30
0.000000E+000
 11
7.930000E+002
 21
4.479000E+002
 31
0.000000E+000
  0
LINE
  8
PV
 62
     7
 10
7.860000E+002
 20
4.786000E+002
 30
0.000000E+000
 11
7.860000E+002
 21
4.479000E+002
 31
0.000000E+000
  0
ARC
  8
PV
 62
     7
 10
7.895000E+002
 20
4.479000E+002
 30
0.000000E+000
 40
3.500000E+000
 50
1.800000E+002
 51
0.000000E+000
  0
ARC
  8
PV
 62
     7
 10
7.895000E+002
 20
4.676000E+002
 30
0.000000E+000
 40
4.300000E+000
 50
3.244840E+002
 51
3.551600E+001
  0
LINE
  8
PV
  6
CENTER
 62
     1
 10
7.895000E+002
 20
4.571000E+002
 30
0.000000E+000
 11
7.895000E+002
 21
4.781000E+002
 31
0.000000E+000
  0
ARC
  8
PV
 62
     7
 10
7.895000E+002
 20
4.676000E+002
 30
0.000000E+000
 40
4.300000E+000
 50
1.444840E+002
 51
2.155160E+002
  0
LINE
  8
PV
 62
     7
 10
7.815000E+002
 20
4.856000E+002
 30
0.000000E+000
 11
7.975000E+002
 21
4.856000E+002
 31
0.000000E+000
  0
LINE
  8
PV
 62
     7
 10
7.815000E+002
 20
4.856000E+002
 30
0.000000E+000
 11
7.815000E+002
 21
4.836000E+002
 31
0.000000E+000
  0
LINE
  8
PV
 62
     7
 10
7.975000E+002
 20
4.856000E+002
 30
0.000000E+000
 11
7.975000E+002
 21
4.836000E+002
 31
0.000000E+000
  0
LINE
  8
PV
 62
     7
 10
8.610000E+002
 20
4.836000E+002
 30
0.000000E+000
 11
8.610000E+002
 21
4.786000E+002
 31
0.000000E+000
  0
LINE
  8
PV
 62
     7
 10
7.860000E+002
 20
5.164000E+002
 30
0.000000E+000
 11
7.860000E+002
 21
4.926000E+002
 31
0.000000E+000
  0
LINE
  8
PV
 62
     7
 10
7.930000E+002
 20
5.164000E+002
 30
0.000000E+000
 11
7.930000E+002
 21
4.926000E+002
 31
0.000000E+000
  0
LINE
  8
PV
 62
     7
 10
7.825720E+002
 20
4.926000E+002
 30
0.000000E+000
 11
7.964280E+002
 21
4.926000E+002
 31
0.000000E+000
  0
LINE
  8
PV
 62
     7
 10
7.930000E+002
 20
5.164000E+002
 30
0.000000E+000
 11
7.860000E+002
 21
5.164000E+002
 31
0.000000E+000
  0
LINE
  8
PV
 62
     7
 10
8.825000E+002
 20
4.926000E+002
 30
0.000000E+000
 11
8.825000E+002
 21
4.856000E+002
 31
0.000000E+000
  0
LINE
  8
PV
 62
     7
 10
8.945000E+002
 20
4.926000E+002
 30
0.000000E+000
 11
8.945000E+002
 21
4.856000E+002
 31
0.000000E+000
  0
LINE
  8
PV
 62
     7
 10
9.375000E+002
 20
4.926000E+002
 30
0.000000E+000
 11
9.375000E+002
 21
4.856000E+002
 31
0.000000E+000
  0
LINE
  8
PV
 62
     7
 10
9.255000E+002
 20
4.926000E+002
 30
0.000000E+000
 11
9.255000E+002
 21
4.856000E+002
 31
0.000000E+000
  0
LINE
  8
PV
 62
     7
 10
9.103580E+002
 20
4.669680E+002
 30
0.000000E+000
 11
9.200000E+002
 21
5.200000E+002
 31
0.000000E+000
  0
LINE
  8
PV
 62
     7
 10
8.780000E+002
 20
4.856000E+002
 30
0.000000E+000
 11
9.420000E+002
 21
4.856000E+002
 31
0.000000E+000
  0
ARC
  8
PV
 62
     7
 10
9.100000E+002
 20
4.694000E+002
 30
0.000000E+000
 40
1.800000E+001
 50
1.800000E+002
 51
0.000000E+000
  0
ARC
  8
PV
 62
     7
 10
9.100000E+002
 20
4.694000E+002
 30
0.000000E+000
 40
2.500000E+001
 50
1.800000E+002
 51
0.000000E+000
  0
LINE
  8
PV
 62
     7
 10
8.850000E+002
 20
4.786000E+002
 30
0.000000E+000
 11
8.850000E+002
 21
4.694000E+002
 31
0.000000E+000
  0
LINE
  8
PV
 62
     7
 10
8.920000E+002
 20
4.786000E+002
 30
0.000000E+000
 11
8.920000E+002
 21
4.694000E+002
 31
0.000000E+000
  0
LINE
  8
PV
 62
     7
 10
8.780000E+002
 20
4.856000E+002
 30
0.000000E+000
 11
8.780000E+002
 21
4.836000E+002
 31
0.000000E+000
  0
POLYLINE
  8
PV
 62
     7
 66
     1
 10
0.0
 20
0.0
 30
0.0
  0
VERTEX
  8
PV
 62
     7
 10
9.106860E+002
 20
4.669080E+002
 30
0.000000E+000
  0
VERTEX
  8
PV
 62
     7
 10
9.100300E+002
 20
4.670270E+002
 30
0.000000E+000
  0
VERTEX
  8
PV
 62
     7
 10
9.100000E+002
 20
4.650000E+002
 30
0.000000E+000
  0
VERTEX
  8
PV
 62
     7
 10
9.106860E+002
 20
4.669080E+002
 30
0.000000E+000
  0
SEQEND
  8
PV
 62
     7
  0
LINE
  8
PV
 62
     7
 10
9.280000E+002
 20
4.786000E+002
 30
0.000000E+000
 11
9.280000E+002
 21
4.694000E+002
 31
0.000000E+000
  0
LINE
  8
PV
 62
     7
 10
9.350000E+002
 20
4.786000E+002
 30
0.000000E+000
 11
9.350000E+002
 21
4.694000E+002
 31
0.000000E+000
  0
LINE
  8
PV
 62
     7
 10
9.420000E+002
 20
4.856000E+002
 30
0.000000E+000
 11
9.420000E+002
 21
4.836000E+002
 31
0.000000E+000
  0
LINE
  8
PV
 62
     7
 10
8.920000E+002
 20
5.164000E+002
 30
0.000000E+000
 11
8.920000E+002
 21
4.926000E+002
 31
0.000000E+000
  0
LINE
  8
PV
 62
     7
 10
8.850000E+002
 20
5.164000E+002
 30
0.000000E+000
 11
8.850000E+002
 21
4.926000E+002
 31
0.000000E+000
  0
LINE
  8
PV
 62
     7
 10
8.825000E+002
 20
4.926000E+002
 30
0.000000E+000
 11
8.945000E+002
 21
4.926000E+002
 31
0.000000E+000
  0
LINE
  8
PV
 62
     7
 10
8.920000E+002
 20
5.164000E+002
 30
0.000000E+000
 11
8.850000E+002
 21
5.164000E+002
 31
0.000000E+000
  0
TEXT
  8
PV
 62
     7
 10
9.239000E+002
 20
5.177500E+002
 30
0.000000E+000
 40
4.500000E+000
  1
P.P
 41
7.780000E-001
  7
FONT1
  0
LINE
  8
PV
 62
     7
 10
9.350000E+002
 20
5.164000E+002
 30
0.000000E+000
 11
9.350000E+002
 21
4.926000E+002
 31
0.000000E+000
  0
LINE
  8
PV
 62
     7
 10
9.280000E+002
 20
5.164000E+002
 30
0.000000E+000
 11
9.280000E+002
 21
4.926000E+002
 31
0.000000E+000
  0
LINE
  8
PV
 62
     7
 10
9.255000E+002
 20
4.926000E+002
 30
0.000000E+000
 11
9.375000E+002
 21
4.926000E+002
 31
0.000000E+000
  0
LINE
  8
PV
 62
     7
 10
9.350000E+002
 20
5.164000E+002
 30
0.000000E+000
 11
9.280000E+002
 21
5.164000E+002
 31
0.000000E+000
  0
LINE
  8
PV
 62
     7
 10
9.200000E+002
 20
5.200000E+002
 30
0.000000E+000
 11
9.220000E+002
 21
5.200000E+002
 31
0.000000E+000
  0
CIRCLE
  8
PV
 62
     7
 10
7.895000E+002
 20
6.165000E+002
 30
0.000000E+000
 40
3.500000E+000
  0
LINE
  8
PV
 62
     7
 10
7.860360E+002
 20
6.225000E+002
 30
0.000000E+000
 11
7.825720E+002
 21
6.165000E+002
 31
0.000000E+000
  0
LINE
  8
PV
 62
     7
 10
7.964280E+002
 20
6.165000E+002
 30
0.000000E+000
 11
7.929640E+002
 21
6.225000E+002
 31
0.000000E+000
  0
LINE
  8
PV
 62
     7
 10
7.815000E+002
 20
6.270000E+002
 30
0.000000E+000
 11
7.815000E+002
 21
5.630000E+002
 31
0.000000E+000
  0
LINE
  8
PV
 62
     7
 10
7.975000E+002
 20
6.270000E+002
 30
0.000000E+000
 11
7.975000E+002
 21
5.630000E+002
 31
0.000000E+000
  0
LINE
  8
PV
 62
     7
 10
7.964280E+002
 20
5.735000E+002
 30
0.000000E+000
 11
7.929640E+002
 21
5.675000E+002
 31
0.000000E+000
  0
LINE
  8
PV
 62
     7
 10
7.860360E+002
 20
5.675000E+002
 30
0.000000E+000
 11
7.825720E+002
 21
5.735000E+002
 31
0.000000E+000
  0
LINE
  8
PV
 62
     7
 10
7.815000E+002
 20
5.630000E+002
 30
0.000000E+000
 11
7.975000E+002
 21
5.630000E+002
 31
0.000000E+000
  0
LINE
  8
PV
 62
     7
 10
7.929640E+002
 20
5.675000E+002
 30
0.000000E+000
 11
7.860360E+002
 21
5.675000E+002
 31
0.000000E+000
  0
LINE
  8
PV
 62
     7
 10
7.860360E+002
 20
5.795000E+002
 30
0.000000E+000
 11
7.929640E+002
 21
5.795000E+002
 31
0.000000E+000
  0
CIRCLE
  8
PV
 62
     7
 10
7.895000E+002
 20
5.735000E+002
 30
0.000000E+000
 40
3.500000E+000
  0
LINE
  8
PV
 62
     7
 10
7.825720E+002
 20
5.735000E+002
 30
0.000000E+000
 11
7.860360E+002
 21
5.795000E+002
 31
0.000000E+000
  0
LINE
  8
PV
 62
     7
 10
7.929640E+002
 20
5.795000E+002
 30
0.000000E+000
 11
7.964280E+002
 21
5.735000E+002
 31
0.000000E+000
  0
LINE
  8
PV
 62
     7
 10
7.860360E+002
 20
6.105000E+002
 30
0.000000E+000
 11
7.929640E+002
 21
6.105000E+002
 31
0.000000E+000
  0
LINE
  8
PV
 62
     7
 10
7.825720E+002
 20
6.165000E+002
 30
0.000000E+000
 11
7.860360E+002
 21
6.105000E+002
 31
0.000000E+000
  0
LINE
  8
PV
 62
     7
 10
7.929640E+002
 20
6.105000E+002
 30
0.000000E+000
 11
7.964280E+002
 21
6.165000E+002
 31
0.000000E+000
  0
LINE
  8
PV
 62
     7
 10
7.929640E+002
 20
6.225000E+002
 30
0.000000E+000
 11
7.860360E+002
 21
6.225000E+002
 31
0.000000E+000
  0
LINE
  8
PV
 62
     7
 10
7.815000E+002
 20
6.270000E+002
 30
0.000000E+000
 11
7.975000E+002
 21
6.270000E+002
 31
0.000000E+000
  0
LINE
  8
PV
  6
CENTER
 62
     1
 10
7.895000E+002
 20
6.810000E+002
 30
0.000000E+000
 11
7.895000E+002
 21
6.710000E+002
 31
0.000000E+000
  0
TEXT
  8
PV
 62
     7
 10
6.198996E+002
 20
7.000000E+002
 30
0.000000E+000
 40
4.500000E+000
  1
MODEL No. : 6212-50
 41
9.035800E-001
  7
FONT1
  0
TEXT
  8
PV
 62
     7
 10
6.198999E+002
 20
6.900000E+002
 30
0.000000E+000
 40
4.500000E+000
  1
(L17-600-MPDB)
 41
9.047622E-001
  7
FONT1
  0
TEXT
  8
PV
 62
     7
 10
6.199000E+002
 20
7.100000E+002
 30
0.000000E+000
 40
4.500000E+000
  1
L TYPE BRACKET
  7
FONT1
  0
LINE
  8
PV
  6
CENTER
 62
     1
 10
9.960000E+002
 20
4.246000E+002
 30
0.000000E+000
 11
9.810000E+002
 21
4.246000E+002
 31
0.000000E+000
  0
LINE
  8
PV
  6
CENTER
 62
     1
 10
9.960000E+002
 20
4.676000E+002
 30
0.000000E+000
 11
9.810000E+002
 21
4.676000E+002
 31
0.000000E+000
  0
LINE
  8
PV
 62
     7
 10
4.452770E+002
 20
3.506400E+002
 30
0.000000E+000
 11
4.747770E+002
 21
3.506400E+002
 31
0.000000E+000
  0
LINE
  8
PV
 62
     7
 10
4.697150E+002
 20
3.641270E+002
 30
0.000000E+000
 11
4.700080E+002
 21
3.506400E+002
 31
0.000000E+000
  0
LINE
  8
PV
 62
     7
 10
4.502850E+002
 20
3.641270E+002
 30
0.000000E+000
 11
4.499920E+002
 21
3.506400E+002
 31
0.000000E+000
  0
LINE
  8
PV
 62
     7
 10
4.452770E+002
 20
3.470000E+002
 30
0.000000E+000
 11
4.452770E+002
 21
3.506400E+002
 31
0.000000E+000
  0
LINE
  8
PV
 62
     7
 10
4.574000E+002
 20
3.506400E+002
 30
0.000000E+000
 11
4.594000E+002
 21
3.506400E+002
 31
0.000000E+000
  0
LINE
  8
PV
 62
     7
 10
4.663500E+002
 20
3.690000E+002
 30
0.000000E+000
 11
4.536500E+002
 21
3.690000E+002
 31
0.000000E+000
  0
LINE
  8
PV
 62
     7
 10
4.666400E+002
 20
3.665150E+002
 30
0.000000E+000
 11
4.533590E+002
 21
3.665150E+002
 31
0.000000E+000
  0
LINE
  8
PV
 62
     7
 10
4.695200E+002
 20
3.647000E+002
 30
0.000000E+000
 11
4.504800E+002
 21
3.647000E+002
 31
0.000000E+000
  0
LINE
  8
PV
 62
     7
 10
4.530000E+002
 20
3.662080E+002
 30
0.000000E+000
 11
4.507970E+002
 21
3.649790E+002
 31
0.000000E+000
  0
LINE
  8
PV
 62
     7
 10
4.530000E+002
 20
3.662080E+002
 30
0.000000E+000
 11
4.507970E+002
 21
3.649790E+002
 31
0.000000E+000
  0
ARC
  8
PV
 62
     7
 10
4.512840E+002
 20
3.641060E+002
 30
0.000000E+000
 40
1.000000E+000
 50
1.191620E+002
 51
1.787560E+002
  0
ARC
  8
PV
 62
     7
 10
4.525500E+002
 20
3.671020E+002
 30
0.000000E+000
 40
1.000000E+000
 50
2.991620E+002
 51
0.000000E+000
  0
ARC
  8
PV
 62
     7
 10
4.536500E+002
 20
3.689000E+002
 30
0.000000E+000
 40
1.000000E-001
 50
9.000000E+001
 51
1.800000E+002
  0
LINE
  8
PV
 62
     7
 10
4.535500E+002
 20
3.689000E+002
 30
0.000000E+000
 11
4.535500E+002
 21
3.671020E+002
 31
0.000000E+000
  0
LINE
  8
PV
 62
     7
 10
4.669630E+002
 20
3.662290E+002
 30
0.000000E+000
 11
4.692030E+002
 21
3.649790E+002
 31
0.000000E+000
  0
LINE
  8
PV
 62
     7
 10
4.669630E+002
 20
3.662290E+002
 30
0.000000E+000
 11
4.692010E+002
 21
3.649800E+002
 31
0.000000E+000
  0
ARC
  8
PV
 62
     7
 10
4.663500E+002
 20
3.689000E+002
 30
0.000000E+000
 40
1.000000E-001
 50
0.000000E+000
 51
9.000000E+001
  0
LINE
  8
PV
 62
     7
 10
4.664500E+002
 20
3.689000E+002
 30
0.000000E+000
 11
4.664500E+002
 21
3.671020E+002
 31
0.000000E+000
  0
ARC
  8
PV
 62
     7
 10
4.674500E+002
 20
3.671020E+002
 30
0.000000E+000
 40
1.000000E+000
 50
1.800000E+002
 51
2.408380E+002
  0
ARC
  8
PV
 62
     7
 10
4.687150E+002
 20
3.641060E+002
 30
0.000000E+000
 40
1.000000E+000
 50
1.244080E+000
 51
6.083840E+001
  0
LINE
  8
PV
 62
     7
 10
4.747770E+002
 20
3.470000E+002
 30
0.000000E+000
 11
4.747770E+002
 21
3.506400E+002
 31
0.000000E+000
  0
ENDSEC
  0
EOF
