  0
SECTION
  2
HEADER
  9
$ACADVER
  1
AC1006
  9
$INSBASE
 10
0.0
 20
0.0
 30
0.0
  9
$EXTMIN
 10
0.000000
 20
0.000000
  9
$EXTMAX
 10
10.000000
 20
10.000000
  9
$LIMMIN
 10
0.0
 20
0.0
  9
$LIMMAX
 10
12.0
 20
9.0
  9
$ORTHOMODE
 70
     0
  9
$REGENMODE
 70
     1
  9
$FILLMODE
 70
     1
  9
$QTEXTMODE
 70
     0
  9
$MIRRTEXT
 70
     1
  9
$DRAGMODE
 70
     2
  9
$LTSCALE
 40
10.000000
  9
$OSMODE
 70
     0
  9
$ATTMODE
 70
     1
  9
$TEXTSIZE
 40
0.2
  9
$TRACEWID
 40
0.05
  9
$TEXTSTYLE
  7
STANDARD
  9
$CLAYER
  8
0
  9
$CELTYPE
  6
BYLAYER
  9
$CECOLOR
 62
   256
  9
$DIMSCALE
 40
1.0
  9
$DIMASZ
 40
0.18
  9
$DIMEXO
 40
0.0625
  9
$DIMDLI
 40
0.38
  9
$DIMRND
 40
0.0
  9
$DIMDLE
 40
0.0
  9
$DIMEXE
 40
0.18
  9
$DIMTP
 40
0.0
  9
$DIMTM
 40
0.0
  9
$DIMTXT
 40
0.18
  9
$DIMCEN
 40
0.09
  9
$DIMTSZ
 40
0.0
  9
$DIMTOL
 70
     0
  9
$DIMLIM
 70
     0
  9
$DIMTIH
 70
     1
  9
$DIMTOH
 70
     1
  9
$DIMSE1
 70
     0
  9
$DIMSE2
 70
     0
  9
$DIMTAD
 70
     0
  9
$DIMZIN
 70
     0
  9
$DIMBLK
  1

  9
$DIMASO
 70
     1
  9
$DIMSHO
 70
     0
  9
$DIMPOST
  1

  9
$DIMAPOST
  1

  9
$DIMALT
 70
     0
  9
$DIMALTD
 70
     2
  9
$DIMALTF
 40
25.4
  9
$DIMLFAC
 40
1.0
  9
$DIMTOFL
 70
     0
  9
$DIMTVP
 40
0.0
  9
$DIMTIX
 70
     0
  9
$DIMSOXD
 70
     0
  9
$DIMSAH
 70
     0
  9
$DIMBLK1
  1

  9
$DIMBLK2
  1

  9
$LUNITS
 70
     2
  9
$LUPREC
 70
     4
  9
$AXISMODE
 70
     0
  9
$AXISUNIT
 10
0.0
 20
0.0
  9
$SKETCHINC
 40
0.1
  9
$FILLETRAD
 40
0.0
  9
$AUNITS
 70
     0
  9
$AUPREC
 70
     0
  9
$MENU
  1
acad
  9
$ELEVATION
 40
0.0
  9
$THICKNESS
 40
0.0
  9
$LIMCHECK
 70
     0
  9
$BLIPMODE
 70
     1
  9
$CHAMFERA
 40
0.0
  9
$CHAMFERB
 40
0.0
  9
$SKPOLY
 70
     0
  9
$TDCREATE
 40
2448751.5905787037
  9
$TDUPDATE
 40
2448751.5905787037
  9
$TDINDWG
 40
0.0000000000
  9
$TDUSRTIMER
 40
0.0000000000
  9
$USRTIMER
 70
     1
  9
$ANGBASE
 50
0.0
  9
$ANGDIR
 70
     0
  9
$PDMODE
 70
     0
  9
$PDSIZE
 40
0.0
  9
$PLINEWID
 40
0.0
  9
$COORDS
 70
     0
  9
$SPLFRAME
 70
     0
  9
$SPLINETYPE
 70
     6
  9
$SPLINESEGS
 70
     8
  9
$ATTDIA
 70
     0
  9
$ATTREQ
 70
     1
  9
$HANDLING
 70
     0
  9
$HANDSEED
  5
0
  9
$SURFTAB1
 70
     6
  9
$SURFTAB2
 70
     6
  9
$SURFTYPE
 70
     6
  9
$SURFU
 70
     6
  9
$SURFV
 70
     6
  9
$FLATLAND
 70
     0
  9
$UCSNAME
  2

  9
$UCSORG
 10
0.0
 20
0.0
 30
0.0
  9
$UCSXDIR
 10
1.0
 20
0.0
 30
0.0
  9
$UCSYDIR
 10
0.0
 20
1.0
 30
0.0
  9
$USERI1
 70
     0
  9
$USERI2
 70
     0
  9
$USERI3
 70
     0
  9
$USERI4
 70
     0
  9
$USERI5
 70
     0
  9
$USERR1
 40
0.0
  9
$USERR2
 40
0.0
  9
$USERR3
 40
0.0
  9
$USERR4
 40
0.0
  9
$USERR5
 40
0.0
  9
$WORLDVIEW
 70
     1
  0
ENDSEC
  0
SECTION
  2
TABLES
  0
TABLE
  2
VPORT
 70
     2
  0
VPORT
  2
*ACTIVE
 70
     0
 10
0.0
 20
0.0
 11
1.0
 21
1.0
 12
7.914286
 22
4.5
 13
0.0
 23
0.0
 14
1.0
 24
1.0
 15
0.0
 25
0.0
 16
0.0
 26
0.0
 36
1.0
 17
0.0
 27
0.0
 37
0.0
 40
9.0
 41
1.75873
 42
50.0
 43
0.0
 44
0.0
 50
0.0
 51
0.0
 71
     0
 72
   100
 73
     1
 74
     1
 75
     0
 76
     0
 77
     0
 78
     0
  0
ENDTAB
  0
TABLE
  2
LTYPE
 70
     9
  0
LTYPE
  2
CONTINUOUS
 70
    64
  3
実線
 72
    65
 73
     0
 40
0.0
  0
LTYPE
  2
DASHED
 70
    64
  3
__ __ __ __ __ __ __ __ __ __ __ __ __ __ __
 72
    65
 73
     2
 40
0.75
 49
0.5
 49
-0.25
  0
LTYPE
  2
HIDDEN
 70
    64
  3
_ _ _ _ _ _ _ _ _ _ _ _ _ _ _ _ _ _ _ _ _ _ _
 72
    65
 73
     2
 40
0.375
 49
0.25
 49
-0.125
  0
LTYPE
  2
CENTER
 70
    64
  3
____ _ ____ _ ____ _ ____ _ ____ _ ____ _ ____
 72
    65
 73
     4
 40
2.0
 49
1.25
 49
-0.25
 49
0.25
 49
-0.25
  0
LTYPE
  2
PHANTOM
 70
    64
  3
_____ _ _ _____ _ _ _____ _ _ _____ _ _ ____
 72
    65
 73
     6
 40
2.5
 49
1.25
 49
-0.25
 49
0.25
 49
-0.25
 49
0.25
 49
-0.25
  0
LTYPE
  2
DOT
 70
    64
  3
...............................................
 72
    65
 73
     2
 40
0.25
 49
0.0
 49
-0.25
  0
LTYPE
  2
DASHDOT
 70
    64
  3
__ . __ . __ . __ . __ . __ . __ . __ . __ . __
 72
    65
 73
     4
 40
1.0
 49
0.5
 49
-0.25
 49
0.0
 49
-0.25
  0
LTYPE
  2
DIVIDE
 70
    64
  3
__ . . __ . . __ . . __ . . __ . . __ . . __
 72
    65
 73
     6
 40
1.25
 49
0.5
 49
-0.25
 49
0.0
 49
-0.25
 49
0.0
 49
-0.25
  0
LTYPE
  2
BORDER
 70
    64
  3
__ __ . __ __ . __ __ . __ __ . __ __ . __ __
 72
    65
 73
     6
 40
1.75
 49
0.5
 49
-0.25
 49
0.5
 49
-0.25
 49
0.0
 49
-0.25
  0
ENDTAB
  0
TABLE
  2
LAYER
 70
     2
  0
LAYER
  2
0
 70
     0
 62
     7
  6
CONTINUOUS
  0
LAYER
  2
PV
 70
     0
 62
     7
  6
CONTINUOUS
  0
ENDTAB
  0
TABLE
  2
STYLE
 70
     3
  0
STYLE
  2
STANDARD
 70
     0
 40
0.0
 41
1.0
 50
0.0
 71
     0
 42
0.2
  3
txt
  4

  0
STYLE
  2
FONT1
 70
     0
 40
0.0
 41
1.0
 50
0.0
 71
     0
 42
0.2
  3
MONOTXT
  4

  0
STYLE
  2
FONT2
 70
     0
 40
0.0
 41
1.0
 50
0.0
 71
     0
 42
0.2
  3
MONOTXT
  4
BIGFONT
  0
ENDTAB
  0
TABLE
  2
VIEW
 70
     0
  0
ENDTAB
  0
TABLE
  2
UCS
 70
     0
  0
ENDTAB
  0
TABLE
  2
DWGMGR
 70
     0
  0
ENDTAB
  0
ENDSEC
  0
SECTION
  2
BLOCKS
  0
ENDSEC
  0
SECTION
  2
ENTITIES
  0
LINE
  8
PV
  6
CENTER
 62
     1
 10
4.000000E+002
 20
7.479190E+002
 30
0.000000E+000
 11
4.000000E+002
 21
5.298340E+001
 31
0.000000E+000
  0
LINE
  8
PV
 62
     7
 10
5.337000E+002
 20
6.400000E+002
 30
0.000000E+000
 11
2.663000E+002
 21
6.400000E+002
 31
0.000000E+000
  0
LINE
  8
PV
 62
     7
 10
5.337000E+002
 20
2.160000E+002
 30
0.000000E+000
 11
5.337000E+002
 21
6.014080E+002
 31
0.000000E+000
  0
LINE
  8
PV
 62
     7
 10
2.663000E+002
 20
1.600000E+002
 30
0.000000E+000
 11
2.663000E+002
 21
6.400000E+002
 31
0.000000E+000
  0
LINE
  8
PV
  6
CENTER
 62
     1
 10
4.856020E+002
 20
1.900000E+002
 30
0.000000E+000
 11
5.502730E+002
 21
1.900000E+002
 31
0.000000E+000
  0
LINE
  8
PV
  6
CENTER
 62
     1
 10
5.558250E+002
 20
6.100000E+002
 30
0.000000E+000
 11
4.837510E+002
 21
6.100000E+002
 31
0.000000E+000
  0
LINE
  8
PV
 62
     7
 10
4.550000E+002
 20
6.400000E+002
 30
0.000000E+000
 11
4.550000E+002
 21
6.560000E+002
 31
0.000000E+000
  0
LINE
  8
PV
 62
     7
 10
4.550000E+002
 20
6.560000E+002
 30
0.000000E+000
 11
4.156520E+002
 21
6.560000E+002
 31
0.000000E+000
  0
LINE
  8
PV
 62
     7
 10
4.385000E+002
 20
6.580000E+002
 30
0.000000E+000
 11
4.385000E+002
 21
6.560000E+002
 31
0.000000E+000
  0
LINE
  8
PV
 62
     7
 10
3.450000E+002
 20
6.400000E+002
 30
0.000000E+000
 11
3.450000E+002
 21
6.440000E+002
 31
0.000000E+000
  0
LINE
  8
PV
 62
     7
 10
3.615000E+002
 20
6.580000E+002
 30
0.000000E+000
 11
3.615000E+002
 21
6.560000E+002
 31
0.000000E+000
  0
LINE
  8
PV
 62
     7
 10
4.150000E+002
 20
1.600000E+002
 30
0.000000E+000
 11
4.150000E+002
 21
1.325000E+002
 31
0.000000E+000
  0
LINE
  8
PV
 62
     7
 10
3.850000E+002
 20
1.600000E+002
 30
0.000000E+000
 11
3.850000E+002
 21
7.200000E+001
 31
0.000000E+000
  0
LINE
  8
PV
 62
     7
 10
3.750000E+002
 20
7.200000E+001
 30
0.000000E+000
 11
3.750000E+002
 21
6.600000E+001
 31
0.000000E+000
  0
LINE
  8
PV
 62
     7
 10
4.250000E+002
 20
7.200000E+001
 30
0.000000E+000
 11
4.250000E+002
 21
6.600000E+001
 31
0.000000E+000
  0
LINE
  8
PV
 62
     7
 10
3.750000E+002
 20
6.600000E+001
 30
0.000000E+000
 11
4.250000E+002
 21
6.600000E+001
 31
0.000000E+000
  0
LINE
  8
PV
 62
     7
 10
4.250000E+002
 20
7.200000E+001
 30
0.000000E+000
 11
3.750000E+002
 21
7.200000E+001
 31
0.000000E+000
  0
LINE
  8
PV
 62
     7
 10
2.942120E+002
 20
1.600000E+002
 30
0.000000E+000
 11
5.107880E+002
 21
1.600000E+002
 31
0.000000E+000
  0
LINE
  8
PV
 62
     7
 10
2.327410E+002
 20
6.600000E+001
 30
0.000000E+000
 11
2.987550E+002
 21
6.600000E+001
 31
0.000000E+000
  0
LINE
  8
PV
 62
     7
 10
5.672590E+002
 20
7.200000E+001
 30
0.000000E+000
 11
5.012450E+002
 21
7.200000E+001
 31
0.000000E+000
  0
LINE
  8
PV
 62
     7
 10
2.577410E+002
 20
7.200000E+001
 30
0.000000E+000
 11
2.577410E+002
 21
6.600000E+001
 31
0.000000E+000
  0
LINE
  8
PV
 62
     7
 10
2.327410E+002
 20
7.200000E+001
 30
0.000000E+000
 11
2.327410E+002
 21
6.600000E+001
 31
0.000000E+000
  0
LINE
  8
PV
 62
     7
 10
2.987550E+002
 20
7.200000E+001
 30
0.000000E+000
 11
2.987550E+002
 21
6.600000E+001
 31
0.000000E+000
  0
LINE
  8
PV
 62
     7
 10
2.917120E+002
 20
2.160000E+002
 30
0.000000E+000
 11
2.917120E+002
 21
7.200000E+001
 31
0.000000E+000
  0
LINE
  8
PV
 62
     7
 10
2.663000E+002
 20
2.160000E+002
 30
0.000000E+000
 11
2.663000E+002
 21
7.200000E+001
 31
0.000000E+000
  0
LINE
  8
PV
 62
     7
 10
2.642320E+002
 20
2.160000E+002
 30
0.000000E+000
 11
2.642320E+002
 21
7.200000E+001
 31
0.000000E+000
  0
LINE
  8
PV
 62
     7
 10
5.672590E+002
 20
7.200000E+001
 30
0.000000E+000
 11
5.672590E+002
 21
6.600000E+001
 31
0.000000E+000
  0
LINE
  8
PV
 62
     7
 10
5.422590E+002
 20
7.200000E+001
 30
0.000000E+000
 11
5.422590E+002
 21
6.600000E+001
 31
0.000000E+000
  0
LINE
  8
PV
 62
     7
 10
5.012450E+002
 20
7.200000E+001
 30
0.000000E+000
 11
5.012450E+002
 21
6.600000E+001
 31
0.000000E+000
  0
LINE
  8
PV
 62
     7
 10
5.082880E+002
 20
2.160000E+002
 30
0.000000E+000
 11
5.082880E+002
 21
1.949500E+002
 31
0.000000E+000
  0
LINE
  8
PV
 62
     7
 10
5.108860E+002
 20
1.850500E+002
 30
0.000000E+000
 11
5.108860E+002
 21
7.200000E+001
 31
0.000000E+000
  0
LINE
  8
PV
 62
     7
 10
5.243860E+002
 20
2.160000E+002
 30
0.000000E+000
 11
5.243860E+002
 21
1.943990E+002
 31
0.000000E+000
  0
LINE
  8
PV
 62
     7
 10
5.477680E+002
 20
2.160000E+002
 30
0.000000E+000
 11
5.477680E+002
 21
7.200000E+001
 31
0.000000E+000
  0
LINE
  8
PV
 62
     7
 10
5.492680E+002
 20
2.160000E+002
 30
0.000000E+000
 11
5.492680E+002
 21
7.200000E+001
 31
0.000000E+000
  0
LINE
  8
PV
 62
     7
 10
2.987550E+002
 20
7.200000E+001
 30
0.000000E+000
 11
2.327410E+002
 21
7.200000E+001
 31
0.000000E+000
  0
LINE
  8
PV
 62
     7
 10
5.012450E+002
 20
6.600000E+001
 30
0.000000E+000
 11
5.672590E+002
 21
6.600000E+001
 31
0.000000E+000
  0
LINE
  8
PV
 62
     7
 10
5.492680E+002
 20
2.160000E+002
 30
0.000000E+000
 11
5.176320E+002
 21
2.160000E+002
 31
0.000000E+000
  0
LINE
  8
PV
 62
     7
 10
2.917120E+002
 20
2.160000E+002
 30
0.000000E+000
 11
2.642320E+002
 21
2.160000E+002
 31
0.000000E+000
  0
LINE
  8
PV
  6
CENTER
 62
     1
 10
2.614360E+002
 20
8.296400E+001
 30
0.000000E+000
 11
2.614360E+002
 21
5.898340E+001
 31
0.000000E+000
  0
LINE
  8
PV
  6
CENTER
 62
     1
 10
5.385640E+002
 20
8.296400E+001
 30
0.000000E+000
 11
5.385640E+002
 21
5.898340E+001
 31
0.000000E+000
  0
LINE
  8
PV
 62
     7
 10
4.450000E+002
 20
6.665000E+002
 30
0.000000E+000
 11
4.450000E+002
 21
6.580000E+002
 31
0.000000E+000
  0
LINE
  8
PV
 62
     7
 10
4.450000E+002
 20
6.580000E+002
 30
0.000000E+000
 11
4.181380E+002
 21
6.580000E+002
 31
0.000000E+000
  0
LINE
  8
PV
 62
     7
 10
3.710000E+002
 20
7.020000E+002
 30
0.000000E+000
 11
3.876310E+002
 21
7.020000E+002
 31
0.000000E+000
  0
LINE
  8
PV
  6
CENTER
 62
     1
 10
4.537290E+002
 20
6.810000E+002
 30
0.000000E+000
 11
3.463880E+002
 21
6.810000E+002
 31
0.000000E+000
  0
LINE
  8
PV
 62
     7
 10
4.435000E+002
 20
6.935000E+002
 30
0.000000E+000
 11
4.225000E+002
 21
6.935000E+002
 31
0.000000E+000
  0
LINE
  8
PV
 62
     7
 10
4.225000E+002
 20
7.020000E+002
 30
0.000000E+000
 11
4.225000E+002
 21
6.929250E+002
 31
0.000000E+000
  0
LINE
  8
PV
 62
     7
 10
3.775000E+002
 20
6.929250E+002
 30
0.000000E+000
 11
3.775000E+002
 21
7.020000E+002
 31
0.000000E+000
  0
LINE
  8
PV
 62
     7
 10
4.398630E+002
 20
6.680000E+002
 30
0.000000E+000
 11
4.250800E+002
 21
6.680000E+002
 31
0.000000E+000
  0
LINE
  8
PV
 62
     7
 10
3.720000E+002
 20
7.020000E+002
 30
0.000000E+000
 11
3.720000E+002
 21
6.935000E+002
 31
0.000000E+000
  0
LINE
  8
PV
  6
CENTER
 62
     1
 10
3.363600E+002
 20
7.109690E+002
 30
0.000000E+000
 11
3.363600E+002
 21
6.248770E+002
 31
0.000000E+000
  0
LINE
  8
PV
  6
CENTER
 62
     1
 10
9.490880E+002
 20
1.010910E+003
 30
0.000000E+000
 11
9.236320E+002
 21
1.036370E+003
 31
0.000000E+000
  0
LINE
  8
PV
 62
     7
 10
1.049750E+003
 20
6.680000E+002
 30
0.000000E+000
 11
1.012500E+003
 21
6.680000E+002
 31
0.000000E+000
  0
LINE
  8
PV
 62
     7
 10
9.625000E+002
 20
6.680000E+002
 30
0.000000E+000
 11
9.625000E+002
 21
7.020000E+002
 31
0.000000E+000
  0
LINE
  8
PV
 62
     7
 10
1.007500E+003
 20
7.020000E+002
 30
0.000000E+000
 11
1.007500E+003
 21
6.910000E+002
 31
0.000000E+000
  0
LINE
  8
PV
 62
     7
 10
9.560000E+002
 20
7.020000E+002
 30
0.000000E+000
 11
1.014000E+003
 21
7.020000E+002
 31
0.000000E+000
  0
LINE
  8
PV
 62
     7
 10
1.050000E+003
 20
6.580000E+002
 30
0.000000E+000
 11
9.500000E+002
 21
6.580000E+002
 31
0.000000E+000
  0
LINE
  8
PV
 62
     7
 10
9.201600E+002
 20
1.068290E+003
 30
0.000000E+000
 11
9.461400E+002
 21
1.083290E+003
 31
0.000000E+000
  0
LINE
  8
PV
 62
     7
 10
9.461400E+002
 20
1.083290E+003
 30
0.000000E+000
 11
9.446400E+002
 21
1.085890E+003
 31
0.000000E+000
  0
LINE
  8
PV
 62
     7
 10
9.446400E+002
 20
1.085890E+003
 30
0.000000E+000
 11
9.212580E+002
 21
1.072390E+003
 31
0.000000E+000
  0
LINE
  8
PV
 62
     7
 10
9.201600E+002
 20
1.068290E+003
 30
0.000000E+000
 11
9.051600E+002
 21
1.094270E+003
 31
0.000000E+000
  0
LINE
  8
PV
 62
     7
 10
9.051600E+002
 20
1.094270E+003
 30
0.000000E+000
 11
9.077580E+002
 21
1.095770E+003
 31
0.000000E+000
  0
LINE
  8
PV
 62
     7
 10
9.077580E+002
 20
1.095770E+003
 30
0.000000E+000
 11
9.212580E+002
 21
1.072390E+003
 31
0.000000E+000
  0
CIRCLE
  8
PV
 62
     7
 10
1.000000E+003
 20
9.600000E+002
 30
0.000000E+000
 40
5.500000E+001
  0
ARC
  8
PV
  6
CENTER
 62
     1
 10
1.000000E+003
 20
9.600000E+002
 30
0.000000E+000
 40
1.600000E+002
 50
1.146240E+002
 51
1.249670E+002
  0
CIRCLE
  8
PV
 62
     7
 10
9.200000E+002
 20
1.098560E+003
 30
0.000000E+000
 40
7.500000E+000
  0
LINE
  8
PV
 62
     7
 10
8.889990E+002
 20
1.102260E+003
 30
0.000000E+000
 11
9.323010E+002
 21
1.127260E+003
 31
0.000000E+000
  0
LINE
  8
PV
 62
     7
 10
9.126780E+002
 20
1.061250E+003
 30
0.000000E+000
 11
8.889990E+002
 21
1.102260E+003
 31
0.000000E+000
  0
LINE
  8
PV
 62
     7
 10
9.323010E+002
 20
1.127260E+003
 30
0.000000E+000
 11
9.559800E+002
 21
1.086250E+003
 31
0.000000E+000
  0
LINE
  8
PV
 62
     7
 10
9.461400E+002
 20
8.367120E+002
 30
0.000000E+000
 11
9.201600E+002
 21
8.517120E+002
 31
0.000000E+000
  0
LINE
  8
PV
 62
     7
 10
9.201600E+002
 20
8.517120E+002
 30
0.000000E+000
 11
9.186600E+002
 21
8.491140E+002
 31
0.000000E+000
  0
LINE
  8
PV
 62
     7
 10
9.186600E+002
 20
8.491140E+002
 30
0.000000E+000
 11
9.420420E+002
 21
8.356140E+002
 31
0.000000E+000
  0
LINE
  8
PV
 62
     7
 10
9.461400E+002
 20
8.367120E+002
 30
0.000000E+000
 11
9.311400E+002
 21
8.107320E+002
 31
0.000000E+000
  0
LINE
  8
PV
 62
     7
 10
9.311400E+002
 20
8.107320E+002
 30
0.000000E+000
 11
9.285420E+002
 21
8.122320E+002
 31
0.000000E+000
  0
LINE
  8
PV
 62
     7
 10
9.285420E+002
 20
8.122320E+002
 30
0.000000E+000
 11
9.420420E+002
 21
8.356140E+002
 31
0.000000E+000
  0
LINE
  8
PV
 62
     7
 10
9.323010E+002
 20
7.927410E+002
 30
0.000000E+000
 11
9.559800E+002
 21
8.337550E+002
 31
0.000000E+000
  0
LINE
  8
PV
 62
     7
 10
9.126780E+002
 20
8.587550E+002
 30
0.000000E+000
 11
8.889990E+002
 21
8.177410E+002
 31
0.000000E+000
  0
LINE
  8
PV
 62
     7
 10
8.889990E+002
 20
8.177410E+002
 30
0.000000E+000
 11
9.323010E+002
 21
7.927410E+002
 31
0.000000E+000
  0
CIRCLE
  8
PV
 62
     7
 10
9.200000E+002
 20
8.214360E+002
 30
0.000000E+000
 40
7.500000E+000
  0
ARC
  8
PV
  6
CENTER
 62
     1
 10
1.000000E+003
 20
9.600000E+002
 30
0.000000E+000
 40
1.600000E+002
 50
2.350330E+002
 51
2.453760E+002
  0
ARC
  8
PV
  6
CENTER
 62
     1
 10
1.000000E+003
 20
9.600000E+002
 30
0.000000E+000
 40
1.600000E+002
 50
3.546240E+002
 51
4.966520E+000
  0
CIRCLE
  8
PV
 62
     7
 10
1.160000E+003
 20
9.600000E+002
 30
0.000000E+000
 40
7.500000E+000
  0
LINE
  8
PV
 62
     7
 10
1.178700E+003
 20
9.850000E+002
 30
0.000000E+000
 11
1.178700E+003
 21
9.350000E+002
 31
0.000000E+000
  0
LINE
  8
PV
 62
     7
 10
1.131340E+003
 20
9.850000E+002
 30
0.000000E+000
 11
1.178700E+003
 21
9.850000E+002
 31
0.000000E+000
  0
LINE
  8
PV
 62
     7
 10
1.178700E+003
 20
9.350000E+002
 30
0.000000E+000
 11
1.131340E+003
 21
9.350000E+002
 31
0.000000E+000
  0
LINE
  8
PV
 62
     7
 10
1.163700E+003
 20
9.720000E+002
 30
0.000000E+000
 11
1.136700E+003
 21
9.720000E+002
 31
0.000000E+000
  0
LINE
  8
PV
 62
     7
 10
1.163700E+003
 20
9.750000E+002
 30
0.000000E+000
 11
1.163700E+003
 21
9.720000E+002
 31
0.000000E+000
  0
LINE
  8
PV
 62
     7
 10
1.133700E+003
 20
9.750000E+002
 30
0.000000E+000
 11
1.163700E+003
 21
9.750000E+002
 31
0.000000E+000
  0
LINE
  8
PV
 62
     7
 10
1.136700E+003
 20
9.450000E+002
 30
0.000000E+000
 11
1.136700E+003
 21
9.720000E+002
 31
0.000000E+000
  0
LINE
  8
PV
 62
     7
 10
1.133700E+003
 20
9.450000E+002
 30
0.000000E+000
 11
1.136700E+003
 21
9.450000E+002
 31
0.000000E+000
  0
LINE
  8
PV
 62
     7
 10
1.133700E+003
 20
9.750000E+002
 30
0.000000E+000
 11
1.133700E+003
 21
9.450000E+002
 31
0.000000E+000
  0
LINE
  8
PV
 62
     7
 10
9.615000E+002
 20
6.580000E+002
 30
0.000000E+000
 11
9.615000E+002
 21
6.560000E+002
 31
0.000000E+000
  0
LINE
  8
PV
 62
     7
 10
9.450000E+002
 20
6.400000E+002
 30
0.000000E+000
 11
9.450000E+002
 21
6.560000E+002
 31
0.000000E+000
  0
LINE
  8
PV
 62
     7
 10
1.038500E+003
 20
6.580000E+002
 30
0.000000E+000
 11
1.038500E+003
 21
6.560000E+002
 31
0.000000E+000
  0
LINE
  8
PV
 62
     7
 10
1.055000E+003
 20
6.560000E+002
 30
0.000000E+000
 11
9.450000E+002
 21
6.560000E+002
 31
0.000000E+000
  0
LINE
  8
PV
 62
     7
 10
1.055000E+003
 20
6.400000E+002
 30
0.000000E+000
 11
1.055000E+003
 21
6.560000E+002
 31
0.000000E+000
  0
LINE
  8
PV
  6
CENTER
 62
     1
 10
9.375000E+002
 20
1.068250E+003
 30
0.000000E+000
 11
9.075000E+002
 21
1.120210E+003
 31
0.000000E+000
  0
LINE
  8
PV
  6
CENTER
 62
     1
 10
9.375000E+002
 20
8.517470E+002
 30
0.000000E+000
 11
9.075000E+002
 21
7.997850E+002
 31
0.000000E+000
  0
LINE
  8
PV
  6
CENTER
 62
     1
 10
9.341530E+002
 20
6.100000E+002
 30
0.000000E+000
 11
8.624900E+002
 21
6.100000E+002
 31
0.000000E+000
  0
LINE
  8
PV
  6
CENTER
 62
     1
 10
9.116120E+002
 20
8.716120E+002
 30
0.000000E+000
 11
8.797920E+002
 21
8.397920E+002
 31
0.000000E+000
  0
CIRCLE
  8
PV
 62
     7
 10
1.000000E+003
 20
9.600000E+002
 30
0.000000E+000
 40
1.337000E+002
  0
LINE
  8
PV
 62
     7
 10
8.663000E+002
 20
1.600000E+002
 30
0.000000E+000
 11
8.663000E+002
 21
6.400000E+002
 31
0.000000E+000
  0
LINE
  8
PV
 62
     7
 10
1.133700E+003
 20
7.200000E+001
 30
0.000000E+000
 11
1.133700E+003
 21
6.400000E+002
 31
0.000000E+000
  0
LINE
  8
PV
 62
     7
 10
1.133700E+003
 20
6.400000E+002
 30
0.000000E+000
 11
8.663000E+002
 21
6.400000E+002
 31
0.000000E+000
  0
LINE
  8
PV
  6
CENTER
 62
     1
 10
9.363600E+002
 20
6.783630E+002
 30
0.000000E+000
 11
9.363600E+002
 21
6.187250E+002
 31
0.000000E+000
  0
LINE
  8
PV
  6
CENTER
 62
     1
 10
9.054600E+002
 20
6.229940E+002
 30
0.000000E+000
 11
9.054600E+002
 21
1.418750E+002
 31
0.000000E+000
  0
LINE
  8
PV
 62
     7
 10
9.185000E+002
 20
9.850000E+002
 30
0.000000E+000
 11
9.000000E+002
 21
9.850000E+002
 31
0.000000E+000
  0
LINE
  8
PV
 62
     7
 10
9.185000E+002
 20
9.350000E+002
 30
0.000000E+000
 11
9.185000E+002
 21
9.850000E+002
 31
0.000000E+000
  0
LINE
  8
PV
 62
     7
 10
8.950000E+002
 20
9.870000E+002
 30
0.000000E+000
 11
8.950000E+002
 21
9.330000E+002
 31
0.000000E+000
  0
LINE
  8
PV
 62
     7
 10
8.950000E+002
 20
9.870000E+002
 30
0.000000E+000
 11
9.000000E+002
 21
9.870000E+002
 31
0.000000E+000
  0
LINE
  8
PV
 62
     7
 10
9.000000E+002
 20
9.870000E+002
 30
0.000000E+000
 11
9.000000E+002
 21
9.330000E+002
 31
0.000000E+000
  0
LINE
  8
PV
 62
     7
 10
9.000000E+002
 20
9.330000E+002
 30
0.000000E+000
 11
8.950000E+002
 21
9.330000E+002
 31
0.000000E+000
  0
LINE
  8
PV
 62
     7
 10
9.185000E+002
 20
9.350000E+002
 30
0.000000E+000
 11
9.000000E+002
 21
9.350000E+002
 31
0.000000E+000
  0
LINE
  8
PV
  6
CENTER
 62
     1
 10
9.223660E+002
 20
6.780000E+002
 30
0.000000E+000
 11
8.906980E+002
 21
6.780000E+002
 31
0.000000E+000
  0
LINE
  8
PV
 62
     7
 10
9.185000E+002
 20
6.530000E+002
 30
0.000000E+000
 11
9.000000E+002
 21
6.530000E+002
 31
0.000000E+000
  0
LINE
  8
PV
 62
     7
 10
9.000000E+002
 20
6.510000E+002
 30
0.000000E+000
 11
8.950000E+002
 21
6.510000E+002
 31
0.000000E+000
  0
LINE
  8
PV
 62
     7
 10
9.000000E+002
 20
7.050000E+002
 30
0.000000E+000
 11
9.000000E+002
 21
6.510000E+002
 31
0.000000E+000
  0
LINE
  8
PV
 62
     7
 10
8.950000E+002
 20
7.050000E+002
 30
0.000000E+000
 11
9.000000E+002
 21
7.050000E+002
 31
0.000000E+000
  0
LINE
  8
PV
 62
     7
 10
8.950000E+002
 20
7.050000E+002
 30
0.000000E+000
 11
8.950000E+002
 21
6.510000E+002
 31
0.000000E+000
  0
LINE
  8
PV
 62
     7
 10
9.185000E+002
 20
6.530000E+002
 30
0.000000E+000
 11
9.185000E+002
 21
7.030000E+002
 31
0.000000E+000
  0
LINE
  8
PV
 62
     7
 10
9.185000E+002
 20
7.030000E+002
 30
0.000000E+000
 11
9.000000E+002
 21
7.030000E+002
 31
0.000000E+000
  0
LINE
  8
PV
  6
CENTER
 62
     1
 10
9.100000E+002
 20
7.059850E+002
 30
0.000000E+000
 11
9.100000E+002
 21
6.229940E+002
 31
0.000000E+000
  0
LINE
  8
PV
 62
     7
 10
9.160000E+002
 20
6.530000E+002
 30
0.000000E+000
 11
9.160000E+002
 21
6.450000E+002
 31
0.000000E+000
  0
LINE
  8
PV
 62
     7
 10
9.040000E+002
 20
6.450000E+002
 30
0.000000E+000
 11
9.040000E+002
 21
6.530000E+002
 31
0.000000E+000
  0
LINE
  8
PV
 62
     7
 10
9.150000E+002
 20
6.400000E+002
 30
0.000000E+000
 11
9.150000E+002
 21
6.450000E+002
 31
0.000000E+000
  0
LINE
  8
PV
 62
     7
 10
9.040000E+002
 20
6.450000E+002
 30
0.000000E+000
 11
9.160000E+002
 21
6.450000E+002
 31
0.000000E+000
  0
LINE
  8
PV
 62
     7
 10
9.050000E+002
 20
6.400000E+002
 30
0.000000E+000
 11
9.050000E+002
 21
6.450000E+002
 31
0.000000E+000
  0
ARC
  8
PV
 62
     7
 10
1.000000E+003
 20
6.810000E+002
 30
0.000000E+000
 40
1.250000E+001
 50
5.005490E+001
 51
1.299450E+002
  0
LINE
  8
PV
 62
     7
 10
1.012500E+003
 20
6.580000E+002
 30
0.000000E+000
 11
1.012500E+003
 21
6.862680E+002
 31
0.000000E+000
  0
LINE
  8
PV
 62
     7
 10
1.011000E+003
 20
6.888660E+002
 30
0.000000E+000
 11
1.008030E+003
 21
6.905830E+002
 31
0.000000E+000
  0
LINE
  8
PV
 62
     7
 10
9.890000E+002
 20
6.888660E+002
 30
0.000000E+000
 11
9.919740E+002
 21
6.905830E+002
 31
0.000000E+000
  0
LINE
  8
PV
 62
     7
 10
9.875000E+002
 20
6.580000E+002
 30
0.000000E+000
 11
9.875000E+002
 21
6.862680E+002
 31
0.000000E+000
  0
ARC
  8
PV
 62
     7
 10
9.905000E+002
 20
6.862680E+002
 30
0.000000E+000
 40
3.000000E+000
 50
1.200000E+002
 51
1.800000E+002
  0
ARC
  8
PV
 62
     7
 10
1.009500E+003
 20
6.862680E+002
 30
0.000000E+000
 40
3.000000E+000
 50
0.000000E+000
 51
6.000000E+001
  0
LINE
  8
PV
 62
     7
 10
1.031500E+003
 20
6.750000E+002
 30
0.000000E+000
 11
1.012500E+003
 21
6.750000E+002
 31
0.000000E+000
  0
LINE
  8
PV
  6
CENTER
 62
     1
 10
1.022000E+003
 20
6.784890E+002
 30
0.000000E+000
 11
1.022000E+003
 21
6.601580E+002
 31
0.000000E+000
  0
LINE
  8
PV
  6
CENTER
 62
     1
 10
1.016440E+003
 20
6.810000E+002
 30
0.000000E+000
 11
9.829240E+002
 21
6.810000E+002
 31
0.000000E+000
  0
LINE
  8
PV
 62
     7
 10
1.033000E+003
 20
6.735000E+002
 30
0.000000E+000
 11
1.033000E+003
 21
6.680000E+002
 31
0.000000E+000
  0
LINE
  8
PV
 62
     7
 10
9.875000E+002
 20
6.680000E+002
 30
0.000000E+000
 11
9.502500E+002
 21
6.680000E+002
 31
0.000000E+000
  0
ARC
  8
PV
 62
     7
 10
1.031500E+003
 20
6.735000E+002
 30
0.000000E+000
 40
1.500000E+000
 50
0.000000E+000
 51
9.000000E+001
  0
LINE
  8
PV
  6
CENTER
 62
     1
 10
9.850000E+002
 20
9.250000E+002
 30
0.000000E+000
 11
9.850000E+002
 21
9.950000E+002
 31
0.000000E+000
  0
LINE
  8
PV
  6
CENTER
 62
     1
 10
1.013150E+003
 20
9.800000E+002
 30
0.000000E+000
 11
9.885790E+002
 21
9.800000E+002
 31
0.000000E+000
  0
ARC
  8
PV
 62
     7
 10
1.000000E+003
 20
9.600000E+002
 30
0.000000E+000
 40
4.250000E+001
 50
3.188460E+002
 51
3.502150E+002
  0
LINE
  8
PV
 62
     7
 10
1.012500E+003
 20
9.165000E+002
 30
0.000000E+000
 11
1.012500E+003
 21
9.400000E+002
 31
0.000000E+000
  0
LINE
  8
PV
 62
     7
 10
9.875000E+002
 20
9.165000E+002
 30
0.000000E+000
 11
9.875000E+002
 21
9.301040E+002
 31
0.000000E+000
  0
CIRCLE
  8
PV
 62
     7
 10
9.850000E+002
 20
9.600000E+002
 30
0.000000E+000
 40
2.600000E+001
  0
CIRCLE
  8
PV
 62
     7
 10
9.850000E+002
 20
9.600000E+002
 30
0.000000E+000
 40
3.000000E+001
  0
ARC
  8
PV
 62
     7
 10
1.000000E+003
 20
9.800000E+002
 30
0.000000E+000
 40
8.000000E+000
 50
3.549670E+002
 51
1.112930E+002
  0
LINE
  8
PV
 62
     7
 10
1.011000E+003
 20
1.005000E+003
 30
0.000000E+000
 11
9.890000E+002
 21
1.005000E+003
 31
0.000000E+000
  0
LINE
  8
PV
 62
     7
 10
1.011000E+003
 20
9.150000E+002
 30
0.000000E+000
 11
9.890000E+002
 21
9.150000E+002
 31
0.000000E+000
  0
LINE
  8
PV
 62
     7
 10
1.012500E+003
 20
9.800000E+002
 30
0.000000E+000
 11
1.010280E+003
 21
9.761540E+002
 31
0.000000E+000
  0
LINE
  8
PV
 62
     7
 10
1.012500E+003
 20
9.400000E+002
 30
0.000000E+000
 11
1.010280E+003
 21
9.438460E+002
 31
0.000000E+000
  0
LINE
  8
PV
 62
     7
 10
1.012500E+003
 20
9.800000E+002
 30
0.000000E+000
 11
1.012500E+003
 21
1.003500E+003
 31
0.000000E+000
  0
LINE
  8
PV
 62
     7
 10
9.875000E+002
 20
9.898960E+002
 30
0.000000E+000
 11
9.875000E+002
 21
1.003500E+003
 31
0.000000E+000
  0
LINE
  8
PV
  6
CENTER
 62
     1
 10
1.033000E+003
 20
9.940000E+002
 30
0.000000E+000
 11
1.019000E+003
 21
9.940000E+002
 31
0.000000E+000
  0
ARC
  8
PV
 62
     7
 10
1.026000E+003
 20
9.940000E+002
 30
0.000000E+000
 40
6.000000E+000
 50
0.000000E+000
 51
9.000000E+001
  0
LINE
  8
PV
 62
     7
 10
1.026000E+003
 20
1.000000E+003
 30
0.000000E+000
 11
1.012500E+003
 21
1.000710E+003
 31
0.000000E+000
  0
LINE
  8
PV
 62
     7
 10
1.032000E+003
 20
9.940000E+002
 30
0.000000E+000
 11
1.032000E+003
 21
9.879690E+002
 31
0.000000E+000
  0
ARC
  8
PV
 62
     7
 10
1.026000E+003
 20
9.260000E+002
 30
0.000000E+000
 40
6.000000E+000
 50
2.700000E+002
 51
3.600000E+002
  0
LINE
  8
PV
 62
     7
 10
1.026000E+003
 20
9.200000E+002
 30
0.000000E+000
 11
1.012500E+003
 21
9.192920E+002
 31
0.000000E+000
  0
LINE
  8
PV
 62
     7
 10
1.032000E+003
 20
9.260000E+002
 30
0.000000E+000
 11
1.032000E+003
 21
9.320310E+002
 31
0.000000E+000
  0
LINE
  8
PV
  6
CENTER
 62
     1
 10
1.033000E+003
 20
9.260000E+002
 30
0.000000E+000
 11
1.019000E+003
 21
9.260000E+002
 31
0.000000E+000
  0
LINE
  8
PV
  6
CENTER
 62
     1
 10
1.026000E+003
 20
9.870000E+002
 30
0.000000E+000
 11
1.026000E+003
 21
1.001000E+003
 31
0.000000E+000
  0
LINE
  8
PV
  6
CENTER
 62
     1
 10
1.026000E+003
 20
9.190000E+002
 30
0.000000E+000
 11
1.026000E+003
 21
9.330000E+002
 31
0.000000E+000
  0
ARC
  8
PV
 62
     7
 10
1.044000E+003
 20
9.600000E+002
 30
0.000000E+000
 40
6.000000E+000
 50
2.700000E+002
 51
9.000000E+001
  0
LINE
  8
PV
 62
     7
 10
1.044000E+003
 20
9.660000E+002
 30
0.000000E+000
 11
1.041880E+003
 21
9.672230E+002
 31
0.000000E+000
  0
LINE
  8
PV
 62
     7
 10
1.044000E+003
 20
9.540000E+002
 30
0.000000E+000
 11
1.041880E+003
 21
9.527770E+002
 31
0.000000E+000
  0
ARC
  8
PV
 62
     7
 10
1.000000E+003
 20
9.600000E+002
 30
0.000000E+000
 40
4.250000E+001
 50
9.785070E+000
 51
4.115420E+001
  0
LINE
  8
PV
  6
CENTER
 62
     1
 10
1.044000E+003
 20
9.515660E+002
 30
0.000000E+000
 11
1.044000E+003
 21
9.685160E+002
 31
0.000000E+000
  0
LINE
  8
PV
  6
CENTER
 62
     1
 10
9.560000E+002
 20
9.515660E+002
 30
0.000000E+000
 11
9.560000E+002
 21
9.685160E+002
 31
0.000000E+000
  0
ARC
  8
PV
 62
     7
 10
1.000000E+003
 20
9.600000E+002
 30
0.000000E+000
 40
4.250000E+001
 50
1.388460E+002
 51
1.525300E+002
  0
ARC
  8
PV
 62
     7
 10
9.560000E+002
 20
9.600000E+002
 30
0.000000E+000
 40
6.000000E+000
 50
9.000000E+001
 51
2.700000E+002
  0
LINE
  8
PV
  6
CENTER
 62
     1
 10
9.740000E+002
 20
9.864700E+002
 30
0.000000E+000
 11
9.740000E+002
 21
1.001000E+003
 31
0.000000E+000
  0
LINE
  8
PV
 62
     7
 10
9.680000E+002
 20
9.260000E+002
 30
0.000000E+000
 11
9.680000E+002
 21
9.320310E+002
 31
0.000000E+000
  0
ARC
  8
PV
 62
     7
 10
9.740000E+002
 20
9.260000E+002
 30
0.000000E+000
 40
6.000000E+000
 50
1.800000E+002
 51
2.700000E+002
  0
LINE
  8
PV
 62
     7
 10
9.680000E+002
 20
9.940000E+002
 30
0.000000E+000
 11
9.680000E+002
 21
9.879690E+002
 31
0.000000E+000
  0
ARC
  8
PV
 62
     7
 10
9.740000E+002
 20
9.940000E+002
 30
0.000000E+000
 40
6.000000E+000
 50
9.000000E+001
 51
1.800000E+002
  0
ARC
  8
PV
 62
     7
 10
1.000000E+003
 20
9.600000E+002
 30
0.000000E+000
 40
4.250000E+001
 50
2.074700E+002
 51
2.211540E+002
  0
LINE
  8
PV
 62
     7
 10
9.740000E+002
 20
1.000000E+003
 30
0.000000E+000
 11
9.875000E+002
 21
1.000710E+003
 31
0.000000E+000
  0
LINE
  8
PV
  6
CENTER
 62
     1
 10
9.670000E+002
 20
9.940000E+002
 30
0.000000E+000
 11
9.810000E+002
 21
9.940000E+002
 31
0.000000E+000
  0
LINE
  8
PV
 62
     7
 10
9.740000E+002
 20
9.200000E+002
 30
0.000000E+000
 11
9.875000E+002
 21
9.192920E+002
 31
0.000000E+000
  0
ARC
  8
PV
 62
     7
 10
9.890000E+002
 20
1.003500E+003
 30
0.000000E+000
 40
1.500000E+000
 50
9.000000E+001
 51
1.800000E+002
  0
ARC
  8
PV
 62
     7
 10
1.011000E+003
 20
1.003500E+003
 30
0.000000E+000
 40
1.500000E+000
 50
0.000000E+000
 51
9.000000E+001
  0
ARC
  8
PV
 62
     7
 10
9.890000E+002
 20
9.165000E+002
 30
0.000000E+000
 40
1.500000E+000
 50
1.800000E+002
 51
2.700000E+002
  0
ARC
  8
PV
 62
     7
 10
1.011000E+003
 20
9.165000E+002
 30
0.000000E+000
 40
1.500000E+000
 50
2.700000E+002
 51
0.000000E+000
  0
CIRCLE
  8
PV
 62
     7
 10
9.740000E+002
 20
9.260000E+002
 30
0.000000E+000
 40
5.250000E+000
  0
CIRCLE
  8
PV
 62
     7
 10
1.026000E+003
 20
9.260000E+002
 30
0.000000E+000
 40
5.250000E+000
  0
CIRCLE
  8
PV
 62
     7
 10
1.044000E+003
 20
9.600000E+002
 30
0.000000E+000
 40
5.250000E+000
  0
CIRCLE
  8
PV
 62
     7
 10
1.026000E+003
 20
9.940000E+002
 30
0.000000E+000
 40
5.250000E+000
  0
CIRCLE
  8
PV
 62
     7
 10
9.740000E+002
 20
9.940000E+002
 30
0.000000E+000
 40
5.250000E+000
  0
ARC
  8
PV
 62
     7
 10
9.560000E+002
 20
9.600000E+002
 30
0.000000E+000
 40
5.250000E+000
 50
9.592590E+001
 51
2.640740E+002
  0
LINE
  8
PV
  6
CENTER
 62
     1
 10
1.030000E+003
 20
9.715000E+002
 30
0.000000E+000
 11
1.014000E+003
 21
9.715000E+002
 31
0.000000E+000
  0
ARC
  8
PV
 62
     7
 10
1.022000E+003
 20
9.715000E+002
 30
0.000000E+000
 40
1.100000E+001
 50
3.140490E+002
 51
9.000000E+001
  0
ARC
  8
PV
 62
     7
 10
1.022000E+003
 20
9.485000E+002
 30
0.000000E+000
 40
1.100000E+001
 50
2.700000E+002
 51
4.595140E+001
  0
ARC
  8
PV
 62
     7
 10
1.033120E+003
 20
9.600000E+002
 30
0.000000E+000
 40
5.000000E+000
 50
1.340490E+002
 51
2.259510E+002
  0
LINE
  8
PV
 62
     7
 10
1.022000E+003
 20
9.825000E+002
 30
0.000000E+000
 11
1.014000E+003
 21
9.825000E+002
 31
0.000000E+000
  0
ARC
  8
PV
 62
     7
 10
1.014000E+003
 20
9.840000E+002
 30
0.000000E+000
 40
1.500000E+000
 50
1.800000E+002
 51
2.700000E+002
  0
ARC
  8
PV
 62
     7
 10
1.014000E+003
 20
9.360000E+002
 30
0.000000E+000
 40
1.500000E+000
 50
9.000000E+001
 51
1.800000E+002
  0
LINE
  8
PV
 62
     7
 10
1.022000E+003
 20
9.375000E+002
 30
0.000000E+000
 11
1.014000E+003
 21
9.375000E+002
 31
0.000000E+000
  0
LINE
  8
PV
  6
CENTER
 62
     1
 10
1.022000E+003
 20
9.635000E+002
 30
0.000000E+000
 11
1.022000E+003
 21
9.795650E+002
 31
0.000000E+000
  0
LINE
  8
PV
  6
CENTER
 62
     1
 10
9.664740E+002
 20
9.260000E+002
 30
0.000000E+000
 11
9.817930E+002
 21
9.260000E+002
 31
0.000000E+000
  0
LINE
  8
PV
  6
CENTER
 62
     1
 10
9.740000E+002
 20
9.184200E+002
 30
0.000000E+000
 11
9.740000E+002
 21
9.332360E+002
 31
0.000000E+000
  0
LINE
  8
PV
 62
     7
 10
1.018540E+003
 20
9.775000E+002
 30
0.000000E+000
 11
1.015070E+003
 21
9.715000E+002
 31
0.000000E+000
  0
LINE
  8
PV
 62
     7
 10
1.015070E+003
 20
9.715000E+002
 30
0.000000E+000
 11
1.018540E+003
 21
9.655000E+002
 31
0.000000E+000
  0
LINE
  8
PV
 62
     7
 10
1.018540E+003
 20
9.655000E+002
 30
0.000000E+000
 11
1.025460E+003
 21
9.655000E+002
 31
0.000000E+000
  0
LINE
  8
PV
 62
     7
 10
1.025460E+003
 20
9.655000E+002
 30
0.000000E+000
 11
1.028930E+003
 21
9.715000E+002
 31
0.000000E+000
  0
LINE
  8
PV
 62
     7
 10
1.028930E+003
 20
9.715000E+002
 30
0.000000E+000
 11
1.025460E+003
 21
9.775000E+002
 31
0.000000E+000
  0
LINE
  8
PV
 62
     7
 10
1.025460E+003
 20
9.775000E+002
 30
0.000000E+000
 11
1.018540E+003
 21
9.775000E+002
 31
0.000000E+000
  0
LINE
  8
PV
 62
     7
 10
1.019110E+003
 20
9.765000E+002
 30
0.000000E+000
 11
1.016230E+003
 21
9.715000E+002
 31
0.000000E+000
  0
LINE
  8
PV
 62
     7
 10
1.016230E+003
 20
9.715000E+002
 30
0.000000E+000
 11
1.019110E+003
 21
9.665000E+002
 31
0.000000E+000
  0
LINE
  8
PV
 62
     7
 10
1.019110E+003
 20
9.665000E+002
 30
0.000000E+000
 11
1.024890E+003
 21
9.665000E+002
 31
0.000000E+000
  0
LINE
  8
PV
 62
     7
 10
1.024890E+003
 20
9.665000E+002
 30
0.000000E+000
 11
1.027770E+003
 21
9.715000E+002
 31
0.000000E+000
  0
LINE
  8
PV
 62
     7
 10
1.027770E+003
 20
9.715000E+002
 30
0.000000E+000
 11
1.024890E+003
 21
9.765000E+002
 31
0.000000E+000
  0
LINE
  8
PV
 62
     7
 10
1.024890E+003
 20
9.765000E+002
 30
0.000000E+000
 11
1.019110E+003
 21
9.765000E+002
 31
0.000000E+000
  0
CIRCLE
  8
PV
 62
     7
 10
1.022000E+003
 20
9.715000E+002
 30
0.000000E+000
 40
3.000000E+000
  0
ARC
  8
PV
  6
CENTER
 62
     1
 10
1.000000E+003
 20
9.600000E+002
 30
0.000000E+000
 40
9.000000E+001
 50
1.235220E+002
 51
1.464780E+002
  0
LINE
  8
PV
  6
CENTER
 62
     1
 10
8.465900E+002
 20
9.600000E+002
 30
0.000000E+000
 11
1.185000E+003
 21
9.600000E+002
 31
0.000000E+000
  0
LINE
  8
PV
  6
CENTER
 62
     1
 10
4.000000E+002
 20
8.065900E+002
 30
0.000000E+000
 11
4.000000E+002
 21
1.145000E+003
 31
0.000000E+000
  0
ARC
  8
PV
  6
CENTER
 62
     1
 10
4.000000E+002
 20
9.600000E+002
 30
0.000000E+000
 40
9.000000E+001
 50
2.112770E+002
 51
2.377590E+002
  0
CIRCLE
  8
PV
 62
     7
 10
3.885000E+002
 20
9.820000E+002
 30
0.000000E+000
 40
3.000000E+000
  0
LINE
  8
PV
 62
     7
 10
3.835000E+002
 20
9.791130E+002
 30
0.000000E+000
 11
3.885000E+002
 21
9.762260E+002
 31
0.000000E+000
  0
LINE
  8
PV
 62
     7
 10
3.885000E+002
 20
9.762260E+002
 30
0.000000E+000
 11
3.935000E+002
 21
9.791130E+002
 31
0.000000E+000
  0
LINE
  8
PV
 62
     7
 10
3.935000E+002
 20
9.791130E+002
 30
0.000000E+000
 11
3.935000E+002
 21
9.848870E+002
 31
0.000000E+000
  0
LINE
  8
PV
 62
     7
 10
3.935000E+002
 20
9.848870E+002
 30
0.000000E+000
 11
3.885000E+002
 21
9.877740E+002
 31
0.000000E+000
  0
LINE
  8
PV
 62
     7
 10
3.885000E+002
 20
9.877740E+002
 30
0.000000E+000
 11
3.835000E+002
 21
9.848870E+002
 31
0.000000E+000
  0
LINE
  8
PV
 62
     7
 10
3.835000E+002
 20
9.848870E+002
 30
0.000000E+000
 11
3.835000E+002
 21
9.791130E+002
 31
0.000000E+000
  0
LINE
  8
PV
 62
     7
 10
3.825000E+002
 20
9.785360E+002
 30
0.000000E+000
 11
3.885000E+002
 21
9.750720E+002
 31
0.000000E+000
  0
LINE
  8
PV
 62
     7
 10
3.885000E+002
 20
9.750720E+002
 30
0.000000E+000
 11
3.945000E+002
 21
9.785360E+002
 31
0.000000E+000
  0
LINE
  8
PV
 62
     7
 10
3.945000E+002
 20
9.785360E+002
 30
0.000000E+000
 11
3.945000E+002
 21
9.854640E+002
 31
0.000000E+000
  0
LINE
  8
PV
 62
     7
 10
3.945000E+002
 20
9.854640E+002
 30
0.000000E+000
 11
3.885000E+002
 21
9.889280E+002
 31
0.000000E+000
  0
LINE
  8
PV
 62
     7
 10
3.885000E+002
 20
9.889280E+002
 30
0.000000E+000
 11
3.825000E+002
 21
9.854640E+002
 31
0.000000E+000
  0
LINE
  8
PV
 62
     7
 10
3.825000E+002
 20
9.854640E+002
 30
0.000000E+000
 11
3.825000E+002
 21
9.785360E+002
 31
0.000000E+000
  0
LINE
  8
PV
  6
CENTER
 62
     1
 10
4.415800E+002
 20
9.340000E+002
 30
0.000000E+000
 11
4.267640E+002
 21
9.340000E+002
 31
0.000000E+000
  0
LINE
  8
PV
  6
CENTER
 62
     1
 10
4.340000E+002
 20
9.264740E+002
 30
0.000000E+000
 11
4.340000E+002
 21
9.417930E+002
 31
0.000000E+000
  0
LINE
  8
PV
  6
CENTER
 62
     1
 10
3.965000E+002
 20
9.820000E+002
 30
0.000000E+000
 11
3.804350E+002
 21
9.820000E+002
 31
0.000000E+000
  0
LINE
  8
PV
 62
     7
 10
4.225000E+002
 20
9.820000E+002
 30
0.000000E+000
 11
4.225000E+002
 21
9.740000E+002
 31
0.000000E+000
  0
ARC
  8
PV
 62
     7
 10
4.240000E+002
 20
9.740000E+002
 30
0.000000E+000
 40
1.500000E+000
 50
1.800000E+002
 51
2.700000E+002
  0
ARC
  8
PV
 62
     7
 10
3.760000E+002
 20
9.740000E+002
 30
0.000000E+000
 40
1.500000E+000
 50
2.700000E+002
 51
0.000000E+000
  0
LINE
  8
PV
 62
     7
 10
3.775000E+002
 20
9.820000E+002
 30
0.000000E+000
 11
3.775000E+002
 21
9.740000E+002
 31
0.000000E+000
  0
ARC
  8
PV
 62
     7
 10
4.000000E+002
 20
9.931240E+002
 30
0.000000E+000
 40
5.000000E+000
 50
2.240490E+002
 51
3.159510E+002
  0
ARC
  8
PV
 62
     7
 10
4.115000E+002
 20
9.820000E+002
 30
0.000000E+000
 40
1.100000E+001
 50
0.000000E+000
 51
1.359510E+002
  0
ARC
  8
PV
 62
     7
 10
3.885000E+002
 20
9.820000E+002
 30
0.000000E+000
 40
1.100000E+001
 50
4.404860E+001
 51
1.800000E+002
  0
LINE
  8
PV
  6
CENTER
 62
     1
 10
3.885000E+002
 20
9.900000E+002
 30
0.000000E+000
 11
3.885000E+002
 21
9.740000E+002
 31
0.000000E+000
  0
ARC
  8
PV
 62
     7
 10
4.000000E+002
 20
9.160000E+002
 30
0.000000E+000
 40
5.250000E+000
 50
1.859260E+002
 51
3.540740E+002
  0
CIRCLE
  8
PV
 62
     7
 10
3.660000E+002
 20
9.340000E+002
 30
0.000000E+000
 40
5.250000E+000
  0
CIRCLE
  8
PV
 62
     7
 10
3.660000E+002
 20
9.860000E+002
 30
0.000000E+000
 40
5.250000E+000
  0
CIRCLE
  8
PV
 62
     7
 10
4.000000E+002
 20
1.004000E+003
 30
0.000000E+000
 40
5.250000E+000
  0
CIRCLE
  8
PV
 62
     7
 10
4.340000E+002
 20
9.860000E+002
 30
0.000000E+000
 40
5.250000E+000
  0
CIRCLE
  8
PV
 62
     7
 10
4.340000E+002
 20
9.340000E+002
 30
0.000000E+000
 40
5.250000E+000
  0
ARC
  8
PV
 62
     7
 10
4.435000E+002
 20
9.710000E+002
 30
0.000000E+000
 40
1.500000E+000
 50
3.600000E+002
 51
9.000000E+001
  0
ARC
  8
PV
 62
     7
 10
4.435000E+002
 20
9.490000E+002
 30
0.000000E+000
 40
1.500000E+000
 50
2.700000E+002
 51
0.000000E+000
  0
ARC
  8
PV
 62
     7
 10
3.565000E+002
 20
9.710000E+002
 30
0.000000E+000
 40
1.500000E+000
 50
9.000000E+001
 51
1.800000E+002
  0
ARC
  8
PV
 62
     7
 10
3.565000E+002
 20
9.490000E+002
 30
0.000000E+000
 40
1.500000E+000
 50
1.800000E+002
 51
2.700000E+002
  0
LINE
  8
PV
 62
     7
 10
4.400000E+002
 20
9.340000E+002
 30
0.000000E+000
 11
4.407080E+002
 21
9.475000E+002
 31
0.000000E+000
  0
LINE
  8
PV
  6
CENTER
 62
     1
 10
3.660000E+002
 20
9.270000E+002
 30
0.000000E+000
 11
3.660000E+002
 21
9.410000E+002
 31
0.000000E+000
  0
LINE
  8
PV
 62
     7
 10
3.600000E+002
 20
9.340000E+002
 30
0.000000E+000
 11
3.592920E+002
 21
9.475000E+002
 31
0.000000E+000
  0
ARC
  8
PV
 62
     7
 10
4.000000E+002
 20
9.600000E+002
 30
0.000000E+000
 40
4.250000E+001
 50
2.974700E+002
 51
3.111540E+002
  0
ARC
  8
PV
 62
     7
 10
3.660000E+002
 20
9.340000E+002
 30
0.000000E+000
 40
6.000000E+000
 50
1.800000E+002
 51
2.700000E+002
  0
LINE
  8
PV
 62
     7
 10
3.660000E+002
 20
9.280000E+002
 30
0.000000E+000
 11
3.720310E+002
 21
9.280000E+002
 31
0.000000E+000
  0
ARC
  8
PV
 62
     7
 10
4.340000E+002
 20
9.340000E+002
 30
0.000000E+000
 40
6.000000E+000
 50
2.700000E+002
 51
0.000000E+000
  0
LINE
  8
PV
 62
     7
 10
4.340000E+002
 20
9.280000E+002
 30
0.000000E+000
 11
4.279690E+002
 21
9.280000E+002
 31
0.000000E+000
  0
LINE
  8
PV
  6
CENTER
 62
     1
 10
3.735300E+002
 20
9.340000E+002
 30
0.000000E+000
 11
3.590000E+002
 21
9.340000E+002
 31
0.000000E+000
  0
ARC
  8
PV
 62
     7
 10
4.000000E+002
 20
9.160000E+002
 30
0.000000E+000
 40
6.000000E+000
 50
1.800000E+002
 51
0.000000E+000
  0
ARC
  8
PV
 62
     7
 10
4.000000E+002
 20
9.600000E+002
 30
0.000000E+000
 40
4.250000E+001
 50
2.288460E+002
 51
2.425300E+002
  0
LINE
  8
PV
  6
CENTER
 62
     1
 10
4.084340E+002
 20
9.160000E+002
 30
0.000000E+000
 11
3.914840E+002
 21
9.160000E+002
 31
0.000000E+000
  0
LINE
  8
PV
  6
CENTER
 62
     1
 10
4.084340E+002
 20
1.004000E+003
 30
0.000000E+000
 11
3.914840E+002
 21
1.004000E+003
 31
0.000000E+000
  0
ARC
  8
PV
 62
     7
 10
4.000000E+002
 20
9.600000E+002
 30
0.000000E+000
 40
4.250000E+001
 50
9.978510E+001
 51
1.311540E+002
  0
LINE
  8
PV
 62
     7
 10
4.060000E+002
 20
1.004000E+003
 30
0.000000E+000
 11
4.072230E+002
 21
1.001880E+003
 31
0.000000E+000
  0
LINE
  8
PV
 62
     7
 10
3.940000E+002
 20
1.004000E+003
 30
0.000000E+000
 11
3.927770E+002
 21
1.001880E+003
 31
0.000000E+000
  0
ARC
  8
PV
 62
     7
 10
4.000000E+002
 20
1.004000E+003
 30
0.000000E+000
 40
6.000000E+000
 50
0.000000E+000
 51
1.800000E+002
  0
LINE
  8
PV
  6
CENTER
 62
     1
 10
4.410000E+002
 20
9.860000E+002
 30
0.000000E+000
 11
4.270000E+002
 21
9.860000E+002
 31
0.000000E+000
  0
LINE
  8
PV
  6
CENTER
 62
     1
 10
3.730000E+002
 20
9.860000E+002
 30
0.000000E+000
 11
3.590000E+002
 21
9.860000E+002
 31
0.000000E+000
  0
LINE
  8
PV
  6
CENTER
 62
     1
 10
4.340000E+002
 20
9.930000E+002
 30
0.000000E+000
 11
4.340000E+002
 21
9.790000E+002
 31
0.000000E+000
  0
LINE
  8
PV
 62
     7
 10
4.340000E+002
 20
9.920000E+002
 30
0.000000E+000
 11
4.279690E+002
 21
9.920000E+002
 31
0.000000E+000
  0
LINE
  8
PV
 62
     7
 10
4.400000E+002
 20
9.860000E+002
 30
0.000000E+000
 11
4.407080E+002
 21
9.725000E+002
 31
0.000000E+000
  0
ARC
  8
PV
 62
     7
 10
4.340000E+002
 20
9.860000E+002
 30
0.000000E+000
 40
6.000000E+000
 50
0.000000E+000
 51
9.000000E+001
  0
LINE
  8
PV
 62
     7
 10
3.660000E+002
 20
9.920000E+002
 30
0.000000E+000
 11
3.720310E+002
 21
9.920000E+002
 31
0.000000E+000
  0
LINE
  8
PV
 62
     7
 10
3.600000E+002
 20
9.860000E+002
 30
0.000000E+000
 11
3.592920E+002
 21
9.725000E+002
 31
0.000000E+000
  0
ARC
  8
PV
 62
     7
 10
3.660000E+002
 20
9.860000E+002
 30
0.000000E+000
 40
6.000000E+000
 50
9.000000E+001
 51
1.800000E+002
  0
LINE
  8
PV
  6
CENTER
 62
     1
 10
3.660000E+002
 20
9.930000E+002
 30
0.000000E+000
 11
3.660000E+002
 21
9.790000E+002
 31
0.000000E+000
  0
LINE
  8
PV
 62
     7
 10
3.701040E+002
 20
9.475000E+002
 30
0.000000E+000
 11
3.565000E+002
 21
9.475000E+002
 31
0.000000E+000
  0
LINE
  8
PV
 62
     7
 10
3.800000E+002
 20
9.725000E+002
 30
0.000000E+000
 11
3.565000E+002
 21
9.725000E+002
 31
0.000000E+000
  0
LINE
  8
PV
 62
     7
 10
4.200000E+002
 20
9.725000E+002
 30
0.000000E+000
 11
4.161540E+002
 21
9.702790E+002
 31
0.000000E+000
  0
LINE
  8
PV
 62
     7
 10
3.800000E+002
 20
9.725000E+002
 30
0.000000E+000
 11
3.838460E+002
 21
9.702790E+002
 31
0.000000E+000
  0
LINE
  8
PV
 62
     7
 10
4.450000E+002
 20
9.710000E+002
 30
0.000000E+000
 11
4.450000E+002
 21
9.490000E+002
 31
0.000000E+000
  0
LINE
  8
PV
 62
     7
 10
3.550000E+002
 20
9.710000E+002
 30
0.000000E+000
 11
3.550000E+002
 21
9.490000E+002
 31
0.000000E+000
  0
ARC
  8
PV
 62
     7
 10
3.800000E+002
 20
9.600000E+002
 30
0.000000E+000
 40
8.000000E+000
 50
8.496680E+001
 51
2.012930E+002
  0
CIRCLE
  8
PV
 62
     7
 10
4.000000E+002
 20
9.450000E+002
 30
0.000000E+000
 40
3.000000E+001
  0
CIRCLE
  8
PV
 62
     7
 10
4.000000E+002
 20
9.450000E+002
 30
0.000000E+000
 40
2.600000E+001
  0
LINE
  8
PV
 62
     7
 10
4.435000E+002
 20
9.475000E+002
 30
0.000000E+000
 11
4.298960E+002
 21
9.475000E+002
 31
0.000000E+000
  0
LINE
  8
PV
 62
     7
 10
4.435000E+002
 20
9.725000E+002
 30
0.000000E+000
 11
4.200000E+002
 21
9.725000E+002
 31
0.000000E+000
  0
ARC
  8
PV
 62
     7
 10
4.000000E+002
 20
9.600000E+002
 30
0.000000E+000
 40
4.250000E+001
 50
4.884580E+001
 51
8.021490E+001
  0
LINE
  8
PV
  6
CENTER
 62
     1
 10
3.800000E+002
 20
9.731520E+002
 30
0.000000E+000
 11
3.800000E+002
 21
9.485790E+002
 31
0.000000E+000
  0
LINE
  8
PV
  6
CENTER
 62
     1
 10
4.350000E+002
 20
9.450000E+002
 30
0.000000E+000
 11
3.650000E+002
 21
9.450000E+002
 31
0.000000E+000
  0
LINE
  8
PV
 62
     7
 10
4.250000E+002
 20
8.785000E+002
 30
0.000000E+000
 11
4.250000E+002
 21
8.600000E+002
 31
0.000000E+000
  0
LINE
  8
PV
 62
     7
 10
4.270000E+002
 20
8.600000E+002
 30
0.000000E+000
 11
4.270000E+002
 21
8.550000E+002
 31
0.000000E+000
  0
LINE
  8
PV
 62
     7
 10
3.730000E+002
 20
8.600000E+002
 30
0.000000E+000
 11
4.270000E+002
 21
8.600000E+002
 31
0.000000E+000
  0
LINE
  8
PV
 62
     7
 10
3.730000E+002
 20
8.550000E+002
 30
0.000000E+000
 11
3.730000E+002
 21
8.600000E+002
 31
0.000000E+000
  0
LINE
  8
PV
 62
     7
 10
3.730000E+002
 20
8.550000E+002
 30
0.000000E+000
 11
4.270000E+002
 21
8.550000E+002
 31
0.000000E+000
  0
LINE
  8
PV
 62
     7
 10
4.250000E+002
 20
8.785000E+002
 30
0.000000E+000
 11
3.750000E+002
 21
8.785000E+002
 31
0.000000E+000
  0
LINE
  8
PV
 62
     7
 10
3.750000E+002
 20
8.785000E+002
 30
0.000000E+000
 11
3.750000E+002
 21
8.600000E+002
 31
0.000000E+000
  0
LINE
  8
PV
  6
CENTER
 62
     1
 10
5.850000E+002
 20
9.600000E+002
 30
0.000000E+000
 11
2.150000E+002
 21
9.600000E+002
 31
0.000000E+000
  0
CIRCLE
  8
PV
 62
     7
 10
4.000000E+002
 20
9.600000E+002
 30
0.000000E+000
 40
1.337000E+002
  0
LINE
  8
PV
  6
CENTER
 62
     1
 10
4.883880E+002
 20
8.716120E+002
 30
0.000000E+000
 11
5.410200E+002
 21
8.189800E+002
 31
0.000000E+000
  0
LINE
  8
PV
  6
CENTER
 62
     1
 10
5.082530E+002
 20
8.975000E+002
 30
0.000000E+000
 11
5.602150E+002
 21
8.675000E+002
 31
0.000000E+000
  0
LINE
  8
PV
  6
CENTER
 62
     1
 10
2.917470E+002
 20
8.975000E+002
 30
0.000000E+000
 11
2.397850E+002
 21
8.675000E+002
 31
0.000000E+000
  0
LINE
  8
PV
 62
     7
 10
3.850000E+002
 20
1.093700E+003
 30
0.000000E+000
 11
4.150000E+002
 21
1.093700E+003
 31
0.000000E+000
  0
LINE
  8
PV
 62
     7
 10
4.150000E+002
 20
1.093700E+003
 30
0.000000E+000
 11
4.150000E+002
 21
1.096700E+003
 31
0.000000E+000
  0
LINE
  8
PV
 62
     7
 10
4.150000E+002
 20
1.096700E+003
 30
0.000000E+000
 11
3.880000E+002
 21
1.096700E+003
 31
0.000000E+000
  0
LINE
  8
PV
 62
     7
 10
3.850000E+002
 20
1.093700E+003
 30
0.000000E+000
 11
3.850000E+002
 21
1.123700E+003
 31
0.000000E+000
  0
LINE
  8
PV
 62
     7
 10
3.850000E+002
 20
1.123700E+003
 30
0.000000E+000
 11
3.880000E+002
 21
1.123700E+003
 31
0.000000E+000
  0
LINE
  8
PV
 62
     7
 10
3.880000E+002
 20
1.123700E+003
 30
0.000000E+000
 11
3.880000E+002
 21
1.096700E+003
 31
0.000000E+000
  0
LINE
  8
PV
 62
     7
 10
4.250000E+002
 20
1.138700E+003
 30
0.000000E+000
 11
4.250000E+002
 21
1.091340E+003
 31
0.000000E+000
  0
LINE
  8
PV
 62
     7
 10
3.750000E+002
 20
1.091340E+003
 30
0.000000E+000
 11
3.750000E+002
 21
1.138700E+003
 31
0.000000E+000
  0
LINE
  8
PV
 62
     7
 10
3.750000E+002
 20
1.138700E+003
 30
0.000000E+000
 11
4.250000E+002
 21
1.138700E+003
 31
0.000000E+000
  0
CIRCLE
  8
PV
 62
     7
 10
4.000000E+002
 20
1.120000E+003
 30
0.000000E+000
 40
7.500000E+000
  0
ARC
  8
PV
  6
CENTER
 62
     1
 10
4.000000E+002
 20
9.600000E+002
 30
0.000000E+000
 40
1.600000E+002
 50
8.462440E+001
 51
9.496650E+001
  0
ARC
  8
PV
  6
CENTER
 62
     1
 10
4.000000E+002
 20
9.600000E+002
 30
0.000000E+000
 40
1.600000E+002
 50
3.250330E+002
 51
3.353760E+002
  0
CIRCLE
  8
PV
 62
     7
 10
5.385640E+002
 20
8.800000E+002
 30
0.000000E+000
 40
7.500000E+000
  0
LINE
  8
PV
 62
     7
 10
5.422590E+002
 20
8.489990E+002
 30
0.000000E+000
 11
5.672590E+002
 21
8.923010E+002
 31
0.000000E+000
  0
LINE
  8
PV
 62
     7
 10
5.012450E+002
 20
8.726780E+002
 30
0.000000E+000
 11
5.422590E+002
 21
8.489990E+002
 31
0.000000E+000
  0
LINE
  8
PV
 62
     7
 10
5.672590E+002
 20
8.923010E+002
 30
0.000000E+000
 11
5.262450E+002
 21
9.159800E+002
 31
0.000000E+000
  0
LINE
  8
PV
 62
     7
 10
5.477680E+002
 20
8.885420E+002
 30
0.000000E+000
 11
5.243860E+002
 21
9.020420E+002
 31
0.000000E+000
  0
LINE
  8
PV
 62
     7
 10
5.492680E+002
 20
8.911400E+002
 30
0.000000E+000
 11
5.477680E+002
 21
8.885420E+002
 31
0.000000E+000
  0
LINE
  8
PV
 62
     7
 10
5.232880E+002
 20
9.061400E+002
 30
0.000000E+000
 11
5.492680E+002
 21
8.911400E+002
 31
0.000000E+000
  0
LINE
  8
PV
 62
     7
 10
5.108860E+002
 20
8.786600E+002
 30
0.000000E+000
 11
5.243860E+002
 21
9.020420E+002
 31
0.000000E+000
  0
LINE
  8
PV
 62
     7
 10
5.082880E+002
 20
8.801600E+002
 30
0.000000E+000
 11
5.108860E+002
 21
8.786600E+002
 31
0.000000E+000
  0
LINE
  8
PV
 62
     7
 10
5.232880E+002
 20
9.061400E+002
 30
0.000000E+000
 11
5.082880E+002
 21
8.801600E+002
 31
0.000000E+000
  0
LINE
  8
PV
 62
     7
 10
2.327410E+002
 20
8.923010E+002
 30
0.000000E+000
 11
2.737550E+002
 21
9.159800E+002
 31
0.000000E+000
  0
LINE
  8
PV
 62
     7
 10
2.987550E+002
 20
8.726780E+002
 30
0.000000E+000
 11
2.577410E+002
 21
8.489990E+002
 31
0.000000E+000
  0
LINE
  8
PV
 62
     7
 10
2.577410E+002
 20
8.489990E+002
 30
0.000000E+000
 11
2.327410E+002
 21
8.923010E+002
 31
0.000000E+000
  0
CIRCLE
  8
PV
 62
     7
 10
2.614360E+002
 20
8.800000E+002
 30
0.000000E+000
 40
7.500000E+000
  0
ARC
  8
PV
  6
CENTER
 62
     1
 10
4.000000E+002
 20
9.600000E+002
 30
0.000000E+000
 40
1.600000E+002
 50
2.046240E+002
 51
2.149670E+002
  0
CIRCLE
  8
PV
 62
     7
 10
4.000000E+002
 20
9.600000E+002
 30
0.000000E+000
 40
5.500000E+001
  0
LINE
  8
PV
 62
     7
 10
2.642320E+002
 20
8.677580E+002
 30
0.000000E+000
 11
2.876140E+002
 21
8.812580E+002
 31
0.000000E+000
  0
LINE
  8
PV
 62
     7
 10
2.657320E+002
 20
8.651600E+002
 30
0.000000E+000
 11
2.642320E+002
 21
8.677580E+002
 31
0.000000E+000
  0
LINE
  8
PV
 62
     7
 10
2.917120E+002
 20
8.801600E+002
 30
0.000000E+000
 11
2.657320E+002
 21
8.651600E+002
 31
0.000000E+000
  0
LINE
  8
PV
 62
     7
 10
2.741140E+002
 20
9.046400E+002
 30
0.000000E+000
 11
2.876140E+002
 21
8.812580E+002
 31
0.000000E+000
  0
LINE
  8
PV
 62
     7
 10
2.767120E+002
 20
9.061400E+002
 30
0.000000E+000
 11
2.741140E+002
 21
9.046400E+002
 31
0.000000E+000
  0
LINE
  8
PV
 62
     7
 10
2.917120E+002
 20
8.801600E+002
 30
0.000000E+000
 11
2.767120E+002
 21
9.061400E+002
 31
0.000000E+000
  0
LINE
  8
PV
 62
     7
 10
4.580000E+002
 20
1.080500E+003
 30
0.000000E+000
 11
3.980000E+002
 21
1.080500E+003
 31
0.000000E+000
  0
LINE
  8
PV
 62
     7
 10
4.004500E+002
 20
1.054500E+003
 30
0.000000E+000
 11
3.980000E+002
 21
1.054500E+003
 31
0.000000E+000
  0
LINE
  8
PV
 62
     7
 10
4.054500E+002
 20
1.078200E+003
 30
0.000000E+000
 11
4.605500E+002
 21
1.078200E+003
 31
0.000000E+000
  0
LINE
  8
PV
 62
     7
 10
3.980000E+002
 20
1.054500E+003
 30
0.000000E+000
 11
3.980000E+002
 21
1.080500E+003
 31
0.000000E+000
  0
LINE
  8
PV
 62
     7
 10
3.980000E+002
 20
1.080500E+003
 30
0.000000E+000
 11
3.980000E+002
 21
1.078200E+003
 31
0.000000E+000
  0
LINE
  8
PV
  6
CENTER
 62
     1
 10
3.505030E+002
 20
9.105030E+002
 30
0.000000E+000
 11
3.222180E+002
 21
8.822180E+002
 31
0.000000E+000
  0
LINE
  8
PV
 62
     7
 10
4.450000E+002
 20
6.920000E+002
 30
0.000000E+000
 11
4.450000E+002
 21
6.580000E+002
 31
0.000000E+000
  0
LINE
  8
PV
 62
     7
 10
4.413630E+002
 20
6.665000E+002
 30
0.000000E+000
 11
4.413630E+002
 21
6.580000E+002
 31
0.000000E+000
  0
LINE
  8
PV
 62
     7
 10
4.279690E+002
 20
6.680000E+002
 30
0.000000E+000
 11
4.279690E+002
 21
6.580000E+002
 31
0.000000E+000
  0
ARC
  8
PV
 62
     7
 10
4.398630E+002
 20
6.665000E+002
 30
0.000000E+000
 40
1.500000E+000
 50
0.000000E+000
 51
9.000000E+001
  0
ARC
  8
PV
 62
     7
 10
4.435000E+002
 20
6.920000E+002
 30
0.000000E+000
 40
1.500000E+000
 50
0.000000E+000
 51
9.000000E+001
  0
LINE
  8
PV
  6
CENTER
 62
     1
 10
4.340000E+002
 20
6.771070E+002
 30
0.000000E+000
 11
4.340000E+002
 21
6.537550E+002
 31
0.000000E+000
  0
LINE
  8
PV
  6
CENTER
 62
     1
 10
4.300000E+002
 20
6.780000E+002
 30
0.000000E+000
 11
3.700000E+002
 21
6.780000E+002
 31
0.000000E+000
  0
LINE
  8
PV
 62
     7
 10
3.950000E+002
 20
6.400000E+002
 30
0.000000E+000
 11
3.950000E+002
 21
6.450000E+002
 31
0.000000E+000
  0
LINE
  8
PV
 62
     7
 10
3.940000E+002
 20
6.450000E+002
 30
0.000000E+000
 11
4.060000E+002
 21
6.450000E+002
 31
0.000000E+000
  0
LINE
  8
PV
 62
     7
 10
4.050000E+002
 20
6.400000E+002
 30
0.000000E+000
 11
4.050000E+002
 21
6.450000E+002
 31
0.000000E+000
  0
LINE
  8
PV
 62
     7
 10
3.940000E+002
 20
6.450000E+002
 30
0.000000E+000
 11
3.940000E+002
 21
6.516750E+002
 31
0.000000E+000
  0
LINE
  8
PV
 62
     7
 10
4.060000E+002
 20
6.516750E+002
 30
0.000000E+000
 11
4.060000E+002
 21
6.450000E+002
 31
0.000000E+000
  0
CIRCLE
  8
PV
 62
     7
 10
4.000000E+002
 20
6.780000E+002
 30
0.000000E+000
 40
2.700000E+001
  0
LINE
  8
PV
 62
     7
 10
3.818620E+002
 20
6.580000E+002
 30
0.000000E+000
 11
3.550000E+002
 21
6.580000E+002
 31
0.000000E+000
  0
LINE
  8
PV
 62
     7
 10
3.843480E+002
 20
6.560000E+002
 30
0.000000E+000
 11
3.478600E+002
 21
6.560000E+002
 31
0.000000E+000
  0
LINE
  8
PV
 62
     7
 10
4.123690E+002
 20
7.020000E+002
 30
0.000000E+000
 11
4.290000E+002
 21
7.020000E+002
 31
0.000000E+000
  0
CIRCLE
  8
PV
 62
     7
 10
4.000000E+002
 20
6.780000E+002
 30
0.000000E+000
 40
2.500000E+001
  0
ARC
  8
PV
 62
     7
 10
3.565000E+002
 20
6.920000E+002
 30
0.000000E+000
 40
1.500000E+000
 50
9.000000E+001
 51
1.800000E+002
  0
ARC
  8
PV
 62
     7
 10
3.601370E+002
 20
6.665000E+002
 30
0.000000E+000
 40
1.500000E+000
 50
9.000000E+001
 51
1.800000E+002
  0
LINE
  8
PV
 62
     7
 10
3.720310E+002
 20
6.680000E+002
 30
0.000000E+000
 11
3.720310E+002
 21
6.580000E+002
 31
0.000000E+000
  0
LINE
  8
PV
 62
     7
 10
3.586370E+002
 20
6.665000E+002
 30
0.000000E+000
 11
3.586370E+002
 21
6.580000E+002
 31
0.000000E+000
  0
LINE
  8
PV
 62
     7
 10
3.550000E+002
 20
6.920000E+002
 30
0.000000E+000
 11
3.550000E+002
 21
6.580000E+002
 31
0.000000E+000
  0
LINE
  8
PV
 62
     7
 10
3.550000E+002
 20
6.665000E+002
 30
0.000000E+000
 11
3.550000E+002
 21
6.580000E+002
 31
0.000000E+000
  0
LINE
  8
PV
 62
     7
 10
3.565000E+002
 20
6.935000E+002
 30
0.000000E+000
 11
3.775000E+002
 21
6.935000E+002
 31
0.000000E+000
  0
LINE
  8
PV
 62
     7
 10
3.601370E+002
 20
6.680000E+002
 30
0.000000E+000
 11
3.749200E+002
 21
6.680000E+002
 31
0.000000E+000
  0
LINE
  8
PV
 62
     7
 10
4.397500E+002
 20
6.680000E+002
 30
0.000000E+000
 11
4.397500E+002
 21
6.695000E+002
 31
0.000000E+000
  0
LINE
  8
PV
 62
     7
 10
4.397500E+002
 20
6.695000E+002
 30
0.000000E+000
 11
4.282500E+002
 21
6.695000E+002
 31
0.000000E+000
  0
LINE
  8
PV
 62
     7
 10
4.282500E+002
 20
6.695000E+002
 30
0.000000E+000
 11
4.282500E+002
 21
6.680000E+002
 31
0.000000E+000
  0
LINE
  8
PV
 62
     7
 10
4.392500E+002
 20
6.695000E+002
 30
0.000000E+000
 11
4.392500E+002
 21
6.710270E+002
 31
0.000000E+000
  0
LINE
  8
PV
 62
     7
 10
4.287500E+002
 20
6.695000E+002
 30
0.000000E+000
 11
4.287500E+002
 21
6.710270E+002
 31
0.000000E+000
  0
LINE
  8
PV
 62
     7
 10
4.300000E+002
 20
7.100000E+002
 30
0.000000E+000
 11
4.300000E+002
 21
7.030000E+002
 31
0.000000E+000
  0
LINE
  8
PV
 62
     7
 10
3.710000E+002
 20
7.110000E+002
 30
0.000000E+000
 11
4.290000E+002
 21
7.110000E+002
 31
0.000000E+000
  0
LINE
  8
PV
 62
     7
 10
3.700000E+002
 20
7.100000E+002
 30
0.000000E+000
 11
3.700000E+002
 21
7.030000E+002
 31
0.000000E+000
  0
LINE
  8
PV
 62
     7
 10
4.290000E+002
 20
7.110000E+002
 30
0.000000E+000
 11
4.300000E+002
 21
7.100000E+002
 31
0.000000E+000
  0
LINE
  8
PV
 62
     7
 10
4.300000E+002
 20
7.030000E+002
 30
0.000000E+000
 11
4.290000E+002
 21
7.020000E+002
 31
0.000000E+000
  0
LINE
  8
PV
 62
     7
 10
3.710000E+002
 20
7.110000E+002
 30
0.000000E+000
 11
3.700000E+002
 21
7.100000E+002
 31
0.000000E+000
  0
LINE
  8
PV
 62
     7
 10
3.710000E+002
 20
7.020000E+002
 30
0.000000E+000
 11
3.700000E+002
 21
7.030000E+002
 31
0.000000E+000
  0
LINE
  8
PV
 62
     7
 10
4.250000E+002
 20
7.390000E+002
 30
0.000000E+000
 11
3.750000E+002
 21
7.390000E+002
 31
0.000000E+000
  0
LINE
  8
PV
 62
     7
 10
4.260000E+002
 20
7.380000E+002
 30
0.000000E+000
 11
4.260000E+002
 21
7.250000E+002
 31
0.000000E+000
  0
LINE
  8
PV
 62
     7
 10
4.250000E+002
 20
7.240000E+002
 30
0.000000E+000
 11
3.750000E+002
 21
7.240000E+002
 31
0.000000E+000
  0
LINE
  8
PV
 62
     7
 10
3.740000E+002
 20
7.250000E+002
 30
0.000000E+000
 11
3.740000E+002
 21
7.380000E+002
 31
0.000000E+000
  0
LINE
  8
PV
 62
     7
 10
4.250000E+002
 20
7.390000E+002
 30
0.000000E+000
 11
4.260000E+002
 21
7.380000E+002
 31
0.000000E+000
  0
LINE
  8
PV
 62
     7
 10
4.260000E+002
 20
7.250000E+002
 30
0.000000E+000
 11
4.250000E+002
 21
7.240000E+002
 31
0.000000E+000
  0
LINE
  8
PV
 62
     7
 10
3.750000E+002
 20
7.390000E+002
 30
0.000000E+000
 11
3.740000E+002
 21
7.380000E+002
 31
0.000000E+000
  0
LINE
  8
PV
 62
     7
 10
3.750000E+002
 20
7.240000E+002
 30
0.000000E+000
 11
3.740000E+002
 21
7.250000E+002
 31
0.000000E+000
  0
LINE
  8
PV
 62
     7
 10
4.210000E+002
 20
7.215000E+002
 30
0.000000E+000
 11
4.210000E+002
 21
7.110000E+002
 31
0.000000E+000
  0
LINE
  8
PV
 62
     7
 10
4.210000E+002
 20
7.215000E+002
 30
0.000000E+000
 11
3.790000E+002
 21
7.215000E+002
 31
0.000000E+000
  0
LINE
  8
PV
 62
     7
 10
4.185000E+002
 20
7.240000E+002
 30
0.000000E+000
 11
4.185000E+002
 21
7.215000E+002
 31
0.000000E+000
  0
LINE
  8
PV
 62
     7
 10
3.815000E+002
 20
7.240000E+002
 30
0.000000E+000
 11
3.815000E+002
 21
7.215000E+002
 31
0.000000E+000
  0
LINE
  8
PV
 62
     7
 10
3.790000E+002
 20
7.215000E+002
 30
0.000000E+000
 11
3.790000E+002
 21
7.110000E+002
 31
0.000000E+000
  0
ARC
  8
PV
 62
     7
 10
4.340000E+002
 20
6.594000E+002
 30
0.000000E+000
 40
1.400000E+001
 50
7.392710E+001
 51
1.060730E+002
  0
ARC
  8
PV
 62
     7
 10
4.306500E+002
 20
6.710270E+002
 30
0.000000E+000
 40
1.900000E+000
 50
1.060730E+002
 51
1.800000E+002
  0
ARC
  8
PV
 62
     7
 10
4.373500E+002
 20
6.710270E+002
 30
0.000000E+000
 40
1.900000E+000
 50
0.000000E+000
 51
7.392710E+001
  0
ARC
  8
PV
 62
     7
 10
3.626500E+002
 20
6.710270E+002
 30
0.000000E+000
 40
1.900000E+000
 50
1.060730E+002
 51
1.800000E+002
  0
ARC
  8
PV
 62
     7
 10
3.693500E+002
 20
6.710270E+002
 30
0.000000E+000
 40
1.900000E+000
 50
0.000000E+000
 51
7.392710E+001
  0
ARC
  8
PV
 62
     7
 10
3.660000E+002
 20
6.594000E+002
 30
0.000000E+000
 40
1.400000E+001
 50
7.392710E+001
 51
1.060730E+002
  0
LINE
  8
PV
 62
     7
 10
3.712500E+002
 20
6.695000E+002
 30
0.000000E+000
 11
3.712500E+002
 21
6.710270E+002
 31
0.000000E+000
  0
LINE
  8
PV
 62
     7
 10
3.607500E+002
 20
6.695000E+002
 30
0.000000E+000
 11
3.607500E+002
 21
6.710270E+002
 31
0.000000E+000
  0
LINE
  8
PV
 62
     7
 10
3.717500E+002
 20
6.695000E+002
 30
0.000000E+000
 11
3.717500E+002
 21
6.680000E+002
 31
0.000000E+000
  0
LINE
  8
PV
 62
     7
 10
3.602500E+002
 20
6.695000E+002
 30
0.000000E+000
 11
3.717500E+002
 21
6.695000E+002
 31
0.000000E+000
  0
LINE
  8
PV
 62
     7
 10
3.602500E+002
 20
6.680000E+002
 30
0.000000E+000
 11
3.602500E+002
 21
6.695000E+002
 31
0.000000E+000
  0
LINE
  8
PV
  6
CENTER
 62
     1
 10
3.660000E+002
 20
6.771070E+002
 30
0.000000E+000
 11
3.660000E+002
 21
6.537550E+002
 31
0.000000E+000
  0
LINE
  8
PV
 62
     7
 10
3.297210E+002
 20
9.078600E+002
 30
0.000000E+000
 11
3.230810E+002
 21
8.963600E+002
 31
0.000000E+000
  0
LINE
  8
PV
 62
     7
 10
3.230810E+002
 20
8.963600E+002
 30
0.000000E+000
 11
3.297210E+002
 21
8.848600E+002
 31
0.000000E+000
  0
LINE
  8
PV
 62
     7
 10
3.297210E+002
 20
8.848600E+002
 30
0.000000E+000
 11
3.430000E+002
 21
8.848600E+002
 31
0.000000E+000
  0
LINE
  8
PV
 62
     7
 10
3.430000E+002
 20
8.848600E+002
 30
0.000000E+000
 11
3.496390E+002
 21
8.963600E+002
 31
0.000000E+000
  0
LINE
  8
PV
 62
     7
 10
3.496390E+002
 20
8.963600E+002
 30
0.000000E+000
 11
3.430000E+002
 21
9.078600E+002
 31
0.000000E+000
  0
LINE
  8
PV
 62
     7
 10
3.430000E+002
 20
9.078600E+002
 30
0.000000E+000
 11
3.297210E+002
 21
9.078600E+002
 31
0.000000E+000
  0
LINE
  8
PV
 62
     7
 10
3.314530E+002
 20
9.048600E+002
 30
0.000000E+000
 11
3.265450E+002
 21
8.963600E+002
 31
0.000000E+000
  0
LINE
  8
PV
 62
     7
 10
3.265450E+002
 20
8.963600E+002
 30
0.000000E+000
 11
3.314530E+002
 21
8.878600E+002
 31
0.000000E+000
  0
LINE
  8
PV
 62
     7
 10
3.314530E+002
 20
8.878600E+002
 30
0.000000E+000
 11
3.412680E+002
 21
8.878600E+002
 31
0.000000E+000
  0
LINE
  8
PV
 62
     7
 10
3.412680E+002
 20
8.878600E+002
 30
0.000000E+000
 11
3.461750E+002
 21
8.963600E+002
 31
0.000000E+000
  0
LINE
  8
PV
 62
     7
 10
3.461750E+002
 20
8.963600E+002
 30
0.000000E+000
 11
3.412680E+002
 21
9.048600E+002
 31
0.000000E+000
  0
LINE
  8
PV
 62
     7
 10
3.412680E+002
 20
9.048600E+002
 30
0.000000E+000
 11
3.314530E+002
 21
9.048600E+002
 31
0.000000E+000
  0
CIRCLE
  8
PV
 62
     7
 10
3.363600E+002
 20
8.963600E+002
 30
0.000000E+000
 40
2.700000E+000
  0
LINE
  8
PV
 62
     7
 10
3.314530E+002
 20
6.990000E+002
 30
0.000000E+000
 11
3.314530E+002
 21
6.900000E+002
 31
0.000000E+000
  0
LINE
  8
PV
 62
     7
 10
3.265450E+002
 20
6.990000E+002
 30
0.000000E+000
 11
3.265450E+002
 21
6.900000E+002
 31
0.000000E+000
  0
LINE
  8
PV
 62
     7
 10
3.230810E+002
 20
6.440000E+002
 30
0.000000E+000
 11
3.496390E+002
 21
6.440000E+002
 31
0.000000E+000
  0
LINE
  8
PV
 62
     7
 10
3.496390E+002
 20
6.520000E+002
 30
0.000000E+000
 11
3.230810E+002
 21
6.520000E+002
 31
0.000000E+000
  0
LINE
  8
PV
 62
     7
 10
3.230810E+002
 20
6.655000E+002
 30
0.000000E+000
 11
3.496390E+002
 21
6.655000E+002
 31
0.000000E+000
  0
LINE
  8
PV
 62
     7
 10
3.496390E+002
 20
6.790000E+002
 30
0.000000E+000
 11
3.230810E+002
 21
6.790000E+002
 31
0.000000E+000
  0
LINE
  8
PV
 62
     7
 10
3.265450E+002
 20
6.990000E+002
 30
0.000000E+000
 11
3.461750E+002
 21
6.990000E+002
 31
0.000000E+000
  0
LINE
  8
PV
 62
     7
 10
3.461750E+002
 20
6.900000E+002
 30
0.000000E+000
 11
3.265450E+002
 21
6.900000E+002
 31
0.000000E+000
  0
LINE
  8
PV
 62
     7
 10
3.265450E+002
 20
6.860000E+002
 30
0.000000E+000
 11
3.461750E+002
 21
6.860000E+002
 31
0.000000E+000
  0
LINE
  8
PV
 62
     7
 10
3.461750E+002
 20
6.820000E+002
 30
0.000000E+000
 11
3.265450E+002
 21
6.820000E+002
 31
0.000000E+000
  0
LINE
  8
PV
 62
     7
 10
3.265450E+002
 20
6.860000E+002
 30
0.000000E+000
 11
3.265450E+002
 21
6.820000E+002
 31
0.000000E+000
  0
LINE
  8
PV
 62
     7
 10
3.314530E+002
 20
6.860000E+002
 30
0.000000E+000
 11
3.314530E+002
 21
6.820000E+002
 31
0.000000E+000
  0
LINE
  8
PV
 62
     7
 10
3.297210E+002
 20
6.520000E+002
 30
0.000000E+000
 11
3.297210E+002
 21
6.440000E+002
 31
0.000000E+000
  0
LINE
  8
PV
 62
     7
 10
3.230810E+002
 20
6.520000E+002
 30
0.000000E+000
 11
3.230810E+002
 21
6.440000E+002
 31
0.000000E+000
  0
LINE
  8
PV
 62
     7
 10
3.297210E+002
 20
6.790000E+002
 30
0.000000E+000
 11
3.297210E+002
 21
6.655000E+002
 31
0.000000E+000
  0
LINE
  8
PV
 62
     7
 10
3.230810E+002
 20
6.790000E+002
 30
0.000000E+000
 11
3.230810E+002
 21
6.655000E+002
 31
0.000000E+000
  0
LINE
  8
PV
 62
     7
 10
3.430000E+002
 20
6.790000E+002
 30
0.000000E+000
 11
3.430000E+002
 21
6.655000E+002
 31
0.000000E+000
  0
LINE
  8
PV
 62
     7
 10
3.496390E+002
 20
6.790000E+002
 30
0.000000E+000
 11
3.496390E+002
 21
6.655000E+002
 31
0.000000E+000
  0
LINE
  8
PV
 62
     7
 10
3.430000E+002
 20
6.520000E+002
 30
0.000000E+000
 11
3.430000E+002
 21
6.440000E+002
 31
0.000000E+000
  0
LINE
  8
PV
 62
     7
 10
3.496390E+002
 20
6.520000E+002
 30
0.000000E+000
 11
3.496390E+002
 21
6.440000E+002
 31
0.000000E+000
  0
LINE
  8
PV
 62
     7
 10
3.412680E+002
 20
6.860000E+002
 30
0.000000E+000
 11
3.412680E+002
 21
6.820000E+002
 31
0.000000E+000
  0
LINE
  8
PV
 62
     7
 10
3.461750E+002
 20
6.860000E+002
 30
0.000000E+000
 11
3.461750E+002
 21
6.820000E+002
 31
0.000000E+000
  0
LINE
  8
PV
 62
     7
 10
3.412680E+002
 20
6.990000E+002
 30
0.000000E+000
 11
3.412680E+002
 21
6.900000E+002
 31
0.000000E+000
  0
LINE
  8
PV
 62
     7
 10
3.461750E+002
 20
6.990000E+002
 30
0.000000E+000
 11
3.461750E+002
 21
6.900000E+002
 31
0.000000E+000
  0
LINE
  8
PV
 62
     7
 10
3.428600E+002
 20
6.400000E+002
 30
0.000000E+000
 11
3.428600E+002
 21
6.440000E+002
 31
0.000000E+000
  0
LINE
  8
PV
 62
     7
 10
3.298600E+002
 20
6.400000E+002
 30
0.000000E+000
 11
3.298600E+002
 21
6.440000E+002
 31
0.000000E+000
  0
LINE
  8
PV
 62
     7
 10
3.478600E+002
 20
6.520000E+002
 30
0.000000E+000
 11
3.478600E+002
 21
6.655000E+002
 31
0.000000E+000
  0
LINE
  8
PV
 62
     7
 10
3.248600E+002
 20
6.520000E+002
 30
0.000000E+000
 11
3.248600E+002
 21
6.655000E+002
 31
0.000000E+000
  0
LINE
  8
PV
 62
     7
 10
3.446100E+002
 20
6.900000E+002
 30
0.000000E+000
 11
3.446100E+002
 21
6.860000E+002
 31
0.000000E+000
  0
LINE
  8
PV
 62
     7
 10
3.281100E+002
 20
6.900000E+002
 30
0.000000E+000
 11
3.281100E+002
 21
6.860000E+002
 31
0.000000E+000
  0
LINE
  8
PV
 62
     7
 10
3.443600E+002
 20
6.790000E+002
 30
0.000000E+000
 11
3.443600E+002
 21
6.820000E+002
 31
0.000000E+000
  0
LINE
  8
PV
 62
     7
 10
3.283600E+002
 20
6.790000E+002
 30
0.000000E+000
 11
3.283600E+002
 21
6.820000E+002
 31
0.000000E+000
  0
LINE
  8
PV
 62
     7
 10
3.390600E+002
 20
6.990000E+002
 30
0.000000E+000
 11
3.390600E+002
 21
7.060000E+002
 31
0.000000E+000
  0
LINE
  8
PV
 62
     7
 10
3.336600E+002
 20
6.990000E+002
 30
0.000000E+000
 11
3.336600E+002
 21
7.060000E+002
 31
0.000000E+000
  0
LINE
  8
PV
 62
     7
 10
3.390600E+002
 20
7.060000E+002
 30
0.000000E+000
 11
3.336600E+002
 21
7.060000E+002
 31
0.000000E+000
  0
LINE
  8
PV
 62
     7
 10
8.663000E+002
 20
1.600000E+002
 30
0.000000E+000
 11
9.186600E+002
 21
1.600000E+002
 31
0.000000E+000
  0
LINE
  8
PV
 62
     7
 10
9.390600E+002
 20
7.060000E+002
 30
0.000000E+000
 11
9.336600E+002
 21
7.060000E+002
 31
0.000000E+000
  0
LINE
  8
PV
 62
     7
 10
9.336600E+002
 20
6.990000E+002
 30
0.000000E+000
 11
9.336600E+002
 21
7.060000E+002
 31
0.000000E+000
  0
LINE
  8
PV
 62
     7
 10
9.390600E+002
 20
6.990000E+002
 30
0.000000E+000
 11
9.390600E+002
 21
7.060000E+002
 31
0.000000E+000
  0
LINE
  8
PV
 62
     7
 10
9.283600E+002
 20
6.790000E+002
 30
0.000000E+000
 11
9.283600E+002
 21
6.820000E+002
 31
0.000000E+000
  0
LINE
  8
PV
 62
     7
 10
9.443600E+002
 20
6.790000E+002
 30
0.000000E+000
 11
9.443600E+002
 21
6.820000E+002
 31
0.000000E+000
  0
LINE
  8
PV
 62
     7
 10
9.281100E+002
 20
6.900000E+002
 30
0.000000E+000
 11
9.281100E+002
 21
6.860000E+002
 31
0.000000E+000
  0
LINE
  8
PV
 62
     7
 10
9.446100E+002
 20
6.900000E+002
 30
0.000000E+000
 11
9.446100E+002
 21
6.860000E+002
 31
0.000000E+000
  0
LINE
  8
PV
 62
     7
 10
9.248600E+002
 20
6.520000E+002
 30
0.000000E+000
 11
9.248600E+002
 21
6.655000E+002
 31
0.000000E+000
  0
LINE
  8
PV
 62
     7
 10
9.478600E+002
 20
6.560000E+002
 30
0.000000E+000
 11
9.478600E+002
 21
6.655000E+002
 31
0.000000E+000
  0
LINE
  8
PV
 62
     7
 10
9.298600E+002
 20
6.400000E+002
 30
0.000000E+000
 11
9.298600E+002
 21
6.440000E+002
 31
0.000000E+000
  0
LINE
  8
PV
 62
     7
 10
9.428600E+002
 20
6.400000E+002
 30
0.000000E+000
 11
9.428600E+002
 21
6.440000E+002
 31
0.000000E+000
  0
LINE
  8
PV
 62
     7
 10
9.461750E+002
 20
6.990000E+002
 30
0.000000E+000
 11
9.461750E+002
 21
6.900000E+002
 31
0.000000E+000
  0
LINE
  8
PV
 62
     7
 10
9.412680E+002
 20
6.990000E+002
 30
0.000000E+000
 11
9.412680E+002
 21
6.900000E+002
 31
0.000000E+000
  0
LINE
  8
PV
 62
     7
 10
9.461750E+002
 20
6.860000E+002
 30
0.000000E+000
 11
9.461750E+002
 21
6.820000E+002
 31
0.000000E+000
  0
LINE
  8
PV
 62
     7
 10
9.412680E+002
 20
6.860000E+002
 30
0.000000E+000
 11
9.412680E+002
 21
6.820000E+002
 31
0.000000E+000
  0
LINE
  8
PV
 62
     7
 10
9.430000E+002
 20
6.520000E+002
 30
0.000000E+000
 11
9.430000E+002
 21
6.440000E+002
 31
0.000000E+000
  0
LINE
  8
PV
 62
     7
 10
9.496390E+002
 20
6.790000E+002
 30
0.000000E+000
 11
9.496390E+002
 21
6.655000E+002
 31
0.000000E+000
  0
LINE
  8
PV
 62
     7
 10
9.430000E+002
 20
6.790000E+002
 30
0.000000E+000
 11
9.430000E+002
 21
6.655000E+002
 31
0.000000E+000
  0
LINE
  8
PV
 62
     7
 10
9.230810E+002
 20
6.790000E+002
 30
0.000000E+000
 11
9.230810E+002
 21
6.655000E+002
 31
0.000000E+000
  0
LINE
  8
PV
 62
     7
 10
9.297210E+002
 20
6.790000E+002
 30
0.000000E+000
 11
9.297210E+002
 21
6.655000E+002
 31
0.000000E+000
  0
LINE
  8
PV
 62
     7
 10
9.230810E+002
 20
6.520000E+002
 30
0.000000E+000
 11
9.230810E+002
 21
6.440000E+002
 31
0.000000E+000
  0
LINE
  8
PV
 62
     7
 10
9.297210E+002
 20
6.520000E+002
 30
0.000000E+000
 11
9.297210E+002
 21
6.440000E+002
 31
0.000000E+000
  0
LINE
  8
PV
 62
     7
 10
9.314530E+002
 20
6.860000E+002
 30
0.000000E+000
 11
9.314530E+002
 21
6.820000E+002
 31
0.000000E+000
  0
LINE
  8
PV
 62
     7
 10
9.265450E+002
 20
6.860000E+002
 30
0.000000E+000
 11
9.265450E+002
 21
6.820000E+002
 31
0.000000E+000
  0
LINE
  8
PV
 62
     7
 10
9.461750E+002
 20
6.820000E+002
 30
0.000000E+000
 11
9.265450E+002
 21
6.820000E+002
 31
0.000000E+000
  0
LINE
  8
PV
 62
     7
 10
9.265450E+002
 20
6.860000E+002
 30
0.000000E+000
 11
9.461750E+002
 21
6.860000E+002
 31
0.000000E+000
  0
LINE
  8
PV
 62
     7
 10
9.461750E+002
 20
6.900000E+002
 30
0.000000E+000
 11
9.265450E+002
 21
6.900000E+002
 31
0.000000E+000
  0
LINE
  8
PV
 62
     7
 10
9.265450E+002
 20
6.990000E+002
 30
0.000000E+000
 11
9.461750E+002
 21
6.990000E+002
 31
0.000000E+000
  0
LINE
  8
PV
 62
     7
 10
9.496390E+002
 20
6.790000E+002
 30
0.000000E+000
 11
9.230810E+002
 21
6.790000E+002
 31
0.000000E+000
  0
LINE
  8
PV
 62
     7
 10
9.230810E+002
 20
6.655000E+002
 30
0.000000E+000
 11
9.496390E+002
 21
6.655000E+002
 31
0.000000E+000
  0
LINE
  8
PV
 62
     7
 10
9.450000E+002
 20
6.520000E+002
 30
0.000000E+000
 11
9.230810E+002
 21
6.520000E+002
 31
0.000000E+000
  0
LINE
  8
PV
 62
     7
 10
9.230810E+002
 20
6.440000E+002
 30
0.000000E+000
 11
9.450000E+002
 21
6.440000E+002
 31
0.000000E+000
  0
LINE
  8
PV
 62
     7
 10
9.265450E+002
 20
6.990000E+002
 30
0.000000E+000
 11
9.265450E+002
 21
6.900000E+002
 31
0.000000E+000
  0
LINE
  8
PV
 62
     7
 10
9.314530E+002
 20
6.990000E+002
 30
0.000000E+000
 11
9.314530E+002
 21
6.900000E+002
 31
0.000000E+000
  0
LINE
  8
PV
 62
     7
 10
9.450000E+002
 20
6.400000E+002
 30
0.000000E+000
 11
9.450000E+002
 21
6.440000E+002
 31
0.000000E+000
  0
LINE
  8
PV
 62
     7
 10
9.314530E+002
 20
1.032140E+003
 30
0.000000E+000
 11
9.265450E+002
 21
1.023640E+003
 31
0.000000E+000
  0
LINE
  8
PV
 62
     7
 10
9.265450E+002
 20
1.023640E+003
 30
0.000000E+000
 11
9.314530E+002
 21
1.015140E+003
 31
0.000000E+000
  0
LINE
  8
PV
 62
     7
 10
9.314530E+002
 20
1.015140E+003
 30
0.000000E+000
 11
9.412680E+002
 21
1.015140E+003
 31
0.000000E+000
  0
LINE
  8
PV
 62
     7
 10
9.412680E+002
 20
1.015140E+003
 30
0.000000E+000
 11
9.461750E+002
 21
1.023640E+003
 31
0.000000E+000
  0
LINE
  8
PV
 62
     7
 10
9.461750E+002
 20
1.023640E+003
 30
0.000000E+000
 11
9.412680E+002
 21
1.032140E+003
 31
0.000000E+000
  0
LINE
  8
PV
 62
     7
 10
9.412680E+002
 20
1.032140E+003
 30
0.000000E+000
 11
9.314530E+002
 21
1.032140E+003
 31
0.000000E+000
  0
LINE
  8
PV
 62
     7
 10
9.297210E+002
 20
1.035140E+003
 30
0.000000E+000
 11
9.230810E+002
 21
1.023640E+003
 31
0.000000E+000
  0
LINE
  8
PV
 62
     7
 10
9.230810E+002
 20
1.023640E+003
 30
0.000000E+000
 11
9.297210E+002
 21
1.012140E+003
 31
0.000000E+000
  0
LINE
  8
PV
 62
     7
 10
9.297210E+002
 20
1.012140E+003
 30
0.000000E+000
 11
9.430000E+002
 21
1.012140E+003
 31
0.000000E+000
  0
LINE
  8
PV
 62
     7
 10
9.430000E+002
 20
1.012140E+003
 30
0.000000E+000
 11
9.496390E+002
 21
1.023640E+003
 31
0.000000E+000
  0
LINE
  8
PV
 62
     7
 10
9.496390E+002
 20
1.023640E+003
 30
0.000000E+000
 11
9.430000E+002
 21
1.035140E+003
 31
0.000000E+000
  0
LINE
  8
PV
 62
     7
 10
9.430000E+002
 20
1.035140E+003
 30
0.000000E+000
 11
9.297210E+002
 21
1.035140E+003
 31
0.000000E+000
  0
CIRCLE
  8
PV
 62
     7
 10
9.363600E+002
 20
1.023640E+003
 30
0.000000E+000
 40
2.700000E+000
  0
LINE
  8
PV
  6
CENTER
 62
     1
 10
9.850000E+002
 20
7.461620E+002
 30
0.000000E+000
 11
9.850000E+002
 21
6.625430E+002
 31
0.000000E+000
  0
LINE
  8
PV
 62
     7
 10
9.665000E+002
 20
7.240000E+002
 30
0.000000E+000
 11
9.665000E+002
 21
7.215000E+002
 31
0.000000E+000
  0
LINE
  8
PV
 62
     7
 10
1.003500E+003
 20
7.240000E+002
 30
0.000000E+000
 11
1.003500E+003
 21
7.215000E+002
 31
0.000000E+000
  0
LINE
  8
PV
 62
     7
 10
1.006000E+003
 20
7.215000E+002
 30
0.000000E+000
 11
9.640000E+002
 21
7.215000E+002
 31
0.000000E+000
  0
LINE
  8
PV
 62
     7
 10
9.600000E+002
 20
7.240000E+002
 30
0.000000E+000
 11
9.590000E+002
 21
7.250000E+002
 31
0.000000E+000
  0
LINE
  8
PV
 62
     7
 10
9.600000E+002
 20
7.390000E+002
 30
0.000000E+000
 11
9.590000E+002
 21
7.380000E+002
 31
0.000000E+000
  0
LINE
  8
PV
 62
     7
 10
1.011000E+003
 20
7.250000E+002
 30
0.000000E+000
 11
1.010000E+003
 21
7.240000E+002
 31
0.000000E+000
  0
LINE
  8
PV
 62
     7
 10
1.010000E+003
 20
7.390000E+002
 30
0.000000E+000
 11
1.011000E+003
 21
7.380000E+002
 31
0.000000E+000
  0
LINE
  8
PV
 62
     7
 10
9.590000E+002
 20
7.250000E+002
 30
0.000000E+000
 11
9.590000E+002
 21
7.380000E+002
 31
0.000000E+000
  0
LINE
  8
PV
 62
     7
 10
1.010000E+003
 20
7.240000E+002
 30
0.000000E+000
 11
9.600000E+002
 21
7.240000E+002
 31
0.000000E+000
  0
LINE
  8
PV
 62
     7
 10
1.011000E+003
 20
7.380000E+002
 30
0.000000E+000
 11
1.011000E+003
 21
7.250000E+002
 31
0.000000E+000
  0
LINE
  8
PV
 62
     7
 10
1.010000E+003
 20
7.390000E+002
 30
0.000000E+000
 11
9.600000E+002
 21
7.390000E+002
 31
0.000000E+000
  0
LINE
  8
PV
 62
     7
 10
1.006000E+003
 20
7.215000E+002
 30
0.000000E+000
 11
1.006000E+003
 21
7.110000E+002
 31
0.000000E+000
  0
LINE
  8
PV
 62
     7
 10
9.640000E+002
 20
7.215000E+002
 30
0.000000E+000
 11
9.640000E+002
 21
7.110000E+002
 31
0.000000E+000
  0
LINE
  8
PV
 62
     7
 10
9.560000E+002
 20
7.020000E+002
 30
0.000000E+000
 11
9.550000E+002
 21
7.030000E+002
 31
0.000000E+000
  0
LINE
  8
PV
 62
     7
 10
9.560000E+002
 20
7.110000E+002
 30
0.000000E+000
 11
9.550000E+002
 21
7.100000E+002
 31
0.000000E+000
  0
LINE
  8
PV
 62
     7
 10
1.015000E+003
 20
7.030000E+002
 30
0.000000E+000
 11
1.014000E+003
 21
7.020000E+002
 31
0.000000E+000
  0
LINE
  8
PV
 62
     7
 10
1.014000E+003
 20
7.110000E+002
 30
0.000000E+000
 11
1.015000E+003
 21
7.100000E+002
 31
0.000000E+000
  0
LINE
  8
PV
 62
     7
 10
9.550000E+002
 20
7.100000E+002
 30
0.000000E+000
 11
9.550000E+002
 21
7.030000E+002
 31
0.000000E+000
  0
LINE
  8
PV
 62
     7
 10
9.560000E+002
 20
7.110000E+002
 30
0.000000E+000
 11
1.014000E+003
 21
7.110000E+002
 31
0.000000E+000
  0
LINE
  8
PV
 62
     7
 10
1.015000E+003
 20
7.100000E+002
 30
0.000000E+000
 11
1.015000E+003
 21
7.030000E+002
 31
0.000000E+000
  0
LINE
  8
PV
 62
     7
 10
1.032000E+003
 20
6.665000E+002
 30
0.000000E+000
 11
1.032000E+003
 21
6.580000E+002
 31
0.000000E+000
  0
LINE
  8
PV
 62
     7
 10
1.050000E+003
 20
6.665000E+002
 30
0.000000E+000
 11
1.050000E+003
 21
6.580000E+002
 31
0.000000E+000
  0
LINE
  8
PV
 62
     7
 10
9.500000E+002
 20
6.665000E+002
 30
0.000000E+000
 11
9.500000E+002
 21
6.580000E+002
 31
0.000000E+000
  0
LINE
  8
PV
 62
     7
 10
9.680000E+002
 20
6.665000E+002
 30
0.000000E+000
 11
9.680000E+002
 21
6.580000E+002
 31
0.000000E+000
  0
ARC
  8
PV
 62
     7
 10
1.048500E+003
 20
6.665000E+002
 30
0.000000E+000
 40
1.500000E+000
 50
3.600000E+002
 51
9.000000E+001
  0
ARC
  8
PV
 62
     7
 10
9.515000E+002
 20
6.665000E+002
 30
0.000000E+000
 40
1.500000E+000
 50
9.000000E+001
 51
1.800000E+002
  0
ARC
  8
PV
 62
     7
 10
9.695000E+002
 20
6.665000E+002
 30
0.000000E+000
 40
1.500000E+000
 50
9.000000E+001
 51
1.800000E+002
  0
ARC
  8
PV
 62
     7
 10
1.030500E+003
 20
6.665000E+002
 30
0.000000E+000
 40
1.500000E+000
 50
0.000000E+000
 51
9.000000E+001
  0
LINE
  8
PV
  6
CENTER
 62
     1
 10
1.000000E+003
 20
6.974470E+002
 30
0.000000E+000
 11
1.000000E+003
 21
1.086820E+002
 31
0.000000E+000
  0
LINE
  8
PV
  6
CENTER
 62
     1
 10
1.000000E+003
 20
8.147140E+002
 30
0.000000E+000
 11
1.000000E+003
 21
1.114660E+003
 31
0.000000E+000
  0
ARC
  8
PV
 62
     7
 10
1.029350E+003
 20
6.710270E+002
 30
0.000000E+000
 40
1.900000E+000
 50
0.000000E+000
 51
7.392710E+001
  0
ARC
  8
PV
 62
     7
 10
1.022650E+003
 20
6.710270E+002
 30
0.000000E+000
 40
1.900000E+000
 50
1.060730E+002
 51
1.800000E+002
  0
ARC
  8
PV
 62
     7
 10
1.026000E+003
 20
6.594000E+002
 30
0.000000E+000
 40
1.400000E+001
 50
7.392710E+001
 51
1.060730E+002
  0
LINE
  8
PV
 62
     7
 10
1.020750E+003
 20
6.695000E+002
 30
0.000000E+000
 11
1.020750E+003
 21
6.710270E+002
 31
0.000000E+000
  0
LINE
  8
PV
 62
     7
 10
1.031250E+003
 20
6.695000E+002
 30
0.000000E+000
 11
1.031250E+003
 21
6.710270E+002
 31
0.000000E+000
  0
LINE
  8
PV
 62
     7
 10
1.020250E+003
 20
6.695000E+002
 30
0.000000E+000
 11
1.020250E+003
 21
6.680000E+002
 31
0.000000E+000
  0
LINE
  8
PV
 62
     7
 10
1.031750E+003
 20
6.695000E+002
 30
0.000000E+000
 11
1.020250E+003
 21
6.695000E+002
 31
0.000000E+000
  0
LINE
  8
PV
 62
     7
 10
1.031750E+003
 20
6.680000E+002
 30
0.000000E+000
 11
1.031750E+003
 21
6.695000E+002
 31
0.000000E+000
  0
LINE
  8
PV
  6
CENTER
 62
     1
 10
1.026000E+003
 20
6.771070E+002
 30
0.000000E+000
 11
1.026000E+003
 21
6.537550E+002
 31
0.000000E+000
  0
LINE
  8
PV
 62
     7
 10
1.049750E+003
 20
6.680000E+002
 30
0.000000E+000
 11
1.049750E+003
 21
6.695000E+002
 31
0.000000E+000
  0
LINE
  8
PV
 62
     7
 10
1.049750E+003
 20
6.695000E+002
 30
0.000000E+000
 11
1.038250E+003
 21
6.695000E+002
 31
0.000000E+000
  0
LINE
  8
PV
 62
     7
 10
1.038250E+003
 20
6.695000E+002
 30
0.000000E+000
 11
1.038250E+003
 21
6.680000E+002
 31
0.000000E+000
  0
LINE
  8
PV
 62
     7
 10
1.049250E+003
 20
6.695000E+002
 30
0.000000E+000
 11
1.049250E+003
 21
6.710270E+002
 31
0.000000E+000
  0
LINE
  8
PV
 62
     7
 10
1.038750E+003
 20
6.695000E+002
 30
0.000000E+000
 11
1.038750E+003
 21
6.710270E+002
 31
0.000000E+000
  0
ARC
  8
PV
 62
     7
 10
1.044000E+003
 20
6.594000E+002
 30
0.000000E+000
 40
1.400000E+001
 50
7.392710E+001
 51
1.060730E+002
  0
ARC
  8
PV
 62
     7
 10
1.040650E+003
 20
6.710270E+002
 30
0.000000E+000
 40
1.900000E+000
 50
1.060730E+002
 51
1.800000E+002
  0
ARC
  8
PV
 62
     7
 10
1.047350E+003
 20
6.710270E+002
 30
0.000000E+000
 40
1.900000E+000
 50
0.000000E+000
 51
7.392710E+001
  0
LINE
  8
PV
  6
CENTER
 62
     1
 10
1.044000E+003
 20
6.771070E+002
 30
0.000000E+000
 11
1.044000E+003
 21
6.537550E+002
 31
0.000000E+000
  0
LINE
  8
PV
 62
     7
 10
9.682500E+002
 20
6.680000E+002
 30
0.000000E+000
 11
9.682500E+002
 21
6.695000E+002
 31
0.000000E+000
  0
LINE
  8
PV
 62
     7
 10
9.682500E+002
 20
6.695000E+002
 30
0.000000E+000
 11
9.797500E+002
 21
6.695000E+002
 31
0.000000E+000
  0
LINE
  8
PV
 62
     7
 10
9.797500E+002
 20
6.695000E+002
 30
0.000000E+000
 11
9.797500E+002
 21
6.680000E+002
 31
0.000000E+000
  0
LINE
  8
PV
 62
     7
 10
9.687500E+002
 20
6.695000E+002
 30
0.000000E+000
 11
9.687500E+002
 21
6.710270E+002
 31
0.000000E+000
  0
LINE
  8
PV
 62
     7
 10
9.792500E+002
 20
6.695000E+002
 30
0.000000E+000
 11
9.792500E+002
 21
6.710270E+002
 31
0.000000E+000
  0
ARC
  8
PV
 62
     7
 10
9.740000E+002
 20
6.594000E+002
 30
0.000000E+000
 40
1.400000E+001
 50
7.392710E+001
 51
1.060730E+002
  0
ARC
  8
PV
 62
     7
 10
9.773500E+002
 20
6.710270E+002
 30
0.000000E+000
 40
1.900000E+000
 50
0.000000E+000
 51
7.392710E+001
  0
ARC
  8
PV
 62
     7
 10
9.706500E+002
 20
6.710270E+002
 30
0.000000E+000
 40
1.900000E+000
 50
1.060730E+002
 51
1.800000E+002
  0
ARC
  8
PV
 62
     7
 10
9.526500E+002
 20
6.710270E+002
 30
0.000000E+000
 40
1.900000E+000
 50
1.060730E+002
 51
1.800000E+002
  0
ARC
  8
PV
 62
     7
 10
9.593500E+002
 20
6.710270E+002
 30
0.000000E+000
 40
1.900000E+000
 50
0.000000E+000
 51
7.392710E+001
  0
ARC
  8
PV
 62
     7
 10
9.560000E+002
 20
6.594000E+002
 30
0.000000E+000
 40
1.400000E+001
 50
7.392710E+001
 51
1.060730E+002
  0
LINE
  8
PV
 62
     7
 10
9.612500E+002
 20
6.695000E+002
 30
0.000000E+000
 11
9.612500E+002
 21
6.710270E+002
 31
0.000000E+000
  0
LINE
  8
PV
 62
     7
 10
9.507500E+002
 20
6.695000E+002
 30
0.000000E+000
 11
9.507500E+002
 21
6.710270E+002
 31
0.000000E+000
  0
LINE
  8
PV
 62
     7
 10
9.617500E+002
 20
6.695000E+002
 30
0.000000E+000
 11
9.617500E+002
 21
6.680000E+002
 31
0.000000E+000
  0
LINE
  8
PV
 62
     7
 10
9.502500E+002
 20
6.695000E+002
 30
0.000000E+000
 11
9.617500E+002
 21
6.695000E+002
 31
0.000000E+000
  0
LINE
  8
PV
 62
     7
 10
9.502500E+002
 20
6.680000E+002
 30
0.000000E+000
 11
9.502500E+002
 21
6.695000E+002
 31
0.000000E+000
  0
LINE
  8
PV
  6
CENTER
 62
     1
 10
9.560000E+002
 20
6.771070E+002
 30
0.000000E+000
 11
9.560000E+002
 21
6.537550E+002
 31
0.000000E+000
  0
LINE
  8
PV
  6
CENTER
 62
     1
 10
9.740000E+002
 20
6.771070E+002
 30
0.000000E+000
 11
9.740000E+002
 21
6.537550E+002
 31
0.000000E+000
  0
LINE
  8
PV
 62
     7
 10
9.186600E+002
 20
2.160000E+002
 30
0.000000E+000
 11
9.461400E+002
 21
2.160000E+002
 31
0.000000E+000
  0
LINE
  8
PV
 62
     7
 10
8.889990E+002
 20
7.200000E+001
 30
0.000000E+000
 11
9.559800E+002
 21
7.200000E+001
 31
0.000000E+000
  0
LINE
  8
PV
 62
     7
 10
8.889990E+002
 20
6.600000E+001
 30
0.000000E+000
 11
9.559800E+002
 21
6.600000E+001
 31
0.000000E+000
  0
LINE
  8
PV
 62
     7
 10
8.889990E+002
 20
7.200000E+001
 30
0.000000E+000
 11
8.889990E+002
 21
6.600000E+001
 31
0.000000E+000
  0
LINE
  8
PV
 62
     7
 10
9.323010E+002
 20
7.200000E+001
 30
0.000000E+000
 11
9.323010E+002
 21
6.600000E+001
 31
0.000000E+000
  0
LINE
  8
PV
 62
     7
 10
9.559800E+002
 20
7.200000E+001
 30
0.000000E+000
 11
9.559800E+002
 21
6.600000E+001
 31
0.000000E+000
  0
LINE
  8
PV
 62
     7
 10
9.461400E+002
 20
2.160000E+002
 30
0.000000E+000
 11
9.461400E+002
 21
7.200000E+001
 31
0.000000E+000
  0
LINE
  8
PV
 62
     7
 10
9.311400E+002
 20
2.160000E+002
 30
0.000000E+000
 11
9.311400E+002
 21
7.200000E+001
 31
0.000000E+000
  0
LINE
  8
PV
 62
     7
 10
9.285420E+002
 20
2.160000E+002
 30
0.000000E+000
 11
9.285420E+002
 21
7.200000E+001
 31
0.000000E+000
  0
LINE
  8
PV
 62
     7
 10
9.186600E+002
 20
2.160000E+002
 30
0.000000E+000
 11
9.186600E+002
 21
7.200000E+001
 31
0.000000E+000
  0
LINE
  8
PV
 62
     7
 10
9.461400E+002
 20
1.600000E+002
 30
0.000000E+000
 11
1.133700E+003
 21
1.600000E+002
 31
0.000000E+000
  0
LINE
  8
PV
  6
CENTER
 62
     1
 10
9.200000E+002
 20
8.296400E+001
 30
0.000000E+000
 11
9.200000E+002
 21
5.898340E+001
 31
0.000000E+000
  0
LINE
  8
PV
 62
     7
 10
1.136700E+003
 20
2.160000E+002
 30
0.000000E+000
 11
1.136700E+003
 21
7.200000E+001
 31
0.000000E+000
  0
LINE
  8
PV
 62
     7
 10
1.163700E+003
 20
2.160000E+002
 30
0.000000E+000
 11
1.163700E+003
 21
7.200000E+001
 31
0.000000E+000
  0
LINE
  8
PV
 62
     7
 10
1.178700E+003
 20
7.200000E+001
 30
0.000000E+000
 11
1.178700E+003
 21
6.600000E+001
 31
0.000000E+000
  0
LINE
  8
PV
 62
     7
 10
1.133700E+003
 20
2.160000E+002
 30
0.000000E+000
 11
1.163700E+003
 21
2.160000E+002
 31
0.000000E+000
  0
LINE
  8
PV
 62
     7
 10
1.123700E+003
 20
7.200000E+001
 30
0.000000E+000
 11
1.123700E+003
 21
6.600000E+001
 31
0.000000E+000
  0
LINE
  8
PV
 62
     7
 10
1.123700E+003
 20
7.200000E+001
 30
0.000000E+000
 11
1.178700E+003
 21
7.200000E+001
 31
0.000000E+000
  0
LINE
  8
PV
 62
     7
 10
1.123700E+003
 20
6.600000E+001
 30
0.000000E+000
 11
1.178700E+003
 21
6.600000E+001
 31
0.000000E+000
  0
LINE
  8
PV
  6
CENTER
 62
     1
 10
1.160000E+003
 20
8.296400E+001
 30
0.000000E+000
 11
1.160000E+003
 21
5.898340E+001
 31
0.000000E+000
  0
LINE
  8
PV
 62
     7
 10
4.230000E+002
 20
1.230000E+002
 30
0.000000E+000
 11
4.330000E+002
 21
1.230000E+002
 31
0.000000E+000
  0
ARC
  8
PV
 62
     7
 10
4.325000E+002
 20
1.150000E+002
 30
0.000000E+000
 40
5.000000E-001
 50
2.700000E+002
 51
0.000000E+000
  0
LINE
  8
PV
 62
     7
 10
4.330000E+002
 20
1.310000E+002
 30
0.000000E+000
 11
4.330000E+002
 21
1.306810E+002
 31
0.000000E+000
  0
ARC
  8
PV
 62
     7
 10
4.325000E+002
 20
1.310000E+002
 30
0.000000E+000
 40
5.000000E-001
 50
0.000000E+000
 51
9.000000E+001
  0
LINE
  8
PV
 62
     7
 10
4.235000E+002
 20
1.315000E+002
 30
0.000000E+000
 11
4.325000E+002
 21
1.315000E+002
 31
0.000000E+000
  0
ARC
  8
PV
 62
     7
 10
4.235000E+002
 20
1.310000E+002
 30
0.000000E+000
 40
5.000000E-001
 50
9.000000E+001
 51
1.800000E+002
  0
LINE
  8
PV
 62
     7
 10
4.190000E+002
 20
1.297040E+002
 30
0.000000E+000
 11
4.230000E+002
 21
1.298290E+002
 31
0.000000E+000
  0
LINE
  8
PV
 62
     7
 10
4.230000E+002
 20
1.310000E+002
 30
0.000000E+000
 11
4.230000E+002
 21
1.150000E+002
 31
0.000000E+000
  0
LINE
  8
PV
 62
     7
 10
4.190000E+002
 20
1.162960E+002
 30
0.000000E+000
 11
4.230000E+002
 21
1.161710E+002
 31
0.000000E+000
  0
ARC
  8
PV
 62
     7
 10
4.235000E+002
 20
1.150000E+002
 30
0.000000E+000
 40
5.000000E-001
 50
1.800000E+002
 51
2.700000E+002
  0
LINE
  8
PV
 62
     7
 10
4.235000E+002
 20
1.145000E+002
 30
0.000000E+000
 11
4.325000E+002
 21
1.145000E+002
 31
0.000000E+000
  0
LINE
  8
PV
 62
     7
 10
3.915000E+002
 20
1.555000E+002
 30
0.000000E+000
 11
3.915000E+002
 21
1.465000E+002
 31
0.000000E+000
  0
ARC
  8
PV
 62
     7
 10
3.920000E+002
 20
1.555000E+002
 30
0.000000E+000
 40
5.000000E-001
 50
9.000000E+001
 51
1.800000E+002
  0
LINE
  8
PV
 62
     7
 10
3.932960E+002
 20
1.600000E+002
 30
0.000000E+000
 11
3.931710E+002
 21
1.560000E+002
 31
0.000000E+000
  0
LINE
  8
PV
 62
     7
 10
4.080000E+002
 20
1.560000E+002
 30
0.000000E+000
 11
3.920000E+002
 21
1.560000E+002
 31
0.000000E+000
  0
LINE
  8
PV
 62
     7
 10
4.067040E+002
 20
1.600000E+002
 30
0.000000E+000
 11
4.068290E+002
 21
1.560000E+002
 31
0.000000E+000
  0
ARC
  8
PV
 62
     7
 10
4.080000E+002
 20
1.555000E+002
 30
0.000000E+000
 40
5.000000E-001
 50
0.000000E+000
 51
9.000000E+001
  0
LINE
  8
PV
 62
     7
 10
4.085000E+002
 20
1.555000E+002
 30
0.000000E+000
 11
4.085000E+002
 21
1.465000E+002
 31
0.000000E+000
  0
ARC
  8
PV
 62
     7
 10
4.080000E+002
 20
1.465000E+002
 30
0.000000E+000
 40
5.000000E-001
 50
2.700000E+002
 51
0.000000E+000
  0
LINE
  8
PV
 62
     7
 10
4.067040E+002
 20
1.420000E+002
 30
0.000000E+000
 11
4.068290E+002
 21
1.460000E+002
 31
0.000000E+000
  0
LINE
  8
PV
 62
     7
 10
4.080000E+002
 20
1.460000E+002
 30
0.000000E+000
 11
3.920000E+002
 21
1.460000E+002
 31
0.000000E+000
  0
LINE
  8
PV
 62
     7
 10
3.932960E+002
 20
1.420000E+002
 30
0.000000E+000
 11
3.931710E+002
 21
1.460000E+002
 31
0.000000E+000
  0
ARC
  8
PV
 62
     7
 10
3.920000E+002
 20
1.465000E+002
 30
0.000000E+000
 40
5.000000E-001
 50
1.800000E+002
 51
2.700000E+002
  0
LINE
  8
PV
 62
     7
 10
4.000000E+002
 20
1.560000E+002
 30
0.000000E+000
 11
4.000000E+002
 21
1.460000E+002
 31
0.000000E+000
  0
LINE
  8
PV
 62
     7
 10
3.905000E+002
 20
1.420000E+002
 30
0.000000E+000
 11
4.095000E+002
 21
1.420000E+002
 31
0.000000E+000
  0
LINE
  8
PV
 62
     7
 10
4.190000E+002
 20
1.135000E+002
 30
0.000000E+000
 11
4.190000E+002
 21
1.325000E+002
 31
0.000000E+000
  0
LINE
  8
PV
 62
     7
 10
4.190000E+002
 20
1.325000E+002
 30
0.000000E+000
 11
4.110000E+002
 21
1.325000E+002
 31
0.000000E+000
  0
LINE
  8
PV
 62
     7
 10
3.905000E+002
 20
1.420000E+002
 30
0.000000E+000
 11
4.095000E+002
 21
1.420000E+002
 31
0.000000E+000
  0
LINE
  8
PV
 62
     7
 10
3.905000E+002
 20
1.420000E+002
 30
0.000000E+000
 11
3.905000E+002
 21
1.260000E+002
 31
0.000000E+000
  0
ARC
  8
PV
 62
     7
 10
4.110000E+002
 20
1.340000E+002
 30
0.000000E+000
 40
1.500000E+000
 50
1.800000E+002
 51
2.700000E+002
  0
LINE
  8
PV
 62
     7
 10
5.083290E+002
 20
8.651060E+002
 30
0.000000E+000
 11
5.010190E+002
 21
8.724160E+002
 31
0.000000E+000
  0
LINE
  8
PV
 62
     7
 10
4.875840E+002
 20
8.589810E+002
 30
0.000000E+000
 11
4.948940E+002
 21
8.516710E+002
 31
0.000000E+000
  0
LINE
  8
PV
 62
     7
 10
4.190000E+002
 20
1.135000E+002
 30
0.000000E+000
 11
4.030000E+002
 21
1.135000E+002
 31
0.000000E+000
  0
ARC
  8
PV
 62
     7
 10
4.030000E+002
 20
1.260000E+002
 30
0.000000E+000
 40
1.250000E+001
 50
1.800000E+002
 51
2.700000E+002
  0
LINE
  8
PV
 62
     7
 10
4.095000E+002
 20
1.340000E+002
 30
0.000000E+000
 11
4.095000E+002
 21
1.420000E+002
 31
0.000000E+000
  0
LINE
  8
PV
  6
CENTER
 62
     1
 10
3.841580E+002
 20
1.230000E+002
 30
0.000000E+000
 11
4.964880E+002
 21
1.230000E+002
 31
0.000000E+000
  0
LINE
  8
PV
 62
     7
 10
9.905000E+002
 20
1.420000E+002
 30
0.000000E+000
 11
1.009500E+003
 21
1.420000E+002
 31
0.000000E+000
  0
LINE
  8
PV
 62
     7
 10
9.905000E+002
 20
1.420000E+002
 30
0.000000E+000
 11
1.009500E+003
 21
1.420000E+002
 31
0.000000E+000
  0
LINE
  8
PV
 62
     7
 10
1.000000E+003
 20
1.560000E+002
 30
0.000000E+000
 11
1.000000E+003
 21
1.460000E+002
 31
0.000000E+000
  0
ARC
  8
PV
 62
     7
 10
9.920000E+002
 20
1.465000E+002
 30
0.000000E+000
 40
5.000000E-001
 50
1.800000E+002
 51
2.700000E+002
  0
LINE
  8
PV
 62
     7
 10
9.932960E+002
 20
1.420000E+002
 30
0.000000E+000
 11
9.931710E+002
 21
1.460000E+002
 31
0.000000E+000
  0
LINE
  8
PV
 62
     7
 10
1.008000E+003
 20
1.460000E+002
 30
0.000000E+000
 11
9.920000E+002
 21
1.460000E+002
 31
0.000000E+000
  0
LINE
  8
PV
 62
     7
 10
1.006700E+003
 20
1.420000E+002
 30
0.000000E+000
 11
1.006830E+003
 21
1.460000E+002
 31
0.000000E+000
  0
ARC
  8
PV
 62
     7
 10
1.008000E+003
 20
1.465000E+002
 30
0.000000E+000
 40
5.000000E-001
 50
2.700000E+002
 51
0.000000E+000
  0
LINE
  8
PV
 62
     7
 10
1.008500E+003
 20
1.555000E+002
 30
0.000000E+000
 11
1.008500E+003
 21
1.465000E+002
 31
0.000000E+000
  0
ARC
  8
PV
 62
     7
 10
1.008000E+003
 20
1.555000E+002
 30
0.000000E+000
 40
5.000000E-001
 50
0.000000E+000
 51
9.000000E+001
  0
LINE
  8
PV
 62
     7
 10
1.006700E+003
 20
1.600000E+002
 30
0.000000E+000
 11
1.006830E+003
 21
1.560000E+002
 31
0.000000E+000
  0
LINE
  8
PV
 62
     7
 10
1.008000E+003
 20
1.560000E+002
 30
0.000000E+000
 11
9.920000E+002
 21
1.560000E+002
 31
0.000000E+000
  0
LINE
  8
PV
 62
     7
 10
9.932960E+002
 20
1.600000E+002
 30
0.000000E+000
 11
9.931710E+002
 21
1.560000E+002
 31
0.000000E+000
  0
ARC
  8
PV
 62
     7
 10
9.920000E+002
 20
1.555000E+002
 30
0.000000E+000
 40
5.000000E-001
 50
9.000000E+001
 51
1.800000E+002
  0
LINE
  8
PV
 62
     7
 10
9.915000E+002
 20
1.555000E+002
 30
0.000000E+000
 11
9.915000E+002
 21
1.465000E+002
 31
0.000000E+000
  0
ARC
  8
PV
 62
     7
 10
1.000000E+003
 20
1.230000E+002
 30
0.000000E+000
 40
9.500000E+000
 50
1.800000E+002
 51
0.000000E+000
  0
LINE
  8
PV
 62
     7
 10
9.905000E+002
 20
1.420000E+002
 30
0.000000E+000
 11
9.905000E+002
 21
1.230000E+002
 31
0.000000E+000
  0
LINE
  8
PV
 62
     7
 10
1.009500E+003
 20
1.230000E+002
 30
0.000000E+000
 11
1.009500E+003
 21
1.420000E+002
 31
0.000000E+000
  0
LINE
  8
PV
  6
CENTER
 62
     1
 10
1.014380E+003
 20
1.230000E+002
 30
0.000000E+000
 11
9.107420E+002
 21
1.230000E+002
 31
0.000000E+000
  0
LINE
  8
PV
 62
     7
 10
4.150000E+002
 20
1.135000E+002
 30
0.000000E+000
 11
4.150000E+002
 21
7.200000E+001
 31
0.000000E+000
  0
LINE
  8
PV
  6
CENTER
 62
     1
 10
4.620000E+002
 20
8.930510E+001
 30
0.000000E+000
 11
4.620000E+002
 21
1.566950E+002
 31
0.000000E+000
  0
CIRCLE
  8
PV
 62
     7
 10
4.620000E+002
 20
1.230000E+002
 30
0.000000E+000
 40
3.000000E+001
  0
LINE
  8
PV
 62
     7
 10
4.330000E+002
 20
1.153190E+002
 30
0.000000E+000
 11
4.330000E+002
 21
1.150000E+002
 31
0.000000E+000
  0
LINE
  8
PV
 62
     7
 10
4.407870E+002
 20
1.017870E+002
 30
0.000000E+000
 11
4.832130E+002
 21
1.442130E+002
 31
0.000000E+000
  0
LINE
  8
PV
 62
     7
 10
4.832130E+002
 20
1.017870E+002
 30
0.000000E+000
 11
4.407870E+002
 21
1.442130E+002
 31
0.000000E+000
  0
ARC
  8
PV
 62
     7
 10
1.000000E+003
 20
1.230000E+002
 30
0.000000E+000
 40
1.200000E+001
 50
1.423420E+002
 51
3.765850E+001
  0
LINE
  8
PV
 62
     7
 10
9.160000E+002
 20
9.300000E+001
 30
0.000000E+000
 11
9.160000E+002
 21
1.530000E+002
 31
0.000000E+000
  0
LINE
  8
PV
 62
     7
 10
9.186600E+002
 20
1.530000E+002
 30
0.000000E+000
 11
9.160000E+002
 21
1.530000E+002
 31
0.000000E+000
  0
LINE
  8
PV
 62
     7
 10
9.186600E+002
 20
9.300000E+001
 30
0.000000E+000
 11
9.160000E+002
 21
9.300000E+001
 31
0.000000E+000
  0
LINE
  8
PV
 62
     7
 10
9.905000E+002
 20
1.310000E+002
 30
0.000000E+000
 11
9.500000E+002
 21
1.310000E+002
 31
0.000000E+000
  0
LINE
  8
PV
 62
     7
 10
9.500000E+002
 20
1.310000E+002
 30
0.000000E+000
 11
9.500000E+002
 21
1.150000E+002
 31
0.000000E+000
  0
LINE
  8
PV
 62
     7
 10
9.910560E+002
 20
1.150000E+002
 30
0.000000E+000
 11
9.500000E+002
 21
1.150000E+002
 31
0.000000E+000
  0
LINE
  8
PV
 62
     7
 10
9.500000E+002
 20
1.260000E+002
 30
0.000000E+000
 11
9.461400E+002
 21
1.260000E+002
 31
0.000000E+000
  0
LINE
  8
PV
 62
     7
 10
9.500000E+002
 20
1.200000E+002
 30
0.000000E+000
 11
9.461400E+002
 21
1.200000E+002
 31
0.000000E+000
  0
LINE
  8
PV
 62
     7
 10
5.083290E+002
 20
8.651060E+002
 30
0.000000E+000
 11
4.948940E+002
 21
8.516710E+002
 31
0.000000E+000
  0
LINE
  8
PV
 62
     7
 10
5.176320E+002
 20
6.050500E+002
 30
0.000000E+000
 11
5.176320E+002
 21
1.949500E+002
 31
0.000000E+000
  0
LINE
  8
PV
 62
     7
 10
5.096320E+002
 20
6.050500E+002
 30
0.000000E+000
 11
5.096320E+002
 21
1.949500E+002
 31
0.000000E+000
  0
LINE
  8
PV
 62
     7
 10
5.062070E+002
 20
8.629850E+002
 30
0.000000E+000
 11
5.097430E+002
 21
8.594490E+002
 31
0.000000E+000
  0
LINE
  8
PV
 62
     7
 10
5.100970E+002
 20
8.598030E+002
 30
0.000000E+000
 11
5.001970E+002
 21
8.499030E+002
 31
0.000000E+000
  0
LINE
  8
PV
 62
     7
 10
5.475730E+002
 20
8.308120E+002
 30
0.000000E+000
 11
5.291880E+002
 21
8.124270E+002
 31
0.000000E+000
  0
LINE
  8
PV
 62
     7
 10
5.277740E+002
 20
8.138410E+002
 30
0.000000E+000
 11
5.461590E+002
 21
8.322260E+002
 31
0.000000E+000
  0
LINE
  8
PV
 62
     7
 10
5.231780E+002
 20
8.389430E+002
 30
0.000000E+000
 11
5.380270E+002
 21
8.240940E+002
 31
0.000000E+000
  0
LINE
  8
PV
 62
     7
 10
5.461590E+002
 20
8.322260E+002
 30
0.000000E+000
 11
5.475730E+002
 21
8.308120E+002
 31
0.000000E+000
  0
LINE
  8
PV
 62
     7
 10
5.210570E+002
 20
8.368220E+002
 30
0.000000E+000
 11
5.359060E+002
 21
8.219730E+002
 31
0.000000E+000
  0
LINE
  8
PV
 62
     7
 10
5.277740E+002
 20
8.138410E+002
 30
0.000000E+000
 11
5.291880E+002
 21
8.124270E+002
 31
0.000000E+000
  0
LINE
  8
PV
 62
     7
 10
5.100970E+002
 20
8.598030E+002
 30
0.000000E+000
 11
5.270670E+002
 21
8.428320E+002
 31
0.000000E+000
  0
LINE
  8
PV
 62
     7
 10
5.270670E+002
 20
8.428320E+002
 30
0.000000E+000
 11
5.171680E+002
 21
8.329330E+002
 31
0.000000E+000
  0
LINE
  8
PV
 62
     7
 10
5.001970E+002
 20
8.499030E+002
 30
0.000000E+000
 11
5.171680E+002
 21
8.329330E+002
 31
0.000000E+000
  0
LINE
  8
PV
 62
     7
 10
4.970150E+002
 20
8.537930E+002
 30
0.000000E+000
 11
5.005510E+002
 21
8.502570E+002
 31
0.000000E+000
  0
LINE
  8
PV
  6
CENTER
 62
     1
 10
5.213070E+002
 20
8.540430E+002
 30
0.000000E+000
 11
5.053130E+002
 21
8.380490E+002
 31
0.000000E+000
  0
ARC
  8
PV
 62
     7
 10
5.383810E+002
 20
6.100000E+002
 30
0.000000E+000
 40
9.192430E+000
 50
1.800000E+002
 51
2.025000E+002
  0
ARC
  8
PV
 62
     7
 10
5.383810E+002
 20
6.100000E+002
 30
0.000000E+000
 40
9.192420E+000
 50
2.025000E+002
 51
2.250000E+002
  0
ARC
  8
PV
 62
     7
 10
5.383810E+002
 20
6.100000E+002
 30
0.000000E+000
 40
9.192420E+000
 50
2.250000E+002
 51
2.475000E+002
  0
ARC
  8
PV
 62
     7
 10
5.383810E+002
 20
6.100000E+002
 30
0.000000E+000
 40
9.192430E+000
 50
2.475000E+002
 51
2.700000E+002
  0
ARC
  8
PV
 62
     7
 10
5.383810E+002
 20
6.100000E+002
 30
0.000000E+000
 40
9.192430E+000
 50
2.700000E+002
 51
2.925000E+002
  0
ARC
  8
PV
 62
     7
 10
5.383810E+002
 20
6.100000E+002
 30
0.000000E+000
 40
9.192420E+000
 50
2.925000E+002
 51
3.150000E+002
  0
ARC
  8
PV
 62
     7
 10
5.383810E+002
 20
6.100000E+002
 30
0.000000E+000
 40
9.192420E+000
 50
3.150000E+002
 51
3.375000E+002
  0
ARC
  8
PV
 62
     7
 10
5.383810E+002
 20
6.100000E+002
 30
0.000000E+000
 40
9.192430E+000
 50
3.375000E+002
 51
3.600000E+002
  0
ARC
  8
PV
 62
     7
 10
5.383810E+002
 20
6.100000E+002
 30
0.000000E+000
 40
9.192430E+000
 50
4.650340E-005
 51
2.250000E+001
  0
ARC
  8
PV
 62
     7
 10
5.383810E+002
 20
6.100000E+002
 30
0.000000E+000
 40
9.192420E+000
 50
2.250000E+001
 51
4.500000E+001
  0
ARC
  8
PV
 62
     7
 10
5.383810E+002
 20
6.100000E+002
 30
0.000000E+000
 40
9.192420E+000
 50
4.500000E+001
 51
6.750000E+001
  0
ARC
  8
PV
 62
     7
 10
5.383810E+002
 20
6.100000E+002
 30
0.000000E+000
 40
9.192430E+000
 50
6.750000E+001
 51
9.000000E+001
  0
ARC
  8
PV
 62
     7
 10
5.383810E+002
 20
6.100000E+002
 30
0.000000E+000
 40
9.192430E+000
 50
9.000000E+001
 51
1.125000E+002
  0
ARC
  8
PV
 62
     7
 10
5.383810E+002
 20
6.100000E+002
 30
0.000000E+000
 40
9.192420E+000
 50
1.125000E+002
 51
1.350000E+002
  0
ARC
  8
PV
 62
     7
 10
5.383810E+002
 20
6.100000E+002
 30
0.000000E+000
 40
9.192420E+000
 50
1.350000E+002
 51
1.575000E+002
  0
ARC
  8
PV
 62
     7
 10
5.383810E+002
 20
6.100000E+002
 30
0.000000E+000
 40
9.192430E+000
 50
1.575000E+002
 51
1.800000E+002
  0
LINE
  8
PV
 62
     7
 10
5.016110E+002
 20
6.167180E+002
 30
0.000000E+000
 11
4.943010E+002
 21
6.167180E+002
 31
0.000000E+000
  0
LINE
  8
PV
 62
     7
 10
5.016110E+002
 20
6.032820E+002
 30
0.000000E+000
 11
4.943010E+002
 21
6.032820E+002
 31
0.000000E+000
  0
ARC
  8
PV
 62
     7
 10
4.943010E+002
 20
6.100000E+002
 30
0.000000E+000
 40
6.717540E+000
 50
1.800000E+002
 51
2.025000E+002
  0
ARC
  8
PV
 62
     7
 10
4.943010E+002
 20
6.100000E+002
 30
0.000000E+000
 40
6.717540E+000
 50
2.025000E+002
 51
2.250000E+002
  0
ARC
  8
PV
 62
     7
 10
4.943010E+002
 20
6.100000E+002
 30
0.000000E+000
 40
6.717540E+000
 50
2.250000E+002
 51
2.475000E+002
  0
ARC
  8
PV
 62
     7
 10
4.943010E+002
 20
6.100000E+002
 30
0.000000E+000
 40
6.717540E+000
 50
2.475000E+002
 51
2.700000E+002
  0
ARC
  8
PV
 62
     7
 10
4.943010E+002
 20
6.100000E+002
 30
0.000000E+000
 40
6.717540E+000
 50
9.000000E+001
 51
1.125000E+002
  0
ARC
  8
PV
 62
     7
 10
4.943010E+002
 20
6.100000E+002
 30
0.000000E+000
 40
6.717540E+000
 50
1.125000E+002
 51
1.350000E+002
  0
ARC
  8
PV
 62
     7
 10
4.943010E+002
 20
6.100000E+002
 30
0.000000E+000
 40
6.717540E+000
 50
1.350000E+002
 51
1.575000E+002
  0
ARC
  8
PV
 62
     7
 10
4.943010E+002
 20
6.100000E+002
 30
0.000000E+000
 40
6.717540E+000
 50
1.575000E+002
 51
1.800000E+002
  0
LINE
  8
PV
 62
     7
 10
5.016110E+002
 20
6.149500E+002
 30
0.000000E+000
 11
5.221170E+002
 21
6.149500E+002
 31
0.000000E+000
  0
LINE
  8
PV
 62
     7
 10
5.016110E+002
 20
6.050500E+002
 30
0.000000E+000
 11
5.221170E+002
 21
6.050500E+002
 31
0.000000E+000
  0
ARC
  8
PV
 62
     7
 10
5.016110E+002
 20
6.100000E+002
 30
0.000000E+000
 40
4.949770E+000
 50
9.000000E+001
 51
1.125000E+002
  0
ARC
  8
PV
 62
     7
 10
5.016110E+002
 20
6.100000E+002
 30
0.000000E+000
 40
4.949770E+000
 50
1.125000E+002
 51
1.350000E+002
  0
ARC
  8
PV
 62
     7
 10
5.016110E+002
 20
6.100000E+002
 30
0.000000E+000
 40
4.949770E+000
 50
1.350000E+002
 51
1.575000E+002
  0
ARC
  8
PV
 62
     7
 10
5.016110E+002
 20
6.100000E+002
 30
0.000000E+000
 40
4.949770E+000
 50
1.575000E+002
 51
1.800000E+002
  0
ARC
  8
PV
 62
     7
 10
5.016110E+002
 20
6.100000E+002
 30
0.000000E+000
 40
4.949770E+000
 50
1.800000E+002
 51
2.025000E+002
  0
ARC
  8
PV
 62
     7
 10
5.016110E+002
 20
6.100000E+002
 30
0.000000E+000
 40
4.949770E+000
 50
2.025000E+002
 51
2.250000E+002
  0
ARC
  8
PV
 62
     7
 10
5.016110E+002
 20
6.100000E+002
 30
0.000000E+000
 40
4.949770E+000
 50
2.250000E+002
 51
2.475000E+002
  0
ARC
  8
PV
 62
     7
 10
5.016110E+002
 20
6.100000E+002
 30
0.000000E+000
 40
4.949770E+000
 50
2.475000E+002
 51
2.700000E+002
  0
ARC
  8
PV
 62
     7
 10
5.016110E+002
 20
6.100000E+002
 30
0.000000E+000
 40
6.717540E+000
 50
1.800000E+002
 51
2.025000E+002
  0
ARC
  8
PV
 62
     7
 10
5.016110E+002
 20
6.100000E+002
 30
0.000000E+000
 40
6.717540E+000
 50
2.025000E+002
 51
2.250000E+002
  0
ARC
  8
PV
 62
     7
 10
5.016110E+002
 20
6.100000E+002
 30
0.000000E+000
 40
6.717540E+000
 50
2.250000E+002
 51
2.475000E+002
  0
ARC
  8
PV
 62
     7
 10
5.016110E+002
 20
6.100000E+002
 30
0.000000E+000
 40
6.717540E+000
 50
2.475000E+002
 51
2.700000E+002
  0
ARC
  8
PV
 62
     7
 10
5.016110E+002
 20
6.100000E+002
 30
0.000000E+000
 40
6.717540E+000
 50
2.700000E+002
 51
2.925000E+002
  0
ARC
  8
PV
 62
     7
 10
5.016110E+002
 20
6.100000E+002
 30
0.000000E+000
 40
6.717510E+000
 50
2.925000E+002
 51
3.125370E+002
  0
ARC
  8
PV
 62
     7
 10
5.016110E+002
 20
6.100000E+002
 30
0.000000E+000
 40
6.717510E+000
 50
4.746310E+001
 51
6.750000E+001
  0
ARC
  8
PV
 62
     7
 10
5.016110E+002
 20
6.100000E+002
 30
0.000000E+000
 40
6.717540E+000
 50
6.750010E+001
 51
9.000000E+001
  0
ARC
  8
PV
 62
     7
 10
5.016110E+002
 20
6.100000E+002
 30
0.000000E+000
 40
6.717540E+000
 50
9.000000E+001
 51
1.125000E+002
  0
ARC
  8
PV
 62
     7
 10
5.016110E+002
 20
6.100000E+002
 30
0.000000E+000
 40
6.717540E+000
 50
1.125000E+002
 51
1.350000E+002
  0
ARC
  8
PV
 62
     7
 10
5.016110E+002
 20
6.100000E+002
 30
0.000000E+000
 40
6.717540E+000
 50
1.350000E+002
 51
1.575000E+002
  0
ARC
  8
PV
 62
     7
 10
5.016110E+002
 20
6.100000E+002
 30
0.000000E+000
 40
6.717540E+000
 50
1.575000E+002
 51
1.800000E+002
  0
LINE
  8
PV
 62
     7
 10
5.221170E+002
 20
6.110610E+002
 30
0.000000E+000
 11
5.278360E+002
 21
6.110610E+002
 31
0.000000E+000
  0
LINE
  8
PV
 62
     7
 10
5.221170E+002
 20
6.089390E+002
 30
0.000000E+000
 11
5.278360E+002
 21
6.089390E+002
 31
0.000000E+000
  0
ARC
  8
PV
 62
     7
 10
5.221170E+002
 20
6.100000E+002
 30
0.000000E+000
 40
1.060660E+000
 50
1.800000E+002
 51
2.025000E+002
  0
ARC
  8
PV
 62
     7
 10
5.221170E+002
 20
6.100000E+002
 30
0.000000E+000
 40
1.060660E+000
 50
2.025000E+002
 51
2.250000E+002
  0
ARC
  8
PV
 62
     7
 10
5.221170E+002
 20
6.100000E+002
 30
0.000000E+000
 40
1.060660E+000
 50
2.250000E+002
 51
2.475000E+002
  0
ARC
  8
PV
 62
     7
 10
5.221170E+002
 20
6.100000E+002
 30
0.000000E+000
 40
1.060660E+000
 50
2.475000E+002
 51
2.700000E+002
  0
ARC
  8
PV
 62
     7
 10
5.221170E+002
 20
6.100000E+002
 30
0.000000E+000
 40
1.060660E+000
 50
9.000010E+001
 51
1.125000E+002
  0
ARC
  8
PV
 62
     7
 10
5.221170E+002
 20
6.100000E+002
 30
0.000000E+000
 40
1.060660E+000
 50
1.125000E+002
 51
1.350000E+002
  0
ARC
  8
PV
 62
     7
 10
5.221170E+002
 20
6.100000E+002
 30
0.000000E+000
 40
1.060660E+000
 50
1.350000E+002
 51
1.575000E+002
  0
ARC
  8
PV
 62
     7
 10
5.221170E+002
 20
6.100000E+002
 30
0.000000E+000
 40
1.060660E+000
 50
1.575000E+002
 51
1.800000E+002
  0
ARC
  8
PV
 62
     7
 10
5.221170E+002
 20
6.100000E+002
 30
0.000000E+000
 40
4.949770E+000
 50
2.700000E+002
 51
2.925000E+002
  0
ARC
  8
PV
 62
     7
 10
5.221170E+002
 20
6.100000E+002
 30
0.000000E+000
 40
4.949770E+000
 50
2.925000E+002
 51
3.150000E+002
  0
ARC
  8
PV
 62
     7
 10
5.221170E+002
 20
6.100000E+002
 30
0.000000E+000
 40
4.949770E+000
 50
3.150000E+002
 51
3.375000E+002
  0
ARC
  8
PV
 62
     7
 10
5.221170E+002
 20
6.100000E+002
 30
0.000000E+000
 40
4.949790E+000
 50
3.375000E+002
 51
3.476260E+002
  0
ARC
  8
PV
 62
     7
 10
5.221170E+002
 20
6.100000E+002
 30
0.000000E+000
 40
4.949790E+000
 50
1.237370E+001
 51
2.250000E+001
  0
ARC
  8
PV
 62
     7
 10
5.221170E+002
 20
6.100000E+002
 30
0.000000E+000
 40
4.949770E+000
 50
2.250000E+001
 51
4.499990E+001
  0
ARC
  8
PV
 62
     7
 10
5.221170E+002
 20
6.100000E+002
 30
0.000000E+000
 40
4.949770E+000
 50
4.500010E+001
 51
6.750000E+001
  0
ARC
  8
PV
 62
     7
 10
5.221170E+002
 20
6.100000E+002
 30
0.000000E+000
 40
4.949770E+000
 50
6.750000E+001
 51
9.000000E+001
  0
ARC
  8
PV
 62
     7
 10
5.221170E+002
 20
6.100000E+002
 30
0.000000E+000
 40
4.949770E+000
 50
9.000000E+001
 51
1.125000E+002
  0
ARC
  8
PV
 62
     7
 10
5.221170E+002
 20
6.100000E+002
 30
0.000000E+000
 40
4.949770E+000
 50
1.125000E+002
 51
1.350000E+002
  0
ARC
  8
PV
 62
     7
 10
5.221170E+002
 20
6.100000E+002
 30
0.000000E+000
 40
4.949770E+000
 50
1.350000E+002
 51
1.575000E+002
  0
ARC
  8
PV
 62
     7
 10
5.221170E+002
 20
6.100000E+002
 30
0.000000E+000
 40
4.949770E+000
 50
1.575000E+002
 51
1.800000E+002
  0
ARC
  8
PV
 62
     7
 10
5.221170E+002
 20
6.100000E+002
 30
0.000000E+000
 40
4.949770E+000
 50
1.800000E+002
 51
2.025000E+002
  0
ARC
  8
PV
 62
     7
 10
5.221170E+002
 20
6.100000E+002
 30
0.000000E+000
 40
4.949770E+000
 50
2.025000E+002
 51
2.250000E+002
  0
ARC
  8
PV
 62
     7
 10
5.221170E+002
 20
6.100000E+002
 30
0.000000E+000
 40
4.949770E+000
 50
2.250000E+002
 51
2.475000E+002
  0
ARC
  8
PV
 62
     7
 10
5.221170E+002
 20
6.100000E+002
 30
0.000000E+000
 40
4.949770E+000
 50
2.475000E+002
 51
2.700000E+002
  0
ARC
  8
PV
 62
     7
 10
5.369670E+002
 20
6.100000E+002
 30
0.000000E+000
 40
9.192430E+000
 50
1.800000E+002
 51
2.025000E+002
  0
ARC
  8
PV
 62
     7
 10
5.369670E+002
 20
6.100000E+002
 30
0.000000E+000
 40
9.192430E+000
 50
2.025000E+002
 51
2.250000E+002
  0
ARC
  8
PV
 62
     7
 10
5.369670E+002
 20
6.100000E+002
 30
0.000000E+000
 40
9.192420E+000
 50
2.250000E+002
 51
2.475000E+002
  0
ARC
  8
PV
 62
     7
 10
5.369670E+002
 20
6.100000E+002
 30
0.000000E+000
 40
9.192430E+000
 50
2.475000E+002
 51
2.700000E+002
  0
ARC
  8
PV
 62
     7
 10
5.369670E+002
 20
6.100000E+002
 30
0.000000E+000
 40
9.192430E+000
 50
9.000000E+001
 51
1.125000E+002
  0
ARC
  8
PV
 62
     7
 10
5.369670E+002
 20
6.100000E+002
 30
0.000000E+000
 40
9.192420E+000
 50
1.125000E+002
 51
1.350000E+002
  0
ARC
  8
PV
 62
     7
 10
5.369670E+002
 20
6.100000E+002
 30
0.000000E+000
 40
9.192430E+000
 50
1.350000E+002
 51
1.575000E+002
  0
ARC
  8
PV
 62
     7
 10
5.369670E+002
 20
6.100000E+002
 30
0.000000E+000
 40
9.192430E+000
 50
1.575000E+002
 51
1.800000E+002
  0
LINE
  8
PV
 62
     7
 10
5.337000E+002
 20
6.185920E+002
 30
0.000000E+000
 11
5.337000E+002
 21
6.400000E+002
 31
0.000000E+000
  0
LINE
  8
PV
  6
CENTER
 62
     1
 10
4.943010E+002
 20
6.212360E+002
 30
0.000000E+000
 11
4.943010E+002
 21
6.007710E+002
 31
0.000000E+000
  0
LINE
  8
PV
  6
CENTER
 62
     1
 10
5.136320E+002
 20
6.173440E+002
 30
0.000000E+000
 11
5.136320E+002
 21
1.750000E+002
 31
0.000000E+000
  0
LINE
  8
PV
  6
CENTER
 62
     1
 10
4.943010E+002
 20
2.012360E+002
 30
0.000000E+000
 11
4.943010E+002
 21
1.807710E+002
 31
0.000000E+000
  0
ARC
  8
PV
 62
     7
 10
5.369670E+002
 20
1.900000E+002
 30
0.000000E+000
 40
9.192430E+000
 50
9.000000E+001
 51
1.125000E+002
  0
ARC
  8
PV
 62
     7
 10
5.369670E+002
 20
1.900000E+002
 30
0.000000E+000
 40
9.192420E+000
 50
1.125000E+002
 51
1.350000E+002
  0
ARC
  8
PV
 62
     7
 10
5.369670E+002
 20
1.900000E+002
 30
0.000000E+000
 40
9.192430E+000
 50
1.350000E+002
 51
1.575000E+002
  0
ARC
  8
PV
 62
     7
 10
5.369670E+002
 20
1.900000E+002
 30
0.000000E+000
 40
9.192430E+000
 50
1.575000E+002
 51
1.800000E+002
  0
ARC
  8
PV
 62
     7
 10
5.369670E+002
 20
1.900000E+002
 30
0.000000E+000
 40
9.192430E+000
 50
1.800000E+002
 51
2.025000E+002
  0
ARC
  8
PV
 62
     7
 10
5.369670E+002
 20
1.900000E+002
 30
0.000000E+000
 40
9.192430E+000
 50
2.025000E+002
 51
2.250000E+002
  0
ARC
  8
PV
 62
     7
 10
5.369670E+002
 20
1.900000E+002
 30
0.000000E+000
 40
9.192420E+000
 50
2.250000E+002
 51
2.475000E+002
  0
ARC
  8
PV
 62
     7
 10
5.369670E+002
 20
1.900000E+002
 30
0.000000E+000
 40
9.192430E+000
 50
2.475000E+002
 51
2.700000E+002
  0
ARC
  8
PV
 62
     7
 10
5.221170E+002
 20
1.900000E+002
 30
0.000000E+000
 40
4.949790E+000
 50
1.237370E+001
 51
2.250000E+001
  0
ARC
  8
PV
 62
     7
 10
5.221170E+002
 20
1.900000E+002
 30
0.000000E+000
 40
4.949770E+000
 50
2.250000E+001
 51
4.499990E+001
  0
ARC
  8
PV
 62
     7
 10
5.221170E+002
 20
1.900000E+002
 30
0.000000E+000
 40
4.949770E+000
 50
4.500010E+001
 51
6.750000E+001
  0
ARC
  8
PV
 62
     7
 10
5.221170E+002
 20
1.900000E+002
 30
0.000000E+000
 40
4.949770E+000
 50
6.750000E+001
 51
9.000000E+001
  0
ARC
  8
PV
 62
     7
 10
5.221170E+002
 20
1.900000E+002
 30
0.000000E+000
 40
4.949770E+000
 50
9.000000E+001
 51
1.125000E+002
  0
ARC
  8
PV
 62
     7
 10
5.221170E+002
 20
1.900000E+002
 30
0.000000E+000
 40
4.949770E+000
 50
1.125000E+002
 51
1.350000E+002
  0
ARC
  8
PV
 62
     7
 10
5.221170E+002
 20
1.900000E+002
 30
0.000000E+000
 40
4.949770E+000
 50
1.350000E+002
 51
1.575000E+002
  0
ARC
  8
PV
 62
     7
 10
5.221170E+002
 20
1.900000E+002
 30
0.000000E+000
 40
4.949770E+000
 50
1.575000E+002
 51
1.800000E+002
  0
ARC
  8
PV
 62
     7
 10
5.221170E+002
 20
1.900000E+002
 30
0.000000E+000
 40
4.949770E+000
 50
1.800000E+002
 51
2.025000E+002
  0
ARC
  8
PV
 62
     7
 10
5.221170E+002
 20
1.900000E+002
 30
0.000000E+000
 40
4.949770E+000
 50
2.025000E+002
 51
2.250000E+002
  0
ARC
  8
PV
 62
     7
 10
5.221170E+002
 20
1.900000E+002
 30
0.000000E+000
 40
4.949770E+000
 50
2.250000E+002
 51
2.475000E+002
  0
ARC
  8
PV
 62
     7
 10
5.221170E+002
 20
1.900000E+002
 30
0.000000E+000
 40
4.949770E+000
 50
2.475000E+002
 51
2.700000E+002
  0
ARC
  8
PV
 62
     7
 10
5.221170E+002
 20
1.900000E+002
 30
0.000000E+000
 40
4.949770E+000
 50
2.700000E+002
 51
2.925000E+002
  0
ARC
  8
PV
 62
     7
 10
5.221170E+002
 20
1.900000E+002
 30
0.000000E+000
 40
4.949770E+000
 50
2.925000E+002
 51
3.150000E+002
  0
ARC
  8
PV
 62
     7
 10
5.221170E+002
 20
1.900000E+002
 30
0.000000E+000
 40
4.949770E+000
 50
3.150000E+002
 51
3.375000E+002
  0
ARC
  8
PV
 62
     7
 10
5.221170E+002
 20
1.900000E+002
 30
0.000000E+000
 40
4.949790E+000
 50
3.375000E+002
 51
3.476260E+002
  0
ARC
  8
PV
 62
     7
 10
5.221170E+002
 20
1.900000E+002
 30
0.000000E+000
 40
1.060660E+000
 50
9.000010E+001
 51
1.125000E+002
  0
ARC
  8
PV
 62
     7
 10
5.221170E+002
 20
1.900000E+002
 30
0.000000E+000
 40
1.060660E+000
 50
1.125000E+002
 51
1.350000E+002
  0
ARC
  8
PV
 62
     7
 10
5.221170E+002
 20
1.900000E+002
 30
0.000000E+000
 40
1.060660E+000
 50
1.350000E+002
 51
1.575000E+002
  0
ARC
  8
PV
 62
     7
 10
5.221170E+002
 20
1.900000E+002
 30
0.000000E+000
 40
1.060660E+000
 50
1.575000E+002
 51
1.800000E+002
  0
ARC
  8
PV
 62
     7
 10
5.221170E+002
 20
1.900000E+002
 30
0.000000E+000
 40
1.060660E+000
 50
1.800000E+002
 51
2.025000E+002
  0
ARC
  8
PV
 62
     7
 10
5.221170E+002
 20
1.900000E+002
 30
0.000000E+000
 40
1.060660E+000
 50
2.025000E+002
 51
2.250000E+002
  0
ARC
  8
PV
 62
     7
 10
5.221170E+002
 20
1.900000E+002
 30
0.000000E+000
 40
1.060660E+000
 50
2.250000E+002
 51
2.475000E+002
  0
ARC
  8
PV
 62
     7
 10
5.221170E+002
 20
1.900000E+002
 30
0.000000E+000
 40
1.060660E+000
 50
2.475000E+002
 51
2.700000E+002
  0
LINE
  8
PV
 62
     7
 10
5.221170E+002
 20
1.889390E+002
 30
0.000000E+000
 11
5.278360E+002
 21
1.889390E+002
 31
0.000000E+000
  0
LINE
  8
PV
 62
     7
 10
5.221170E+002
 20
1.910610E+002
 30
0.000000E+000
 11
5.278360E+002
 21
1.910610E+002
 31
0.000000E+000
  0
ARC
  8
PV
 62
     7
 10
5.016110E+002
 20
1.900000E+002
 30
0.000000E+000
 40
6.717510E+000
 50
4.746310E+001
 51
6.750000E+001
  0
ARC
  8
PV
 62
     7
 10
5.016110E+002
 20
1.900000E+002
 30
0.000000E+000
 40
6.717540E+000
 50
6.750010E+001
 51
9.000000E+001
  0
ARC
  8
PV
 62
     7
 10
5.016110E+002
 20
1.900000E+002
 30
0.000000E+000
 40
6.717540E+000
 50
9.000000E+001
 51
1.125000E+002
  0
ARC
  8
PV
 62
     7
 10
5.016110E+002
 20
1.900000E+002
 30
0.000000E+000
 40
6.717540E+000
 50
1.125000E+002
 51
1.350000E+002
  0
ARC
  8
PV
 62
     7
 10
5.016110E+002
 20
1.900000E+002
 30
0.000000E+000
 40
6.717540E+000
 50
1.350000E+002
 51
1.575000E+002
  0
ARC
  8
PV
 62
     7
 10
5.016110E+002
 20
1.900000E+002
 30
0.000000E+000
 40
6.717540E+000
 50
1.575000E+002
 51
1.800000E+002
  0
ARC
  8
PV
 62
     7
 10
5.016110E+002
 20
1.900000E+002
 30
0.000000E+000
 40
6.717540E+000
 50
1.800000E+002
 51
2.025000E+002
  0
ARC
  8
PV
 62
     7
 10
5.016110E+002
 20
1.900000E+002
 30
0.000000E+000
 40
6.717540E+000
 50
2.025000E+002
 51
2.250000E+002
  0
ARC
  8
PV
 62
     7
 10
5.016110E+002
 20
1.900000E+002
 30
0.000000E+000
 40
6.717540E+000
 50
2.250000E+002
 51
2.475000E+002
  0
ARC
  8
PV
 62
     7
 10
5.016110E+002
 20
1.900000E+002
 30
0.000000E+000
 40
6.717540E+000
 50
2.475000E+002
 51
2.700000E+002
  0
ARC
  8
PV
 62
     7
 10
5.016110E+002
 20
1.900000E+002
 30
0.000000E+000
 40
6.717540E+000
 50
2.700000E+002
 51
2.925000E+002
  0
ARC
  8
PV
 62
     7
 10
5.016110E+002
 20
1.900000E+002
 30
0.000000E+000
 40
6.717510E+000
 50
2.925000E+002
 51
3.125370E+002
  0
ARC
  8
PV
 62
     7
 10
5.016110E+002
 20
1.900000E+002
 30
0.000000E+000
 40
4.949770E+000
 50
9.000000E+001
 51
1.125000E+002
  0
ARC
  8
PV
 62
     7
 10
5.016110E+002
 20
1.900000E+002
 30
0.000000E+000
 40
4.949770E+000
 50
1.125000E+002
 51
1.350000E+002
  0
ARC
  8
PV
 62
     7
 10
5.016110E+002
 20
1.900000E+002
 30
0.000000E+000
 40
4.949770E+000
 50
1.350000E+002
 51
1.575000E+002
  0
ARC
  8
PV
 62
     7
 10
5.016110E+002
 20
1.900000E+002
 30
0.000000E+000
 40
4.949770E+000
 50
1.575000E+002
 51
1.800000E+002
  0
ARC
  8
PV
 62
     7
 10
5.016110E+002
 20
1.900000E+002
 30
0.000000E+000
 40
4.949770E+000
 50
1.800000E+002
 51
2.025000E+002
  0
ARC
  8
PV
 62
     7
 10
5.016110E+002
 20
1.900000E+002
 30
0.000000E+000
 40
4.949770E+000
 50
2.025000E+002
 51
2.250000E+002
  0
ARC
  8
PV
 62
     7
 10
5.016110E+002
 20
1.900000E+002
 30
0.000000E+000
 40
4.949770E+000
 50
2.250000E+002
 51
2.475000E+002
  0
ARC
  8
PV
 62
     7
 10
5.016110E+002
 20
1.900000E+002
 30
0.000000E+000
 40
4.949770E+000
 50
2.475000E+002
 51
2.700000E+002
  0
LINE
  8
PV
 62
     7
 10
5.016110E+002
 20
1.850500E+002
 30
0.000000E+000
 11
5.221170E+002
 21
1.850500E+002
 31
0.000000E+000
  0
LINE
  8
PV
 62
     7
 10
5.016110E+002
 20
1.949500E+002
 30
0.000000E+000
 11
5.221170E+002
 21
1.949500E+002
 31
0.000000E+000
  0
ARC
  8
PV
 62
     7
 10
4.943010E+002
 20
1.900000E+002
 30
0.000000E+000
 40
6.717540E+000
 50
9.000000E+001
 51
1.125000E+002
  0
ARC
  8
PV
 62
     7
 10
4.943010E+002
 20
1.900000E+002
 30
0.000000E+000
 40
6.717540E+000
 50
1.125000E+002
 51
1.350000E+002
  0
ARC
  8
PV
 62
     7
 10
4.943010E+002
 20
1.900000E+002
 30
0.000000E+000
 40
6.717540E+000
 50
1.350000E+002
 51
1.575000E+002
  0
ARC
  8
PV
 62
     7
 10
4.943010E+002
 20
1.900000E+002
 30
0.000000E+000
 40
6.717540E+000
 50
1.575000E+002
 51
1.800000E+002
  0
ARC
  8
PV
 62
     7
 10
4.943010E+002
 20
1.900000E+002
 30
0.000000E+000
 40
6.717540E+000
 50
1.800000E+002
 51
2.025000E+002
  0
ARC
  8
PV
 62
     7
 10
4.943010E+002
 20
1.900000E+002
 30
0.000000E+000
 40
6.717540E+000
 50
2.025000E+002
 51
2.250000E+002
  0
ARC
  8
PV
 62
     7
 10
4.943010E+002
 20
1.900000E+002
 30
0.000000E+000
 40
6.717540E+000
 50
2.250000E+002
 51
2.475000E+002
  0
ARC
  8
PV
 62
     7
 10
4.943010E+002
 20
1.900000E+002
 30
0.000000E+000
 40
6.717540E+000
 50
2.475000E+002
 51
2.700000E+002
  0
LINE
  8
PV
 62
     7
 10
5.016110E+002
 20
1.832820E+002
 30
0.000000E+000
 11
4.943010E+002
 21
1.832820E+002
 31
0.000000E+000
  0
LINE
  8
PV
 62
     7
 10
5.016110E+002
 20
1.967180E+002
 30
0.000000E+000
 11
4.943010E+002
 21
1.967180E+002
 31
0.000000E+000
  0
ARC
  8
PV
 62
     7
 10
5.383810E+002
 20
1.900000E+002
 30
0.000000E+000
 40
9.192430E+000
 50
1.800000E+002
 51
2.025000E+002
  0
ARC
  8
PV
 62
     7
 10
5.383810E+002
 20
1.900000E+002
 30
0.000000E+000
 40
9.192420E+000
 50
2.025000E+002
 51
2.250000E+002
  0
ARC
  8
PV
 62
     7
 10
5.383810E+002
 20
1.900000E+002
 30
0.000000E+000
 40
9.192420E+000
 50
2.250000E+002
 51
2.475000E+002
  0
ARC
  8
PV
 62
     7
 10
5.383810E+002
 20
1.900000E+002
 30
0.000000E+000
 40
9.192430E+000
 50
2.475000E+002
 51
2.700000E+002
  0
ARC
  8
PV
 62
     7
 10
5.383810E+002
 20
1.900000E+002
 30
0.000000E+000
 40
9.192430E+000
 50
2.700000E+002
 51
2.925000E+002
  0
ARC
  8
PV
 62
     7
 10
5.383810E+002
 20
1.900000E+002
 30
0.000000E+000
 40
9.192420E+000
 50
2.925000E+002
 51
3.150000E+002
  0
ARC
  8
PV
 62
     7
 10
5.383810E+002
 20
1.900000E+002
 30
0.000000E+000
 40
9.192420E+000
 50
3.150000E+002
 51
3.375000E+002
  0
ARC
  8
PV
 62
     7
 10
5.383810E+002
 20
1.900000E+002
 30
0.000000E+000
 40
9.192430E+000
 50
3.375000E+002
 51
3.600000E+002
  0
ARC
  8
PV
 62
     7
 10
5.383810E+002
 20
1.900000E+002
 30
0.000000E+000
 40
9.192430E+000
 50
4.650340E-005
 51
2.250000E+001
  0
ARC
  8
PV
 62
     7
 10
5.383810E+002
 20
1.900000E+002
 30
0.000000E+000
 40
9.192420E+000
 50
2.250000E+001
 51
4.500000E+001
  0
ARC
  8
PV
 62
     7
 10
5.383810E+002
 20
1.900000E+002
 30
0.000000E+000
 40
9.192420E+000
 50
4.500000E+001
 51
6.750000E+001
  0
ARC
  8
PV
 62
     7
 10
5.383810E+002
 20
1.900000E+002
 30
0.000000E+000
 40
9.192430E+000
 50
6.750000E+001
 51
9.000000E+001
  0
ARC
  8
PV
 62
     7
 10
5.383810E+002
 20
1.900000E+002
 30
0.000000E+000
 40
9.192430E+000
 50
9.000000E+001
 51
1.125000E+002
  0
ARC
  8
PV
 62
     7
 10
5.383810E+002
 20
1.900000E+002
 30
0.000000E+000
 40
9.192420E+000
 50
1.125000E+002
 51
1.350000E+002
  0
ARC
  8
PV
 62
     7
 10
5.383810E+002
 20
1.900000E+002
 30
0.000000E+000
 40
9.192420E+000
 50
1.350000E+002
 51
1.575000E+002
  0
ARC
  8
PV
 62
     7
 10
5.383810E+002
 20
1.900000E+002
 30
0.000000E+000
 40
9.192430E+000
 50
1.575000E+002
 51
1.800000E+002
  0
LINE
  8
PV
 62
     7
 10
5.096320E+002
 20
2.160000E+002
 30
0.000000E+000
 11
5.082880E+002
 21
2.160000E+002
 31
0.000000E+000
  0
LINE
  8
PV
 62
     7
 10
5.082880E+002
 20
1.850500E+002
 30
0.000000E+000
 11
5.082880E+002
 21
7.200000E+001
 31
0.000000E+000
  0
LINE
  8
PV
 62
     7
 10
5.243860E+002
 20
1.856010E+002
 30
0.000000E+000
 11
5.243860E+002
 21
7.200000E+001
 31
0.000000E+000
  0
LINE
  8
PV
 62
     7
 10
4.550000E+002
 20
6.490000E+002
 30
0.000000E+000
 11
4.580000E+002
 21
6.490000E+002
 31
0.000000E+000
  0
LINE
  8
PV
 62
     7
 10
4.580000E+002
 20
6.490000E+002
 30
0.000000E+000
 11
4.580000E+002
 21
6.795000E+002
 31
0.000000E+000
  0
LINE
  8
PV
 62
     7
 10
4.550000E+002
 20
6.513000E+002
 30
0.000000E+000
 11
4.580000E+002
 21
6.513000E+002
 31
0.000000E+000
  0
LINE
  8
PV
 62
     7
 10
4.655500E+002
 20
1.040200E+003
 30
0.000000E+000
 11
4.655500E+002
 21
1.073200E+003
 31
0.000000E+000
  0
LINE
  8
PV
 62
     7
 10
4.895500E+002
 20
1.045700E+003
 30
0.000000E+000
 11
4.895500E+002
 21
1.070700E+003
 31
0.000000E+000
  0
LINE
  8
PV
 62
     7
 10
4.004500E+002
 20
1.073200E+003
 30
0.000000E+000
 11
4.004500E+002
 21
1.040200E+003
 31
0.000000E+000
  0
LINE
  8
PV
 62
     7
 10
4.014500E+002
 20
1.039200E+003
 30
0.000000E+000
 11
4.645500E+002
 21
1.039200E+003
 31
0.000000E+000
  0
LINE
  8
PV
 62
     7
 10
4.655500E+002
 20
1.043200E+003
 30
0.000000E+000
 11
4.004500E+002
 21
1.043200E+003
 31
0.000000E+000
  0
ARC
  8
PV
 62
     7
 10
4.014500E+002
 20
1.040200E+003
 30
0.000000E+000
 40
1.000000E+000
 50
1.800000E+002
 51
2.700000E+002
  0
ARC
  8
PV
 62
     7
 10
4.645500E+002
 20
1.040200E+003
 30
0.000000E+000
 40
1.000000E+000
 50
2.700000E+002
 51
3.600000E+002
  0
ARC
  8
PV
 62
     7
 10
4.605500E+002
 20
1.073200E+003
 30
0.000000E+000
 40
5.000000E+000
 50
0.000000E+000
 51
9.000000E+001
  0
ARC
  8
PV
 62
     7
 10
4.054500E+002
 20
1.073200E+003
 30
0.000000E+000
 40
5.000000E+000
 50
9.000000E+001
 51
1.800000E+002
  0
LINE
  8
PV
  6
CENTER
 62
     1
 10
4.590260E+002
 20
1.058200E+003
 30
0.000000E+000
 11
4.943950E+002
 21
1.058200E+003
 31
0.000000E+000
  0
LINE
  8
PV
 62
     7
 10
4.655500E+002
 20
1.070700E+003
 30
0.000000E+000
 11
4.895500E+002
 21
1.070700E+003
 31
0.000000E+000
  0
LINE
  8
PV
 62
     7
 10
4.655500E+002
 20
1.045700E+003
 30
0.000000E+000
 11
4.895500E+002
 21
1.045700E+003
 31
0.000000E+000
  0
LINE
  8
PV
 62
     7
 10
4.580000E+002
 20
1.080500E+003
 30
0.000000E+000
 11
4.580000E+002
 21
1.078200E+003
 31
0.000000E+000
  0
LINE
  8
PV
 62
     7
 10
1.113200E+003
 20
9.595500E+002
 30
0.000000E+000
 11
1.080200E+003
 21
9.595500E+002
 31
0.000000E+000
  0
LINE
  8
PV
 62
     7
 10
1.080200E+003
 20
8.944500E+002
 30
0.000000E+000
 11
1.113200E+003
 21
8.944500E+002
 31
0.000000E+000
  0
LINE
  8
PV
 62
     7
 10
1.085700E+003
 20
8.704500E+002
 30
0.000000E+000
 11
1.110700E+003
 21
8.704500E+002
 31
0.000000E+000
  0
LINE
  8
PV
 62
     7
 10
1.079200E+003
 20
9.585500E+002
 30
0.000000E+000
 11
1.079200E+003
 21
8.954500E+002
 31
0.000000E+000
  0
LINE
  8
PV
 62
     7
 10
1.083200E+003
 20
8.944500E+002
 30
0.000000E+000
 11
1.083200E+003
 21
9.595500E+002
 31
0.000000E+000
  0
ARC
  8
PV
 62
     7
 10
1.080200E+003
 20
9.585500E+002
 30
0.000000E+000
 40
1.000000E+000
 50
9.000000E+001
 51
1.800000E+002
  0
LINE
  8
PV
 62
     7
 10
1.085700E+003
 20
8.944500E+002
 30
0.000000E+000
 11
1.085700E+003
 21
8.704500E+002
 31
0.000000E+000
  0
ARC
  8
PV
 62
     7
 10
1.080200E+003
 20
8.954500E+002
 30
0.000000E+000
 40
1.000000E+000
 50
1.800000E+002
 51
2.700000E+002
  0
LINE
  8
PV
 62
     7
 10
1.118200E+003
 20
9.545500E+002
 30
0.000000E+000
 11
1.118200E+003
 21
8.994500E+002
 31
0.000000E+000
  0
LINE
  8
PV
 62
     7
 10
1.120500E+003
 20
9.020000E+002
 30
0.000000E+000
 11
1.120500E+003
 21
9.620000E+002
 31
0.000000E+000
  0
LINE
  8
PV
 62
     7
 10
1.094500E+003
 20
9.620000E+002
 30
0.000000E+000
 11
1.120500E+003
 21
9.620000E+002
 31
0.000000E+000
  0
LINE
  8
PV
 62
     7
 10
1.094500E+003
 20
9.595500E+002
 30
0.000000E+000
 11
1.094500E+003
 21
9.620000E+002
 31
0.000000E+000
  0
ARC
  8
PV
 62
     7
 10
1.113200E+003
 20
9.545500E+002
 30
0.000000E+000
 40
5.000000E+000
 50
0.000000E+000
 51
9.000000E+001
  0
LINE
  8
PV
 62
     7
 10
1.120500E+003
 20
9.620000E+002
 30
0.000000E+000
 11
1.118200E+003
 21
9.620000E+002
 31
0.000000E+000
  0
LINE
  8
PV
  6
CENTER
 62
     1
 10
1.098200E+003
 20
9.009740E+002
 30
0.000000E+000
 11
1.098200E+003
 21
8.656050E+002
 31
0.000000E+000
  0
LINE
  8
PV
 62
     7
 10
1.110700E+003
 20
8.944500E+002
 30
0.000000E+000
 11
1.110700E+003
 21
8.704500E+002
 31
0.000000E+000
  0
LINE
  8
PV
 62
     7
 10
1.120500E+003
 20
9.020000E+002
 30
0.000000E+000
 11
1.118200E+003
 21
9.020000E+002
 31
0.000000E+000
  0
ARC
  8
PV
 62
     7
 10
1.113200E+003
 20
8.994500E+002
 30
0.000000E+000
 40
5.000000E+000
 50
2.700000E+002
 51
0.000000E+000
  0
LINE
  8
PV
 62
     7
 10
1.094500E+003
 20
9.600000E+002
 30
0.000000E+000
 11
1.120500E+003
 21
9.600000E+002
 31
0.000000E+000
  0
LINE
  8
PV
 62
     7
 10
4.587500E+002
 20
7.316000E+002
 30
0.000000E+000
 11
4.260000E+002
 21
7.316000E+002
 31
0.000000E+000
  0
LINE
  8
PV
 62
     7
 10
4.450000E+002
 20
6.795000E+002
 30
0.000000E+000
 11
4.587500E+002
 21
6.795000E+002
 31
0.000000E+000
  0
LINE
  8
PV
 62
     7
 10
4.895500E+002
 20
6.930500E+002
 30
0.000000E+000
 11
4.895500E+002
 21
7.180500E+002
 31
0.000000E+000
  0
LINE
  8
PV
 62
     7
 10
4.655500E+002
 20
6.863000E+002
 30
0.000000E+000
 11
4.655500E+002
 21
7.248000E+002
 31
0.000000E+000
  0
LINE
  8
PV
 62
     7
 10
4.895500E+002
 20
6.930500E+002
 30
0.000000E+000
 11
4.655500E+002
 21
6.930500E+002
 31
0.000000E+000
  0
ARC
  8
PV
 62
     7
 10
4.587500E+002
 20
6.863000E+002
 30
0.000000E+000
 40
6.800000E+000
 50
2.700000E+002
 51
0.000000E+000
  0
LINE
  8
PV
 62
     7
 10
4.895500E+002
 20
7.180500E+002
 30
0.000000E+000
 11
4.655500E+002
 21
7.180500E+002
 31
0.000000E+000
  0
ARC
  8
PV
 62
     7
 10
4.587500E+002
 20
7.248000E+002
 30
0.000000E+000
 40
6.800000E+000
 50
0.000000E+000
 51
9.000000E+001
  0
LINE
  8
PV
  6
CENTER
 62
     1
 10
4.606710E+002
 20
7.055500E+002
 30
0.000000E+000
 11
4.943950E+002
 21
7.055500E+002
 31
0.000000E+000
  0
LINE
  8
PV
 62
     7
 10
1.120000E+003
 20
6.490000E+002
 30
0.000000E+000
 11
1.094000E+003
 21
6.490000E+002
 31
0.000000E+000
  0
LINE
  8
PV
 62
     7
 10
1.120000E+003
 20
7.310000E+002
 30
0.000000E+000
 11
1.120000E+003
 21
6.490000E+002
 31
0.000000E+000
  0
LINE
  8
PV
 62
     7
 10
1.120000E+003
 20
6.490000E+002
 30
0.000000E+000
 11
1.094000E+003
 21
6.490000E+002
 31
0.000000E+000
  0
LINE
  8
PV
 62
     7
 10
1.094000E+003
 20
6.490000E+002
 30
0.000000E+000
 11
1.094000E+003
 21
6.513000E+002
 31
0.000000E+000
  0
LINE
  8
PV
 62
     7
 10
1.117700E+003
 20
7.310000E+002
 30
0.000000E+000
 11
1.117700E+003
 21
6.513000E+002
 31
0.000000E+000
  0
LINE
  8
PV
 62
     7
 10
1.094000E+003
 20
6.513000E+002
 30
0.000000E+000
 11
1.117700E+003
 21
6.513000E+002
 31
0.000000E+000
  0
LINE
  8
PV
  6
CENTER
 62
     1
 10
1.107000E+003
 20
6.543000E+002
 30
0.000000E+000
 11
1.107000E+003
 21
6.460000E+002
 31
0.000000E+000
  0
LINE
  8
PV
 62
     7
 10
1.095000E+003
 20
6.490000E+002
 30
0.000000E+000
 11
1.095000E+003
 21
6.400000E+002
 31
0.000000E+000
  0
LINE
  8
PV
 62
     7
 10
1.120000E+003
 20
6.490000E+002
 30
0.000000E+000
 11
1.120000E+003
 21
6.400000E+002
 31
0.000000E+000
  0
CIRCLE
  8
PV
 62
     7
 10
1.098200E+003
 20
7.055500E+002
 30
0.000000E+000
 40
8.000000E+000
  0
LINE
  8
PV
 62
     7
 10
1.113200E+003
 20
7.298500E+002
 30
0.000000E+000
 11
1.080200E+003
 21
7.298500E+002
 31
0.000000E+000
  0
LINE
  8
PV
 62
     7
 10
1.080200E+003
 20
6.812500E+002
 30
0.000000E+000
 11
1.113200E+003
 21
6.812500E+002
 31
0.000000E+000
  0
LINE
  8
PV
 62
     7
 10
1.083200E+003
 20
6.812500E+002
 30
0.000000E+000
 11
1.083200E+003
 21
7.298500E+002
 31
0.000000E+000
  0
LINE
  8
PV
 62
     7
 10
1.079200E+003
 20
6.822500E+002
 30
0.000000E+000
 11
1.079200E+003
 21
7.288500E+002
 31
0.000000E+000
  0
ARC
  8
PV
 62
     7
 10
1.080200E+003
 20
6.822500E+002
 30
0.000000E+000
 40
1.000000E+000
 50
1.800000E+002
 51
2.700000E+002
  0
ARC
  8
PV
 62
     7
 10
1.080200E+003
 20
7.288500E+002
 30
0.000000E+000
 40
1.000000E+000
 50
9.000000E+001
 51
1.800000E+002
  0
LINE
  8
PV
 62
     7
 10
1.118200E+003
 20
6.862500E+002
 30
0.000000E+000
 11
1.118200E+003
 21
7.248500E+002
 31
0.000000E+000
  0
ARC
  8
PV
 62
     7
 10
1.113200E+003
 20
6.862500E+002
 30
0.000000E+000
 40
5.000000E+000
 50
2.700000E+002
 51
0.000000E+000
  0
ARC
  8
PV
 62
     7
 10
1.113200E+003
 20
7.248500E+002
 30
0.000000E+000
 40
5.000000E+000
 50
0.000000E+000
 51
9.000000E+001
  0
LINE
  8
PV
  6
CENTER
 62
     1
 10
1.098200E+003
 20
7.165500E+002
 30
0.000000E+000
 11
1.098200E+003
 21
6.945500E+002
 31
0.000000E+000
  0
LINE
  8
PV
  6
CENTER
 62
     1
 10
1.087200E+003
 20
7.055500E+002
 30
0.000000E+000
 11
1.109200E+003
 21
7.055500E+002
 31
0.000000E+000
  0
TEXT
  8
PV
 62
     7
 10
7.519090E+001
 20
1.191410E+003
 30
0.000000E+000
 40
4.500000E+000
  1
MODEL No
  7
FONT1
  0
TEXT
  8
PV
 62
     7
 10
8.864145E+001
 20
1.178360E+003
 30
0.000000E+000
 40
4.500000E+000
  1
OT-1902YFG20/21R
 41
9.375000E-001
  7
FONT1
  0
LINE
  8
PV
 62
     7
 10
1.120000E+003
 20
7.310000E+002
 30
0.000000E+000
 11
1.117700E+003
 21
7.310000E+002
 31
0.000000E+000
  0
POLYLINE
  8
PV
 62
     7
 66
     1
 10
0.0
 20
0.0
 30
0.0
  0
VERTEX
  8
PV
 62
     7
 10
3.544640E+002
 20
9.619560E+002
 30
0.000000E+000
  0
VERTEX
  8
PV
 62
     7
 10
3.538590E+002
 20
9.616760E+002
 30
0.000000E+000
  0
VERTEX
  8
PV
 62
     7
 10
3.550000E+002
 20
9.600000E+002
 30
0.000000E+000
  0
VERTEX
  8
PV
 62
     7
 10
3.544640E+002
 20
9.619560E+002
 30
0.000000E+000
  0
SEQEND
  8
PV
 62
     7
  0
LINE
  8
PV
 62
     7
 10
3.541620E+002
 20
9.618160E+002
 30
0.000000E+000
 11
2.809030E+002
 21
1.120520E+003
 31
0.000000E+000
  0
LINE
  8
PV
 62
     7
 10
2.809030E+002
 20
1.120520E+003
 30
0.000000E+000
 11
2.022710E+002
 21
1.120520E+003
 31
0.000000E+000
  0
TEXT
  8
PV
 62
     7
 10
2.036730E+002
 20
1.123090E+003
 30
0.000000E+000
 40
4.500000E+000
  1
IN Rc1/4
 41
9.166667E-001
  7
FONT1
  0
POLYLINE
  8
PV
 62
     7
 66
     1
 10
0.0
 20
0.0
 30
0.0
  0
VERTEX
  8
PV
 62
     7
 10
4.455360E+002
 20
9.619560E+002
 30
0.000000E+000
  0
VERTEX
  8
PV
 62
     7
 10
4.461410E+002
 20
9.616760E+002
 30
0.000000E+000
  0
VERTEX
  8
PV
 62
     7
 10
4.450000E+002
 20
9.600000E+002
 30
0.000000E+000
  0
VERTEX
  8
PV
 62
     7
 10
4.455360E+002
 20
9.619560E+002
 30
0.000000E+000
  0
SEQEND
  8
PV
 62
     7
  0
LINE
  8
PV
 62
     7
 10
4.458380E+002
 20
9.618160E+002
 30
0.000000E+000
 11
5.190970E+002
 21
1.120520E+003
 31
0.000000E+000
  0
LINE
  8
PV
 62
     7
 10
5.190970E+002
 20
1.120520E+003
 30
0.000000E+000
 11
5.977290E+002
 21
1.120520E+003
 31
0.000000E+000
  0
TEXT
  8
PV
 62
     7
 10
5.204996E+002
 20
1.123090E+003
 30
0.000000E+000
 40
4.500000E+000
  1
OUT Rc1/4
 41
9.629622E-001
  7
FONT1
  0
ENDSEC
  0
EOF
