  0
SECTION
  2
HEADER
  9
$ACADVER
  1
AC1006
  9
$INSBASE
 10
0.0
 20
0.0
 30
0.0
  9
$EXTMIN
 10
25.0
 20
29.0
  9
$EXTMAX
 10
1290.0
 20
750.0
  9
$LIMMIN
 10
0.0
 20
0.0
  9
$LIMMAX
 10
1189.0
 20
841.0
  9
$ORTHOMODE
 70
     0
  9
$REGENMODE
 70
     1
  9
$FILLMODE
 70
     1
  9
$QTEXTMODE
 70
     0
  9
$MIRRTEXT
 70
     1
  9
$DRAGMODE
 70
     2
  9
$LTSCALE
 40
1.0
  9
$OSMODE
 70
     0
  9
$ATTMODE
 70
     1
  9
$TEXTSIZE
 40
4.5
  9
$TRACEWID
 40
0.05
  9
$TEXTSTYLE
  7
STANDARD
  9
$CLAYER
  8
L-ZISSEN
  9
$CELTYPE
  6
BYLAYER
  9
$CECOLOR
 62
   256
  9
$DIMSCALE
 40
1.0
  9
$DIMASZ
 40
2.0
  9
$DIMEXO
 40
1.0
  9
$DIMDLI
 40
0.38
  9
$DIMRND
 40
0.0
  9
$DIMDLE
 40
1.0
  9
$DIMEXE
 40
1.0
  9
$DIMTP
 40
0.0
  9
$DIMTM
 40
0.0
  9
$DIMTXT
 40
4.5
  9
$DIMCEN
 40
0.09
  9
$DIMTSZ
 40
0.0
  9
$DIMTOL
 70
     0
  9
$DIMLIM
 70
     0
  9
$DIMTIH
 70
     0
  9
$DIMTOH
 70
     0
  9
$DIMSE1
 70
     0
  9
$DIMSE2
 70
     0
  9
$DIMTAD
 70
     1
  9
$DIMZIN
 70
     0
  9
$DIMBLK
  1

  9
$DIMASO
 70
     0
  9
$DIMSHO
 70
     0
  9
$DIMPOST
  1

  9
$DIMAPOST
  1

  9
$DIMALT
 70
     0
  9
$DIMALTD
 70
     2
  9
$DIMALTF
 40
25.4
  9
$DIMLFAC
 40
1.0
  9
$DIMTOFL
 70
     1
  9
$DIMTVP
 40
0.0
  9
$DIMTIX
 70
     1
  9
$DIMSOXD
 70
     0
  9
$DIMSAH
 70
     0
  9
$DIMBLK1
  1

  9
$DIMBLK2
  1

  9
$LUNITS
 70
     2
  9
$LUPREC
 70
     4
  9
$AXISMODE
 70
     0
  9
$AXISUNIT
 10
0.0
 20
0.0
  9
$SKETCHINC
 40
0.1
  9
$FILLETRAD
 40
33.0
  9
$AUNITS
 70
     0
  9
$AUPREC
 70
     0
  9
$MENU
  1
acad
  9
$ELEVATION
 40
0.0
  9
$THICKNESS
 40
0.0
  9
$LIMCHECK
 70
     0
  9
$BLIPMODE
 70
     1
  9
$CHAMFERA
 40
2.0
  9
$CHAMFERB
 40
2.0
  9
$SKPOLY
 70
     0
  9
$TDCREATE
 40
2449654.4982923609
  9
$TDUPDATE
 40
2449654.4982923609
  9
$TDINDWG
 40
0.0000000000
  9
$TDUSRTIMER
 40
0.0000000000
  9
$USRTIMER
 70
     1
  9
$ANGBASE
 50
0.0
  9
$ANGDIR
 70
     0
  9
$PDMODE
 70
     0
  9
$PDSIZE
 40
0.0
  9
$PLINEWID
 40
0.0
  9
$COORDS
 70
     2
  9
$SPLFRAME
 70
     0
  9
$SPLINETYPE
 70
     6
  9
$SPLINESEGS
 70
     8
  9
$ATTDIA
 70
     0
  9
$ATTREQ
 70
     1
  9
$HANDLING
 70
     0
  9
$HANDSEED
  5
0
  9
$SURFTAB1
 70
     6
  9
$SURFTAB2
 70
     6
  9
$SURFTYPE
 70
     6
  9
$SURFU
 70
     6
  9
$SURFV
 70
     6
  9
$FLATLAND
 70
     0
  9
$UCSNAME
  2

  9
$UCSORG
 10
0.0
 20
0.0
 30
0.0
  9
$UCSXDIR
 10
1.0
 20
0.0
 30
0.0
  9
$UCSYDIR
 10
0.0
 20
1.0
 30
0.0
  9
$USERI1
 70
     0
  9
$USERI2
 70
     0
  9
$USERI3
 70
     0
  9
$USERI4
 70
     0
  9
$USERI5
 70
     0
  9
$USERR1
 40
0.0
  9
$USERR2
 40
0.0
  9
$USERR3
 40
0.0
  9
$USERR4
 40
0.0
  9
$USERR5
 40
0.0
  9
$WORLDVIEW
 70
     1
  0
ENDSEC
  0
SECTION
  2
TABLES
  0
TABLE
  2
VPORT
 70
     2
  0
VPORT
  2
*ACTIVE
 70
     0
 10
0.0
 20
0.0
 11
1.0
 21
1.0
 12
634.587975
 22
405.142239
 13
0.0
 23
0.0
 14
5.0
 24
5.0
 15
0.0
 25
0.0
 16
0.0
 26
0.0
 36
1.0
 17
0.0
 27
0.0
 37
0.0
 40
816.615566
 41
1.5487
 42
50.0
 43
0.0
 44
0.0
 50
0.0
 51
0.0
 71
     0
 72
   100
 73
     1
 74
     0
 75
     0
 76
     0
 77
     0
 78
     0
  0
ENDTAB
  0
TABLE
  2
LTYPE
 70
     2
  0
LTYPE
  2
CONTINUOUS
 70
    64
  3
Solid line
 72
    65
 73
     0
 40
0.0
  0
LTYPE
  2
CENTER
 70
    64
  3
____ _ ____ _ ____ _ ____ _ 
 72
    65
 73
     4
 40
60.0
 49
45.0
 49
-5.0
 49
5.0
 49
-5.0
  0
ENDTAB
  0
TABLE
  2
LAYER
 70
     3
  0
LAYER
  2
0
 70
     0
 62
     7
  6
CONTINUOUS
  0
LAYER
  2
L-ZISSEN
 70
    64
 62
     7
  6
CONTINUOUS
  0
LAYER
  2
L-TYUSIN
 70
    64
 62
     1
  6
CENTER
  0
ENDTAB
  0
TABLE
  2
STYLE
 70
     1
  0
STYLE
  2
STANDARD
 70
    64
 40
0.0
 41
1.0
 50
0.0
 71
     0
 42
4.5
  3
TXT
  4

  0
ENDTAB
  0
TABLE
  2
VIEW
 70
     0
  0
ENDTAB
  0
TABLE
  2
UCS
 70
     0
  0
ENDTAB
  0
TABLE
  2
DWGMGR
 70
     0
  0
ENDTAB
  0
ENDSEC
  0
SECTION
  2
BLOCKS
  0
ENDSEC
  0
SECTION
  2
ENTITIES
  0
LINE
  8
L-ZISSEN
  6
CONTINUOUS
 62
     7
 10
336.0
 20
156.5
 30
0.0
 11
336.0
 21
278.5
 31
0.0
  0
LINE
  8
L-ZISSEN
  6
CONTINUOUS
 62
     7
 10
344.0
 20
156.5
 30
0.0
 11
344.0
 21
278.5
 31
0.0
  0
LINE
  8
L-TYUSIN
  6
CENTER
 62
     1
 10
475.0
 20
750.0
 30
0.0
 11
475.0
 21
30.0
 31
0.0
  0
LINE
  8
L-ZISSEN
  6
CONTINUOUS
 62
     7
 10
596.0
 20
554.5
 30
0.0
 11
583.8
 21
554.5
 31
0.0
  0
LINE
  8
L-ZISSEN
  6
CONTINUOUS
 62
     7
 10
596.0
 20
575.5
 30
0.0
 11
583.8
 21
575.5
 31
0.0
  0
LINE
  8
L-ZISSEN
  6
CONTINUOUS
 62
     7
 10
601.0
 20
551.0
 30
0.0
 11
596.0
 21
551.0
 31
0.0
  0
LINE
  8
L-ZISSEN
  6
CONTINUOUS
 62
     7
 10
601.0
 20
579.0
 30
0.0
 11
596.0
 21
579.0
 31
0.0
  0
LINE
  8
L-ZISSEN
  6
CONTINUOUS
 62
     7
 10
596.0
 20
551.0
 30
0.0
 11
596.0
 21
579.0
 31
0.0
  0
LINE
  8
L-ZISSEN
  6
CONTINUOUS
 62
     7
 10
601.0
 20
551.0
 30
0.0
 11
601.0
 21
579.0
 31
0.0
  0
LINE
  8
L-ZISSEN
  6
CONTINUOUS
 62
     7
 10
583.8
 20
577.5
 30
0.0
 11
583.8
 21
552.5
 31
0.0
  0
LINE
  8
L-ZISSEN
  6
CONTINUOUS
 62
     7
 10
567.55
 20
577.5
 30
0.0
 11
583.8
 21
577.5
 31
0.0
  0
LINE
  8
L-ZISSEN
  6
CONTINUOUS
 62
     7
 10
583.8
 20
552.5
 30
0.0
 11
567.55
 21
552.5
 31
0.0
  0
LINE
  8
L-ZISSEN
  6
CONTINUOUS
 62
     7
 10
693.2
 20
589.0
 30
0.0
 11
690.0
 21
589.0
 31
0.0
  0
LINE
  8
L-ZISSEN
  6
CONTINUOUS
 62
     7
 10
690.0
 20
527.0
 30
0.0
 11
690.0
 21
589.3
 31
0.0
  0
LINE
  8
L-ZISSEN
  6
CONTINUOUS
 62
     7
 10
652.4
 20
538.95
 30
0.0
 11
652.4
 21
591.05
 31
0.0
  0
LINE
  8
L-ZISSEN
  6
CONTINUOUS
 62
     7
 10
657.2
 20
591.05
 30
0.0
 11
657.2
 21
570.670979
 31
0.0
  0
LINE
  8
L-ZISSEN
  6
CONTINUOUS
 62
     7
 10
657.2
 20
540.7
 30
0.0
 11
690.0
 21
540.7
 31
0.0
  0
LINE
  8
L-ZISSEN
  6
CONTINUOUS
 62
     7
 10
690.0
 20
589.3
 30
0.0
 11
657.2
 21
589.3
 31
0.0
  0
CIRCLE
  8
L-ZISSEN
  6
CONTINUOUS
 62
     7
 10
670.0
 20
565.0
 30
0.0
 40
7.5
  0
CIRCLE
  8
L-ZISSEN
  6
CONTINUOUS
 62
     7
 10
670.0
 20
565.0
 30
0.0
 40
14.0
  0
LINE
  8
L-ZISSEN
  6
CONTINUOUS
 62
     7
 10
596.0
 20
666.3
 30
0.0
 11
583.8
 21
666.3
 31
0.0
  0
LINE
  8
L-ZISSEN
  6
CONTINUOUS
 62
     7
 10
596.0
 20
687.3
 30
0.0
 11
583.8
 21
687.3
 31
0.0
  0
LINE
  8
L-ZISSEN
  6
CONTINUOUS
 62
     7
 10
601.0
 20
662.8
 30
0.0
 11
601.0
 21
690.8
 31
0.0
  0
LINE
  8
L-ZISSEN
  6
CONTINUOUS
 62
     7
 10
596.0
 20
662.8
 30
0.0
 11
596.0
 21
690.8
 31
0.0
  0
LINE
  8
L-ZISSEN
  6
CONTINUOUS
 62
     7
 10
601.0
 20
690.8
 30
0.0
 11
596.0
 21
690.8
 31
0.0
  0
LINE
  8
L-ZISSEN
  6
CONTINUOUS
 62
     7
 10
601.0
 20
662.8
 30
0.0
 11
596.0
 21
662.8
 31
0.0
  0
LINE
  8
L-ZISSEN
  6
CONTINUOUS
 62
     7
 10
583.8
 20
664.3
 30
0.0
 11
565.8
 21
664.3
 31
0.0
  0
LINE
  8
L-ZISSEN
  6
CONTINUOUS
 62
     7
 10
565.8
 20
689.3
 30
0.0
 11
583.8
 21
689.3
 31
0.0
  0
LINE
  8
L-ZISSEN
  6
CONTINUOUS
 62
     7
 10
583.8
 20
689.3
 30
0.0
 11
583.8
 21
664.3
 31
0.0
  0
LINE
  8
L-ZISSEN
  6
CONTINUOUS
 62
     7
 10
567.55
 20
664.0
 30
0.0
 11
567.55
 21
659.2
 31
0.0
  0
LINE
  8
L-ZISSEN
  6
CONTINUOUS
 62
     7
 10
502.45
 20
664.0
 30
0.0
 11
502.45
 21
659.2
 31
0.0
  0
LINE
  8
L-ZISSEN
  6
CONTINUOUS
 62
     7
 10
502.45
 20
664.0
 30
0.0
 11
567.55
 21
664.0
 31
0.0
  0
LINE
  8
L-ZISSEN
  6
CONTINUOUS
 62
     7
 10
567.55
 20
659.2
 30
0.0
 11
502.45
 21
659.2
 31
0.0
  0
LINE
  8
L-ZISSEN
  6
CONTINUOUS
 62
     7
 10
504.2
 20
664.0
 30
0.0
 11
504.2
 21
696.8
 31
0.0
  0
LINE
  8
L-ZISSEN
  6
CONTINUOUS
 62
     7
 10
565.8
 20
696.8
 30
0.0
 11
565.8
 21
664.0
 31
0.0
  0
LINE
  8
L-ZISSEN
  6
CONTINUOUS
 62
     7
 10
502.45
 20
591.05
 30
0.0
 11
567.55
 21
591.05
 31
0.0
  0
LINE
  8
L-ZISSEN
  6
CONTINUOUS
 62
     7
 10
502.45
 20
538.95
 30
0.0
 11
567.55
 21
538.95
 31
0.0
  0
LINE
  8
L-ZISSEN
  6
CONTINUOUS
 62
     7
 10
652.4
 20
538.95
 30
0.0
 11
657.2
 21
538.95
 31
0.0
  0
LINE
  8
L-ZISSEN
  6
CONTINUOUS
 62
     7
 10
652.4
 20
591.05
 30
0.0
 11
657.2
 21
591.05
 31
0.0
  0
LINE
  8
L-ZISSEN
  6
CONTINUOUS
 62
     7
 10
657.2
 20
559.329021
 30
0.0
 11
657.2
 21
538.95
 31
0.0
  0
LINE
  8
L-ZISSEN
  6
CONTINUOUS
 62
     7
 10
693.2
 20
527.0
 30
0.0
 11
693.2
 21
589.0
 31
0.0
  0
TEXT
  8
L-ZISSEN
  6
CONTINUOUS
 62
     7
 10
495.0
 20
740.0
 30
0.0
 40
4.5
  1
JUNCTION BOX
  0
TEXT
  8
L-ZISSEN
  6
CONTINUOUS
 62
     7
 10
495.0
 20
730.0
 30
0.0
 40
4.5
  1
MODEL NO. :
  0
TEXT
  8
L-ZISSEN
  6
CONTINUOUS
 62
     7
 10
735.0
 20
730.0
 30
0.0
 40
4.5
  1
MODEL NO. :
  0
TEXT
  8
L-ZISSEN
  6
CONTINUOUS
 62
     7
 10
735.0
 20
740.0
 30
0.0
 40
4.5
  1
JUNCTION BOX
  0
LINE
  8
L-ZISSEN
  6
CONTINUOUS
 62
     7
 10
938.2
 20
527.0
 30
0.0
 11
938.2
 21
589.0
 31
0.0
  0
LINE
  8
L-ZISSEN
  6
CONTINUOUS
 62
     7
 10
897.4
 20
591.05
 30
0.0
 11
902.2
 21
591.05
 31
0.0
  0
LINE
  8
L-ZISSEN
  6
CONTINUOUS
 62
     7
 10
897.4
 20
538.95
 30
0.0
 11
902.2
 21
538.95
 31
0.0
  0
LINE
  8
L-ZISSEN
  6
CONTINUOUS
 62
     7
 10
832.55
 20
538.95
 30
0.0
 11
767.45
 21
538.95
 31
0.0
  0
LINE
  8
L-ZISSEN
  6
CONTINUOUS
 62
     7
 10
832.55
 20
591.05
 30
0.0
 11
767.45
 21
591.05
 31
0.0
  0
LINE
  8
L-ZISSEN
  6
CONTINUOUS
 62
     7
 10
769.2
 20
696.8
 30
0.0
 11
769.2
 21
664.0
 31
0.0
  0
LINE
  8
L-ZISSEN
  6
CONTINUOUS
 62
     7
 10
830.8
 20
664.0
 30
0.0
 11
830.8
 21
696.8
 31
0.0
  0
LINE
  8
L-ZISSEN
  6
CONTINUOUS
 62
     7
 10
767.45
 20
659.2
 30
0.0
 11
832.55
 21
659.2
 31
0.0
  0
LINE
  8
L-ZISSEN
  6
CONTINUOUS
 62
     7
 10
832.55
 20
664.0
 30
0.0
 11
767.45
 21
664.0
 31
0.0
  0
LINE
  8
L-ZISSEN
  6
CONTINUOUS
 62
     7
 10
832.55
 20
664.0
 30
0.0
 11
832.55
 21
659.2
 31
0.0
  0
LINE
  8
L-ZISSEN
  6
CONTINUOUS
 62
     7
 10
767.45
 20
664.0
 30
0.0
 11
767.45
 21
659.2
 31
0.0
  0
LINE
  8
L-ZISSEN
  6
CONTINUOUS
 62
     7
 10
751.2
 20
689.3
 30
0.0
 11
751.2
 21
664.3
 31
0.0
  0
LINE
  8
L-ZISSEN
  6
CONTINUOUS
 62
     7
 10
769.2
 20
689.3
 30
0.0
 11
751.2
 21
689.3
 31
0.0
  0
LINE
  8
L-ZISSEN
  6
CONTINUOUS
 62
     7
 10
751.2
 20
664.3
 30
0.0
 11
769.2
 21
664.3
 31
0.0
  0
LINE
  8
L-ZISSEN
  6
CONTINUOUS
 62
     7
 10
734.0
 20
662.8
 30
0.0
 11
739.0
 21
662.8
 31
0.0
  0
LINE
  8
L-ZISSEN
  6
CONTINUOUS
 62
     7
 10
734.0
 20
690.8
 30
0.0
 11
739.0
 21
690.8
 31
0.0
  0
LINE
  8
L-ZISSEN
  6
CONTINUOUS
 62
     7
 10
739.0
 20
662.8
 30
0.0
 11
739.0
 21
690.8
 31
0.0
  0
LINE
  8
L-ZISSEN
  6
CONTINUOUS
 62
     7
 10
734.0
 20
662.8
 30
0.0
 11
734.0
 21
690.8
 31
0.0
  0
LINE
  8
L-ZISSEN
  6
CONTINUOUS
 62
     7
 10
739.0
 20
687.3
 30
0.0
 11
751.2
 21
687.3
 31
0.0
  0
LINE
  8
L-ZISSEN
  6
CONTINUOUS
 62
     7
 10
739.0
 20
666.3
 30
0.0
 11
751.2
 21
666.3
 31
0.0
  0
LINE
  8
L-ZISSEN
  6
CONTINUOUS
 62
     7
 10
935.0
 20
589.3
 30
0.0
 11
902.2
 21
589.3
 31
0.0
  0
LINE
  8
L-ZISSEN
  6
CONTINUOUS
 62
     7
 10
902.2
 20
540.7
 30
0.0
 11
935.0
 21
540.7
 31
0.0
  0
LINE
  8
L-ZISSEN
  6
CONTINUOUS
 62
     7
 10
897.4
 20
538.95
 30
0.0
 11
897.4
 21
591.05
 31
0.0
  0
LINE
  8
L-ZISSEN
  6
CONTINUOUS
 62
     7
 10
935.0
 20
527.0
 30
0.0
 11
935.0
 21
589.3
 31
0.0
  0
LINE
  8
L-ZISSEN
  6
CONTINUOUS
 62
     7
 10
938.2
 20
589.0
 30
0.0
 11
935.0
 21
589.0
 31
0.0
  0
LINE
  8
L-ZISSEN
  6
CONTINUOUS
 62
     7
 10
767.45
 20
591.05
 30
0.0
 11
767.45
 21
538.95
 31
0.0
  0
LINE
  8
L-ZISSEN
  6
CONTINUOUS
 62
     7
 10
751.2
 20
552.5
 30
0.0
 11
767.45
 21
552.5
 31
0.0
  0
LINE
  8
L-ZISSEN
  6
CONTINUOUS
 62
     7
 10
767.45
 20
577.5
 30
0.0
 11
751.2
 21
577.5
 31
0.0
  0
LINE
  8
L-ZISSEN
  6
CONTINUOUS
 62
     7
 10
751.2
 20
577.5
 30
0.0
 11
751.2
 21
552.5
 31
0.0
  0
LINE
  8
L-ZISSEN
  6
CONTINUOUS
 62
     7
 10
734.0
 20
551.0
 30
0.0
 11
734.0
 21
579.0
 31
0.0
  0
LINE
  8
L-ZISSEN
  6
CONTINUOUS
 62
     7
 10
739.0
 20
551.0
 30
0.0
 11
739.0
 21
579.0
 31
0.0
  0
LINE
  8
L-ZISSEN
  6
CONTINUOUS
 62
     7
 10
734.0
 20
579.0
 30
0.0
 11
739.0
 21
579.0
 31
0.0
  0
LINE
  8
L-ZISSEN
  6
CONTINUOUS
 62
     7
 10
734.0
 20
551.0
 30
0.0
 11
739.0
 21
551.0
 31
0.0
  0
LINE
  8
L-ZISSEN
  6
CONTINUOUS
 62
     7
 10
739.0
 20
575.5
 30
0.0
 11
751.2
 21
575.5
 31
0.0
  0
LINE
  8
L-ZISSEN
  6
CONTINUOUS
 62
     7
 10
739.0
 20
554.5
 30
0.0
 11
751.2
 21
554.5
 31
0.0
  0
LINE
  8
L-ZISSEN
  6
CONTINUOUS
 62
     7
 10
902.2
 20
591.05
 30
0.0
 11
902.2
 21
538.95
 31
0.0
  0
LINE
  8
L-TYUSIN
  6
CENTER
 62
     1
 10
475.0
 20
450.0
 30
0.0
 11
1290.0
 21
450.0
 31
0.0
  0
TEXT
  8
L-ZISSEN
  6
CONTINUOUS
 62
     7
 10
735.0
 20
425.0
 30
0.0
 40
4.5
  1
MODEL NO. :
  0
TEXT
  8
L-ZISSEN
  6
CONTINUOUS
 62
     7
 10
735.0
 20
435.0
 30
0.0
 40
4.5
  1
JUNCTION BOX
  0
LINE
  8
L-ZISSEN
  6
CONTINUOUS
 62
     7
 10
938.2
 20
142.0
 30
0.0
 11
938.2
 21
259.0
 31
0.0
  0
LINE
  8
L-ZISSEN
  6
CONTINUOUS
 62
     7
 10
902.2
 20
206.05
 30
0.0
 11
902.2
 21
153.95
 31
0.0
  0
LINE
  8
L-ZISSEN
  6
CONTINUOUS
 62
     7
 10
897.4
 20
206.05
 30
0.0
 11
902.2
 21
206.05
 31
0.0
  0
LINE
  8
L-ZISSEN
  6
CONTINUOUS
 62
     7
 10
897.4
 20
153.95
 30
0.0
 11
902.2
 21
153.95
 31
0.0
  0
LINE
  8
L-ZISSEN
  6
CONTINUOUS
 62
     7
 10
832.55
 20
153.95
 30
0.0
 11
767.45
 21
153.95
 31
0.0
  0
LINE
  8
L-ZISSEN
  6
CONTINUOUS
 62
     7
 10
832.55
 20
206.05
 30
0.0
 11
767.45
 21
206.05
 31
0.0
  0
LINE
  8
L-ZISSEN
  6
CONTINUOUS
 62
     7
 10
769.2
 20
366.8
 30
0.0
 11
769.2
 21
334.0
 31
0.0
  0
LINE
  8
L-ZISSEN
  6
CONTINUOUS
 62
     7
 10
830.8
 20
334.0
 30
0.0
 11
830.8
 21
366.8
 31
0.0
  0
LINE
  8
L-ZISSEN
  6
CONTINUOUS
 62
     7
 10
767.45
 20
329.2
 30
0.0
 11
832.55
 21
329.2
 31
0.0
  0
LINE
  8
L-ZISSEN
  6
CONTINUOUS
 62
     7
 10
832.55
 20
334.0
 30
0.0
 11
767.45
 21
334.0
 31
0.0
  0
LINE
  8
L-ZISSEN
  6
CONTINUOUS
 62
     7
 10
832.55
 20
334.0
 30
0.0
 11
832.55
 21
329.2
 31
0.0
  0
LINE
  8
L-ZISSEN
  6
CONTINUOUS
 62
     7
 10
767.45
 20
334.0
 30
0.0
 11
767.45
 21
329.2
 31
0.0
  0
LINE
  8
L-ZISSEN
  6
CONTINUOUS
 62
     7
 10
751.2
 20
359.3
 30
0.0
 11
751.2
 21
334.3
 31
0.0
  0
LINE
  8
L-ZISSEN
  6
CONTINUOUS
 62
     7
 10
769.2
 20
359.3
 30
0.0
 11
751.2
 21
359.3
 31
0.0
  0
LINE
  8
L-ZISSEN
  6
CONTINUOUS
 62
     7
 10
751.2
 20
334.3
 30
0.0
 11
769.2
 21
334.3
 31
0.0
  0
LINE
  8
L-ZISSEN
  6
CONTINUOUS
 62
     7
 10
734.0
 20
332.8
 30
0.0
 11
739.0
 21
332.8
 31
0.0
  0
LINE
  8
L-ZISSEN
  6
CONTINUOUS
 62
     7
 10
734.0
 20
360.8
 30
0.0
 11
739.0
 21
360.8
 31
0.0
  0
LINE
  8
L-ZISSEN
  6
CONTINUOUS
 62
     7
 10
739.0
 20
332.8
 30
0.0
 11
739.0
 21
360.8
 31
0.0
  0
LINE
  8
L-ZISSEN
  6
CONTINUOUS
 62
     7
 10
734.0
 20
332.8
 30
0.0
 11
734.0
 21
360.8
 31
0.0
  0
LINE
  8
L-ZISSEN
  6
CONTINUOUS
 62
     7
 10
739.0
 20
357.3
 30
0.0
 11
751.2
 21
357.3
 31
0.0
  0
LINE
  8
L-ZISSEN
  6
CONTINUOUS
 62
     7
 10
739.0
 20
336.3
 30
0.0
 11
751.2
 21
336.3
 31
0.0
  0
LINE
  8
L-ZISSEN
  6
CONTINUOUS
 62
     7
 10
935.0
 20
204.3
 30
0.0
 11
902.2
 21
204.3
 31
0.0
  0
LINE
  8
L-ZISSEN
  6
CONTINUOUS
 62
     7
 10
902.2
 20
155.7
 30
0.0
 11
935.0
 21
155.7
 31
0.0
  0
LINE
  8
L-ZISSEN
  6
CONTINUOUS
 62
     7
 10
897.4
 20
153.95
 30
0.0
 11
897.4
 21
206.05
 31
0.0
  0
LINE
  8
L-ZISSEN
  6
CONTINUOUS
 62
     7
 10
935.0
 20
142.0
 30
0.0
 11
935.0
 21
259.3
 31
0.0
  0
LINE
  8
L-ZISSEN
  6
CONTINUOUS
 62
     7
 10
767.45
 20
206.05
 30
0.0
 11
767.45
 21
153.95
 31
0.0
  0
LINE
  8
L-ZISSEN
  6
CONTINUOUS
 62
     7
 10
751.2
 20
167.5
 30
0.0
 11
767.45
 21
167.5
 31
0.0
  0
LINE
  8
L-ZISSEN
  6
CONTINUOUS
 62
     7
 10
767.45
 20
192.5
 30
0.0
 11
751.2
 21
192.5
 31
0.0
  0
LINE
  8
L-ZISSEN
  6
CONTINUOUS
 62
     7
 10
751.2
 20
192.5
 30
0.0
 11
751.2
 21
167.5
 31
0.0
  0
LINE
  8
L-ZISSEN
  6
CONTINUOUS
 62
     7
 10
734.0
 20
166.0
 30
0.0
 11
734.0
 21
194.0
 31
0.0
  0
LINE
  8
L-ZISSEN
  6
CONTINUOUS
 62
     7
 10
739.0
 20
166.0
 30
0.0
 11
739.0
 21
194.0
 31
0.0
  0
LINE
  8
L-ZISSEN
  6
CONTINUOUS
 62
     7
 10
734.0
 20
194.0
 30
0.0
 11
739.0
 21
194.0
 31
0.0
  0
LINE
  8
L-ZISSEN
  6
CONTINUOUS
 62
     7
 10
734.0
 20
166.0
 30
0.0
 11
739.0
 21
166.0
 31
0.0
  0
LINE
  8
L-ZISSEN
  6
CONTINUOUS
 62
     7
 10
739.0
 20
190.5
 30
0.0
 11
751.2
 21
190.5
 31
0.0
  0
LINE
  8
L-ZISSEN
  6
CONTINUOUS
 62
     7
 10
739.0
 20
169.5
 30
0.0
 11
751.2
 21
169.5
 31
0.0
  0
LINE
  8
L-ZISSEN
  6
CONTINUOUS
 62
     7
 10
769.0
 20
142.0
 30
0.0
 11
769.0
 21
153.95
 31
0.0
  0
LINE
  8
L-ZISSEN
  6
CONTINUOUS
 62
     7
 10
739.0
 20
224.5
 30
0.0
 11
751.2
 21
224.5
 31
0.0
  0
LINE
  8
L-ZISSEN
  6
CONTINUOUS
 62
     7
 10
739.0
 20
245.5
 30
0.0
 11
751.2
 21
245.5
 31
0.0
  0
LINE
  8
L-ZISSEN
  6
CONTINUOUS
 62
     7
 10
734.0
 20
221.0
 30
0.0
 11
739.0
 21
221.0
 31
0.0
  0
LINE
  8
L-ZISSEN
  6
CONTINUOUS
 62
     7
 10
734.0
 20
249.0
 30
0.0
 11
739.0
 21
249.0
 31
0.0
  0
LINE
  8
L-ZISSEN
  6
CONTINUOUS
 62
     7
 10
739.0
 20
221.0
 30
0.0
 11
739.0
 21
249.0
 31
0.0
  0
LINE
  8
L-ZISSEN
  6
CONTINUOUS
 62
     7
 10
734.0
 20
221.0
 30
0.0
 11
734.0
 21
249.0
 31
0.0
  0
LINE
  8
L-ZISSEN
  6
CONTINUOUS
 62
     7
 10
751.2
 20
247.5
 30
0.0
 11
751.2
 21
222.5
 31
0.0
  0
LINE
  8
L-ZISSEN
  6
CONTINUOUS
 62
     7
 10
767.45
 20
247.5
 30
0.0
 11
751.2
 21
247.5
 31
0.0
  0
LINE
  8
L-ZISSEN
  6
CONTINUOUS
 62
     7
 10
751.2
 20
222.5
 30
0.0
 11
767.45
 21
222.5
 31
0.0
  0
LINE
  8
L-ZISSEN
  6
CONTINUOUS
 62
     7
 10
767.45
 20
261.05
 30
0.0
 11
767.45
 21
208.95
 31
0.0
  0
LINE
  8
L-ZISSEN
  6
CONTINUOUS
 62
     7
 10
832.55
 20
261.05
 30
0.0
 11
832.55
 21
208.95
 31
0.0
  0
LINE
  8
L-ZISSEN
  6
CONTINUOUS
 62
     7
 10
832.55
 20
261.05
 30
0.0
 11
767.45
 21
261.05
 31
0.0
  0
LINE
  8
L-ZISSEN
  6
CONTINUOUS
 62
     7
 10
832.55
 20
208.95
 30
0.0
 11
767.45
 21
208.95
 31
0.0
  0
LINE
  8
L-ZISSEN
  6
CONTINUOUS
 62
     7
 10
938.2
 20
259.0
 30
0.0
 11
935.0
 21
259.0
 31
0.0
  0
LINE
  8
L-ZISSEN
  6
CONTINUOUS
 62
     7
 10
897.4
 20
208.95
 30
0.0
 11
897.4
 21
261.05
 31
0.0
  0
LINE
  8
L-ZISSEN
  6
CONTINUOUS
 62
     7
 10
902.2
 20
210.7
 30
0.0
 11
935.0
 21
210.7
 31
0.0
  0
LINE
  8
L-ZISSEN
  6
CONTINUOUS
 62
     7
 10
935.0
 20
259.3
 30
0.0
 11
902.2
 21
259.3
 31
0.0
  0
LINE
  8
L-ZISSEN
  6
CONTINUOUS
 62
     7
 10
897.4
 20
208.95
 30
0.0
 11
902.2
 21
208.95
 31
0.0
  0
LINE
  8
L-ZISSEN
  6
CONTINUOUS
 62
     7
 10
897.4
 20
261.05
 30
0.0
 11
902.2
 21
261.05
 31
0.0
  0
LINE
  8
L-ZISSEN
  6
CONTINUOUS
 62
     7
 10
902.2
 20
261.05
 30
0.0
 11
902.2
 21
208.95
 31
0.0
  0
LINE
  8
L-ZISSEN
  6
CONTINUOUS
 62
     7
 10
938.2
 20
259.0
 30
0.0
 11
935.0
 21
259.0
 31
0.0
  0
LINE
  8
L-ZISSEN
  6
CONTINUOUS
 62
     7
 10
831.0
 20
206.05
 30
0.0
 11
831.0
 21
208.95
 31
0.0
  0
LINE
  8
L-ZISSEN
  6
CONTINUOUS
 62
     7
 10
769.0
 20
206.05
 30
0.0
 11
769.0
 21
208.95
 31
0.0
  0
LINE
  8
L-ZISSEN
  6
CONTINUOUS
 62
     7
 10
566.0
 20
206.05
 30
0.0
 11
566.0
 21
208.95
 31
0.0
  0
LINE
  8
L-ZISSEN
  6
CONTINUOUS
 62
     7
 10
504.0
 20
206.05
 30
0.0
 11
504.0
 21
208.95
 31
0.0
  0
LINE
  8
L-ZISSEN
  6
CONTINUOUS
 62
     7
 10
693.2
 20
259.0
 30
0.0
 11
690.0
 21
259.0
 31
0.0
  0
LINE
  8
L-ZISSEN
  6
CONTINUOUS
 62
     7
 10
657.2
 20
229.329021
 30
0.0
 11
657.2
 21
208.95
 31
0.0
  0
LINE
  8
L-ZISSEN
  6
CONTINUOUS
 62
     7
 10
652.4
 20
261.05
 30
0.0
 11
657.2
 21
261.05
 31
0.0
  0
LINE
  8
L-ZISSEN
  6
CONTINUOUS
 62
     7
 10
652.4
 20
208.95
 30
0.0
 11
657.2
 21
208.95
 31
0.0
  0
CIRCLE
  8
L-ZISSEN
  6
CONTINUOUS
 62
     7
 10
670.0
 20
235.0
 30
0.0
 40
14.0
  0
CIRCLE
  8
L-ZISSEN
  6
CONTINUOUS
 62
     7
 10
670.0
 20
235.0
 30
0.0
 40
7.5
  0
LINE
  8
L-ZISSEN
  6
CONTINUOUS
 62
     7
 10
690.0
 20
259.3
 30
0.0
 11
657.2
 21
259.3
 31
0.0
  0
LINE
  8
L-ZISSEN
  6
CONTINUOUS
 62
     7
 10
657.2
 20
210.7
 30
0.0
 11
690.0
 21
210.7
 31
0.0
  0
LINE
  8
L-ZISSEN
  6
CONTINUOUS
 62
     7
 10
657.2
 20
261.05
 30
0.0
 11
657.2
 21
240.670979
 31
0.0
  0
LINE
  8
L-ZISSEN
  6
CONTINUOUS
 62
     7
 10
652.4
 20
208.95
 30
0.0
 11
652.4
 21
261.05
 31
0.0
  0
LINE
  8
L-ZISSEN
  6
CONTINUOUS
 62
     7
 10
693.2
 20
259.0
 30
0.0
 11
690.0
 21
259.0
 31
0.0
  0
LINE
  8
L-ZISSEN
  6
CONTINUOUS
 62
     7
 10
502.45
 20
208.95
 30
0.0
 11
567.55
 21
208.95
 31
0.0
  0
LINE
  8
L-ZISSEN
  6
CONTINUOUS
 62
     7
 10
502.45
 20
261.05
 30
0.0
 11
567.55
 21
261.05
 31
0.0
  0
LINE
  8
L-ZISSEN
  6
CONTINUOUS
 62
     7
 10
502.45
 20
261.05
 30
0.0
 11
502.45
 21
208.95
 31
0.0
  0
LINE
  8
L-ZISSEN
  6
CONTINUOUS
 62
     7
 10
567.55
 20
261.05
 30
0.0
 11
567.55
 21
208.95
 31
0.0
  0
LINE
  8
L-ZISSEN
  6
CONTINUOUS
 62
     7
 10
583.8
 20
222.5
 30
0.0
 11
567.55
 21
222.5
 31
0.0
  0
LINE
  8
L-ZISSEN
  6
CONTINUOUS
 62
     7
 10
567.55
 20
247.5
 30
0.0
 11
583.8
 21
247.5
 31
0.0
  0
LINE
  8
L-ZISSEN
  6
CONTINUOUS
 62
     7
 10
583.8
 20
247.5
 30
0.0
 11
583.8
 21
222.5
 31
0.0
  0
LINE
  8
L-ZISSEN
  6
CONTINUOUS
 62
     7
 10
601.0
 20
221.0
 30
0.0
 11
601.0
 21
249.0
 31
0.0
  0
LINE
  8
L-ZISSEN
  6
CONTINUOUS
 62
     7
 10
596.0
 20
221.0
 30
0.0
 11
596.0
 21
249.0
 31
0.0
  0
LINE
  8
L-ZISSEN
  6
CONTINUOUS
 62
     7
 10
601.0
 20
249.0
 30
0.0
 11
596.0
 21
249.0
 31
0.0
  0
LINE
  8
L-ZISSEN
  6
CONTINUOUS
 62
     7
 10
601.0
 20
221.0
 30
0.0
 11
596.0
 21
221.0
 31
0.0
  0
LINE
  8
L-ZISSEN
  6
CONTINUOUS
 62
     7
 10
596.0
 20
245.5
 30
0.0
 11
583.8
 21
245.5
 31
0.0
  0
LINE
  8
L-ZISSEN
  6
CONTINUOUS
 62
     7
 10
596.0
 20
224.5
 30
0.0
 11
583.8
 21
224.5
 31
0.0
  0
LINE
  8
L-ZISSEN
  6
CONTINUOUS
 62
     7
 10
566.0
 20
142.0
 30
0.0
 11
566.0
 21
153.95
 31
0.0
  0
LINE
  8
L-ZISSEN
  6
CONTINUOUS
 62
     7
 10
596.0
 20
169.5
 30
0.0
 11
583.8
 21
169.5
 31
0.0
  0
LINE
  8
L-ZISSEN
  6
CONTINUOUS
 62
     7
 10
596.0
 20
190.5
 30
0.0
 11
583.8
 21
190.5
 31
0.0
  0
LINE
  8
L-ZISSEN
  6
CONTINUOUS
 62
     7
 10
601.0
 20
166.0
 30
0.0
 11
596.0
 21
166.0
 31
0.0
  0
LINE
  8
L-ZISSEN
  6
CONTINUOUS
 62
     7
 10
601.0
 20
194.0
 30
0.0
 11
596.0
 21
194.0
 31
0.0
  0
LINE
  8
L-ZISSEN
  6
CONTINUOUS
 62
     7
 10
596.0
 20
166.0
 30
0.0
 11
596.0
 21
194.0
 31
0.0
  0
LINE
  8
L-ZISSEN
  6
CONTINUOUS
 62
     7
 10
601.0
 20
166.0
 30
0.0
 11
601.0
 21
194.0
 31
0.0
  0
LINE
  8
L-ZISSEN
  6
CONTINUOUS
 62
     7
 10
583.8
 20
192.5
 30
0.0
 11
583.8
 21
167.5
 31
0.0
  0
LINE
  8
L-ZISSEN
  6
CONTINUOUS
 62
     7
 10
567.55
 20
192.5
 30
0.0
 11
583.8
 21
192.5
 31
0.0
  0
LINE
  8
L-ZISSEN
  6
CONTINUOUS
 62
     7
 10
583.8
 20
167.5
 30
0.0
 11
567.55
 21
167.5
 31
0.0
  0
LINE
  8
L-ZISSEN
  6
CONTINUOUS
 62
     7
 10
567.55
 20
206.05
 30
0.0
 11
567.55
 21
153.95
 31
0.0
  0
LINE
  8
L-ZISSEN
  6
CONTINUOUS
 62
     7
 10
690.0
 20
142.0
 30
0.0
 11
690.0
 21
259.3
 31
0.0
  0
LINE
  8
L-ZISSEN
  6
CONTINUOUS
 62
     7
 10
652.4
 20
153.95
 30
0.0
 11
652.4
 21
206.05
 31
0.0
  0
LINE
  8
L-ZISSEN
  6
CONTINUOUS
 62
     7
 10
657.2
 20
206.05
 30
0.0
 11
657.2
 21
185.670979
 31
0.0
  0
LINE
  8
L-ZISSEN
  6
CONTINUOUS
 62
     7
 10
657.2
 20
155.7
 30
0.0
 11
690.0
 21
155.7
 31
0.0
  0
LINE
  8
L-ZISSEN
  6
CONTINUOUS
 62
     7
 10
690.0
 20
204.3
 30
0.0
 11
657.2
 21
204.3
 31
0.0
  0
CIRCLE
  8
L-ZISSEN
  6
CONTINUOUS
 62
     7
 10
670.0
 20
180.0
 30
0.0
 40
7.5
  0
CIRCLE
  8
L-ZISSEN
  6
CONTINUOUS
 62
     7
 10
670.0
 20
180.0
 30
0.0
 40
14.0
  0
LINE
  8
L-ZISSEN
  6
CONTINUOUS
 62
     7
 10
596.0
 20
336.3
 30
0.0
 11
583.8
 21
336.3
 31
0.0
  0
LINE
  8
L-ZISSEN
  6
CONTINUOUS
 62
     7
 10
596.0
 20
357.3
 30
0.0
 11
583.8
 21
357.3
 31
0.0
  0
LINE
  8
L-ZISSEN
  6
CONTINUOUS
 62
     7
 10
601.0
 20
332.8
 30
0.0
 11
601.0
 21
360.8
 31
0.0
  0
LINE
  8
L-ZISSEN
  6
CONTINUOUS
 62
     7
 10
596.0
 20
332.8
 30
0.0
 11
596.0
 21
360.8
 31
0.0
  0
LINE
  8
L-ZISSEN
  6
CONTINUOUS
 62
     7
 10
601.0
 20
360.8
 30
0.0
 11
596.0
 21
360.8
 31
0.0
  0
LINE
  8
L-ZISSEN
  6
CONTINUOUS
 62
     7
 10
601.0
 20
332.8
 30
0.0
 11
596.0
 21
332.8
 31
0.0
  0
LINE
  8
L-ZISSEN
  6
CONTINUOUS
 62
     7
 10
583.8
 20
334.3
 30
0.0
 11
565.8
 21
334.3
 31
0.0
  0
LINE
  8
L-ZISSEN
  6
CONTINUOUS
 62
     7
 10
565.8
 20
359.3
 30
0.0
 11
583.8
 21
359.3
 31
0.0
  0
LINE
  8
L-ZISSEN
  6
CONTINUOUS
 62
     7
 10
583.8
 20
359.3
 30
0.0
 11
583.8
 21
334.3
 31
0.0
  0
LINE
  8
L-ZISSEN
  6
CONTINUOUS
 62
     7
 10
567.55
 20
334.0
 30
0.0
 11
567.55
 21
329.2
 31
0.0
  0
LINE
  8
L-ZISSEN
  6
CONTINUOUS
 62
     7
 10
502.45
 20
334.0
 30
0.0
 11
502.45
 21
329.2
 31
0.0
  0
LINE
  8
L-ZISSEN
  6
CONTINUOUS
 62
     7
 10
502.45
 20
334.0
 30
0.0
 11
567.55
 21
334.0
 31
0.0
  0
LINE
  8
L-ZISSEN
  6
CONTINUOUS
 62
     7
 10
567.55
 20
329.2
 30
0.0
 11
502.45
 21
329.2
 31
0.0
  0
LINE
  8
L-ZISSEN
  6
CONTINUOUS
 62
     7
 10
504.2
 20
334.0
 30
0.0
 11
504.2
 21
366.8
 31
0.0
  0
LINE
  8
L-ZISSEN
  6
CONTINUOUS
 62
     7
 10
565.8
 20
366.8
 30
0.0
 11
565.8
 21
334.0
 31
0.0
  0
LINE
  8
L-ZISSEN
  6
CONTINUOUS
 62
     7
 10
502.45
 20
206.05
 30
0.0
 11
567.55
 21
206.05
 31
0.0
  0
LINE
  8
L-ZISSEN
  6
CONTINUOUS
 62
     7
 10
502.45
 20
153.95
 30
0.0
 11
567.55
 21
153.95
 31
0.0
  0
LINE
  8
L-ZISSEN
  6
CONTINUOUS
 62
     7
 10
652.4
 20
153.95
 30
0.0
 11
657.2
 21
153.95
 31
0.0
  0
LINE
  8
L-ZISSEN
  6
CONTINUOUS
 62
     7
 10
652.4
 20
206.05
 30
0.0
 11
657.2
 21
206.05
 31
0.0
  0
LINE
  8
L-ZISSEN
  6
CONTINUOUS
 62
     7
 10
657.2
 20
174.329021
 30
0.0
 11
657.2
 21
153.95
 31
0.0
  0
LINE
  8
L-ZISSEN
  6
CONTINUOUS
 62
     7
 10
693.2
 20
142.0
 30
0.0
 11
693.2
 21
259.0
 31
0.0
  0
TEXT
  8
L-ZISSEN
  6
CONTINUOUS
 62
     7
 10
495.0
 20
435.0
 30
0.0
 40
4.5
  1
JUNCTION BOX
  0
TEXT
  8
L-ZISSEN
  6
CONTINUOUS
 62
     7
 10
495.0
 20
425.0
 30
0.0
 40
4.5
  1
MODEL NO. :
  0
TEXT
  8
L-ZISSEN
  6
CONTINUOUS
 62
     7
 10
785.0
 20
730.0
 30
0.0
 40
4.5
  1
OT-2002YXL FG20L
  0
TEXT
  8
L-ZISSEN
  6
CONTINUOUS
 62
     7
 10
785.0
 20
720.0
 30
0.0
 40
4.5
  1
OT-2002YXL FG21L
  0
LINE
  8
L-ZISSEN
  6
CONTINUOUS
 62
     7
 10
346.0
 20
146.5
 30
0.0
 11
346.0
 21
129.5
 31
0.0
  0
LINE
  8
L-ZISSEN
  6
CONTINUOUS
 62
     7
 10
334.0
 20
146.5
 30
0.0
 11
334.0
 21
129.5
 31
0.0
  0
LINE
  8
L-ZISSEN
  6
CONTINUOUS
 62
     7
 10
333.0
 20
146.5
 30
0.0
 11
347.0
 21
146.5
 31
0.0
  0
LINE
  8
L-ZISSEN
  6
CONTINUOUS
 62
     7
 10
334.0
 20
129.5
 30
0.0
 11
346.0
 21
129.5
 31
0.0
  0
LINE
  8
L-ZISSEN
  6
CONTINUOUS
 62
     7
 10
347.0
 20
146.5
 30
0.0
 11
347.0
 21
156.5
 31
0.0
  0
LINE
  8
L-ZISSEN
  6
CONTINUOUS
 62
     7
 10
333.0
 20
146.5
 30
0.0
 11
333.0
 21
156.5
 31
0.0
  0
LINE
  8
L-ZISSEN
  6
CONTINUOUS
 62
     7
 10
333.0
 20
156.5
 30
0.0
 11
347.0
 21
156.5
 31
0.0
  0
TEXT
  8
L-ZISSEN
  6
CONTINUOUS
 62
     7
 10
545.0
 20
720.0
 30
0.0
 40
4.5
  1
OT-2002YXL FG21R
  0
TEXT
  8
L-ZISSEN
  6
CONTINUOUS
 62
     7
 10
545.0
 20
730.0
 30
0.0
 40
4.5
  1
OT-2002YXL FG20R
  0
LINE
  8
L-TYUSIN
  6
CENTER
 62
     1
 10
715.0
 20
750.0
 30
0.0
 11
715.0
 21
30.0
 31
0.0
  0
TEXT
  8
L-ZISSEN
  6
CONTINUOUS
 62
     7
 10
545.0
 20
425.0
 30
0.0
 40
4.5
  1
OT-2002YXL FG22R
  0
TEXT
  8
L-ZISSEN
  6
CONTINUOUS
 62
     7
 10
545.0
 20
415.0
 30
0.0
 40
4.5
  1
OT-2002YXL FG23R
  0
TEXT
  8
L-ZISSEN
  6
CONTINUOUS
 62
     7
 10
545.0
 20
395.0
 30
0.0
 40
4.5
  1
OT-2002YXL FG25R
  0
TEXT
  8
L-ZISSEN
  6
CONTINUOUS
 62
     7
 10
545.0
 20
405.0
 30
0.0
 40
4.5
  1
OT-2002YXL FG24R
  0
LINE
  8
L-ZISSEN
  6
CONTINUOUS
 62
     7
 10
567.55
 20
591.05
 30
0.0
 11
567.55
 21
538.95
 31
0.0
  0
LINE
  8
L-ZISSEN
  6
CONTINUOUS
 62
     7
 10
566.0
 20
538.95
 30
0.0
 11
566.0
 21
527.0
 31
0.0
  0
LINE
  8
L-ZISSEN
  6
CONTINUOUS
 62
     7
 10
769.0
 20
538.95
 30
0.0
 11
769.0
 21
527.0
 31
0.0
  0
TEXT
  8
L-ZISSEN
  6
CONTINUOUS
 62
     7
 10
785.0
 20
425.0
 30
0.0
 40
4.5
  1
OT-2002YXL FG22L
  0
TEXT
  8
L-ZISSEN
  6
CONTINUOUS
 62
     7
 10
785.0
 20
415.0
 30
0.0
 40
4.5
  1
OT-2002YXL FG23L
  0
TEXT
  8
L-ZISSEN
  6
CONTINUOUS
 62
     7
 10
785.0
 20
405.0
 30
0.0
 40
4.5
  1
OT-2002YXL FG24L
  0
TEXT
  8
L-ZISSEN
  6
CONTINUOUS
 62
     7
 10
785.0
 20
395.0
 30
0.0
 40
4.5
  1
OT-2002YXL FG25L
  0
TEXT
  8
L-ZISSEN
  6
CONTINUOUS
 62
     7
 10
60.0
 20
645.0
 30
0.0
 40
4.5
  1
MODEL NO. : OT-2002YXL
  0
LINE
  8
L-TYUSIN
  6
CENTER
 62
     1
 10
955.0
 20
750.0
 30
0.0
 11
955.0
 21
30.0
 31
0.0
  0
LINE
  8
L-ZISSEN
  6
CONTINUOUS
 62
     7
 10
1057.0
 20
364.75
 30
0.0
 11
1065.493267
 21
364.75
 31
0.0
  0
LINE
  8
L-ZISSEN
  6
CONTINUOUS
 62
     7
 10
1057.0
 20
375.25
 30
0.0
 11
1065.493267
 21
375.25
 31
0.0
  0
LINE
  8
L-ZISSEN
  6
CONTINUOUS
 62
     7
 10
1064.9
 20
365.092523
 30
0.0
 11
1073.4
 21
360.185045
 31
0.0
  0
LINE
  8
L-ZISSEN
  6
CONTINUOUS
 62
     7
 10
1073.4
 20
360.185045
 30
0.0
 11
1081.9
 21
365.092523
 31
0.0
  0
LINE
  8
L-ZISSEN
  6
CONTINUOUS
 62
     7
 10
1081.9
 20
365.092523
 30
0.0
 11
1081.9
 21
374.907477
 31
0.0
  0
LINE
  8
L-ZISSEN
  6
CONTINUOUS
 62
     7
 10
1081.9
 20
374.907477
 30
0.0
 11
1073.4
 21
379.814955
 31
0.0
  0
LINE
  8
L-ZISSEN
  6
CONTINUOUS
 62
     7
 10
1073.4
 20
379.814955
 30
0.0
 11
1064.9
 21
374.907477
 31
0.0
  0
LINE
  8
L-ZISSEN
  6
CONTINUOUS
 62
     7
 10
1064.9
 20
374.907477
 30
0.0
 11
1064.9
 21
365.092523
 31
0.0
  0
LINE
  8
L-ZISSEN
  6
CONTINUOUS
 62
     7
 10
1063.9
 20
364.515172
 30
0.0
 11
1073.4
 21
359.030345
 31
0.0
  0
LINE
  8
L-ZISSEN
  6
CONTINUOUS
 62
     7
 10
1073.4
 20
359.030345
 30
0.0
 11
1082.9
 21
364.515172
 31
0.0
  0
LINE
  8
L-ZISSEN
  6
CONTINUOUS
 62
     7
 10
1082.9
 20
364.515172
 30
0.0
 11
1082.9
 21
375.484828
 31
0.0
  0
LINE
  8
L-ZISSEN
  6
CONTINUOUS
 62
     7
 10
1082.9
 20
375.484828
 30
0.0
 11
1073.4
 21
380.969655
 31
0.0
  0
LINE
  8
L-ZISSEN
  6
CONTINUOUS
 62
     7
 10
1073.4
 20
380.969655
 30
0.0
 11
1063.9
 21
375.484828
 31
0.0
  0
LINE
  8
L-ZISSEN
  6
CONTINUOUS
 62
     7
 10
1063.9
 20
375.484828
 30
0.0
 11
1063.9
 21
375.25
 31
0.0
  0
LINE
  8
L-ZISSEN
  6
CONTINUOUS
 62
     7
 10
1063.9
 20
364.75
 30
0.0
 11
1063.9
 21
364.515172
 31
0.0
  0
TEXT
  8
L-ZISSEN
  6
CONTINUOUS
 62
     7
 10
975.0
 20
435.0
 30
0.0
 40
4.5
  1
GLASS LEVEL GAUGE
  0
TEXT
  8
L-ZISSEN
  6
CONTINUOUS
 62
     7
 10
975.0
 20
425.0
 30
0.0
 40
4.5
  1
MODEL NO. : OT-2002YXLS
  0
LINE
  8
L-TYUSIN
  6
CENTER
 62
     1
 10
130.0
 20
413.0
 30
0.0
 11
130.0
 21
29.0
 31
0.0
  0
LINE
  8
L-ZISSEN
  6
CONTINUOUS
 62
     7
 10
58.0
 20
310.0
 30
0.0
 11
202.0
 21
310.0
 31
0.0
  0
LINE
  8
L-ZISSEN
  6
CONTINUOUS
 62
     7
 10
58.0
 20
335.0
 30
0.0
 11
202.0
 21
335.0
 31
0.0
  0
LINE
  8
L-TYUSIN
  6
CENTER
 62
     1
 10
130.0
 20
620.0
 30
0.0
 11
130.0
 21
453.0
 31
0.0
  0
LINE
  8
L-TYUSIN
  6
CENTER
 62
     1
 10
227.982904
 20
530.0
 30
0.0
 11
53.0
 21
530.0
 31
0.0
  0
LINE
  8
L-ZISSEN
  6
CONTINUOUS
 62
     7
 10
202.0
 20
584.0
 30
0.0
 11
202.0
 21
476.0
 31
0.0
  0
LINE
  8
L-ZISSEN
  6
CONTINUOUS
 62
     7
 10
58.0
 20
310.0
 30
0.0
 11
58.0
 21
335.0
 31
0.0
  0
LINE
  8
L-ZISSEN
  6
CONTINUOUS
 62
     7
 10
76.0
 20
458.0
 30
0.0
 11
184.0
 21
458.0
 31
0.0
  0
LINE
  8
L-ZISSEN
  6
CONTINUOUS
 62
     7
 10
202.0
 20
335.0
 30
0.0
 11
202.0
 21
310.0
 31
0.0
  0
LINE
  8
L-ZISSEN
  6
CONTINUOUS
 62
     7
 10
58.0
 20
476.0
 30
0.0
 11
58.0
 21
584.0
 31
0.0
  0
ARC
  8
L-ZISSEN
  6
CONTINUOUS
 62
     7
 10
184.0
 20
584.0
 30
0.0
 40
18.0
 50
0.0
 51
27.266044
  0
ARC
  8
L-ZISSEN
  6
CONTINUOUS
 62
     7
 10
76.0
 20
584.0
 30
0.0
 40
18.0
 50
152.733956
 51
180.0
  0
ARC
  8
L-ZISSEN
  6
CONTINUOUS
 62
     7
 10
76.0
 20
476.0
 30
0.0
 40
18.0
 50
180.0
 51
270.0
  0
ARC
  8
L-ZISSEN
  6
CONTINUOUS
 62
     7
 10
184.0
 20
476.0
 30
0.0
 40
18.0
 50
270.0
 51
0.0
  0
CIRCLE
  8
L-ZISSEN
  6
CONTINUOUS
 62
     7
 10
184.0
 20
476.0
 30
0.0
 40
6.0
  0
LINE
  8
L-ZISSEN
  6
CONTINUOUS
 62
     7
 10
60.0
 20
348.0
 30
0.0
 11
87.0
 21
348.0
 31
0.0
  0
LINE
  8
L-ZISSEN
  6
CONTINUOUS
 62
     7
 10
194.969655
 20
348.0
 30
0.0
 11
194.969655
 21
338.0
 31
0.0
  0
LINE
  8
L-ZISSEN
  6
CONTINUOUS
 62
     7
 10
173.030345
 20
348.0
 30
0.0
 11
173.030345
 21
338.0
 31
0.0
  0
LINE
  8
L-ZISSEN
  6
CONTINUOUS
 62
     7
 10
173.030345
 20
338.0
 30
0.0
 11
194.969655
 21
338.0
 31
0.0
  0
LINE
  8
L-ZISSEN
  6
CONTINUOUS
 62
     7
 10
173.25
 20
335.0
 30
0.0
 11
173.25
 21
338.0
 31
0.0
  0
LINE
  8
L-ZISSEN
  6
CONTINUOUS
 62
     7
 10
194.75
 20
335.0
 30
0.0
 11
194.75
 21
338.0
 31
0.0
  0
LINE
  8
L-ZISSEN
  6
CONTINUOUS
 62
     7
 10
200.0
 20
348.0
 30
0.0
 11
200.0
 21
401.0
 31
0.0
  0
LINE
  8
L-ZISSEN
  6
CONTINUOUS
 62
     7
 10
200.0
 20
401.0
 30
0.0
 11
156.0
 21
401.0
 31
0.0
  0
LINE
  8
L-ZISSEN
  6
CONTINUOUS
 62
     7
 10
60.0
 20
401.0
 30
0.0
 11
60.0
 21
348.0
 31
0.0
  0
LINE
  8
L-ZISSEN
  6
CONTINUOUS
 62
     7
 10
60.0
 20
350.3
 30
0.0
 11
70.0
 21
350.3
 31
0.0
  0
ARC
  8
L-ZISSEN
  6
CONTINUOUS
 62
     7
 10
179.5
 20
386.0
 30
0.0
 40
5.5
 50
270.0
 51
90.0
  0
ARC
  8
L-ZISSEN
  6
CONTINUOUS
 62
     7
 10
170.5
 20
386.0
 30
0.0
 40
5.5
 50
90.0
 51
270.0
  0
LINE
  8
L-ZISSEN
  6
CONTINUOUS
 62
     7
 10
179.5
 20
380.5
 30
0.0
 11
170.5
 21
380.5
 31
0.0
  0
LINE
  8
L-ZISSEN
  6
CONTINUOUS
 62
     7
 10
179.5
 20
391.5
 30
0.0
 11
170.5
 21
391.5
 31
0.0
  0
LINE
  8
L-ZISSEN
  6
CONTINUOUS
 62
     7
 10
194.969655
 20
360.3
 30
0.0
 11
194.969655
 21
350.3
 31
0.0
  0
LINE
  8
L-ZISSEN
  6
CONTINUOUS
 62
     7
 10
175.0
 20
360.3
 30
0.0
 11
178.0
 21
360.3
 31
0.0
  0
LINE
  8
L-ZISSEN
  6
CONTINUOUS
 62
     7
 10
85.0
 20
360.3
 30
0.0
 11
82.0
 21
360.3
 31
0.0
  0
LINE
  8
L-ZISSEN
  6
CONTINUOUS
 62
     7
 10
65.030345
 20
360.3
 30
0.0
 11
65.030345
 21
350.3
 31
0.0
  0
LINE
  8
L-ZISSEN
  6
CONTINUOUS
 62
     7
 10
65.25
 20
335.0
 30
0.0
 11
65.25
 21
338.0
 31
0.0
  0
LINE
  8
L-ZISSEN
  6
CONTINUOUS
 62
     7
 10
86.75
 20
335.0
 30
0.0
 11
86.75
 21
338.0
 31
0.0
  0
LINE
  8
L-ZISSEN
  6
CONTINUOUS
 62
     7
 10
86.969655
 20
338.0
 30
0.0
 11
65.030345
 21
338.0
 31
0.0
  0
LINE
  8
L-ZISSEN
  6
CONTINUOUS
 62
     7
 10
86.969655
 20
348.0
 30
0.0
 11
86.969655
 21
338.0
 31
0.0
  0
LINE
  8
L-ZISSEN
  6
CONTINUOUS
 62
     7
 10
65.030345
 20
348.0
 30
0.0
 11
65.030345
 21
338.0
 31
0.0
  0
LINE
  8
L-ZISSEN
  6
CONTINUOUS
 62
     7
 10
80.5
 20
391.5
 30
0.0
 11
89.5
 21
391.5
 31
0.0
  0
LINE
  8
L-ZISSEN
  6
CONTINUOUS
 62
     7
 10
80.5
 20
380.5
 30
0.0
 11
89.5
 21
380.5
 31
0.0
  0
ARC
  8
L-ZISSEN
  6
CONTINUOUS
 62
     7
 10
89.5
 20
386.0
 30
0.0
 40
5.5
 50
270.0
 51
90.0
  0
ARC
  8
L-ZISSEN
  6
CONTINUOUS
 62
     7
 10
80.5
 20
386.0
 30
0.0
 40
5.5
 50
90.0
 51
270.0
  0
LINE
  8
L-TYUSIN
  6
CENTER
 62
     1
 10
85.0
 20
376.0
 30
0.0
 11
85.0
 21
396.0
 31
0.0
  0
LINE
  8
L-TYUSIN
  6
CENTER
 62
     1
 10
100.0
 20
386.0
 30
0.0
 11
70.0
 21
386.0
 31
0.0
  0
ARC
  8
L-ZISSEN
  6
CONTINUOUS
 62
     7
 10
80.5
 20
49.0
 30
0.0
 40
5.5
 50
90.0
 51
270.0
  0
ARC
  8
L-ZISSEN
  6
CONTINUOUS
 62
     7
 10
89.5
 20
49.0
 30
0.0
 40
5.5
 50
270.0
 51
90.0
  0
LINE
  8
L-ZISSEN
  6
CONTINUOUS
 62
     7
 10
80.5
 20
54.5
 30
0.0
 11
89.5
 21
54.5
 31
0.0
  0
LINE
  8
L-ZISSEN
  6
CONTINUOUS
 62
     7
 10
80.5
 20
43.5
 30
0.0
 11
89.5
 21
43.5
 31
0.0
  0
LINE
  8
L-ZISSEN
  6
CONTINUOUS
 62
     7
 10
65.030345
 20
87.0
 30
0.0
 11
65.030345
 21
97.0
 31
0.0
  0
LINE
  8
L-ZISSEN
  6
CONTINUOUS
 62
     7
 10
86.969655
 20
87.0
 30
0.0
 11
86.969655
 21
97.0
 31
0.0
  0
LINE
  8
L-ZISSEN
  6
CONTINUOUS
 62
     7
 10
86.969655
 20
97.0
 30
0.0
 11
65.030345
 21
97.0
 31
0.0
  0
LINE
  8
L-ZISSEN
  6
CONTINUOUS
 62
     7
 10
86.75
 20
100.0
 30
0.0
 11
86.75
 21
97.0
 31
0.0
  0
LINE
  8
L-ZISSEN
  6
CONTINUOUS
 62
     7
 10
65.25
 20
100.0
 30
0.0
 11
65.25
 21
97.0
 31
0.0
  0
LINE
  8
L-ZISSEN
  6
CONTINUOUS
 62
     7
 10
86.969655
 20
74.7
 30
0.0
 11
86.969655
 21
84.7
 31
0.0
  0
LINE
  8
L-ZISSEN
  6
CONTINUOUS
 62
     7
 10
65.030345
 20
74.7
 30
0.0
 11
65.030345
 21
84.7
 31
0.0
  0
LINE
  8
L-ZISSEN
  6
CONTINUOUS
 62
     7
 10
86.969655
 20
74.7
 30
0.0
 11
82.0
 21
74.7
 31
0.0
  0
LINE
  8
L-ZISSEN
  6
CONTINUOUS
 62
     7
 10
173.030345
 20
74.7
 30
0.0
 11
178.0
 21
74.7
 31
0.0
  0
LINE
  8
L-ZISSEN
  6
CONTINUOUS
 62
     7
 10
194.969655
 20
74.7
 30
0.0
 11
194.969655
 21
84.7
 31
0.0
  0
LINE
  8
L-ZISSEN
  6
CONTINUOUS
 62
     7
 10
173.030345
 20
74.7
 30
0.0
 11
173.030345
 21
84.7
 31
0.0
  0
LINE
  8
L-ZISSEN
  6
CONTINUOUS
 62
     7
 10
179.5
 20
43.5
 30
0.0
 11
170.5
 21
43.5
 31
0.0
  0
LINE
  8
L-ZISSEN
  6
CONTINUOUS
 62
     7
 10
179.5
 20
54.5
 30
0.0
 11
170.5
 21
54.5
 31
0.0
  0
ARC
  8
L-ZISSEN
  6
CONTINUOUS
 62
     7
 10
170.5
 20
49.0
 30
0.0
 40
5.5
 50
90.0
 51
270.0
  0
ARC
  8
L-ZISSEN
  6
CONTINUOUS
 62
     7
 10
179.5
 20
49.0
 30
0.0
 40
5.5
 50
270.0
 51
90.0
  0
LINE
  8
L-ZISSEN
  6
CONTINUOUS
 62
     7
 10
60.0
 20
84.7
 30
0.0
 11
70.0
 21
84.7
 31
0.0
  0
LINE
  8
L-ZISSEN
  6
CONTINUOUS
 62
     7
 10
60.0
 20
34.0
 30
0.0
 11
60.0
 21
87.0
 31
0.0
  0
LINE
  8
L-ZISSEN
  6
CONTINUOUS
 62
     7
 10
200.0
 20
34.0
 30
0.0
 11
60.0
 21
34.0
 31
0.0
  0
LINE
  8
L-ZISSEN
  6
CONTINUOUS
 62
     7
 10
200.0
 20
87.0
 30
0.0
 11
200.0
 21
34.0
 31
0.0
  0
LINE
  8
L-ZISSEN
  6
CONTINUOUS
 62
     7
 10
194.75
 20
100.0
 30
0.0
 11
194.75
 21
97.0
 31
0.0
  0
LINE
  8
L-ZISSEN
  6
CONTINUOUS
 62
     7
 10
173.25
 20
100.0
 30
0.0
 11
173.25
 21
97.0
 31
0.0
  0
LINE
  8
L-ZISSEN
  6
CONTINUOUS
 62
     7
 10
173.030345
 20
97.0
 30
0.0
 11
194.969655
 21
97.0
 31
0.0
  0
LINE
  8
L-ZISSEN
  6
CONTINUOUS
 62
     7
 10
173.030345
 20
87.0
 30
0.0
 11
173.030345
 21
97.0
 31
0.0
  0
LINE
  8
L-ZISSEN
  6
CONTINUOUS
 62
     7
 10
194.969655
 20
87.0
 30
0.0
 11
194.969655
 21
97.0
 31
0.0
  0
LINE
  8
L-ZISSEN
  6
CONTINUOUS
 62
     7
 10
60.0
 20
87.0
 30
0.0
 11
124.0
 21
87.0
 31
0.0
  0
LINE
  8
L-ZISSEN
  6
CONTINUOUS
 62
     7
 10
58.0
 20
100.0
 30
0.0
 11
202.0
 21
100.0
 31
0.0
  0
LINE
  8
L-ZISSEN
  6
CONTINUOUS
 62
     7
 10
178.0
 20
362.5
 30
0.0
 11
190.0
 21
362.5
 31
0.0
  0
LINE
  8
L-ZISSEN
  6
CONTINUOUS
 62
     7
 10
190.0
 20
362.5
 30
0.0
 11
190.0
 21
348.0
 31
0.0
  0
LINE
  8
L-ZISSEN
  6
CONTINUOUS
 62
     7
 10
178.0
 20
362.5
 30
0.0
 11
178.0
 21
348.0
 31
0.0
  0
LINE
  8
L-ZISSEN
  6
CONTINUOUS
 62
     7
 10
178.0
 20
72.5
 30
0.0
 11
178.0
 21
87.0
 31
0.0
  0
LINE
  8
L-ZISSEN
  6
CONTINUOUS
 62
     7
 10
190.0
 20
72.5
 30
0.0
 11
190.0
 21
87.0
 31
0.0
  0
LINE
  8
L-ZISSEN
  6
CONTINUOUS
 62
     7
 10
178.0
 20
72.5
 30
0.0
 11
190.0
 21
72.5
 31
0.0
  0
LINE
  8
L-ZISSEN
  6
CONTINUOUS
 62
     7
 10
82.0
 20
72.5
 30
0.0
 11
70.0
 21
72.5
 31
0.0
  0
LINE
  8
L-ZISSEN
  6
CONTINUOUS
 62
     7
 10
70.0
 20
72.5
 30
0.0
 11
70.0
 21
87.0
 31
0.0
  0
LINE
  8
L-ZISSEN
  6
CONTINUOUS
 62
     7
 10
70.0
 20
362.5
 30
0.0
 11
70.0
 21
348.0
 31
0.0
  0
LINE
  8
L-ZISSEN
  6
CONTINUOUS
 62
     7
 10
82.0
 20
362.5
 30
0.0
 11
70.0
 21
362.5
 31
0.0
  0
LINE
  8
L-ZISSEN
  6
CONTINUOUS
 62
     7
 10
82.0
 20
362.5
 30
0.0
 11
82.0
 21
348.0
 31
0.0
  0
LINE
  8
L-ZISSEN
  6
CONTINUOUS
 62
     7
 10
82.0
 20
72.5
 30
0.0
 11
82.0
 21
87.0
 31
0.0
  0
LINE
  8
L-ZISSEN
  6
CONTINUOUS
 62
     7
 10
60.1
 20
310.0
 30
0.0
 11
60.1
 21
125.0
 31
0.0
  0
LINE
  8
L-ZISSEN
  6
CONTINUOUS
 62
     7
 10
58.0
 20
125.0
 30
0.0
 11
202.0
 21
125.0
 31
0.0
  0
LINE
  8
L-ZISSEN
  6
CONTINUOUS
 62
     7
 10
58.0
 20
125.0
 30
0.0
 11
58.0
 21
100.0
 31
0.0
  0
LINE
  8
L-ZISSEN
  6
CONTINUOUS
 62
     7
 10
202.0
 20
125.0
 30
0.0
 11
202.0
 21
100.0
 31
0.0
  0
LINE
  8
L-ZISSEN
  6
CONTINUOUS
 62
     7
 10
117.5
 20
95.0
 30
0.0
 11
142.5
 21
95.0
 31
0.0
  0
LINE
  8
L-ZISSEN
  6
CONTINUOUS
 62
     7
 10
100.0
 20
100.0
 30
0.0
 11
117.5
 21
95.0
 31
0.0
  0
LINE
  8
L-ZISSEN
  6
CONTINUOUS
 62
     7
 10
160.0
 20
100.0
 30
0.0
 11
142.5
 21
95.0
 31
0.0
  0
LINE
  8
L-ZISSEN
  6
CONTINUOUS
 62
     7
 10
82.0
 20
125.0
 30
0.0
 11
82.0
 21
310.0
 31
0.0
  0
LINE
  8
L-ZISSEN
  6
CONTINUOUS
 62
     7
 10
70.0
 20
125.0
 30
0.0
 11
70.0
 21
310.0
 31
0.0
  0
LINE
  8
L-ZISSEN
  6
CONTINUOUS
 62
     7
 10
178.0
 20
125.0
 30
0.0
 11
178.0
 21
310.0
 31
0.0
  0
LINE
  8
L-ZISSEN
  6
CONTINUOUS
 62
     7
 10
190.0
 20
125.0
 30
0.0
 11
190.0
 21
310.0
 31
0.0
  0
LINE
  8
L-ZISSEN
  6
CONTINUOUS
 62
     7
 10
136.0
 20
87.0
 30
0.0
 11
200.0
 21
87.0
 31
0.0
  0
LINE
  8
L-ZISSEN
  6
CONTINUOUS
 62
     7
 10
138.975522
 20
84.7
 30
0.0
 11
178.0
 21
84.7
 31
0.0
  0
LINE
  8
L-ZISSEN
  6
CONTINUOUS
 62
     7
 10
199.9
 20
310.0
 30
0.0
 11
199.9
 21
125.0
 31
0.0
  0
CIRCLE
  8
L-ZISSEN
  6
CONTINUOUS
 62
     7
 10
76.0
 20
476.0
 30
0.0
 40
6.0
  0
CIRCLE
  8
L-ZISSEN
  6
CONTINUOUS
 62
     7
 10
76.0
 20
584.0
 30
0.0
 40
6.0
  0
CIRCLE
  8
L-ZISSEN
  6
CONTINUOUS
 62
     7
 10
184.0
 20
584.0
 30
0.0
 40
6.0
  0
LINE
  8
L-ZISSEN
  6
CONTINUOUS
 62
     7
 10
200.0
 20
570.0
 30
0.0
 11
174.72136
 21
570.0
 31
0.0
  0
LINE
  8
L-ZISSEN
  6
CONTINUOUS
 62
     7
 10
60.0
 20
615.0
 30
0.0
 11
200.0
 21
615.0
 31
0.0
  0
LINE
  8
L-ZISSEN
  6
CONTINUOUS
 62
     7
 10
200.0
 20
612.7
 30
0.0
 11
60.0
 21
612.7
 31
0.0
  0
LINE
  8
L-ZISSEN
  6
CONTINUOUS
 62
     7
 10
200.0
 20
570.0
 30
0.0
 11
200.0
 21
615.0
 31
0.0
  0
LINE
  8
L-ZISSEN
  6
CONTINUOUS
 62
     7
 10
60.0
 20
615.0
 30
0.0
 11
60.0
 21
570.0
 31
0.0
  0
ARC
  8
L-ZISSEN
  6
CONTINUOUS
 62
     7
 10
130.0
 20
530.0
 30
0.0
 40
60.0
 50
41.810315
 51
138.189685
  0
LINE
  8
L-ZISSEN
  6
CONTINUOUS
 62
     7
 10
85.27864
 20
570.0
 30
0.0
 11
60.0
 21
570.0
 31
0.0
  0
LINE
  8
L-ZISSEN
  6
CONTINUOUS
 62
     7
 10
409.9
 20
310.0
 30
0.0
 11
409.9
 21
125.0
 31
0.0
  0
LINE
  8
L-ZISSEN
  6
CONTINUOUS
 62
     7
 10
400.0
 20
125.0
 30
0.0
 11
400.0
 21
310.0
 31
0.0
  0
LINE
  8
L-ZISSEN
  6
CONTINUOUS
 62
     7
 10
388.0
 20
125.0
 30
0.0
 11
388.0
 21
310.0
 31
0.0
  0
LINE
  8
L-ZISSEN
  6
CONTINUOUS
 62
     7
 10
280.0
 20
125.0
 30
0.0
 11
280.0
 21
310.0
 31
0.0
  0
LINE
  8
L-ZISSEN
  6
CONTINUOUS
 62
     7
 10
292.0
 20
125.0
 30
0.0
 11
292.0
 21
310.0
 31
0.0
  0
LINE
  8
L-ZISSEN
  6
CONTINUOUS
 62
     7
 10
370.0
 20
100.0
 30
0.0
 11
352.5
 21
95.0
 31
0.0
  0
LINE
  8
L-ZISSEN
  6
CONTINUOUS
 62
     7
 10
310.0
 20
100.0
 30
0.0
 11
327.5
 21
95.0
 31
0.0
  0
LINE
  8
L-ZISSEN
  6
CONTINUOUS
 62
     7
 10
327.5
 20
95.0
 30
0.0
 11
352.5
 21
95.0
 31
0.0
  0
LINE
  8
L-ZISSEN
  6
CONTINUOUS
 62
     7
 10
412.0
 20
125.0
 30
0.0
 11
412.0
 21
100.0
 31
0.0
  0
LINE
  8
L-ZISSEN
  6
CONTINUOUS
 62
     7
 10
268.0
 20
125.0
 30
0.0
 11
268.0
 21
100.0
 31
0.0
  0
LINE
  8
L-ZISSEN
  6
CONTINUOUS
 62
     7
 10
268.0
 20
125.0
 30
0.0
 11
412.0
 21
125.0
 31
0.0
  0
LINE
  8
L-ZISSEN
  6
CONTINUOUS
 62
     7
 10
270.1
 20
310.0
 30
0.0
 11
270.1
 21
125.0
 31
0.0
  0
LINE
  8
L-ZISSEN
  6
CONTINUOUS
 62
     7
 10
268.0
 20
100.0
 30
0.0
 11
412.0
 21
100.0
 31
0.0
  0
LINE
  8
L-ZISSEN
  6
CONTINUOUS
 62
     7
 10
412.0
 20
335.0
 30
0.0
 11
412.0
 21
310.0
 31
0.0
  0
LINE
  8
L-ZISSEN
  6
CONTINUOUS
 62
     7
 10
268.0
 20
310.0
 30
0.0
 11
268.0
 21
335.0
 31
0.0
  0
LINE
  8
L-ZISSEN
  6
CONTINUOUS
 62
     7
 10
268.0
 20
335.0
 30
0.0
 11
412.0
 21
335.0
 31
0.0
  0
LINE
  8
L-ZISSEN
  6
CONTINUOUS
 62
     7
 10
268.0
 20
310.0
 30
0.0
 11
412.0
 21
310.0
 31
0.0
  0
LINE
  8
L-TYUSIN
  6
CENTER
 62
     1
 10
340.0
 20
413.0
 30
0.0
 11
340.0
 21
49.0
 31
0.0
  0
LINE
  8
L-ZISSEN
  6
CONTINUOUS
 62
     7
 10
380.0
 20
87.0
 30
0.0
 11
425.0
 21
87.0
 31
0.0
  0
LINE
  8
L-ZISSEN
  6
CONTINUOUS
 62
     7
 10
380.0
 20
87.0
 30
0.0
 11
380.0
 21
84.7
 31
0.0
  0
LINE
  8
L-ZISSEN
  6
CONTINUOUS
 62
     7
 10
425.0
 20
34.0
 30
0.0
 11
425.0
 21
87.0
 31
0.0
  0
LINE
  8
L-ZISSEN
  6
CONTINUOUS
 62
     7
 10
422.7
 20
84.7
 30
0.0
 11
422.7
 21
34.0
 31
0.0
  0
LINE
  8
L-ZISSEN
  6
CONTINUOUS
 62
     7
 10
383.25
 20
97.0
 30
0.0
 11
404.75
 21
97.0
 31
0.0
  0
LINE
  8
L-ZISSEN
  6
CONTINUOUS
 62
     7
 10
383.25
 20
100.0
 30
0.0
 11
383.25
 21
97.0
 31
0.0
  0
LINE
  8
L-ZISSEN
  6
CONTINUOUS
 62
     7
 10
404.75
 20
100.0
 30
0.0
 11
404.75
 21
97.0
 31
0.0
  0
LINE
  8
L-ZISSEN
  6
CONTINUOUS
 62
     7
 10
425.0
 20
34.0
 30
0.0
 11
422.7
 21
34.0
 31
0.0
  0
LINE
  8
L-ZISSEN
  6
CONTINUOUS
 62
     7
 10
380.0
 20
84.7
 30
0.0
 11
422.7
 21
84.7
 31
0.0
  0
LINE
  8
L-TYUSIN
  6
CENTER
 62
     1
 10
417.7
 20
49.0
 30
0.0
 11
430.0
 21
49.0
 31
0.0
  0
LINE
  8
L-ZISSEN
  6
CONTINUOUS
 62
     7
 10
276.5
 20
87.0
 30
0.0
 11
295.5
 21
87.0
 31
0.0
  0
LINE
  8
L-ZISSEN
  6
CONTINUOUS
 62
     7
 10
280.0
 20
72.5
 30
0.0
 11
280.0
 21
87.0
 31
0.0
  0
LINE
  8
L-ZISSEN
  6
CONTINUOUS
 62
     7
 10
292.0
 20
72.5
 30
0.0
 11
280.0
 21
72.5
 31
0.0
  0
LINE
  8
L-ZISSEN
  6
CONTINUOUS
 62
     7
 10
292.0
 20
72.5
 30
0.0
 11
292.0
 21
87.0
 31
0.0
  0
LINE
  8
L-ZISSEN
  6
CONTINUOUS
 62
     7
 10
70.0
 20
360.3
 30
0.0
 11
65.030345
 21
360.3
 31
0.0
  0
LINE
  8
L-ZISSEN
  6
CONTINUOUS
 62
     7
 10
190.0
 20
360.3
 30
0.0
 11
194.969655
 21
360.3
 31
0.0
  0
LINE
  8
L-ZISSEN
  6
CONTINUOUS
 62
     7
 10
190.0
 20
350.3
 30
0.0
 11
200.0
 21
350.3
 31
0.0
  0
LINE
  8
L-ZISSEN
  6
CONTINUOUS
 62
     7
 10
82.0
 20
350.3
 30
0.0
 11
85.0
 21
350.3
 31
0.0
  0
LINE
  8
L-ZISSEN
  6
CONTINUOUS
 62
     7
 10
190.0
 20
84.7
 30
0.0
 11
200.0
 21
84.7
 31
0.0
  0
LINE
  8
L-ZISSEN
  6
CONTINUOUS
 62
     7
 10
190.0
 20
74.7
 30
0.0
 11
194.969655
 21
74.7
 31
0.0
  0
LINE
  8
L-ZISSEN
  6
CONTINUOUS
 62
     7
 10
82.0
 20
84.7
 30
0.0
 11
121.024478
 21
84.7
 31
0.0
  0
LINE
  8
L-ZISSEN
  6
CONTINUOUS
 62
     7
 10
70.0
 20
74.7
 30
0.0
 11
65.030345
 21
74.7
 31
0.0
  0
LINE
  8
L-ZISSEN
  6
CONTINUOUS
 62
     7
 10
178.515172
 20
485.5
 30
0.0
 11
173.030345
 21
476.0
 31
0.0
  0
LINE
  8
L-ZISSEN
  6
CONTINUOUS
 62
     7
 10
173.030345
 20
476.0
 30
0.0
 11
178.515172
 21
466.5
 31
0.0
  0
LINE
  8
L-ZISSEN
  6
CONTINUOUS
 62
     7
 10
178.515172
 20
466.5
 30
0.0
 11
189.484828
 21
466.5
 31
0.0
  0
LINE
  8
L-ZISSEN
  6
CONTINUOUS
 62
     7
 10
189.484828
 20
466.5
 30
0.0
 11
194.969655
 21
476.0
 31
0.0
  0
LINE
  8
L-ZISSEN
  6
CONTINUOUS
 62
     7
 10
194.969655
 20
476.0
 30
0.0
 11
189.484828
 21
485.5
 31
0.0
  0
LINE
  8
L-ZISSEN
  6
CONTINUOUS
 62
     7
 10
189.484828
 20
485.5
 30
0.0
 11
178.515172
 21
485.5
 31
0.0
  0
LINE
  8
L-ZISSEN
  6
CONTINUOUS
 62
     7
 10
81.484828
 20
485.5
 30
0.0
 11
86.969655
 21
476.0
 31
0.0
  0
LINE
  8
L-ZISSEN
  6
CONTINUOUS
 62
     7
 10
86.969655
 20
476.0
 30
0.0
 11
81.484828
 21
466.5
 31
0.0
  0
LINE
  8
L-ZISSEN
  6
CONTINUOUS
 62
     7
 10
81.484828
 20
466.5
 30
0.0
 11
70.515172
 21
466.5
 31
0.0
  0
LINE
  8
L-ZISSEN
  6
CONTINUOUS
 62
     7
 10
70.515172
 20
466.5
 30
0.0
 11
65.030345
 21
476.0
 31
0.0
  0
LINE
  8
L-ZISSEN
  6
CONTINUOUS
 62
     7
 10
65.030345
 20
476.0
 30
0.0
 11
70.515172
 21
485.5
 31
0.0
  0
LINE
  8
L-ZISSEN
  6
CONTINUOUS
 62
     7
 10
70.515172
 20
485.5
 30
0.0
 11
81.484828
 21
485.5
 31
0.0
  0
LINE
  8
L-ZISSEN
  6
CONTINUOUS
 62
     7
 10
81.484828
 20
574.5
 30
0.0
 11
86.969655
 21
584.0
 31
0.0
  0
LINE
  8
L-ZISSEN
  6
CONTINUOUS
 62
     7
 10
86.969655
 20
584.0
 30
0.0
 11
81.484828
 21
593.5
 31
0.0
  0
LINE
  8
L-ZISSEN
  6
CONTINUOUS
 62
     7
 10
81.484828
 20
593.5
 30
0.0
 11
70.515172
 21
593.5
 31
0.0
  0
LINE
  8
L-ZISSEN
  6
CONTINUOUS
 62
     7
 10
70.515172
 20
593.5
 30
0.0
 11
65.030345
 21
584.0
 31
0.0
  0
LINE
  8
L-ZISSEN
  6
CONTINUOUS
 62
     7
 10
65.030345
 20
584.0
 30
0.0
 11
70.515172
 21
574.5
 31
0.0
  0
LINE
  8
L-ZISSEN
  6
CONTINUOUS
 62
     7
 10
70.515172
 20
574.5
 30
0.0
 11
81.484828
 21
574.5
 31
0.0
  0
LINE
  8
L-ZISSEN
  6
CONTINUOUS
 62
     7
 10
178.515172
 20
574.5
 30
0.0
 11
173.030345
 21
584.0
 31
0.0
  0
LINE
  8
L-ZISSEN
  6
CONTINUOUS
 62
     7
 10
173.030345
 20
584.0
 30
0.0
 11
178.515172
 21
593.5
 31
0.0
  0
LINE
  8
L-ZISSEN
  6
CONTINUOUS
 62
     7
 10
178.515172
 20
593.5
 30
0.0
 11
189.484828
 21
593.5
 31
0.0
  0
LINE
  8
L-ZISSEN
  6
CONTINUOUS
 62
     7
 10
189.484828
 20
593.5
 30
0.0
 11
194.969655
 21
584.0
 31
0.0
  0
LINE
  8
L-ZISSEN
  6
CONTINUOUS
 62
     7
 10
194.969655
 20
584.0
 30
0.0
 11
189.484828
 21
574.5
 31
0.0
  0
LINE
  8
L-ZISSEN
  6
CONTINUOUS
 62
     7
 10
189.484828
 20
574.5
 30
0.0
 11
178.515172
 21
574.5
 31
0.0
  0
CIRCLE
  8
L-ZISSEN
  6
CONTINUOUS
 62
     7
 10
130.0
 20
76.0
 30
0.0
 40
12.5
  0
LINE
  8
L-ZISSEN
  6
CONTINUOUS
 62
     7
 10
124.0
 20
89.5
 30
0.0
 11
136.0
 21
89.5
 31
0.0
  0
LINE
  8
L-ZISSEN
  6
CONTINUOUS
 62
     7
 10
136.0
 20
86.965856
 30
0.0
 11
136.0
 21
89.5
 31
0.0
  0
LINE
  8
L-ZISSEN
  6
CONTINUOUS
 62
     7
 10
124.0
 20
86.965856
 30
0.0
 11
124.0
 21
89.5
 31
0.0
  0
LINE
  8
L-ZISSEN
  6
CONTINUOUS
 62
     7
 10
130.0
 20
73.113249
 30
0.0
 11
132.5
 21
74.556624
 31
0.0
  0
LINE
  8
L-ZISSEN
  6
CONTINUOUS
 62
     7
 10
132.5
 20
77.443376
 30
0.0
 11
132.5
 21
74.556624
 31
0.0
  0
LINE
  8
L-ZISSEN
  6
CONTINUOUS
 62
     7
 10
130.0
 20
78.886751
 30
0.0
 11
132.5
 21
77.443376
 31
0.0
  0
LINE
  8
L-ZISSEN
  6
CONTINUOUS
 62
     7
 10
130.0
 20
73.113249
 30
0.0
 11
127.5
 21
74.556624
 31
0.0
  0
LINE
  8
L-ZISSEN
  6
CONTINUOUS
 62
     7
 10
127.5
 20
77.443376
 30
0.0
 11
127.5
 21
74.556624
 31
0.0
  0
LINE
  8
L-ZISSEN
  6
CONTINUOUS
 62
     7
 10
130.0
 20
78.886751
 30
0.0
 11
127.5
 21
77.443376
 31
0.0
  0
LINE
  8
L-ZISSEN
  6
CONTINUOUS
 62
     7
 10
134.25
 20
54.0
 30
0.0
 11
125.75
 21
54.0
 31
0.0
  0
LINE
  8
L-ZISSEN
  6
CONTINUOUS
 62
     7
 10
134.25
 20
54.0
 30
0.0
 11
134.25
 21
64.244682
 31
0.0
  0
LINE
  8
L-ZISSEN
  6
CONTINUOUS
 62
     7
 10
125.75
 20
54.0
 30
0.0
 11
125.75
 21
64.244682
 31
0.0
  0
LINE
  8
L-ZISSEN
  6
CONTINUOUS
 62
     7
 10
134.864
 20
95.0
 30
0.0
 11
134.864
 21
89.5
 31
0.0
  0
LINE
  8
L-ZISSEN
  6
CONTINUOUS
 62
     7
 10
125.136
 20
95.0
 30
0.0
 11
125.136
 21
89.5
 31
0.0
  0
LINE
  8
L-ZISSEN
  6
CONTINUOUS
 62
     7
 10
220.9
 20
146.5
 30
0.0
 11
220.9
 21
129.5
 31
0.0
  0
LINE
  8
L-ZISSEN
  6
CONTINUOUS
 62
     7
 10
208.9
 20
146.5
 30
0.0
 11
208.9
 21
139.5
 31
0.0
  0
LINE
  8
L-ZISSEN
  6
CONTINUOUS
 62
     7
 10
222.982904
 20
156.5
 30
0.0
 11
222.982904
 21
146.5
 31
0.0
  0
LINE
  8
L-ZISSEN
  6
CONTINUOUS
 62
     7
 10
206.817096
 20
146.5
 30
0.0
 11
222.982904
 21
146.5
 31
0.0
  0
LINE
  8
L-ZISSEN
  6
CONTINUOUS
 62
     7
 10
206.817096
 20
156.5
 30
0.0
 11
206.817096
 21
146.5
 31
0.0
  0
LINE
  8
L-ZISSEN
  6
CONTINUOUS
 62
     7
 10
206.817096
 20
156.5
 30
0.0
 11
222.982904
 21
156.5
 31
0.0
  0
LINE
  8
L-ZISSEN
  6
CONTINUOUS
 62
     7
 10
199.9
 20
139.5
 30
0.0
 11
208.9
 21
139.5
 31
0.0
  0
LINE
  8
L-ZISSEN
  6
CONTINUOUS
 62
     7
 10
199.9
 20
129.5
 30
0.0
 11
220.9
 21
129.5
 31
0.0
  0
LINE
  8
L-ZISSEN
  6
CONTINUOUS
 62
     7
 10
210.9
 20
156.5
 30
0.0
 11
210.9
 21
278.5
 31
0.0
  0
LINE
  8
L-ZISSEN
  6
CONTINUOUS
 62
     7
 10
218.9
 20
156.5
 30
0.0
 11
218.9
 21
278.5
 31
0.0
  0
LINE
  8
L-ZISSEN
  6
CONTINUOUS
 62
     7
 10
199.9
 20
305.5
 30
0.0
 11
220.9
 21
305.5
 31
0.0
  0
LINE
  8
L-ZISSEN
  6
CONTINUOUS
 62
     7
 10
199.9
 20
295.5
 30
0.0
 11
208.9
 21
295.5
 31
0.0
  0
LINE
  8
L-ZISSEN
  6
CONTINUOUS
 62
     7
 10
206.817096
 20
278.5
 30
0.0
 11
222.982904
 21
278.5
 31
0.0
  0
LINE
  8
L-ZISSEN
  6
CONTINUOUS
 62
     7
 10
206.817096
 20
278.5
 30
0.0
 11
206.817096
 21
288.5
 31
0.0
  0
LINE
  8
L-ZISSEN
  6
CONTINUOUS
 62
     7
 10
206.817096
 20
288.5
 30
0.0
 11
222.982904
 21
288.5
 31
0.0
  0
LINE
  8
L-ZISSEN
  6
CONTINUOUS
 62
     7
 10
222.982904
 20
278.5
 30
0.0
 11
222.982904
 21
288.5
 31
0.0
  0
LINE
  8
L-ZISSEN
  6
CONTINUOUS
 62
     7
 10
208.9
 20
288.5
 30
0.0
 11
208.9
 21
295.5
 31
0.0
  0
LINE
  8
L-ZISSEN
  6
CONTINUOUS
 62
     7
 10
220.9
 20
288.5
 30
0.0
 11
220.9
 21
305.5
 31
0.0
  0
LINE
  8
L-ZISSEN
  6
CONTINUOUS
 62
     7
 10
333.0
 20
278.5
 30
0.0
 11
347.0
 21
278.5
 31
0.0
  0
LINE
  8
L-ZISSEN
  6
CONTINUOUS
 62
     7
 10
333.0
 20
288.5
 30
0.0
 11
333.0
 21
278.5
 31
0.0
  0
LINE
  8
L-ZISSEN
  6
CONTINUOUS
 62
     7
 10
347.0
 20
288.5
 30
0.0
 11
347.0
 21
278.5
 31
0.0
  0
LINE
  8
L-ZISSEN
  6
CONTINUOUS
 62
     7
 10
334.0
 20
305.5
 30
0.0
 11
346.0
 21
305.5
 31
0.0
  0
LINE
  8
L-ZISSEN
  6
CONTINUOUS
 62
     7
 10
333.0
 20
288.5
 30
0.0
 11
347.0
 21
288.5
 31
0.0
  0
LINE
  8
L-ZISSEN
  6
CONTINUOUS
 62
     7
 10
334.0
 20
288.5
 30
0.0
 11
334.0
 21
305.5
 31
0.0
  0
LINE
  8
L-ZISSEN
  6
CONTINUOUS
 62
     7
 10
346.0
 20
288.5
 30
0.0
 11
346.0
 21
305.5
 31
0.0
  0
LINE
  8
L-ZISSEN
  6
CONTINUOUS
 62
     7
 10
334.0
 20
89.5
 30
0.0
 11
346.0
 21
89.5
 31
0.0
  0
LINE
  8
L-ZISSEN
  6
CONTINUOUS
 62
     7
 10
344.864
 20
95.0
 30
0.0
 11
344.864
 21
89.5
 31
0.0
  0
LINE
  8
L-ZISSEN
  6
CONTINUOUS
 62
     7
 10
335.136
 20
95.0
 30
0.0
 11
335.136
 21
89.5
 31
0.0
  0
LINE
  8
L-ZISSEN
  6
CONTINUOUS
 62
     7
 10
341.25
 20
54.0
 30
0.0
 11
332.75
 21
54.0
 31
0.0
  0
LINE
  8
L-ZISSEN
  6
CONTINUOUS
 62
     7
 10
310.0
 20
78.886751
 30
0.0
 11
310.0
 21
73.113249
 31
0.0
  0
LINE
  8
L-ZISSEN
  6
CONTINUOUS
 62
     7
 10
312.5
 20
63.5
 30
0.0
 11
312.5
 21
88.5
 31
0.0
  0
LINE
  8
L-ZISSEN
  6
CONTINUOUS
 62
     7
 10
316.0
 20
88.5
 30
0.0
 11
316.0
 21
63.5
 31
0.0
  0
LINE
  8
L-ZISSEN
  6
CONTINUOUS
 62
     7
 10
322.0
 20
84.082904
 30
0.0
 11
327.0
 21
84.082904
 31
0.0
  0
LINE
  8
L-ZISSEN
  6
CONTINUOUS
 62
     7
 10
322.0
 20
67.917096
 30
0.0
 11
327.0
 21
67.917096
 31
0.0
  0
LINE
  8
L-ZISSEN
  6
CONTINUOUS
 62
     7
 10
316.0
 20
78.25
 30
0.0
 11
322.0
 21
78.25
 31
0.0
  0
LINE
  8
L-ZISSEN
  6
CONTINUOUS
 62
     7
 10
316.0
 20
73.75
 30
0.0
 11
322.0
 21
73.75
 31
0.0
  0
LINE
  8
L-ZISSEN
  6
CONTINUOUS
 62
     7
 10
312.5
 20
88.5
 30
0.0
 11
316.0
 21
88.5
 31
0.0
  0
LINE
  8
L-ZISSEN
  6
CONTINUOUS
 62
     7
 10
312.5
 20
63.5
 30
0.0
 11
316.0
 21
63.5
 31
0.0
  0
LINE
  8
L-ZISSEN
  6
CONTINUOUS
 62
     7
 10
310.0
 20
78.886751
 30
0.0
 11
312.5
 21
78.886751
 31
0.0
  0
LINE
  8
L-ZISSEN
  6
CONTINUOUS
 62
     7
 10
310.0
 20
73.113249
 30
0.0
 11
312.5
 21
73.113249
 31
0.0
  0
LINE
  8
L-ZISSEN
  6
CONTINUOUS
 62
     7
 10
334.0
 20
82.0
 30
0.0
 11
334.0
 21
89.5
 31
0.0
  0
LINE
  8
L-ZISSEN
  6
CONTINUOUS
 62
     7
 10
346.0
 20
70.0
 30
0.0
 11
346.0
 21
89.5
 31
0.0
  0
LINE
  8
L-ZISSEN
  6
CONTINUOUS
 62
     7
 10
334.0
 20
82.0
 30
0.0
 11
327.0
 21
82.0
 31
0.0
  0
LINE
  8
L-ZISSEN
  6
CONTINUOUS
 62
     7
 10
346.0
 20
70.0
 30
0.0
 11
327.0
 21
70.0
 31
0.0
  0
LINE
  8
L-ZISSEN
  6
CONTINUOUS
 62
     7
 10
341.25
 20
54.0
 30
0.0
 11
341.25
 21
70.0
 31
0.0
  0
LINE
  8
L-ZISSEN
  6
CONTINUOUS
 62
     7
 10
332.75
 20
54.0
 30
0.0
 11
332.75
 21
70.0
 31
0.0
  0
LINE
  8
L-ZISSEN
  6
CONTINUOUS
 62
     7
 10
327.0
 20
84.082904
 30
0.0
 11
327.0
 21
67.917096
 31
0.0
  0
LINE
  8
L-ZISSEN
  6
CONTINUOUS
 62
     7
 10
322.0
 20
84.082904
 30
0.0
 11
322.0
 21
67.917096
 31
0.0
  0
LINE
  8
L-ZISSEN
  6
CONTINUOUS
 62
     7
 10
388.0
 20
72.5
 30
0.0
 11
388.0
 21
74.7
 31
0.0
  0
LINE
  8
L-ZISSEN
  6
CONTINUOUS
 62
     7
 10
400.0
 20
72.5
 30
0.0
 11
400.0
 21
74.7
 31
0.0
  0
LINE
  8
L-ZISSEN
  6
CONTINUOUS
 62
     7
 10
400.0
 20
72.5
 30
0.0
 11
388.0
 21
72.5
 31
0.0
  0
LINE
  8
L-ZISSEN
  6
CONTINUOUS
 62
     7
 10
276.5
 20
87.0
 30
0.0
 11
276.5
 21
97.0
 31
0.0
  0
LINE
  8
L-ZISSEN
  6
CONTINUOUS
 62
     7
 10
295.5
 20
87.0
 30
0.0
 11
295.5
 21
97.0
 31
0.0
  0
LINE
  8
L-ZISSEN
  6
CONTINUOUS
 62
     7
 10
403.5
 20
87.0
 30
0.0
 11
403.5
 21
97.0
 31
0.0
  0
LINE
  8
L-ZISSEN
  6
CONTINUOUS
 62
     7
 10
384.5
 20
87.0
 30
0.0
 11
384.5
 21
97.0
 31
0.0
  0
LINE
  8
L-ZISSEN
  6
CONTINUOUS
 62
     7
 10
384.5
 20
74.7
 30
0.0
 11
403.5
 21
74.7
 31
0.0
  0
LINE
  8
L-ZISSEN
  6
CONTINUOUS
 62
     7
 10
384.5
 20
74.7
 30
0.0
 11
384.5
 21
84.7
 31
0.0
  0
LINE
  8
L-ZISSEN
  6
CONTINUOUS
 62
     7
 10
403.5
 20
74.7
 30
0.0
 11
403.5
 21
84.7
 31
0.0
  0
LINE
  8
L-ZISSEN
  6
CONTINUOUS
 62
     7
 10
296.75
 20
100.0
 30
0.0
 11
296.75
 21
97.0
 31
0.0
  0
LINE
  8
L-ZISSEN
  6
CONTINUOUS
 62
     7
 10
275.25
 20
100.0
 30
0.0
 11
275.25
 21
97.0
 31
0.0
  0
LINE
  8
L-ZISSEN
  6
CONTINUOUS
 62
     7
 10
275.25
 20
97.0
 30
0.0
 11
296.75
 21
97.0
 31
0.0
  0
LINE
  8
L-ZISSEN
  6
CONTINUOUS
 62
     7
 10
403.5
 20
360.3
 30
0.0
 11
403.5
 21
350.3
 31
0.0
  0
LINE
  8
L-ZISSEN
  6
CONTINUOUS
 62
     7
 10
384.5
 20
360.3
 30
0.0
 11
384.5
 21
350.3
 31
0.0
  0
LINE
  8
L-ZISSEN
  6
CONTINUOUS
 62
     7
 10
384.5
 20
360.3
 30
0.0
 11
403.5
 21
360.3
 31
0.0
  0
LINE
  8
L-ZISSEN
  6
CONTINUOUS
 62
     7
 10
384.5
 20
348.0
 30
0.0
 11
384.5
 21
338.0
 31
0.0
  0
LINE
  8
L-ZISSEN
  6
CONTINUOUS
 62
     7
 10
403.5
 20
348.0
 30
0.0
 11
403.5
 21
338.0
 31
0.0
  0
LINE
  8
L-ZISSEN
  6
CONTINUOUS
 62
     7
 10
400.0
 20
362.5
 30
0.0
 11
388.0
 21
362.5
 31
0.0
  0
LINE
  8
L-ZISSEN
  6
CONTINUOUS
 62
     7
 10
400.0
 20
362.5
 30
0.0
 11
400.0
 21
360.3
 31
0.0
  0
LINE
  8
L-ZISSEN
  6
CONTINUOUS
 62
     7
 10
388.0
 20
362.5
 30
0.0
 11
388.0
 21
360.3
 31
0.0
  0
LINE
  8
L-TYUSIN
  6
CENTER
 62
     1
 10
417.7
 20
386.0
 30
0.0
 11
430.0
 21
386.0
 31
0.0
  0
LINE
  8
L-ZISSEN
  6
CONTINUOUS
 62
     7
 10
380.0
 20
350.3
 30
0.0
 11
422.7
 21
350.3
 31
0.0
  0
LINE
  8
L-ZISSEN
  6
CONTINUOUS
 62
     7
 10
425.0
 20
401.0
 30
0.0
 11
422.7
 21
401.0
 31
0.0
  0
LINE
  8
L-ZISSEN
  6
CONTINUOUS
 62
     7
 10
404.75
 20
335.0
 30
0.0
 11
404.75
 21
338.0
 31
0.0
  0
LINE
  8
L-ZISSEN
  6
CONTINUOUS
 62
     7
 10
383.25
 20
335.0
 30
0.0
 11
383.25
 21
338.0
 31
0.0
  0
LINE
  8
L-ZISSEN
  6
CONTINUOUS
 62
     7
 10
383.25
 20
338.0
 30
0.0
 11
404.75
 21
338.0
 31
0.0
  0
LINE
  8
L-ZISSEN
  6
CONTINUOUS
 62
     7
 10
422.7
 20
350.3
 30
0.0
 11
422.7
 21
401.0
 31
0.0
  0
LINE
  8
L-ZISSEN
  6
CONTINUOUS
 62
     7
 10
425.0
 20
401.0
 30
0.0
 11
425.0
 21
348.0
 31
0.0
  0
LINE
  8
L-ZISSEN
  6
CONTINUOUS
 62
     7
 10
380.0
 20
348.0
 30
0.0
 11
380.0
 21
350.3
 31
0.0
  0
LINE
  8
L-ZISSEN
  6
CONTINUOUS
 62
     7
 10
380.0
 20
348.0
 30
0.0
 11
425.0
 21
348.0
 31
0.0
  0
LINE
  8
L-ZISSEN
  6
CONTINUOUS
 62
     7
 10
275.25
 20
338.0
 30
0.0
 11
296.75
 21
338.0
 31
0.0
  0
LINE
  8
L-ZISSEN
  6
CONTINUOUS
 62
     7
 10
275.25
 20
335.0
 30
0.0
 11
275.25
 21
338.0
 31
0.0
  0
LINE
  8
L-ZISSEN
  6
CONTINUOUS
 62
     7
 10
296.75
 20
335.0
 30
0.0
 11
296.75
 21
338.0
 31
0.0
  0
LINE
  8
L-ZISSEN
  6
CONTINUOUS
 62
     7
 10
295.5
 20
348.0
 30
0.0
 11
295.5
 21
338.0
 31
0.0
  0
LINE
  8
L-ZISSEN
  6
CONTINUOUS
 62
     7
 10
276.5
 20
348.0
 30
0.0
 11
276.5
 21
338.0
 31
0.0
  0
LINE
  8
L-ZISSEN
  6
CONTINUOUS
 62
     7
 10
292.0
 20
362.5
 30
0.0
 11
292.0
 21
348.0
 31
0.0
  0
LINE
  8
L-ZISSEN
  6
CONTINUOUS
 62
     7
 10
292.0
 20
362.5
 30
0.0
 11
280.0
 21
362.5
 31
0.0
  0
LINE
  8
L-ZISSEN
  6
CONTINUOUS
 62
     7
 10
280.0
 20
362.5
 30
0.0
 11
280.0
 21
348.0
 31
0.0
  0
LINE
  8
L-ZISSEN
  6
CONTINUOUS
 62
     7
 10
276.5
 20
348.0
 30
0.0
 11
295.5
 21
348.0
 31
0.0
  0
LINE
  8
L-ZISSEN
  6
CONTINUOUS
 62
     7
 10
202.0
 20
535.0
 30
0.0
 11
220.9
 21
535.0
 31
0.0
  0
LINE
  8
L-TYUSIN
  6
CENTER
 62
     1
 10
160.0
 20
386.0
 30
0.0
 11
190.0
 21
386.0
 31
0.0
  0
LINE
  8
L-TYUSIN
  6
CENTER
 62
     1
 10
175.0
 20
376.0
 30
0.0
 11
175.0
 21
396.0
 31
0.0
  0
LINE
  8
L-TYUSIN
  6
CENTER
 62
     1
 10
100.0
 20
49.0
 30
0.0
 11
70.0
 21
49.0
 31
0.0
  0
LINE
  8
L-TYUSIN
  6
CENTER
 62
     1
 10
85.0
 20
39.0
 30
0.0
 11
85.0
 21
59.0
 31
0.0
  0
LINE
  8
L-TYUSIN
  6
CENTER
 62
     1
 10
160.0
 20
49.0
 30
0.0
 11
190.0
 21
49.0
 31
0.0
  0
LINE
  8
L-TYUSIN
  6
CENTER
 62
     1
 10
175.0
 20
39.0
 30
0.0
 11
175.0
 21
59.0
 31
0.0
  0
LINE
  8
L-ZISSEN
  6
CONTINUOUS
 62
     7
 10
220.9
 20
525.0
 30
0.0
 11
220.9
 21
535.0
 31
0.0
  0
LINE
  8
L-ZISSEN
  6
CONTINUOUS
 62
     7
 10
202.0
 20
525.0
 30
0.0
 11
220.9
 21
525.0
 31
0.0
  0
LINE
  8
L-ZISSEN
  6
CONTINUOUS
 62
     7
 10
210.858548
 20
537.0
 30
0.0
 11
209.703848
 21
535.0
 31
0.0
  0
LINE
  8
L-ZISSEN
  6
CONTINUOUS
 62
     7
 10
209.703848
 20
525.0
 30
0.0
 11
210.858548
 21
523.0
 31
0.0
  0
LINE
  8
L-ZISSEN
  6
CONTINUOUS
 62
     7
 10
210.858548
 20
523.0
 30
0.0
 11
218.941452
 21
523.0
 31
0.0
  0
LINE
  8
L-ZISSEN
  6
CONTINUOUS
 62
     7
 10
218.941452
 20
523.0
 30
0.0
 11
220.096152
 21
525.0
 31
0.0
  0
LINE
  8
L-ZISSEN
  6
CONTINUOUS
 62
     7
 10
222.982904
 20
530.0
 30
0.0
 11
220.9
 21
533.607695
 31
0.0
  0
LINE
  8
L-ZISSEN
  6
CONTINUOUS
 62
     7
 10
218.941452
 20
537.0
 30
0.0
 11
210.858548
 21
537.0
 31
0.0
  0
LINE
  8
L-ZISSEN
  6
CONTINUOUS
 62
     7
 10
220.9
 20
526.392305
 30
0.0
 11
222.982904
 21
530.0
 31
0.0
  0
LINE
  8
L-ZISSEN
  6
CONTINUOUS
 62
     7
 10
220.096152
 20
535.0
 30
0.0
 11
218.941452
 21
537.0
 31
0.0
  0
LINE
  8
L-ZISSEN
  6
CONTINUOUS
 62
     7
 10
175.0
 20
350.3
 30
0.0
 11
178.0
 21
350.3
 31
0.0
  0
LINE
  8
L-ZISSEN
  6
CONTINUOUS
 62
     7
 10
173.0
 20
348.0
 30
0.0
 11
200.0
 21
348.0
 31
0.0
  0
LINE
  8
L-ZISSEN
  6
CONTINUOUS
 62
     7
 10
104.0
 20
401.0
 30
0.0
 11
60.0
 21
401.0
 31
0.0
  0
LINE
  8
L-TYUSIN
  6
CENTER
 62
     1
 10
85.0
 20
607.7
 30
0.0
 11
85.0
 21
620.0
 31
0.0
  0
LINE
  8
L-TYUSIN
  6
CENTER
 62
     1
 10
175.0
 20
607.7
 30
0.0
 11
175.0
 21
620.0
 31
0.0
  0
LINE
  8
L-ZISSEN
 10
1155.0
 20
272.0
 30
0.0
 11
1235.0
 21
272.0
 31
0.0
  0
LINE
  8
L-ZISSEN
 10
1155.0
 20
48.0
 30
0.0
 11
1235.0
 21
48.0
 31
0.0
  0
LINE
  8
L-ZISSEN
 10
1155.0
 20
48.0
 30
0.0
 11
1155.0
 21
272.0
 31
0.0
  0
LINE
  8
L-ZISSEN
 10
1175.0
 20
48.0
 30
0.0
 11
1175.0
 21
272.0
 31
0.0
  0
LINE
  8
L-ZISSEN
 10
1235.0
 20
48.0
 30
0.0
 11
1235.0
 21
272.0
 31
0.0
  0
LINE
  8
L-ZISSEN
 10
1215.0
 20
48.0
 30
0.0
 11
1215.0
 21
272.0
 31
0.0
  0
LINE
  8
L-ZISSEN
 10
1057.0
 20
48.0
 30
0.0
 11
1092.0
 21
48.0
 31
0.0
  0
LINE
  8
L-ZISSEN
 10
1057.0
 20
272.0
 30
0.0
 11
1092.0
 21
272.0
 31
0.0
  0
LINE
  8
L-ZISSEN
 10
1057.0
 20
252.0
 30
0.0
 11
1057.0
 21
67.0
 31
0.0
  0
LINE
  8
L-ZISSEN
 10
1058.2
 20
272.0
 30
0.0
 11
1058.2
 21
48.0
 31
0.0
  0
LINE
  8
L-ZISSEN
 10
1092.0
 20
272.0
 30
0.0
 11
1092.0
 21
48.0
 31
0.0
  0
LINE
  8
L-ZISSEN
  6
CONTINUOUS
 62
     7
 10
1054.9
 20
71.25
 30
0.0
 11
1057.0
 21
71.25
 31
0.0
  0
LINE
  8
L-ZISSEN
  6
CONTINUOUS
 62
     7
 10
1054.9
 20
81.75
 30
0.0
 11
1057.0
 21
81.75
 31
0.0
  0
LINE
  8
L-ZISSEN
  6
CONTINUOUS
 62
     7
 10
1054.9
 20
247.75
 30
0.0
 11
1057.0
 21
247.75
 31
0.0
  0
LINE
  8
L-ZISSEN
  6
CONTINUOUS
 62
     7
 10
1054.9
 20
237.25
 30
0.0
 11
1057.0
 21
237.25
 31
0.0
  0
LINE
  8
L-ZISSEN
  6
CONTINUOUS
 62
     7
 10
1092.0
 20
390.0
 30
0.0
 11
1092.0
 21
350.0
 31
0.0
  0
SOLID
  8
L-ZISSEN
 10
986.649916
 20
371.178511
 30
0.0
 11
986.178511
 21
371.649916
 31
0.0
 12
985.0
 22
370.0
 32
0.0
 13
985.0
 23
370.0
 33
0.0
  0
LINE
  8
L-ZISSEN
 10
986.414214
 20
371.414214
 30
0.0
 11
1000.0
 21
385.0
 31
0.0
  0
LINE
  8
L-ZISSEN
 10
1000.0
 20
385.0
 30
0.0
 11
1002.0
 21
385.0
 31
0.0
  0
TEXT
  8
L-ZISSEN
 10
1004.0
 20
382.75
 30
0.0
 40
4.5
  1
P.P
  0
LINE
  8
L-ZISSEN
  6
CONTINUOUS
 62
     7
 10
1058.2
 20
350.0
 30
0.0
 11
1058.2
 21
330.0
 31
0.0
  0
LINE
  8
L-ZISSEN
 10
1057.0
 20
410.0
 30
0.0
 11
1058.2
 21
410.0
 31
0.0
  0
LINE
  8
L-ZISSEN
 10
1057.0
 20
330.0
 30
0.0
 11
1058.2
 21
330.0
 31
0.0
  0
LINE
  8
L-ZISSEN
 10
1092.0
 20
350.0
 30
0.0
 11
1058.2
 21
350.0
 31
0.0
  0
LINE
  8
L-ZISSEN
 10
1090.8
 20
351.2
 30
0.0
 11
1057.0
 21
351.2
 31
0.0
  0
LINE
  8
L-ZISSEN
  6
CONTINUOUS
 62
     7
 10
1090.8
 20
388.8
 30
0.0
 11
1090.8
 21
351.2
 31
0.0
  0
LINE
  8
L-ZISSEN
 10
1090.8
 20
388.8
 30
0.0
 11
1057.0
 21
388.8
 31
0.0
  0
LINE
  8
L-ZISSEN
 10
1092.0
 20
390.0
 30
0.0
 11
1058.2
 21
390.0
 31
0.0
  0
LINE
  8
L-ZISSEN
 10
1057.0
 20
410.0
 30
0.0
 11
1058.2
 21
410.0
 31
0.0
  0
LINE
  8
L-ZISSEN
  6
CONTINUOUS
 62
     7
 10
1058.2
 20
390.0
 30
0.0
 11
1058.2
 21
410.0
 31
0.0
  0
LINE
  8
L-ZISSEN
 10
1162.113249
 20
269.5
 30
0.0
 11
1159.226497
 21
264.5
 31
0.0
  0
LINE
  8
L-ZISSEN
 10
1159.226497
 20
264.5
 30
0.0
 11
1162.113249
 21
259.5
 31
0.0
  0
LINE
  8
L-ZISSEN
 10
1162.113249
 20
259.5
 30
0.0
 11
1167.886751
 21
259.5
 31
0.0
  0
LINE
  8
L-ZISSEN
 10
1167.886751
 20
259.5
 30
0.0
 11
1170.773503
 21
264.5
 31
0.0
  0
LINE
  8
L-ZISSEN
 10
1170.773503
 20
264.5
 30
0.0
 11
1167.886751
 21
269.5
 31
0.0
  0
LINE
  8
L-ZISSEN
 10
1167.886751
 20
269.5
 30
0.0
 11
1162.113249
 21
269.5
 31
0.0
  0
LINE
  8
L-ZISSEN
 10
1227.886751
 20
269.5
 30
0.0
 11
1230.773503
 21
264.5
 31
0.0
  0
LINE
  8
L-ZISSEN
 10
1230.773503
 20
264.5
 30
0.0
 11
1227.886751
 21
259.5
 31
0.0
  0
LINE
  8
L-ZISSEN
 10
1227.886751
 20
259.5
 30
0.0
 11
1222.113249
 21
259.5
 31
0.0
  0
LINE
  8
L-ZISSEN
 10
1222.113249
 20
259.5
 30
0.0
 11
1219.226497
 21
264.5
 31
0.0
  0
LINE
  8
L-ZISSEN
 10
1219.226497
 20
264.5
 30
0.0
 11
1222.113249
 21
269.5
 31
0.0
  0
LINE
  8
L-ZISSEN
 10
1222.113249
 20
269.5
 30
0.0
 11
1227.886751
 21
269.5
 31
0.0
  0
LINE
  8
L-ZISSEN
 10
1063.7
 20
259.5
 30
0.0
 11
1059.7
 21
259.5
 31
0.0
  0
LINE
  8
L-ZISSEN
 10
1063.7
 20
269.5
 30
0.0
 11
1059.7
 21
269.5
 31
0.0
  0
LINE
  8
L-ZISSEN
 10
1059.7
 20
270.6
 30
0.0
 11
1059.7
 21
258.4
 31
0.0
  0
LINE
  8
L-ZISSEN
 10
1059.7
 20
258.4
 30
0.0
 11
1058.2
 21
258.4
 31
0.0
  0
LINE
  8
L-ZISSEN
 10
1059.7
 20
270.6
 30
0.0
 11
1058.2
 21
270.6
 31
0.0
  0
LINE
  8
L-ZISSEN
 10
1063.7
 20
269.5
 30
0.0
 11
1063.7
 21
259.5
 31
0.0
  0
LINE
  8
L-ZISSEN
 10
1063.7
 20
345.773503
 30
0.0
 11
1063.7
 21
334.226497
 31
0.0
  0
LINE
  8
L-ZISSEN
 10
1059.7
 20
346.1
 30
0.0
 11
1058.2
 21
346.1
 31
0.0
  0
LINE
  8
L-ZISSEN
 10
1059.7
 20
333.9
 30
0.0
 11
1058.2
 21
333.9
 31
0.0
  0
LINE
  8
L-ZISSEN
 10
1059.7
 20
346.1
 30
0.0
 11
1059.7
 21
333.9
 31
0.0
  0
LINE
  8
L-ZISSEN
 10
1063.7
 20
334.226497
 30
0.0
 11
1059.7
 21
334.226497
 31
0.0
  0
LINE
  8
L-ZISSEN
 10
1063.7
 20
345.773503
 30
0.0
 11
1059.7
 21
345.773503
 31
0.0
  0
LINE
  8
L-ZISSEN
 10
1063.7
 20
394.226497
 30
0.0
 11
1059.7
 21
394.226497
 31
0.0
  0
LINE
  8
L-ZISSEN
 10
1063.7
 20
405.773503
 30
0.0
 11
1059.7
 21
405.773503
 31
0.0
  0
LINE
  8
L-ZISSEN
 10
1059.7
 20
393.9
 30
0.0
 11
1059.7
 21
406.1
 31
0.0
  0
LINE
  8
L-ZISSEN
 10
1059.7
 20
406.1
 30
0.0
 11
1058.2
 21
406.1
 31
0.0
  0
LINE
  8
L-ZISSEN
 10
1059.7
 20
393.9
 30
0.0
 11
1058.2
 21
393.9
 31
0.0
  0
LINE
  8
L-ZISSEN
 10
1063.7
 20
394.226497
 30
0.0
 11
1063.7
 21
405.773503
 31
0.0
  0
LINE
  8
L-ZISSEN
 10
1222.113249
 20
50.5
 30
0.0
 11
1227.886751
 21
50.5
 31
0.0
  0
LINE
  8
L-ZISSEN
 10
1219.226497
 20
55.5
 30
0.0
 11
1222.113249
 21
50.5
 31
0.0
  0
LINE
  8
L-ZISSEN
 10
1222.113249
 20
60.5
 30
0.0
 11
1219.226497
 21
55.5
 31
0.0
  0
LINE
  8
L-ZISSEN
 10
1227.886751
 20
60.5
 30
0.0
 11
1222.113249
 21
60.5
 31
0.0
  0
LINE
  8
L-ZISSEN
 10
1230.773503
 20
55.5
 30
0.0
 11
1227.886751
 21
60.5
 31
0.0
  0
LINE
  8
L-ZISSEN
 10
1227.886751
 20
50.5
 30
0.0
 11
1230.773503
 21
55.5
 31
0.0
  0
LINE
  8
L-ZISSEN
 10
1167.886751
 20
50.5
 30
0.0
 11
1162.113249
 21
50.5
 31
0.0
  0
LINE
  8
L-ZISSEN
 10
1170.773503
 20
55.5
 30
0.0
 11
1167.886751
 21
50.5
 31
0.0
  0
LINE
  8
L-ZISSEN
 10
1167.886751
 20
60.5
 30
0.0
 11
1170.773503
 21
55.5
 31
0.0
  0
LINE
  8
L-ZISSEN
 10
1162.113249
 20
60.5
 30
0.0
 11
1167.886751
 21
60.5
 31
0.0
  0
LINE
  8
L-ZISSEN
 10
1159.226497
 20
55.5
 30
0.0
 11
1162.113249
 21
60.5
 31
0.0
  0
LINE
  8
L-ZISSEN
 10
1162.113249
 20
50.5
 30
0.0
 11
1159.226497
 21
55.5
 31
0.0
  0
LINE
  8
L-ZISSEN
 10
1063.7
 20
50.5
 30
0.0
 11
1063.7
 21
60.5
 31
0.0
  0
LINE
  8
L-ZISSEN
 10
1059.7
 20
49.4
 30
0.0
 11
1058.2
 21
49.4
 31
0.0
  0
LINE
  8
L-ZISSEN
 10
1059.7
 20
61.6
 30
0.0
 11
1058.2
 21
61.6
 31
0.0
  0
LINE
  8
L-ZISSEN
 10
1059.7
 20
49.4
 30
0.0
 11
1059.7
 21
61.6
 31
0.0
  0
LINE
  8
L-ZISSEN
 10
1063.7
 20
50.5
 30
0.0
 11
1059.7
 21
50.5
 31
0.0
  0
LINE
  8
L-ZISSEN
 10
1063.7
 20
60.5
 30
0.0
 11
1059.7
 21
60.5
 31
0.0
  0
LINE
  8
L-ZISSEN
  6
CONTINUOUS
 62
     7
 10
502.45
 20
591.05
 30
0.0
 11
502.45
 21
538.95
 31
0.0
  0
LINE
  8
L-ZISSEN
  6
CONTINUOUS
 62
     7
 10
504.0
 20
538.95
 30
0.0
 11
504.0
 21
534.0
 31
0.0
  0
LINE
  8
L-ZISSEN
  6
CONTINUOUS
 62
     7
 10
832.55
 20
591.05
 30
0.0
 11
832.55
 21
538.95
 31
0.0
  0
LINE
  8
L-ZISSEN
  6
CONTINUOUS
 62
     7
 10
831.0
 20
538.95
 30
0.0
 11
831.0
 21
534.0
 31
0.0
  0
LINE
  8
L-ZISSEN
  6
CONTINUOUS
 62
     7
 10
502.45
 20
206.05
 30
0.0
 11
502.45
 21
153.95
 31
0.0
  0
LINE
  8
L-ZISSEN
  6
CONTINUOUS
 62
     7
 10
504.0
 20
151.0
 30
0.0
 11
504.0
 21
153.95
 31
0.0
  0
LINE
  8
L-ZISSEN
  6
CONTINUOUS
 62
     7
 10
831.0
 20
149.0
 30
0.0
 11
831.0
 21
153.95
 31
0.0
  0
LINE
  8
L-ZISSEN
  6
CONTINUOUS
 62
     7
 10
832.55
 20
206.05
 30
0.0
 11
832.55
 21
153.95
 31
0.0
  0
LINE
  8
L-ZISSEN
  6
CONTINUOUS
 62
     7
 10
175.0
 20
542.5
 30
0.0
 11
175.0
 21
517.5
 31
0.0
  0
LINE
  8
L-ZISSEN
  6
CONTINUOUS
 62
     7
 10
85.0
 20
517.5
 30
0.0
 11
85.0
 21
542.5
 31
0.0
  0
LINE
  8
L-ZISSEN
  6
CONTINUOUS
 62
     7
 10
175.0
 20
542.5
 30
0.0
 11
151.5
 21
542.5
 31
0.0
  0
LINE
  8
L-ZISSEN
  6
CONTINUOUS
 62
     7
 10
85.0
 20
517.5
 30
0.0
 11
100.104348
 21
517.5
 31
0.0
  0
CIRCLE
  8
L-ZISSEN
  6
CONTINUOUS
 62
     7
 10
130.0
 20
515.0
 30
0.0
 40
26.0
  0
LINE
  8
L-ZISSEN
  6
CONTINUOUS
 62
     7
 10
159.895652
 20
517.5
 30
0.0
 11
175.0
 21
517.5
 31
0.0
  0
ARC
  8
L-ZISSEN
  6
CONTINUOUS
 62
     7
 10
130.0
 20
530.0
 30
0.0
 40
42.5
 50
48.845798
 51
82.296894
  0
ARC
  8
L-ZISSEN
  6
CONTINUOUS
 62
     7
 10
130.0
 20
574.0
 30
0.0
 40
6.0
 50
341.704345
 51
198.295655
  0
ARC
  8
L-ZISSEN
  6
CONTINUOUS
 62
     7
 10
96.0
 20
556.0
 30
0.0
 40
6.0
 50
90.0
 51
180.0
  0
LINE
  8
L-ZISSEN
  6
CONTINUOUS
 62
     7
 10
90.0
 20
556.0
 30
0.0
 11
88.701923
 21
542.5
 31
0.0
  0
LINE
  8
L-ZISSEN
  6
CONTINUOUS
 62
     7
 10
96.0
 20
562.0
 30
0.0
 11
102.031267
 21
562.0
 31
0.0
  0
LINE
  8
L-ZISSEN
  6
CONTINUOUS
 62
     7
 10
164.0
 20
562.0
 30
0.0
 11
157.968733
 21
562.0
 31
0.0
  0
ARC
  8
L-ZISSEN
  6
CONTINUOUS
 62
     7
 10
164.0
 20
556.0
 30
0.0
 40
6.0
 50
0.0
 51
90.0
  0
LINE
  8
L-ZISSEN
  6
CONTINUOUS
 62
     7
 10
170.0
 20
556.0
 30
0.0
 11
171.298077
 21
542.5
 31
0.0
  0
ARC
  8
L-ZISSEN
  6
CONTINUOUS
 62
     7
 10
130.0
 20
530.0
 30
0.0
 40
42.5
 50
97.703106
 51
131.154202
  0
ARC
  8
L-ZISSEN
  6
CONTINUOUS
 62
     7
 10
118.5
 20
552.0
 30
0.0
 40
10.0
 50
39.944505
 51
180.0
  0
LINE
  8
L-ZISSEN
  6
CONTINUOUS
 62
     7
 10
108.5
 20
552.0
 30
0.0
 11
108.5
 21
542.5
 31
0.0
  0
LINE
  8
L-ZISSEN
  6
CONTINUOUS
 62
     7
 10
108.5
 20
542.5
 30
0.0
 11
115.503596
 21
541.265077
 31
0.0
  0
LINE
  8
L-ZISSEN
  6
CONTINUOUS
 62
     7
 10
151.5
 20
542.5
 30
0.0
 11
144.496404
 21
541.265077
 31
0.0
  0
LINE
  8
L-ZISSEN
  6
CONTINUOUS
 62
     7
 10
151.5
 20
552.0
 30
0.0
 11
151.5
 21
542.5
 31
0.0
  0
ARC
  8
L-ZISSEN
  6
CONTINUOUS
 62
     7
 10
141.5
 20
552.0
 30
0.0
 40
10.0
 50
0.0
 51
140.055495
  0
ARC
  8
L-ZISSEN
  6
CONTINUOUS
 62
     7
 10
130.0
 20
561.63068
 30
0.0
 40
5.0
 50
219.944505
 51
320.055495
  0
LINE
  8
L-ZISSEN
  6
CONTINUOUS
 62
     7
 10
108.5
 20
542.5
 30
0.0
 11
85.0
 21
542.5
 31
0.0
  0
ARC
  8
L-ZISSEN
  6
CONTINUOUS
 62
     7
 10
110.0
 20
530.0
 30
0.0
 40
8.0
 50
84.966797
 51
201.293407
  0
CIRCLE
  8
L-ZISSEN
  6
CONTINUOUS
 62
     7
 10
130.0
 20
574.0
 30
0.0
 40
5.25
  0
CIRCLE
  8
L-ZISSEN
  6
CONTINUOUS
 62
     7
 10
164.0
 20
556.0
 30
0.0
 40
5.25
  0
CIRCLE
  8
L-ZISSEN
  6
CONTINUOUS
 62
     7
 10
96.0
 20
556.0
 30
0.0
 40
5.25
  0
CIRCLE
  8
L-ZISSEN
  6
CONTINUOUS
 62
     7
 10
96.0
 20
504.0
 30
0.0
 40
5.25
  0
LINE
  8
L-ZISSEN
  6
CONTINUOUS
 62
     7
 10
96.0
 20
498.0
 30
0.0
 11
102.031267
 21
498.0
 31
0.0
  0
LINE
  8
L-ZISSEN
  6
CONTINUOUS
 62
     7
 10
90.0
 20
504.0
 30
0.0
 11
88.701923
 21
517.5
 31
0.0
  0
ARC
  8
L-ZISSEN
  6
CONTINUOUS
 62
     7
 10
96.0
 20
504.0
 30
0.0
 40
6.0
 50
180.0
 51
270.0
  0
ARC
  8
L-ZISSEN
  6
CONTINUOUS
 62
     7
 10
130.0
 20
530.0
 30
0.0
 40
42.5
 50
228.845798
 51
242.530301
  0
ARC
  8
L-ZISSEN
  6
CONTINUOUS
 62
     7
 10
130.0
 20
486.0
 30
0.0
 40
5.25
 50
185.925949
 51
354.074051
  0
ARC
  8
L-ZISSEN
  6
CONTINUOUS
 62
     7
 10
130.0
 20
486.0
 30
0.0
 40
6.0
 50
183.789552
 51
356.210448
  0
CIRCLE
  8
L-ZISSEN
  6
CONTINUOUS
 62
     7
 10
164.0
 20
504.0
 30
0.0
 40
5.25
  0
LINE
  8
L-ZISSEN
  6
CONTINUOUS
 62
     7
 10
170.0
 20
504.0
 30
0.0
 11
171.298077
 21
517.5
 31
0.0
  0
ARC
  8
L-ZISSEN
  6
CONTINUOUS
 62
     7
 10
164.0
 20
504.0
 30
0.0
 40
6.0
 50
270.0
 51
0.0
  0
LINE
  8
L-ZISSEN
  6
CONTINUOUS
 62
     7
 10
164.0
 20
498.0
 30
0.0
 11
157.968733
 21
498.0
 31
0.0
  0
ARC
  8
L-ZISSEN
  6
CONTINUOUS
 62
     7
 10
130.0
 20
530.0
 30
0.0
 40
42.5
 50
297.469699
 51
311.154202
  0
CIRCLE
  8
L-ZISSEN
  6
CONTINUOUS
 62
     7
 10
118.5
 20
552.0
 30
0.0
 40
4.864
  0
CIRCLE
  8
L-ZISSEN
  6
CONTINUOUS
 62
     7
 10
141.5
 20
552.0
 30
0.0
 40
4.864
  0
LINE
  8
L-ZISSEN
  6
CONTINUOUS
 62
     7
 10
107.5
 20
379.0
 30
0.0
 11
107.5
 21
345.0
 31
0.0
  0
LINE
  8
L-ZISSEN
  6
CONTINUOUS
 62
     7
 10
152.5
 20
379.0
 30
0.0
 11
152.5
 21
345.0
 31
0.0
  0
LINE
  8
L-TYUSIN
  6
CENTER
 62
     1
 10
80.0
 20
352.0
 30
0.0
 11
180.0
 21
352.0
 31
0.0
  0
LINE
  8
L-ZISSEN
  6
CONTINUOUS
 62
     7
 10
100.0
 20
379.0
 30
0.0
 11
160.0
 21
379.0
 31
0.0
  0
LINE
  8
L-ZISSEN
  6
CONTINUOUS
 62
     7
 10
175.0
 20
364.5
 30
0.0
 11
175.0
 21
348.0
 31
0.0
  0
LINE
  8
L-ZISSEN
  6
CONTINUOUS
 62
     7
 10
85.0
 20
364.5
 30
0.0
 11
85.0
 21
348.0
 31
0.0
  0
LINE
  8
L-ZISSEN
  6
CONTINUOUS
 62
     7
 10
173.030345
 20
345.0
 30
0.0
 11
86.969655
 21
345.0
 31
0.0
  0
LINE
  8
L-ZISSEN
  6
CONTINUOUS
 62
     7
 10
175.0
 20
364.5
 30
0.0
 11
152.5
 21
364.5
 31
0.0
  0
LINE
  8
L-ZISSEN
  6
CONTINUOUS
 62
     7
 10
107.5
 20
364.5
 30
0.0
 11
85.0
 21
364.5
 31
0.0
  0
LINE
  8
L-ZISSEN
  6
CONTINUOUS
 62
     7
 10
102.0
 20
379.0
 30
0.0
 11
102.0
 21
364.5
 31
0.0
  0
LINE
  8
L-ZISSEN
  6
CONTINUOUS
 62
     7
 10
156.0
 20
408.0
 30
0.0
 11
104.0
 21
408.0
 31
0.0
  0
LINE
  8
L-ZISSEN
  6
CONTINUOUS
 62
     7
 10
104.0
 20
393.0
 30
0.0
 11
156.0
 21
393.0
 31
0.0
  0
LINE
  8
L-ZISSEN
  6
CONTINUOUS
 62
     7
 10
156.0
 20
393.0
 30
0.0
 11
156.0
 21
408.0
 31
0.0
  0
LINE
  8
L-ZISSEN
  6
CONTINUOUS
 62
     7
 10
109.0
 20
390.5
 30
0.0
 11
151.0
 21
390.5
 31
0.0
  0
LINE
  8
L-ZISSEN
  6
CONTINUOUS
 62
     7
 10
109.0
 20
388.0
 30
0.0
 11
109.0
 21
390.5
 31
0.0
  0
LINE
  8
L-ZISSEN
  6
CONTINUOUS
 62
     7
 10
151.0
 20
388.0
 30
0.0
 11
151.0
 21
390.5
 31
0.0
  0
LINE
  8
L-ZISSEN
  6
CONTINUOUS
 62
     7
 10
100.0
 20
388.0
 30
0.0
 11
160.0
 21
388.0
 31
0.0
  0
LINE
  8
L-ZISSEN
  6
CONTINUOUS
 62
     7
 10
100.0
 20
379.0
 30
0.0
 11
100.0
 21
388.0
 31
0.0
  0
LINE
  8
L-ZISSEN
  6
CONTINUOUS
 62
     7
 10
160.0
 20
379.0
 30
0.0
 11
160.0
 21
388.0
 31
0.0
  0
CIRCLE
  8
L-ZISSEN
  6
CONTINUOUS
 62
     7
 10
130.0
 20
515.0
 30
0.0
 40
30.0
  0
LINE
  8
L-ZISSEN
  6
CONTINUOUS
 62
     7
 10
101.25
 20
350.4
 30
0.0
 11
101.25
 21
345.0
 31
0.0
  0
LINE
  8
L-ZISSEN
  6
CONTINUOUS
 62
     7
 10
384.5
 20
345.0
 30
0.0
 11
352.5
 21
345.0
 31
0.0
  0
LINE
  8
L-TYUSIN
  6
CENTER
 62
     1
 10
325.0
 20
352.0
 30
0.0
 11
355.0
 21
352.0
 31
0.0
  0
LINE
  8
L-ZISSEN
  6
CONTINUOUS
 62
     7
 10
347.5
 20
379.0
 30
0.0
 11
347.5
 21
362.10363
 31
0.0
  0
LINE
  8
L-ZISSEN
  6
CONTINUOUS
 62
     7
 10
302.5
 20
379.0
 30
0.0
 11
302.5
 21
345.0
 31
0.0
  0
ARC
  8
L-ZISSEN
  6
CONTINUOUS
 62
     7
 10
340.0
 20
352.0
 30
0.0
 40
12.5
 50
60.0
 51
120.0
  0
LINE
  8
L-ZISSEN
  6
CONTINUOUS
 62
     7
 10
327.5
 20
359.216878
 30
0.0
 11
327.5
 21
335.0
 31
0.0
  0
LINE
  8
L-ZISSEN
  6
CONTINUOUS
 62
     7
 10
352.5
 20
359.216878
 30
0.0
 11
352.5
 21
335.0
 31
0.0
  0
LINE
  8
L-ZISSEN
  6
CONTINUOUS
 62
     7
 10
333.75
 20
362.825318
 30
0.0
 11
327.5
 21
359.216878
 31
0.0
  0
LINE
  8
L-ZISSEN
  6
CONTINUOUS
 62
     7
 10
346.25
 20
362.825318
 30
0.0
 11
352.5
 21
359.216878
 31
0.0
  0
LINE
  8
L-ZISSEN
  6
CONTINUOUS
 62
     7
 10
352.5
 20
352.0
 30
0.0
 11
372.0
 21
352.0
 31
0.0
  0
LINE
  8
L-ZISSEN
  6
CONTINUOUS
 62
     7
 10
372.0
 20
352.0
 30
0.0
 11
372.0
 21
345.0
 31
0.0
  0
LINE
  8
L-ZISSEN
  6
CONTINUOUS
 62
     7
 10
327.5
 20
345.0
 30
0.0
 11
295.5
 21
345.0
 31
0.0
  0
CIRCLE
  8
L-ZISSEN
  6
CONTINUOUS
 62
     7
 10
340.0
 20
352.0
 30
0.0
 40
5.7225
  0
LINE
  8
L-ZISSEN
  6
CONTINUOUS
 62
     7
 10
104.0
 20
393.0
 30
0.0
 11
104.0
 21
408.0
 31
0.0
  0
LINE
  8
L-ZISSEN
 10
90.75
 20
350.4
 30
0.0
 11
101.25
 21
350.4
 31
0.0
  0
LINE
  8
L-ZISSEN
  6
CONTINUOUS
 62
     7
 10
90.75
 20
350.4
 30
0.0
 11
90.75
 21
345.0
 31
0.0
  0
LINE
  8
L-ZISSEN
 10
124.75
 20
350.4
 30
0.0
 11
135.25
 21
350.4
 31
0.0
  0
LINE
  8
L-ZISSEN
  6
CONTINUOUS
 62
     7
 10
124.75
 20
350.4
 30
0.0
 11
124.75
 21
345.0
 31
0.0
  0
LINE
  8
L-ZISSEN
  6
CONTINUOUS
 62
     7
 10
135.25
 20
350.4
 30
0.0
 11
135.25
 21
345.0
 31
0.0
  0
LINE
  8
L-ZISSEN
  6
CONTINUOUS
 62
     7
 10
169.25
 20
350.4
 30
0.0
 11
169.25
 21
345.0
 31
0.0
  0
LINE
  8
L-ZISSEN
  6
CONTINUOUS
 62
     7
 10
158.75
 20
350.4
 30
0.0
 11
158.75
 21
345.0
 31
0.0
  0
LINE
  8
L-ZISSEN
 10
158.75
 20
350.4
 30
0.0
 11
169.25
 21
350.4
 31
0.0
  0
LINE
  8
L-ZISSEN
 10
110.0
 20
393.0
 30
0.0
 11
110.0
 21
390.5
 31
0.0
  0
LINE
  8
L-ZISSEN
 10
150.0
 20
393.0
 30
0.0
 11
150.0
 21
390.5
 31
0.0
  0
LINE
  8
L-ZISSEN
 10
345.0
 20
393.0
 30
0.0
 11
345.0
 21
390.5
 31
0.0
  0
LINE
  8
L-ZISSEN
 10
305.0
 20
393.0
 30
0.0
 11
305.0
 21
390.5
 31
0.0
  0
LINE
  8
L-ZISSEN
  6
CONTINUOUS
 62
     7
 10
299.0
 20
393.0
 30
0.0
 11
299.0
 21
408.0
 31
0.0
  0
LINE
  8
L-ZISSEN
  6
CONTINUOUS
 62
     7
 10
355.0
 20
379.0
 30
0.0
 11
355.0
 21
388.0
 31
0.0
  0
LINE
  8
L-ZISSEN
  6
CONTINUOUS
 62
     7
 10
295.0
 20
379.0
 30
0.0
 11
295.0
 21
388.0
 31
0.0
  0
LINE
  8
L-ZISSEN
  6
CONTINUOUS
 62
     7
 10
295.0
 20
388.0
 30
0.0
 11
355.0
 21
388.0
 31
0.0
  0
LINE
  8
L-ZISSEN
  6
CONTINUOUS
 62
     7
 10
346.0
 20
388.0
 30
0.0
 11
346.0
 21
390.5
 31
0.0
  0
LINE
  8
L-ZISSEN
  6
CONTINUOUS
 62
     7
 10
304.0
 20
388.0
 30
0.0
 11
304.0
 21
390.5
 31
0.0
  0
LINE
  8
L-ZISSEN
  6
CONTINUOUS
 62
     7
 10
304.0
 20
390.5
 30
0.0
 11
346.0
 21
390.5
 31
0.0
  0
LINE
  8
L-ZISSEN
  6
CONTINUOUS
 62
     7
 10
351.0
 20
393.0
 30
0.0
 11
351.0
 21
408.0
 31
0.0
  0
LINE
  8
L-ZISSEN
  6
CONTINUOUS
 62
     7
 10
299.0
 20
393.0
 30
0.0
 11
351.0
 21
393.0
 31
0.0
  0
LINE
  8
L-ZISSEN
  6
CONTINUOUS
 62
     7
 10
351.0
 20
408.0
 30
0.0
 11
299.0
 21
408.0
 31
0.0
  0
LINE
  8
L-ZISSEN
  6
CONTINUOUS
 62
     7
 10
295.0
 20
379.0
 30
0.0
 11
355.0
 21
379.0
 31
0.0
  0
LINE
  8
L-ZISSEN
 10
292.0
 20
350.4
 30
0.0
 11
301.25
 21
350.4
 31
0.0
  0
LINE
  8
L-ZISSEN
  6
CONTINUOUS
 62
     7
 10
301.25
 20
350.4
 30
0.0
 11
301.25
 21
345.0
 31
0.0
  0
LINE
  8
L-ZISSEN
  6
CONTINUOUS
 62
     7
 10
319.25
 20
350.4
 30
0.0
 11
319.25
 21
345.0
 31
0.0
  0
LINE
  8
L-ZISSEN
  6
CONTINUOUS
 62
     7
 10
308.75
 20
350.4
 30
0.0
 11
308.75
 21
345.0
 31
0.0
  0
LINE
  8
L-ZISSEN
 10
308.75
 20
350.4
 30
0.0
 11
319.25
 21
350.4
 31
0.0
  0
LINE
  8
L-ZISSEN
 10
371.25
 20
350.4
 30
0.0
 11
360.75
 21
350.4
 31
0.0
  0
LINE
  8
L-ZISSEN
  6
CONTINUOUS
 62
     7
 10
371.25
 20
350.4
 30
0.0
 11
371.25
 21
345.0
 31
0.0
  0
LINE
  8
L-ZISSEN
  6
CONTINUOUS
 62
     7
 10
360.75
 20
350.4
 30
0.0
 11
360.75
 21
345.0
 31
0.0
  0
LINE
  8
L-ZISSEN
  6
CONTINUOUS
 62
     7
 10
378.75
 20
350.4
 30
0.0
 11
378.75
 21
345.0
 31
0.0
  0
LINE
  8
L-ZISSEN
 10
384.5
 20
350.4
 30
0.0
 11
378.75
 21
350.4
 31
0.0
  0
SOLID
  8
L-ZISSEN
 10
83.030404
 20
529.518543
 30
0.0
 11
83.293016
 21
528.90578
 31
0.0
 12
85.0
 22
530.0
 32
0.0
 13
85.0
 23
530.0
 33
0.0
  0
LINE
  8
L-ZISSEN
 10
83.16171
 20
529.212161
 30
0.0
 11
50.0
 21
515.0
 31
0.0
  0
LINE
  8
L-ZISSEN
 10
50.0
 20
515.0
 30
0.0
 11
48.0
 21
515.0
 31
0.0
  0
TEXT
  8
L-ZISSEN
 10
40.0
 20
512.75
 30
0.0
 40
4.5
  1
IN
  0
TEXT
  8
L-ZISSEN
 10
25.0
 20
505.0
 30
0.0
 40
4.5
  1
Rc 1/4
  0
SOLID
  8
L-ZISSEN
 10
128.892977
 20
528.301292
 30
0.0
 11
129.503748
 21
528.034079
 31
0.0
 12
130.0
 22
530.0
 32
0.0
 13
130.0
 23
530.0
 33
0.0
  0
LINE
  8
L-ZISSEN
 10
129.198362
 20
528.167685
 30
0.0
 11
95.0
 21
450.0
 31
0.0
  0
LINE
  8
L-ZISSEN
 10
95.0
 20
450.0
 30
0.0
 11
93.0
 21
450.0
 31
0.0
  0
TEXT
  8
L-ZISSEN
 10
82.0
 20
447.75
 30
0.0
 40
4.5
  1
P.P
  0
SOLID
  8
L-ZISSEN
 10
986.234671
 20
292.391678
 30
0.0
 11
986.68955
 21
292.879049
 31
0.0
 12
985.0
 22
294.0
 32
0.0
 13
985.0
 23
294.0
 33
0.0
  0
LINE
  8
L-ZISSEN
 10
986.462111
 20
292.635363
 30
0.0
 11
1000.0
 21
280.0
 31
0.0
  0
LINE
  8
L-ZISSEN
 10
1000.0
 20
280.0
 30
0.0
 11
1002.0
 21
280.0
 31
0.0
  0
TEXT
  8
L-ZISSEN
 10
1004.0
 20
277.75
 30
0.0
 40
4.5
  1
P.P
  0
SOLID
  8
L-ZISSEN
 10
1196.234671
 20
292.391678
 30
0.0
 11
1196.68955
 21
292.879049
 31
0.0
 12
1195.0
 22
294.0
 32
0.0
 13
1195.0
 23
294.0
 33
0.0
  0
LINE
  8
L-ZISSEN
 10
1196.462111
 20
292.635363
 30
0.0
 11
1210.0
 21
280.0
 31
0.0
  0
LINE
  8
L-ZISSEN
 10
1210.0
 20
280.0
 30
0.0
 11
1212.0
 21
280.0
 31
0.0
  0
TEXT
  8
L-ZISSEN
 10
1214.0
 20
277.75
 30
0.0
 40
4.5
  1
P.P
  0
SOLID
  8
L-ZISSEN
 10
341.709577
 20
353.090165
 30
0.0
 11
341.2636
 21
353.585694
 31
0.0
 12
340.0
 22
352.0
 32
0.0
 13
340.0
 23
352.0
 33
0.0
  0
LINE
  8
L-ZISSEN
 10
341.486588
 20
353.337929
 30
0.0
 11
360.0
 21
370.0
 31
0.0
  0
LINE
  8
L-ZISSEN
 10
360.0
 20
370.0
 30
0.0
 11
362.0
 21
370.0
 31
0.0
  0
TEXT
  8
L-ZISSEN
 10
364.0
 20
367.75
 30
0.0
 40
4.5
  1
P.P
  0
SOLID
  8
L-ZISSEN
 10
497.559514
 20
479.295773
 30
0.0
 11
497.054965
 21
479.731519
 31
0.0
 12
496.0
 22
478.0
 32
0.0
 13
496.0
 23
478.0
 33
0.0
  0
LINE
  8
L-ZISSEN
 10
497.30724
 20
479.513646
 30
0.0
 11
515.0
 21
500.0
 31
0.0
  0
LINE
  8
L-ZISSEN
 10
515.0
 20
500.0
 30
0.0
 11
517.0
 21
500.0
 31
0.0
  0
TEXT
  8
L-ZISSEN
 10
519.0
 20
497.75
 30
0.0
 40
4.5
  1
P.P
  0
SOLID
  8
L-ZISSEN
 10
609.67875
 20
479.387231
 30
0.0
 11
609.148905
 21
479.79184
 31
0.0
 12
608.2
 22
478.0
 32
0.0
 13
608.2
 23
478.0
 33
0.0
  0
LINE
  8
L-ZISSEN
 10
609.413827
 20
479.589536
 30
0.0
 11
625.0
 21
500.0
 31
0.0
  0
LINE
  8
L-ZISSEN
 10
625.0
 20
500.0
 30
0.0
 11
627.0
 21
500.0
 31
0.0
  0
TEXT
  8
L-ZISSEN
 10
629.0
 20
497.75
 30
0.0
 40
4.5
  1
P.P
  0
SOLID
  8
L-ZISSEN
 10
497.619165
 20
616.220416
 30
0.0
 11
497.135832
 21
616.679582
 31
0.0
 12
496.0
 22
615.0
 32
0.0
 13
496.0
 23
615.0
 33
0.0
  0
LINE
  8
L-ZISSEN
 10
497.377499
 20
616.449999
 30
0.0
 11
515.0
 21
635.0
 31
0.0
  0
LINE
  8
L-ZISSEN
 10
515.0
 20
635.0
 30
0.0
 11
517.0
 21
635.0
 31
0.0
  0
TEXT
  8
L-ZISSEN
 10
519.0
 20
632.75
 30
0.0
 40
4.5
  1
P.P
  0
SOLID
  8
L-ZISSEN
 10
837.731782
 20
479.582003
 30
0.0
 11
837.287252
 21
479.085176
 31
0.0
 12
839.0
 22
478.0
 32
0.0
 13
839.0
 23
478.0
 33
0.0
  0
LINE
  8
L-ZISSEN
 10
837.509517
 20
479.33359
 30
0.0
 11
820.0
 21
495.0
 31
0.0
  0
LINE
  8
L-ZISSEN
 10
820.0
 20
495.0
 30
0.0
 11
818.0
 21
495.0
 31
0.0
  0
TEXT
  8
L-ZISSEN
 10
807.0
 20
492.75
 30
0.0
 40
4.5
  1
P.P
  0
SOLID
  8
L-ZISSEN
 10
854.842914
 20
479.188253
 30
0.0
 11
854.368728
 21
479.65686
 31
0.0
 12
853.2
 22
478.0
 32
0.0
 13
853.2
 23
478.0
 33
0.0
  0
LINE
  8
L-ZISSEN
 10
854.605821
 20
479.422557
 30
0.0
 11
870.0
 21
495.0
 31
0.0
  0
LINE
  8
L-ZISSEN
 10
870.0
 20
495.0
 30
0.0
 11
872.0
 21
495.0
 31
0.0
  0
TEXT
  8
L-ZISSEN
 10
874.0
 20
492.75
 30
0.0
 40
4.5
  1
P.P
  0
SOLID
  8
L-ZISSEN
 10
837.864168
 20
616.679582
 30
0.0
 11
837.380835
 21
616.220416
 31
0.0
 12
839.0
 22
615.0
 32
0.0
 13
839.0
 23
615.0
 33
0.0
  0
LINE
  8
L-ZISSEN
 10
837.622501
 20
616.449999
 30
0.0
 11
820.0
 21
635.0
 31
0.0
  0
LINE
  8
L-ZISSEN
 10
820.0
 20
635.0
 30
0.0
 11
818.0
 21
635.0
 31
0.0
  0
TEXT
  8
L-ZISSEN
 10
807.0
 20
632.75
 30
0.0
 40
4.5
  1
P.P
  0
SOLID
  8
L-ZISSEN
 10
131.40987
 20
353.457181
 30
0.0
 11
130.861062
 21
353.83567
 31
0.0
 12
130.0
 22
352.0
 32
0.0
 13
130.0
 23
352.0
 33
0.0
  0
LINE
  8
L-ZISSEN
 10
131.135466
 20
353.646426
 30
0.0
 11
170.0
 21
410.0
 31
0.0
  0
LINE
  8
L-ZISSEN
 10
170.0
 20
410.0
 30
0.0
 11
172.0
 21
410.0
 31
0.0
  0
TEXT
  8
L-ZISSEN
 10
174.0
 20
407.75
 30
0.0
 40
4.5
  1
P.P
  0
SOLID
  8
L-ZISSEN
 10
497.712748
 20
94.085176
 30
0.0
 11
497.268218
 21
94.582003
 31
0.0
 12
496.0
 22
93.0
 32
0.0
 13
496.0
 23
93.0
 33
0.0
  0
LINE
  8
L-ZISSEN
 10
497.490483
 20
94.33359
 30
0.0
 11
515.0
 21
110.0
 31
0.0
  0
LINE
  8
L-ZISSEN
 10
515.0
 20
110.0
 30
0.0
 11
517.0
 21
110.0
 31
0.0
  0
TEXT
  8
L-ZISSEN
 10
519.0
 20
107.75
 30
0.0
 40
4.5
  1
P.P
  0
SOLID
  8
L-ZISSEN
 10
609.842914
 20
94.188253
 30
0.0
 11
609.368728
 21
94.65686
 31
0.0
 12
608.2
 22
93.0
 32
0.0
 13
608.2
 23
93.0
 33
0.0
  0
LINE
  8
L-ZISSEN
 10
609.605821
 20
94.422557
 30
0.0
 11
625.0
 21
110.0
 31
0.0
  0
LINE
  8
L-ZISSEN
 10
625.0
 20
110.0
 30
0.0
 11
627.0
 21
110.0
 31
0.0
  0
TEXT
  8
L-ZISSEN
 10
629.0
 20
107.75
 30
0.0
 40
4.5
  1
P.P
  0
SOLID
  8
L-ZISSEN
 10
497.619165
 20
286.220416
 30
0.0
 11
497.135832
 21
286.679582
 31
0.0
 12
496.0
 22
285.0
 32
0.0
 13
496.0
 23
285.0
 33
0.0
  0
LINE
  8
L-ZISSEN
 10
497.377499
 20
286.449999
 30
0.0
 11
515.0
 21
305.0
 31
0.0
  0
LINE
  8
L-ZISSEN
 10
515.0
 20
305.0
 30
0.0
 11
517.0
 21
305.0
 31
0.0
  0
TEXT
  8
L-ZISSEN
 10
519.0
 20
302.75
 30
0.0
 40
4.5
  1
P.P
  0
SOLID
  8
L-ZISSEN
 10
837.731782
 20
94.582003
 30
0.0
 11
837.287252
 21
94.085176
 31
0.0
 12
839.0
 22
93.0
 32
0.0
 13
839.0
 23
93.0
 33
0.0
  0
LINE
  8
L-ZISSEN
 10
837.509517
 20
94.33359
 30
0.0
 11
820.0
 21
110.0
 31
0.0
  0
LINE
  8
L-ZISSEN
 10
820.0
 20
110.0
 30
0.0
 11
818.0
 21
110.0
 31
0.0
  0
TEXT
  8
L-ZISSEN
 10
807.0
 20
107.75
 30
0.0
 40
4.5
  1
P.P
  0
SOLID
  8
L-ZISSEN
 10
854.842914
 20
94.188253
 30
0.0
 11
854.368728
 21
94.65686
 31
0.0
 12
853.2
 22
93.0
 32
0.0
 13
853.2
 23
93.0
 33
0.0
  0
LINE
  8
L-ZISSEN
 10
854.605821
 20
94.422557
 30
0.0
 11
870.0
 21
110.0
 31
0.0
  0
LINE
  8
L-ZISSEN
 10
870.0
 20
110.0
 30
0.0
 11
872.0
 21
110.0
 31
0.0
  0
TEXT
  8
L-ZISSEN
 10
874.0
 20
107.75
 30
0.0
 40
4.5
  1
P.P
  0
SOLID
  8
L-ZISSEN
 10
837.864168
 20
286.679582
 30
0.0
 11
837.380835
 21
286.220416
 31
0.0
 12
839.0
 22
285.0
 32
0.0
 13
839.0
 23
285.0
 33
0.0
  0
LINE
  8
L-ZISSEN
 10
837.622501
 20
286.449999
 30
0.0
 11
820.0
 21
305.0
 31
0.0
  0
LINE
  8
L-ZISSEN
 10
820.0
 20
305.0
 30
0.0
 11
818.0
 21
305.0
 31
0.0
  0
TEXT
  8
L-ZISSEN
 10
807.0
 20
302.75
 30
0.0
 40
4.5
  1
P.P
  0
LINE
  8
L-ZISSEN
 10
831.0
 20
696.8
 30
0.0
 11
769.0
 21
696.8
 31
0.0
  0
LINE
  8
L-ZISSEN
  6
CONTINUOUS
 62
     7
 10
831.0
 20
700.0
 30
0.0
 11
831.0
 21
696.8
 31
0.0
  0
LINE
  8
L-ZISSEN
  6
CONTINUOUS
 62
     7
 10
504.0
 20
700.0
 30
0.0
 11
504.0
 21
696.8
 31
0.0
  0
LINE
  8
L-ZISSEN
 10
566.0
 20
696.8
 30
0.0
 11
504.0
 21
696.8
 31
0.0
  0
LINE
  8
L-ZISSEN
 10
831.0
 20
366.8
 30
0.0
 11
769.0
 21
366.8
 31
0.0
  0
LINE
  8
L-ZISSEN
  6
CONTINUOUS
 62
     7
 10
831.0
 20
366.8
 30
0.0
 11
831.0
 21
370.0
 31
0.0
  0
LINE
  8
L-ZISSEN
  6
CONTINUOUS
 62
     7
 10
504.0
 20
366.8
 30
0.0
 11
504.0
 21
370.0
 31
0.0
  0
LINE
  8
L-ZISSEN
 10
566.0
 20
366.8
 30
0.0
 11
504.0
 21
366.8
 31
0.0
  0
TEXT
  8
L-ZISSEN
 10
152.584225
 20
644.743029
 30
0.0
 40
4.5
  1
(S)
  0
ENDSEC
  0
EOF
