  0
SECTION
  2
HEADER
  9
$ACADVER
  1
AC1006
  9
$INSBASE
 10
0.0
 20
0.0
 30
0.0
  9
$EXTMIN
 10
25.0
 20
29.0
  9
$EXTMAX
 10
1290.0
 20
750.0
  9
$LIMMIN
 10
0.0
 20
0.0
  9
$LIMMAX
 10
1189.0
 20
841.0
  9
$ORTHOMODE
 70
     0
  9
$REGENMODE
 70
     1
  9
$FILLMODE
 70
     1
  9
$QTEXTMODE
 70
     0
  9
$MIRRTEXT
 70
     1
  9
$DRAGMODE
 70
     2
  9
$LTSCALE
 40
1.0
  9
$OSMODE
 70
     0
  9
$ATTMODE
 70
     1
  9
$TEXTSIZE
 40
4.5
  9
$TRACEWID
 40
0.05
  9
$TEXTSTYLE
  7
STANDARD
  9
$CLAYER
  8
L-ZISSEN
  9
$CELTYPE
  6
BYLAYER
  9
$CECOLOR
 62
   256
  9
$DIMSCALE
 40
1.0
  9
$DIMASZ
 40
2.0
  9
$DIMEXO
 40
1.0
  9
$DIMDLI
 40
0.38
  9
$DIMRND
 40
0.0
  9
$DIMDLE
 40
1.0
  9
$DIMEXE
 40
1.0
  9
$DIMTP
 40
0.0
  9
$DIMTM
 40
0.0
  9
$DIMTXT
 40
4.5
  9
$DIMCEN
 40
0.09
  9
$DIMTSZ
 40
0.0
  9
$DIMTOL
 70
     0
  9
$DIMLIM
 70
     0
  9
$DIMTIH
 70
     0
  9
$DIMTOH
 70
     0
  9
$DIMSE1
 70
     0
  9
$DIMSE2
 70
     0
  9
$DIMTAD
 70
     1
  9
$DIMZIN
 70
     0
  9
$DIMBLK
  1

  9
$DIMASO
 70
     0
  9
$DIMSHO
 70
     0
  9
$DIMPOST
  1

  9
$DIMAPOST
  1

  9
$DIMALT
 70
     0
  9
$DIMALTD
 70
     2
  9
$DIMALTF
 40
25.4
  9
$DIMLFAC
 40
1.0
  9
$DIMTOFL
 70
     1
  9
$DIMTVP
 40
0.0
  9
$DIMTIX
 70
     1
  9
$DIMSOXD
 70
     0
  9
$DIMSAH
 70
     0
  9
$DIMBLK1
  1

  9
$DIMBLK2
  1

  9
$LUNITS
 70
     2
  9
$LUPREC
 70
     4
  9
$AXISMODE
 70
     0
  9
$AXISUNIT
 10
0.0
 20
0.0
  9
$SKETCHINC
 40
0.1
  9
$FILLETRAD
 40
33.0
  9
$AUNITS
 70
     0
  9
$AUPREC
 70
     0
  9
$MENU
  1
acad
  9
$ELEVATION
 40
0.0
  9
$THICKNESS
 40
0.0
  9
$LIMCHECK
 70
     0
  9
$BLIPMODE
 70
     1
  9
$CHAMFERA
 40
2.0
  9
$CHAMFERB
 40
2.0
  9
$SKPOLY
 70
     0
  9
$TDCREATE
 40
2449653.8005790510
  9
$TDUPDATE
 40
2449653.8005790510
  9
$TDINDWG
 40
0.0000000000
  9
$TDUSRTIMER
 40
0.0000000000
  9
$USRTIMER
 70
     1
  9
$ANGBASE
 50
0.0
  9
$ANGDIR
 70
     0
  9
$PDMODE
 70
     0
  9
$PDSIZE
 40
0.0
  9
$PLINEWID
 40
0.0
  9
$COORDS
 70
     2
  9
$SPLFRAME
 70
     0
  9
$SPLINETYPE
 70
     6
  9
$SPLINESEGS
 70
     8
  9
$ATTDIA
 70
     0
  9
$ATTREQ
 70
     1
  9
$HANDLING
 70
     0
  9
$HANDSEED
  5
0
  9
$SURFTAB1
 70
     6
  9
$SURFTAB2
 70
     6
  9
$SURFTYPE
 70
     6
  9
$SURFU
 70
     6
  9
$SURFV
 70
     6
  9
$FLATLAND
 70
     0
  9
$UCSNAME
  2

  9
$UCSORG
 10
0.0
 20
0.0
 30
0.0
  9
$UCSXDIR
 10
1.0
 20
0.0
 30
0.0
  9
$UCSYDIR
 10
0.0
 20
1.0
 30
0.0
  9
$USERI1
 70
     0
  9
$USERI2
 70
     0
  9
$USERI3
 70
     0
  9
$USERI4
 70
     0
  9
$USERI5
 70
     0
  9
$USERR1
 40
0.0
  9
$USERR2
 40
0.0
  9
$USERR3
 40
0.0
  9
$USERR4
 40
0.0
  9
$USERR5
 40
0.0
  9
$WORLDVIEW
 70
     1
  0
ENDSEC
  0
SECTION
  2
TABLES
  0
TABLE
  2
VPORT
 70
     2
  0
VPORT
  2
*ACTIVE
 70
     0
 10
0.0
 20
0.0
 11
1.0
 21
1.0
 12
663.125133
 22
431.780873
 13
0.0
 23
0.0
 14
5.0
 24
5.0
 15
0.0
 25
0.0
 16
0.0
 26
0.0
 36
1.0
 17
0.0
 27
0.0
 37
0.0
 40
851.501424
 41
1.5487
 42
50.0
 43
0.0
 44
0.0
 50
0.0
 51
0.0
 71
     0
 72
   100
 73
     1
 74
     0
 75
     0
 76
     0
 77
     0
 78
     0
  0
ENDTAB
  0
TABLE
  2
LTYPE
 70
     2
  0
LTYPE
  2
CONTINUOUS
 70
    64
  3
Solid line
 72
    65
 73
     0
 40
0.0
  0
LTYPE
  2
CENTER
 70
    64
  3
____ _ ____ _ ____ _ ____ _ 
 72
    65
 73
     4
 40
60.0
 49
45.0
 49
-5.0
 49
5.0
 49
-5.0
  0
ENDTAB
  0
TABLE
  2
LAYER
 70
     3
  0
LAYER
  2
0
 70
     0
 62
     7
  6
CONTINUOUS
  0
LAYER
  2
L-ZISSEN
 70
    64
 62
     7
  6
CONTINUOUS
  0
LAYER
  2
L-TYUSIN
 70
    64
 62
     1
  6
CENTER
  0
ENDTAB
  0
TABLE
  2
STYLE
 70
     1
  0
STYLE
  2
STANDARD
 70
    64
 40
0.0
 41
1.0
 50
0.0
 71
     0
 42
4.5
  3
TXT
  4

  0
ENDTAB
  0
TABLE
  2
VIEW
 70
     0
  0
ENDTAB
  0
TABLE
  2
UCS
 70
     0
  0
ENDTAB
  0
TABLE
  2
DWGMGR
 70
     0
  0
ENDTAB
  0
ENDSEC
  0
SECTION
  2
BLOCKS
  0
ENDSEC
  0
SECTION
  2
ENTITIES
  0
LINE
  8
L-ZISSEN
  6
CONTINUOUS
 62
     7
 10
336.0
 20
156.5
 30
0.0
 11
336.0
 21
278.5
 31
0.0
  0
LINE
  8
L-ZISSEN
  6
CONTINUOUS
 62
     7
 10
344.0
 20
156.5
 30
0.0
 11
344.0
 21
278.5
 31
0.0
  0
LINE
  8
L-TYUSIN
  6
CENTER
 62
     1
 10
475.0
 20
750.0
 30
0.0
 11
475.0
 21
30.0
 31
0.0
  0
LINE
  8
L-ZISSEN
  6
CONTINUOUS
 62
     7
 10
596.0
 20
554.5
 30
0.0
 11
583.8
 21
554.5
 31
0.0
  0
LINE
  8
L-ZISSEN
  6
CONTINUOUS
 62
     7
 10
596.0
 20
575.5
 30
0.0
 11
583.8
 21
575.5
 31
0.0
  0
LINE
  8
L-ZISSEN
  6
CONTINUOUS
 62
     7
 10
601.0
 20
551.0
 30
0.0
 11
596.0
 21
551.0
 31
0.0
  0
LINE
  8
L-ZISSEN
  6
CONTINUOUS
 62
     7
 10
601.0
 20
579.0
 30
0.0
 11
596.0
 21
579.0
 31
0.0
  0
LINE
  8
L-ZISSEN
  6
CONTINUOUS
 62
     7
 10
596.0
 20
551.0
 30
0.0
 11
596.0
 21
579.0
 31
0.0
  0
LINE
  8
L-ZISSEN
  6
CONTINUOUS
 62
     7
 10
601.0
 20
551.0
 30
0.0
 11
601.0
 21
579.0
 31
0.0
  0
LINE
  8
L-ZISSEN
  6
CONTINUOUS
 62
     7
 10
583.8
 20
577.5
 30
0.0
 11
583.8
 21
552.5
 31
0.0
  0
LINE
  8
L-ZISSEN
  6
CONTINUOUS
 62
     7
 10
567.55
 20
577.5
 30
0.0
 11
583.8
 21
577.5
 31
0.0
  0
LINE
  8
L-ZISSEN
  6
CONTINUOUS
 62
     7
 10
583.8
 20
552.5
 30
0.0
 11
567.55
 21
552.5
 31
0.0
  0
LINE
  8
L-ZISSEN
  6
CONTINUOUS
 62
     7
 10
693.2
 20
589.0
 30
0.0
 11
690.0
 21
589.0
 31
0.0
  0
LINE
  8
L-ZISSEN
  6
CONTINUOUS
 62
     7
 10
690.0
 20
527.0
 30
0.0
 11
690.0
 21
589.3
 31
0.0
  0
LINE
  8
L-ZISSEN
  6
CONTINUOUS
 62
     7
 10
652.4
 20
538.95
 30
0.0
 11
652.4
 21
591.05
 31
0.0
  0
LINE
  8
L-ZISSEN
  6
CONTINUOUS
 62
     7
 10
657.2
 20
591.05
 30
0.0
 11
657.2
 21
570.670979
 31
0.0
  0
LINE
  8
L-ZISSEN
  6
CONTINUOUS
 62
     7
 10
657.2
 20
540.7
 30
0.0
 11
690.0
 21
540.7
 31
0.0
  0
LINE
  8
L-ZISSEN
  6
CONTINUOUS
 62
     7
 10
690.0
 20
589.3
 30
0.0
 11
657.2
 21
589.3
 31
0.0
  0
CIRCLE
  8
L-ZISSEN
  6
CONTINUOUS
 62
     7
 10
670.0
 20
565.0
 30
0.0
 40
7.5
  0
CIRCLE
  8
L-ZISSEN
  6
CONTINUOUS
 62
     7
 10
670.0
 20
565.0
 30
0.0
 40
14.0
  0
LINE
  8
L-ZISSEN
  6
CONTINUOUS
 62
     7
 10
596.0
 20
666.3
 30
0.0
 11
583.8
 21
666.3
 31
0.0
  0
LINE
  8
L-ZISSEN
  6
CONTINUOUS
 62
     7
 10
596.0
 20
687.3
 30
0.0
 11
583.8
 21
687.3
 31
0.0
  0
LINE
  8
L-ZISSEN
  6
CONTINUOUS
 62
     7
 10
601.0
 20
662.8
 30
0.0
 11
601.0
 21
690.8
 31
0.0
  0
LINE
  8
L-ZISSEN
  6
CONTINUOUS
 62
     7
 10
596.0
 20
662.8
 30
0.0
 11
596.0
 21
690.8
 31
0.0
  0
LINE
  8
L-ZISSEN
  6
CONTINUOUS
 62
     7
 10
601.0
 20
690.8
 30
0.0
 11
596.0
 21
690.8
 31
0.0
  0
LINE
  8
L-ZISSEN
  6
CONTINUOUS
 62
     7
 10
601.0
 20
662.8
 30
0.0
 11
596.0
 21
662.8
 31
0.0
  0
LINE
  8
L-ZISSEN
  6
CONTINUOUS
 62
     7
 10
583.8
 20
664.3
 30
0.0
 11
565.8
 21
664.3
 31
0.0
  0
LINE
  8
L-ZISSEN
  6
CONTINUOUS
 62
     7
 10
565.8
 20
689.3
 30
0.0
 11
583.8
 21
689.3
 31
0.0
  0
LINE
  8
L-ZISSEN
  6
CONTINUOUS
 62
     7
 10
583.8
 20
689.3
 30
0.0
 11
583.8
 21
664.3
 31
0.0
  0
LINE
  8
L-ZISSEN
  6
CONTINUOUS
 62
     7
 10
567.55
 20
664.0
 30
0.0
 11
567.55
 21
659.2
 31
0.0
  0
LINE
  8
L-ZISSEN
  6
CONTINUOUS
 62
     7
 10
502.45
 20
664.0
 30
0.0
 11
502.45
 21
659.2
 31
0.0
  0
LINE
  8
L-ZISSEN
  6
CONTINUOUS
 62
     7
 10
502.45
 20
664.0
 30
0.0
 11
567.55
 21
664.0
 31
0.0
  0
LINE
  8
L-ZISSEN
  6
CONTINUOUS
 62
     7
 10
567.55
 20
659.2
 30
0.0
 11
502.45
 21
659.2
 31
0.0
  0
LINE
  8
L-ZISSEN
  6
CONTINUOUS
 62
     7
 10
504.2
 20
664.0
 30
0.0
 11
504.2
 21
696.8
 31
0.0
  0
LINE
  8
L-ZISSEN
  6
CONTINUOUS
 62
     7
 10
565.8
 20
696.8
 30
0.0
 11
565.8
 21
664.0
 31
0.0
  0
LINE
  8
L-ZISSEN
  6
CONTINUOUS
 62
     7
 10
502.45
 20
591.05
 30
0.0
 11
567.55
 21
591.05
 31
0.0
  0
LINE
  8
L-ZISSEN
  6
CONTINUOUS
 62
     7
 10
508.460839
 20
538.95
 30
0.0
 11
567.55
 21
538.95
 31
0.0
  0
LINE
  8
L-ZISSEN
  6
CONTINUOUS
 62
     7
 10
652.4
 20
538.95
 30
0.0
 11
657.2
 21
538.95
 31
0.0
  0
LINE
  8
L-ZISSEN
  6
CONTINUOUS
 62
     7
 10
652.4
 20
591.05
 30
0.0
 11
657.2
 21
591.05
 31
0.0
  0
LINE
  8
L-ZISSEN
  6
CONTINUOUS
 62
     7
 10
657.2
 20
559.329021
 30
0.0
 11
657.2
 21
538.95
 31
0.0
  0
LINE
  8
L-ZISSEN
  6
CONTINUOUS
 62
     7
 10
693.2
 20
527.0
 30
0.0
 11
693.2
 21
589.0
 31
0.0
  0
TEXT
  8
L-ZISSEN
  6
CONTINUOUS
 62
     7
 10
495.0
 20
740.0
 30
0.0
 40
4.5
  1
JUNCTION BOX
  0
TEXT
  8
L-ZISSEN
  6
CONTINUOUS
 62
     7
 10
495.0
 20
730.0
 30
0.0
 40
4.5
  1
MODEL NO. :
  0
TEXT
  8
L-ZISSEN
  6
CONTINUOUS
 62
     7
 10
735.0
 20
730.0
 30
0.0
 40
4.5
  1
MODEL NO. :
  0
TEXT
  8
L-ZISSEN
  6
CONTINUOUS
 62
     7
 10
735.0
 20
740.0
 30
0.0
 40
4.5
  1
JUNCTION BOX
  0
LINE
  8
L-ZISSEN
  6
CONTINUOUS
 62
     7
 10
938.2
 20
527.0
 30
0.0
 11
938.2
 21
589.0
 31
0.0
  0
LINE
  8
L-ZISSEN
  6
CONTINUOUS
 62
     7
 10
897.4
 20
591.05
 30
0.0
 11
902.2
 21
591.05
 31
0.0
  0
LINE
  8
L-ZISSEN
  6
CONTINUOUS
 62
     7
 10
897.4
 20
538.95
 30
0.0
 11
902.2
 21
538.95
 31
0.0
  0
LINE
  8
L-ZISSEN
  6
CONTINUOUS
 62
     7
 10
826.539161
 20
538.95
 30
0.0
 11
767.45
 21
538.95
 31
0.0
  0
LINE
  8
L-ZISSEN
  6
CONTINUOUS
 62
     7
 10
832.55
 20
591.05
 30
0.0
 11
767.45
 21
591.05
 31
0.0
  0
LINE
  8
L-ZISSEN
  6
CONTINUOUS
 62
     7
 10
769.2
 20
696.8
 30
0.0
 11
769.2
 21
664.0
 31
0.0
  0
LINE
  8
L-ZISSEN
  6
CONTINUOUS
 62
     7
 10
830.8
 20
664.0
 30
0.0
 11
830.8
 21
696.8
 31
0.0
  0
LINE
  8
L-ZISSEN
  6
CONTINUOUS
 62
     7
 10
767.45
 20
659.2
 30
0.0
 11
832.55
 21
659.2
 31
0.0
  0
LINE
  8
L-ZISSEN
  6
CONTINUOUS
 62
     7
 10
832.55
 20
664.0
 30
0.0
 11
767.45
 21
664.0
 31
0.0
  0
LINE
  8
L-ZISSEN
  6
CONTINUOUS
 62
     7
 10
832.55
 20
664.0
 30
0.0
 11
832.55
 21
659.2
 31
0.0
  0
LINE
  8
L-ZISSEN
  6
CONTINUOUS
 62
     7
 10
767.45
 20
664.0
 30
0.0
 11
767.45
 21
659.2
 31
0.0
  0
LINE
  8
L-ZISSEN
  6
CONTINUOUS
 62
     7
 10
751.2
 20
689.3
 30
0.0
 11
751.2
 21
664.3
 31
0.0
  0
LINE
  8
L-ZISSEN
  6
CONTINUOUS
 62
     7
 10
769.2
 20
689.3
 30
0.0
 11
751.2
 21
689.3
 31
0.0
  0
LINE
  8
L-ZISSEN
  6
CONTINUOUS
 62
     7
 10
751.2
 20
664.3
 30
0.0
 11
769.2
 21
664.3
 31
0.0
  0
LINE
  8
L-ZISSEN
  6
CONTINUOUS
 62
     7
 10
734.0
 20
662.8
 30
0.0
 11
739.0
 21
662.8
 31
0.0
  0
LINE
  8
L-ZISSEN
  6
CONTINUOUS
 62
     7
 10
734.0
 20
690.8
 30
0.0
 11
739.0
 21
690.8
 31
0.0
  0
LINE
  8
L-ZISSEN
  6
CONTINUOUS
 62
     7
 10
739.0
 20
662.8
 30
0.0
 11
739.0
 21
690.8
 31
0.0
  0
LINE
  8
L-ZISSEN
  6
CONTINUOUS
 62
     7
 10
734.0
 20
662.8
 30
0.0
 11
734.0
 21
690.8
 31
0.0
  0
LINE
  8
L-ZISSEN
  6
CONTINUOUS
 62
     7
 10
739.0
 20
687.3
 30
0.0
 11
751.2
 21
687.3
 31
0.0
  0
LINE
  8
L-ZISSEN
  6
CONTINUOUS
 62
     7
 10
739.0
 20
666.3
 30
0.0
 11
751.2
 21
666.3
 31
0.0
  0
LINE
  8
L-ZISSEN
  6
CONTINUOUS
 62
     7
 10
935.0
 20
589.3
 30
0.0
 11
902.2
 21
589.3
 31
0.0
  0
LINE
  8
L-ZISSEN
  6
CONTINUOUS
 62
     7
 10
902.2
 20
540.7
 30
0.0
 11
935.0
 21
540.7
 31
0.0
  0
LINE
  8
L-ZISSEN
  6
CONTINUOUS
 62
     7
 10
897.4
 20
538.95
 30
0.0
 11
897.4
 21
591.05
 31
0.0
  0
LINE
  8
L-ZISSEN
  6
CONTINUOUS
 62
     7
 10
935.0
 20
527.0
 30
0.0
 11
935.0
 21
589.3
 31
0.0
  0
LINE
  8
L-ZISSEN
  6
CONTINUOUS
 62
     7
 10
938.2
 20
589.0
 30
0.0
 11
935.0
 21
589.0
 31
0.0
  0
LINE
  8
L-ZISSEN
  6
CONTINUOUS
 62
     7
 10
767.45
 20
591.05
 30
0.0
 11
767.45
 21
538.95
 31
0.0
  0
LINE
  8
L-ZISSEN
  6
CONTINUOUS
 62
     7
 10
751.2
 20
552.5
 30
0.0
 11
767.45
 21
552.5
 31
0.0
  0
LINE
  8
L-ZISSEN
  6
CONTINUOUS
 62
     7
 10
767.45
 20
577.5
 30
0.0
 11
751.2
 21
577.5
 31
0.0
  0
LINE
  8
L-ZISSEN
  6
CONTINUOUS
 62
     7
 10
751.2
 20
577.5
 30
0.0
 11
751.2
 21
552.5
 31
0.0
  0
LINE
  8
L-ZISSEN
  6
CONTINUOUS
 62
     7
 10
734.0
 20
551.0
 30
0.0
 11
734.0
 21
579.0
 31
0.0
  0
LINE
  8
L-ZISSEN
  6
CONTINUOUS
 62
     7
 10
739.0
 20
551.0
 30
0.0
 11
739.0
 21
579.0
 31
0.0
  0
LINE
  8
L-ZISSEN
  6
CONTINUOUS
 62
     7
 10
734.0
 20
579.0
 30
0.0
 11
739.0
 21
579.0
 31
0.0
  0
LINE
  8
L-ZISSEN
  6
CONTINUOUS
 62
     7
 10
734.0
 20
551.0
 30
0.0
 11
739.0
 21
551.0
 31
0.0
  0
LINE
  8
L-ZISSEN
  6
CONTINUOUS
 62
     7
 10
739.0
 20
575.5
 30
0.0
 11
751.2
 21
575.5
 31
0.0
  0
LINE
  8
L-ZISSEN
  6
CONTINUOUS
 62
     7
 10
739.0
 20
554.5
 30
0.0
 11
751.2
 21
554.5
 31
0.0
  0
LINE
  8
L-ZISSEN
  6
CONTINUOUS
 62
     7
 10
902.2
 20
591.05
 30
0.0
 11
902.2
 21
538.95
 31
0.0
  0
LINE
  8
L-TYUSIN
  6
CENTER
 62
     1
 10
475.0
 20
450.0
 30
0.0
 11
1290.0
 21
450.0
 31
0.0
  0
TEXT
  8
L-ZISSEN
  6
CONTINUOUS
 62
     7
 10
735.0
 20
425.0
 30
0.0
 40
4.5
  1
MODEL NO. :
  0
TEXT
  8
L-ZISSEN
  6
CONTINUOUS
 62
     7
 10
735.0
 20
435.0
 30
0.0
 40
4.5
  1
JUNCTION BOX
  0
LINE
  8
L-ZISSEN
  6
CONTINUOUS
 62
     7
 10
938.2
 20
142.0
 30
0.0
 11
938.2
 21
259.0
 31
0.0
  0
LINE
  8
L-ZISSEN
  6
CONTINUOUS
 62
     7
 10
902.2
 20
206.05
 30
0.0
 11
902.2
 21
153.95
 31
0.0
  0
LINE
  8
L-ZISSEN
  6
CONTINUOUS
 62
     7
 10
897.4
 20
206.05
 30
0.0
 11
902.2
 21
206.05
 31
0.0
  0
LINE
  8
L-ZISSEN
  6
CONTINUOUS
 62
     7
 10
897.4
 20
153.95
 30
0.0
 11
902.2
 21
153.95
 31
0.0
  0
LINE
  8
L-ZISSEN
  6
CONTINUOUS
 62
     7
 10
826.539161
 20
153.95
 30
0.0
 11
767.45
 21
153.95
 31
0.0
  0
LINE
  8
L-ZISSEN
  6
CONTINUOUS
 62
     7
 10
832.55
 20
206.05
 30
0.0
 11
767.45
 21
206.05
 31
0.0
  0
LINE
  8
L-ZISSEN
  6
CONTINUOUS
 62
     7
 10
769.2
 20
366.8
 30
0.0
 11
769.2
 21
334.0
 31
0.0
  0
LINE
  8
L-ZISSEN
  6
CONTINUOUS
 62
     7
 10
830.8
 20
334.0
 30
0.0
 11
830.8
 21
366.8
 31
0.0
  0
LINE
  8
L-ZISSEN
  6
CONTINUOUS
 62
     7
 10
767.45
 20
329.2
 30
0.0
 11
832.55
 21
329.2
 31
0.0
  0
LINE
  8
L-ZISSEN
  6
CONTINUOUS
 62
     7
 10
832.55
 20
334.0
 30
0.0
 11
767.45
 21
334.0
 31
0.0
  0
LINE
  8
L-ZISSEN
  6
CONTINUOUS
 62
     7
 10
832.55
 20
334.0
 30
0.0
 11
832.55
 21
329.2
 31
0.0
  0
LINE
  8
L-ZISSEN
  6
CONTINUOUS
 62
     7
 10
767.45
 20
334.0
 30
0.0
 11
767.45
 21
329.2
 31
0.0
  0
LINE
  8
L-ZISSEN
  6
CONTINUOUS
 62
     7
 10
751.2
 20
359.3
 30
0.0
 11
751.2
 21
334.3
 31
0.0
  0
LINE
  8
L-ZISSEN
  6
CONTINUOUS
 62
     7
 10
769.2
 20
359.3
 30
0.0
 11
751.2
 21
359.3
 31
0.0
  0
LINE
  8
L-ZISSEN
  6
CONTINUOUS
 62
     7
 10
751.2
 20
334.3
 30
0.0
 11
769.2
 21
334.3
 31
0.0
  0
LINE
  8
L-ZISSEN
  6
CONTINUOUS
 62
     7
 10
734.0
 20
332.8
 30
0.0
 11
739.0
 21
332.8
 31
0.0
  0
LINE
  8
L-ZISSEN
  6
CONTINUOUS
 62
     7
 10
734.0
 20
360.8
 30
0.0
 11
739.0
 21
360.8
 31
0.0
  0
LINE
  8
L-ZISSEN
  6
CONTINUOUS
 62
     7
 10
739.0
 20
332.8
 30
0.0
 11
739.0
 21
360.8
 31
0.0
  0
LINE
  8
L-ZISSEN
  6
CONTINUOUS
 62
     7
 10
734.0
 20
332.8
 30
0.0
 11
734.0
 21
360.8
 31
0.0
  0
LINE
  8
L-ZISSEN
  6
CONTINUOUS
 62
     7
 10
739.0
 20
357.3
 30
0.0
 11
751.2
 21
357.3
 31
0.0
  0
LINE
  8
L-ZISSEN
  6
CONTINUOUS
 62
     7
 10
739.0
 20
336.3
 30
0.0
 11
751.2
 21
336.3
 31
0.0
  0
LINE
  8
L-ZISSEN
  6
CONTINUOUS
 62
     7
 10
935.0
 20
204.3
 30
0.0
 11
902.2
 21
204.3
 31
0.0
  0
LINE
  8
L-ZISSEN
  6
CONTINUOUS
 62
     7
 10
902.2
 20
155.7
 30
0.0
 11
935.0
 21
155.7
 31
0.0
  0
LINE
  8
L-ZISSEN
  6
CONTINUOUS
 62
     7
 10
897.4
 20
153.95
 30
0.0
 11
897.4
 21
206.05
 31
0.0
  0
LINE
  8
L-ZISSEN
  6
CONTINUOUS
 62
     7
 10
935.0
 20
142.0
 30
0.0
 11
935.0
 21
259.3
 31
0.0
  0
LINE
  8
L-ZISSEN
  6
CONTINUOUS
 62
     7
 10
767.45
 20
206.05
 30
0.0
 11
767.45
 21
153.95
 31
0.0
  0
LINE
  8
L-ZISSEN
  6
CONTINUOUS
 62
     7
 10
751.2
 20
167.5
 30
0.0
 11
767.45
 21
167.5
 31
0.0
  0
LINE
  8
L-ZISSEN
  6
CONTINUOUS
 62
     7
 10
767.45
 20
192.5
 30
0.0
 11
751.2
 21
192.5
 31
0.0
  0
LINE
  8
L-ZISSEN
  6
CONTINUOUS
 62
     7
 10
751.2
 20
192.5
 30
0.0
 11
751.2
 21
167.5
 31
0.0
  0
LINE
  8
L-ZISSEN
  6
CONTINUOUS
 62
     7
 10
734.0
 20
166.0
 30
0.0
 11
734.0
 21
194.0
 31
0.0
  0
LINE
  8
L-ZISSEN
  6
CONTINUOUS
 62
     7
 10
739.0
 20
166.0
 30
0.0
 11
739.0
 21
194.0
 31
0.0
  0
LINE
  8
L-ZISSEN
  6
CONTINUOUS
 62
     7
 10
734.0
 20
194.0
 30
0.0
 11
739.0
 21
194.0
 31
0.0
  0
LINE
  8
L-ZISSEN
  6
CONTINUOUS
 62
     7
 10
734.0
 20
166.0
 30
0.0
 11
739.0
 21
166.0
 31
0.0
  0
LINE
  8
L-ZISSEN
  6
CONTINUOUS
 62
     7
 10
739.0
 20
190.5
 30
0.0
 11
751.2
 21
190.5
 31
0.0
  0
LINE
  8
L-ZISSEN
  6
CONTINUOUS
 62
     7
 10
739.0
 20
169.5
 30
0.0
 11
751.2
 21
169.5
 31
0.0
  0
LINE
  8
L-ZISSEN
  6
CONTINUOUS
 62
     7
 10
769.0
 20
142.0
 30
0.0
 11
769.0
 21
153.95
 31
0.0
  0
LINE
  8
L-ZISSEN
  6
CONTINUOUS
 62
     7
 10
739.0
 20
224.5
 30
0.0
 11
751.2
 21
224.5
 31
0.0
  0
LINE
  8
L-ZISSEN
  6
CONTINUOUS
 62
     7
 10
739.0
 20
245.5
 30
0.0
 11
751.2
 21
245.5
 31
0.0
  0
LINE
  8
L-ZISSEN
  6
CONTINUOUS
 62
     7
 10
734.0
 20
221.0
 30
0.0
 11
739.0
 21
221.0
 31
0.0
  0
LINE
  8
L-ZISSEN
  6
CONTINUOUS
 62
     7
 10
734.0
 20
249.0
 30
0.0
 11
739.0
 21
249.0
 31
0.0
  0
LINE
  8
L-ZISSEN
  6
CONTINUOUS
 62
     7
 10
739.0
 20
221.0
 30
0.0
 11
739.0
 21
249.0
 31
0.0
  0
LINE
  8
L-ZISSEN
  6
CONTINUOUS
 62
     7
 10
734.0
 20
221.0
 30
0.0
 11
734.0
 21
249.0
 31
0.0
  0
LINE
  8
L-ZISSEN
  6
CONTINUOUS
 62
     7
 10
751.2
 20
247.5
 30
0.0
 11
751.2
 21
222.5
 31
0.0
  0
LINE
  8
L-ZISSEN
  6
CONTINUOUS
 62
     7
 10
767.45
 20
247.5
 30
0.0
 11
751.2
 21
247.5
 31
0.0
  0
LINE
  8
L-ZISSEN
  6
CONTINUOUS
 62
     7
 10
751.2
 20
222.5
 30
0.0
 11
767.45
 21
222.5
 31
0.0
  0
LINE
  8
L-ZISSEN
  6
CONTINUOUS
 62
     7
 10
767.45
 20
261.05
 30
0.0
 11
767.45
 21
208.95
 31
0.0
  0
LINE
  8
L-ZISSEN
  6
CONTINUOUS
 62
     7
 10
832.55
 20
261.05
 30
0.0
 11
832.55
 21
208.95
 31
0.0
  0
LINE
  8
L-ZISSEN
  6
CONTINUOUS
 62
     7
 10
832.55
 20
261.05
 30
0.0
 11
767.45
 21
261.05
 31
0.0
  0
LINE
  8
L-ZISSEN
  6
CONTINUOUS
 62
     7
 10
832.55
 20
208.95
 30
0.0
 11
767.45
 21
208.95
 31
0.0
  0
LINE
  8
L-ZISSEN
  6
CONTINUOUS
 62
     7
 10
938.2
 20
259.0
 30
0.0
 11
935.0
 21
259.0
 31
0.0
  0
LINE
  8
L-ZISSEN
  6
CONTINUOUS
 62
     7
 10
897.4
 20
208.95
 30
0.0
 11
897.4
 21
261.05
 31
0.0
  0
LINE
  8
L-ZISSEN
  6
CONTINUOUS
 62
     7
 10
902.2
 20
210.7
 30
0.0
 11
935.0
 21
210.7
 31
0.0
  0
LINE
  8
L-ZISSEN
  6
CONTINUOUS
 62
     7
 10
935.0
 20
259.3
 30
0.0
 11
902.2
 21
259.3
 31
0.0
  0
LINE
  8
L-ZISSEN
  6
CONTINUOUS
 62
     7
 10
897.4
 20
208.95
 30
0.0
 11
902.2
 21
208.95
 31
0.0
  0
LINE
  8
L-ZISSEN
  6
CONTINUOUS
 62
     7
 10
897.4
 20
261.05
 30
0.0
 11
902.2
 21
261.05
 31
0.0
  0
LINE
  8
L-ZISSEN
  6
CONTINUOUS
 62
     7
 10
902.2
 20
261.05
 30
0.0
 11
902.2
 21
208.95
 31
0.0
  0
LINE
  8
L-ZISSEN
  6
CONTINUOUS
 62
     7
 10
938.2
 20
259.0
 30
0.0
 11
935.0
 21
259.0
 31
0.0
  0
LINE
  8
L-ZISSEN
  6
CONTINUOUS
 62
     7
 10
831.0
 20
206.05
 30
0.0
 11
831.0
 21
208.95
 31
0.0
  0
LINE
  8
L-ZISSEN
  6
CONTINUOUS
 62
     7
 10
769.0
 20
206.05
 30
0.0
 11
769.0
 21
208.95
 31
0.0
  0
LINE
  8
L-ZISSEN
  6
CONTINUOUS
 62
     7
 10
566.0
 20
206.05
 30
0.0
 11
566.0
 21
208.95
 31
0.0
  0
LINE
  8
L-ZISSEN
  6
CONTINUOUS
 62
     7
 10
504.0
 20
206.05
 30
0.0
 11
504.0
 21
208.95
 31
0.0
  0
LINE
  8
L-ZISSEN
  6
CONTINUOUS
 62
     7
 10
693.2
 20
259.0
 30
0.0
 11
690.0
 21
259.0
 31
0.0
  0
LINE
  8
L-ZISSEN
  6
CONTINUOUS
 62
     7
 10
657.2
 20
229.329021
 30
0.0
 11
657.2
 21
208.95
 31
0.0
  0
LINE
  8
L-ZISSEN
  6
CONTINUOUS
 62
     7
 10
652.4
 20
261.05
 30
0.0
 11
657.2
 21
261.05
 31
0.0
  0
LINE
  8
L-ZISSEN
  6
CONTINUOUS
 62
     7
 10
652.4
 20
208.95
 30
0.0
 11
657.2
 21
208.95
 31
0.0
  0
CIRCLE
  8
L-ZISSEN
  6
CONTINUOUS
 62
     7
 10
670.0
 20
235.0
 30
0.0
 40
14.0
  0
CIRCLE
  8
L-ZISSEN
  6
CONTINUOUS
 62
     7
 10
670.0
 20
235.0
 30
0.0
 40
7.5
  0
LINE
  8
L-ZISSEN
  6
CONTINUOUS
 62
     7
 10
690.0
 20
259.3
 30
0.0
 11
657.2
 21
259.3
 31
0.0
  0
LINE
  8
L-ZISSEN
  6
CONTINUOUS
 62
     7
 10
657.2
 20
210.7
 30
0.0
 11
690.0
 21
210.7
 31
0.0
  0
LINE
  8
L-ZISSEN
  6
CONTINUOUS
 62
     7
 10
657.2
 20
261.05
 30
0.0
 11
657.2
 21
240.670979
 31
0.0
  0
LINE
  8
L-ZISSEN
  6
CONTINUOUS
 62
     7
 10
652.4
 20
208.95
 30
0.0
 11
652.4
 21
261.05
 31
0.0
  0
LINE
  8
L-ZISSEN
  6
CONTINUOUS
 62
     7
 10
693.2
 20
259.0
 30
0.0
 11
690.0
 21
259.0
 31
0.0
  0
LINE
  8
L-ZISSEN
  6
CONTINUOUS
 62
     7
 10
502.45
 20
208.95
 30
0.0
 11
567.55
 21
208.95
 31
0.0
  0
LINE
  8
L-ZISSEN
  6
CONTINUOUS
 62
     7
 10
502.45
 20
261.05
 30
0.0
 11
567.55
 21
261.05
 31
0.0
  0
LINE
  8
L-ZISSEN
  6
CONTINUOUS
 62
     7
 10
502.45
 20
261.05
 30
0.0
 11
502.45
 21
208.95
 31
0.0
  0
LINE
  8
L-ZISSEN
  6
CONTINUOUS
 62
     7
 10
567.55
 20
261.05
 30
0.0
 11
567.55
 21
208.95
 31
0.0
  0
LINE
  8
L-ZISSEN
  6
CONTINUOUS
 62
     7
 10
583.8
 20
222.5
 30
0.0
 11
567.55
 21
222.5
 31
0.0
  0
LINE
  8
L-ZISSEN
  6
CONTINUOUS
 62
     7
 10
567.55
 20
247.5
 30
0.0
 11
583.8
 21
247.5
 31
0.0
  0
LINE
  8
L-ZISSEN
  6
CONTINUOUS
 62
     7
 10
583.8
 20
247.5
 30
0.0
 11
583.8
 21
222.5
 31
0.0
  0
LINE
  8
L-ZISSEN
  6
CONTINUOUS
 62
     7
 10
601.0
 20
221.0
 30
0.0
 11
601.0
 21
249.0
 31
0.0
  0
LINE
  8
L-ZISSEN
  6
CONTINUOUS
 62
     7
 10
596.0
 20
221.0
 30
0.0
 11
596.0
 21
249.0
 31
0.0
  0
LINE
  8
L-ZISSEN
  6
CONTINUOUS
 62
     7
 10
601.0
 20
249.0
 30
0.0
 11
596.0
 21
249.0
 31
0.0
  0
LINE
  8
L-ZISSEN
  6
CONTINUOUS
 62
     7
 10
601.0
 20
221.0
 30
0.0
 11
596.0
 21
221.0
 31
0.0
  0
LINE
  8
L-ZISSEN
  6
CONTINUOUS
 62
     7
 10
596.0
 20
245.5
 30
0.0
 11
583.8
 21
245.5
 31
0.0
  0
LINE
  8
L-ZISSEN
  6
CONTINUOUS
 62
     7
 10
596.0
 20
224.5
 30
0.0
 11
583.8
 21
224.5
 31
0.0
  0
LINE
  8
L-ZISSEN
  6
CONTINUOUS
 62
     7
 10
566.0
 20
142.0
 30
0.0
 11
566.0
 21
153.95
 31
0.0
  0
LINE
  8
L-ZISSEN
  6
CONTINUOUS
 62
     7
 10
596.0
 20
169.5
 30
0.0
 11
583.8
 21
169.5
 31
0.0
  0
LINE
  8
L-ZISSEN
  6
CONTINUOUS
 62
     7
 10
596.0
 20
190.5
 30
0.0
 11
583.8
 21
190.5
 31
0.0
  0
LINE
  8
L-ZISSEN
  6
CONTINUOUS
 62
     7
 10
601.0
 20
166.0
 30
0.0
 11
596.0
 21
166.0
 31
0.0
  0
LINE
  8
L-ZISSEN
  6
CONTINUOUS
 62
     7
 10
601.0
 20
194.0
 30
0.0
 11
596.0
 21
194.0
 31
0.0
  0
LINE
  8
L-ZISSEN
  6
CONTINUOUS
 62
     7
 10
596.0
 20
166.0
 30
0.0
 11
596.0
 21
194.0
 31
0.0
  0
LINE
  8
L-ZISSEN
  6
CONTINUOUS
 62
     7
 10
601.0
 20
166.0
 30
0.0
 11
601.0
 21
194.0
 31
0.0
  0
LINE
  8
L-ZISSEN
  6
CONTINUOUS
 62
     7
 10
583.8
 20
192.5
 30
0.0
 11
583.8
 21
167.5
 31
0.0
  0
LINE
  8
L-ZISSEN
  6
CONTINUOUS
 62
     7
 10
567.55
 20
192.5
 30
0.0
 11
583.8
 21
192.5
 31
0.0
  0
LINE
  8
L-ZISSEN
  6
CONTINUOUS
 62
     7
 10
583.8
 20
167.5
 30
0.0
 11
567.55
 21
167.5
 31
0.0
  0
LINE
  8
L-ZISSEN
  6
CONTINUOUS
 62
     7
 10
567.55
 20
206.05
 30
0.0
 11
567.55
 21
153.95
 31
0.0
  0
LINE
  8
L-ZISSEN
  6
CONTINUOUS
 62
     7
 10
690.0
 20
142.0
 30
0.0
 11
690.0
 21
259.3
 31
0.0
  0
LINE
  8
L-ZISSEN
  6
CONTINUOUS
 62
     7
 10
652.4
 20
153.95
 30
0.0
 11
652.4
 21
206.05
 31
0.0
  0
LINE
  8
L-ZISSEN
  6
CONTINUOUS
 62
     7
 10
657.2
 20
206.05
 30
0.0
 11
657.2
 21
185.670979
 31
0.0
  0
LINE
  8
L-ZISSEN
  6
CONTINUOUS
 62
     7
 10
657.2
 20
155.7
 30
0.0
 11
690.0
 21
155.7
 31
0.0
  0
LINE
  8
L-ZISSEN
  6
CONTINUOUS
 62
     7
 10
690.0
 20
204.3
 30
0.0
 11
657.2
 21
204.3
 31
0.0
  0
CIRCLE
  8
L-ZISSEN
  6
CONTINUOUS
 62
     7
 10
670.0
 20
180.0
 30
0.0
 40
7.5
  0
CIRCLE
  8
L-ZISSEN
  6
CONTINUOUS
 62
     7
 10
670.0
 20
180.0
 30
0.0
 40
14.0
  0
LINE
  8
L-ZISSEN
  6
CONTINUOUS
 62
     7
 10
596.0
 20
336.3
 30
0.0
 11
583.8
 21
336.3
 31
0.0
  0
LINE
  8
L-ZISSEN
  6
CONTINUOUS
 62
     7
 10
596.0
 20
357.3
 30
0.0
 11
583.8
 21
357.3
 31
0.0
  0
LINE
  8
L-ZISSEN
  6
CONTINUOUS
 62
     7
 10
601.0
 20
332.8
 30
0.0
 11
601.0
 21
360.8
 31
0.0
  0
LINE
  8
L-ZISSEN
  6
CONTINUOUS
 62
     7
 10
596.0
 20
332.8
 30
0.0
 11
596.0
 21
360.8
 31
0.0
  0
LINE
  8
L-ZISSEN
  6
CONTINUOUS
 62
     7
 10
601.0
 20
360.8
 30
0.0
 11
596.0
 21
360.8
 31
0.0
  0
LINE
  8
L-ZISSEN
  6
CONTINUOUS
 62
     7
 10
601.0
 20
332.8
 30
0.0
 11
596.0
 21
332.8
 31
0.0
  0
LINE
  8
L-ZISSEN
  6
CONTINUOUS
 62
     7
 10
583.8
 20
334.3
 30
0.0
 11
565.8
 21
334.3
 31
0.0
  0
LINE
  8
L-ZISSEN
  6
CONTINUOUS
 62
     7
 10
565.8
 20
359.3
 30
0.0
 11
583.8
 21
359.3
 31
0.0
  0
LINE
  8
L-ZISSEN
  6
CONTINUOUS
 62
     7
 10
583.8
 20
359.3
 30
0.0
 11
583.8
 21
334.3
 31
0.0
  0
LINE
  8
L-ZISSEN
  6
CONTINUOUS
 62
     7
 10
567.55
 20
334.0
 30
0.0
 11
567.55
 21
329.2
 31
0.0
  0
LINE
  8
L-ZISSEN
  6
CONTINUOUS
 62
     7
 10
502.45
 20
334.0
 30
0.0
 11
502.45
 21
329.2
 31
0.0
  0
LINE
  8
L-ZISSEN
  6
CONTINUOUS
 62
     7
 10
502.45
 20
334.0
 30
0.0
 11
567.55
 21
334.0
 31
0.0
  0
LINE
  8
L-ZISSEN
  6
CONTINUOUS
 62
     7
 10
567.55
 20
329.2
 30
0.0
 11
502.45
 21
329.2
 31
0.0
  0
LINE
  8
L-ZISSEN
  6
CONTINUOUS
 62
     7
 10
504.2
 20
334.0
 30
0.0
 11
504.2
 21
366.8
 31
0.0
  0
LINE
  8
L-ZISSEN
  6
CONTINUOUS
 62
     7
 10
565.8
 20
366.8
 30
0.0
 11
565.8
 21
334.0
 31
0.0
  0
LINE
  8
L-ZISSEN
  6
CONTINUOUS
 62
     7
 10
502.45
 20
206.05
 30
0.0
 11
567.55
 21
206.05
 31
0.0
  0
LINE
  8
L-ZISSEN
  6
CONTINUOUS
 62
     7
 10
508.460839
 20
153.95
 30
0.0
 11
567.55
 21
153.95
 31
0.0
  0
LINE
  8
L-ZISSEN
  6
CONTINUOUS
 62
     7
 10
652.4
 20
153.95
 30
0.0
 11
657.2
 21
153.95
 31
0.0
  0
LINE
  8
L-ZISSEN
  6
CONTINUOUS
 62
     7
 10
652.4
 20
206.05
 30
0.0
 11
657.2
 21
206.05
 31
0.0
  0
LINE
  8
L-ZISSEN
  6
CONTINUOUS
 62
     7
 10
657.2
 20
174.329021
 30
0.0
 11
657.2
 21
153.95
 31
0.0
  0
LINE
  8
L-ZISSEN
  6
CONTINUOUS
 62
     7
 10
693.2
 20
142.0
 30
0.0
 11
693.2
 21
259.0
 31
0.0
  0
TEXT
  8
L-ZISSEN
  6
CONTINUOUS
 62
     7
 10
495.0
 20
435.0
 30
0.0
 40
4.5
  1
JUNCTION BOX
  0
TEXT
  8
L-ZISSEN
  6
CONTINUOUS
 62
     7
 10
495.0
 20
425.0
 30
0.0
 40
4.5
  1
MODEL NO. :
  0
TEXT
  8
L-ZISSEN
  6
CONTINUOUS
 62
     7
 10
785.0
 20
730.0
 30
0.0
 40
4.5
  1
NOL-5**-2XL FG20L
  0
TEXT
  8
L-ZISSEN
  6
CONTINUOUS
 62
     7
 10
785.0
 20
720.0
 30
0.0
 40
4.5
  1
NOL-5**-2XL FG21L
  0
LINE
  8
L-ZISSEN
  6
CONTINUOUS
 62
     7
 10
346.0
 20
146.5
 30
0.0
 11
346.0
 21
129.5
 31
0.0
  0
LINE
  8
L-ZISSEN
  6
CONTINUOUS
 62
     7
 10
334.0
 20
146.5
 30
0.0
 11
334.0
 21
129.5
 31
0.0
  0
LINE
  8
L-ZISSEN
  6
CONTINUOUS
 62
     7
 10
333.0
 20
146.5
 30
0.0
 11
347.0
 21
146.5
 31
0.0
  0
LINE
  8
L-ZISSEN
  6
CONTINUOUS
 62
     7
 10
334.0
 20
129.5
 30
0.0
 11
346.0
 21
129.5
 31
0.0
  0
LINE
  8
L-ZISSEN
  6
CONTINUOUS
 62
     7
 10
347.0
 20
146.5
 30
0.0
 11
347.0
 21
156.5
 31
0.0
  0
LINE
  8
L-ZISSEN
  6
CONTINUOUS
 62
     7
 10
333.0
 20
146.5
 30
0.0
 11
333.0
 21
156.5
 31
0.0
  0
LINE
  8
L-ZISSEN
  6
CONTINUOUS
 62
     7
 10
333.0
 20
156.5
 30
0.0
 11
347.0
 21
156.5
 31
0.0
  0
TEXT
  8
L-ZISSEN
  6
CONTINUOUS
 62
     7
 10
545.0
 20
720.0
 30
0.0
 40
4.5
  1
NOL-5**-2XL FG21R
  0
TEXT
  8
L-ZISSEN
  6
CONTINUOUS
 62
     7
 10
545.0
 20
730.0
 30
0.0
 40
4.5
  1
NOL-5**-2XL FG20R
  0
LINE
  8
L-TYUSIN
  6
CENTER
 62
     1
 10
715.0
 20
750.0
 30
0.0
 11
715.0
 21
30.0
 31
0.0
  0
TEXT
  8
L-ZISSEN
  6
CONTINUOUS
 62
     7
 10
545.0
 20
425.0
 30
0.0
 40
4.5
  1
NOL-5**-2XL FG22R
  0
TEXT
  8
L-ZISSEN
  6
CONTINUOUS
 62
     7
 10
545.0
 20
415.0
 30
0.0
 40
4.5
  1
NOL-5**-2XL FG23R
  0
TEXT
  8
L-ZISSEN
  6
CONTINUOUS
 62
     7
 10
545.0
 20
395.0
 30
0.0
 40
4.5
  1
NOL-5**-2XL FG25R
  0
TEXT
  8
L-ZISSEN
  6
CONTINUOUS
 62
     7
 10
545.0
 20
405.0
 30
0.0
 40
4.5
  1
NOL-5**-2XL FG24R
  0
LINE
  8
L-ZISSEN
  6
CONTINUOUS
 62
     7
 10
567.55
 20
591.05
 30
0.0
 11
567.55
 21
538.95
 31
0.0
  0
LINE
  8
L-ZISSEN
  6
CONTINUOUS
 62
     7
 10
566.0
 20
538.95
 30
0.0
 11
566.0
 21
527.0
 31
0.0
  0
LINE
  8
L-ZISSEN
  6
CONTINUOUS
 62
     7
 10
769.0
 20
538.95
 30
0.0
 11
769.0
 21
527.0
 31
0.0
  0
TEXT
  8
L-ZISSEN
  6
CONTINUOUS
 62
     7
 10
785.0
 20
425.0
 30
0.0
 40
4.5
  1
NOL-5**-2XL FG22L
  0
TEXT
  8
L-ZISSEN
  6
CONTINUOUS
 62
     7
 10
785.0
 20
415.0
 30
0.0
 40
4.5
  1
NOL-5**-2XL FG23L
  0
TEXT
  8
L-ZISSEN
  6
CONTINUOUS
 62
     7
 10
785.0
 20
405.0
 30
0.0
 40
4.5
  1
NOL-5**-2XL FG24L
  0
TEXT
  8
L-ZISSEN
  6
CONTINUOUS
 62
     7
 10
785.0
 20
395.0
 30
0.0
 40
4.5
  1
NOL-5**-2XL FG25R
  0
TEXT
  8
L-ZISSEN
  6
CONTINUOUS
 62
     7
 10
45.0
 20
645.0
 30
0.0
 40
4.5
  1
MODEL NO. : NOL-5  -2XL
  0
LINE
  8
L-TYUSIN
  6
CENTER
 62
     1
 10
955.0
 20
750.0
 30
0.0
 11
955.0
 21
30.0
 31
0.0
  0
LINE
  8
L-ZISSEN
  6
CONTINUOUS
 62
     7
 10
1057.0
 20
364.75
 30
0.0
 11
1065.493267
 21
364.75
 31
0.0
  0
LINE
  8
L-ZISSEN
  6
CONTINUOUS
 62
     7
 10
1057.0
 20
375.25
 30
0.0
 11
1065.493267
 21
375.25
 31
0.0
  0
LINE
  8
L-ZISSEN
  6
CONTINUOUS
 62
     7
 10
1064.9
 20
365.092523
 30
0.0
 11
1073.4
 21
360.185045
 31
0.0
  0
LINE
  8
L-ZISSEN
  6
CONTINUOUS
 62
     7
 10
1073.4
 20
360.185045
 30
0.0
 11
1081.9
 21
365.092523
 31
0.0
  0
LINE
  8
L-ZISSEN
  6
CONTINUOUS
 62
     7
 10
1081.9
 20
365.092523
 30
0.0
 11
1081.9
 21
374.907477
 31
0.0
  0
LINE
  8
L-ZISSEN
  6
CONTINUOUS
 62
     7
 10
1081.9
 20
374.907477
 30
0.0
 11
1073.4
 21
379.814955
 31
0.0
  0
LINE
  8
L-ZISSEN
  6
CONTINUOUS
 62
     7
 10
1073.4
 20
379.814955
 30
0.0
 11
1064.9
 21
374.907477
 31
0.0
  0
LINE
  8
L-ZISSEN
  6
CONTINUOUS
 62
     7
 10
1064.9
 20
374.907477
 30
0.0
 11
1064.9
 21
365.092523
 31
0.0
  0
LINE
  8
L-ZISSEN
  6
CONTINUOUS
 62
     7
 10
1063.9
 20
364.515172
 30
0.0
 11
1073.4
 21
359.030345
 31
0.0
  0
LINE
  8
L-ZISSEN
  6
CONTINUOUS
 62
     7
 10
1073.4
 20
359.030345
 30
0.0
 11
1082.9
 21
364.515172
 31
0.0
  0
LINE
  8
L-ZISSEN
  6
CONTINUOUS
 62
     7
 10
1082.9
 20
364.515172
 30
0.0
 11
1082.9
 21
375.484828
 31
0.0
  0
LINE
  8
L-ZISSEN
  6
CONTINUOUS
 62
     7
 10
1082.9
 20
375.484828
 30
0.0
 11
1073.4
 21
380.969655
 31
0.0
  0
LINE
  8
L-ZISSEN
  6
CONTINUOUS
 62
     7
 10
1073.4
 20
380.969655
 30
0.0
 11
1063.9
 21
375.484828
 31
0.0
  0
LINE
  8
L-ZISSEN
  6
CONTINUOUS
 62
     7
 10
1063.9
 20
375.484828
 30
0.0
 11
1063.9
 21
375.25
 31
0.0
  0
LINE
  8
L-ZISSEN
  6
CONTINUOUS
 62
     7
 10
1063.9
 20
364.75
 30
0.0
 11
1063.9
 21
364.515172
 31
0.0
  0
TEXT
  8
L-ZISSEN
  6
CONTINUOUS
 62
     7
 10
975.0
 20
435.0
 30
0.0
 40
4.5
  1
GLASS LEVEL GAUGE
  0
TEXT
  8
L-ZISSEN
  6
CONTINUOUS
 62
     7
 10
975.0
 20
425.0
 30
0.0
 40
4.5
  1
MODEL NO. :
  0
TEXT
  8
L-ZISSEN
  6
CONTINUOUS
 62
     7
 10
1025.0
 20
425.0
 30
0.0
 40
4.5
  1
NOL-5**-2XLS
  0
LINE
  8
L-TYUSIN
  6
CENTER
 62
     1
 10
130.0
 20
428.0
 30
0.0
 11
130.0
 21
29.0
 31
0.0
  0
LINE
  8
L-ZISSEN
  6
CONTINUOUS
 62
     7
 10
58.0
 20
310.0
 30
0.0
 11
202.0
 21
310.0
 31
0.0
  0
LINE
  8
L-ZISSEN
  6
CONTINUOUS
 62
     7
 10
58.0
 20
335.0
 30
0.0
 11
202.0
 21
335.0
 31
0.0
  0
LINE
  8
L-TYUSIN
  6
CENTER
 62
     1
 10
130.0
 20
620.0
 30
0.0
 11
130.0
 21
453.0
 31
0.0
  0
LINE
  8
L-TYUSIN
  6
CENTER
 62
     1
 10
227.982904
 20
530.0
 30
0.0
 11
53.0
 21
530.0
 31
0.0
  0
LINE
  8
L-ZISSEN
  6
CONTINUOUS
 62
     7
 10
202.0
 20
584.0
 30
0.0
 11
202.0
 21
476.0
 31
0.0
  0
LINE
  8
L-ZISSEN
  6
CONTINUOUS
 62
     7
 10
58.0
 20
310.0
 30
0.0
 11
58.0
 21
335.0
 31
0.0
  0
LINE
  8
L-ZISSEN
  6
CONTINUOUS
 62
     7
 10
76.0
 20
458.0
 30
0.0
 11
184.0
 21
458.0
 31
0.0
  0
LINE
  8
L-ZISSEN
  6
CONTINUOUS
 62
     7
 10
202.0
 20
335.0
 30
0.0
 11
202.0
 21
310.0
 31
0.0
  0
LINE
  8
L-ZISSEN
  6
CONTINUOUS
 62
     7
 10
58.0
 20
476.0
 30
0.0
 11
58.0
 21
584.0
 31
0.0
  0
ARC
  8
L-ZISSEN
  6
CONTINUOUS
 62
     7
 10
184.0
 20
584.0
 30
0.0
 40
18.0
 50
0.0
 51
27.266044
  0
ARC
  8
L-ZISSEN
  6
CONTINUOUS
 62
     7
 10
76.0
 20
584.0
 30
0.0
 40
18.0
 50
152.733956
 51
180.0
  0
ARC
  8
L-ZISSEN
  6
CONTINUOUS
 62
     7
 10
76.0
 20
476.0
 30
0.0
 40
18.0
 50
180.0
 51
270.0
  0
ARC
  8
L-ZISSEN
  6
CONTINUOUS
 62
     7
 10
184.0
 20
476.0
 30
0.0
 40
18.0
 50
270.0
 51
0.0
  0
CIRCLE
  8
L-ZISSEN
  6
CONTINUOUS
 62
     7
 10
184.0
 20
476.0
 30
0.0
 40
6.0
  0
LINE
  8
L-ZISSEN
  6
CONTINUOUS
 62
     7
 10
60.0
 20
348.0
 30
0.0
 11
87.0
 21
348.0
 31
0.0
  0
LINE
  8
L-ZISSEN
  6
CONTINUOUS
 62
     7
 10
194.969655
 20
348.0
 30
0.0
 11
194.969655
 21
338.0
 31
0.0
  0
LINE
  8
L-ZISSEN
  6
CONTINUOUS
 62
     7
 10
173.030345
 20
348.0
 30
0.0
 11
173.030345
 21
338.0
 31
0.0
  0
LINE
  8
L-ZISSEN
  6
CONTINUOUS
 62
     7
 10
173.030345
 20
338.0
 30
0.0
 11
194.969655
 21
338.0
 31
0.0
  0
LINE
  8
L-ZISSEN
  6
CONTINUOUS
 62
     7
 10
173.25
 20
335.0
 30
0.0
 11
173.25
 21
338.0
 31
0.0
  0
LINE
  8
L-ZISSEN
  6
CONTINUOUS
 62
     7
 10
194.75
 20
335.0
 30
0.0
 11
194.75
 21
338.0
 31
0.0
  0
LINE
  8
L-ZISSEN
  6
CONTINUOUS
 62
     7
 10
200.0
 20
348.0
 30
0.0
 11
200.0
 21
401.0
 31
0.0
  0
LINE
  8
L-ZISSEN
  6
CONTINUOUS
 62
     7
 10
200.0
 20
401.0
 30
0.0
 11
142.75
 21
401.0
 31
0.0
  0
LINE
  8
L-ZISSEN
  6
CONTINUOUS
 62
     7
 10
60.0
 20
401.0
 30
0.0
 11
60.0
 21
348.0
 31
0.0
  0
LINE
  8
L-ZISSEN
  6
CONTINUOUS
 62
     7
 10
60.0
 20
350.3
 30
0.0
 11
70.0
 21
350.3
 31
0.0
  0
ARC
  8
L-ZISSEN
  6
CONTINUOUS
 62
     7
 10
179.5
 20
386.0
 30
0.0
 40
5.5
 50
285.82662
 51
90.0
  0
ARC
  8
L-ZISSEN
  6
CONTINUOUS
 62
     7
 10
170.5
 20
386.0
 30
0.0
 40
5.5
 50
90.0
 51
245.380023
  0
LINE
  8
L-ZISSEN
  6
CONTINUOUS
 62
     7
 10
179.5
 20
391.5
 30
0.0
 11
170.5
 21
391.5
 31
0.0
  0
LINE
  8
L-ZISSEN
  6
CONTINUOUS
 62
     7
 10
194.969655
 20
360.3
 30
0.0
 11
194.969655
 21
350.3
 31
0.0
  0
LINE
  8
L-ZISSEN
  6
CONTINUOUS
 62
     7
 10
65.030345
 20
360.3
 30
0.0
 11
65.030345
 21
350.3
 31
0.0
  0
LINE
  8
L-ZISSEN
  6
CONTINUOUS
 62
     7
 10
65.25
 20
335.0
 30
0.0
 11
65.25
 21
338.0
 31
0.0
  0
LINE
  8
L-ZISSEN
  6
CONTINUOUS
 62
     7
 10
86.75
 20
335.0
 30
0.0
 11
86.75
 21
338.0
 31
0.0
  0
LINE
  8
L-ZISSEN
  6
CONTINUOUS
 62
     7
 10
86.969655
 20
338.0
 30
0.0
 11
65.030345
 21
338.0
 31
0.0
  0
LINE
  8
L-ZISSEN
  6
CONTINUOUS
 62
     7
 10
86.969655
 20
348.0
 30
0.0
 11
86.969655
 21
338.0
 31
0.0
  0
LINE
  8
L-ZISSEN
  6
CONTINUOUS
 62
     7
 10
65.030345
 20
348.0
 30
0.0
 11
65.030345
 21
338.0
 31
0.0
  0
LINE
  8
L-ZISSEN
  6
CONTINUOUS
 62
     7
 10
80.5
 20
391.5
 30
0.0
 11
89.5
 21
391.5
 31
0.0
  0
ARC
  8
L-ZISSEN
  6
CONTINUOUS
 62
     7
 10
89.5
 20
386.0
 30
0.0
 40
5.5
 50
294.619977
 51
90.0
  0
ARC
  8
L-ZISSEN
  6
CONTINUOUS
 62
     7
 10
80.5
 20
386.0
 30
0.0
 40
5.5
 50
90.0
 51
254.17338
  0
LINE
  8
L-TYUSIN
  6
CENTER
 62
     1
 10
85.0
 20
376.0
 30
0.0
 11
85.0
 21
396.0
 31
0.0
  0
LINE
  8
L-TYUSIN
  6
CENTER
 62
     1
 10
100.0
 20
386.0
 30
0.0
 11
70.0
 21
386.0
 31
0.0
  0
ARC
  8
L-ZISSEN
  6
CONTINUOUS
 62
     7
 10
80.5
 20
49.0
 30
0.0
 40
5.5
 50
90.0
 51
270.0
  0
ARC
  8
L-ZISSEN
  6
CONTINUOUS
 62
     7
 10
89.5
 20
49.0
 30
0.0
 40
5.5
 50
270.0
 51
90.0
  0
LINE
  8
L-ZISSEN
  6
CONTINUOUS
 62
     7
 10
80.5
 20
54.5
 30
0.0
 11
89.5
 21
54.5
 31
0.0
  0
LINE
  8
L-ZISSEN
  6
CONTINUOUS
 62
     7
 10
80.5
 20
43.5
 30
0.0
 11
89.5
 21
43.5
 31
0.0
  0
LINE
  8
L-ZISSEN
  6
CONTINUOUS
 62
     7
 10
65.030345
 20
87.0
 30
0.0
 11
65.030345
 21
97.0
 31
0.0
  0
LINE
  8
L-ZISSEN
  6
CONTINUOUS
 62
     7
 10
86.969655
 20
87.0
 30
0.0
 11
86.969655
 21
97.0
 31
0.0
  0
LINE
  8
L-ZISSEN
  6
CONTINUOUS
 62
     7
 10
86.969655
 20
97.0
 30
0.0
 11
65.030345
 21
97.0
 31
0.0
  0
LINE
  8
L-ZISSEN
  6
CONTINUOUS
 62
     7
 10
86.75
 20
100.0
 30
0.0
 11
86.75
 21
97.0
 31
0.0
  0
LINE
  8
L-ZISSEN
  6
CONTINUOUS
 62
     7
 10
65.25
 20
100.0
 30
0.0
 11
65.25
 21
97.0
 31
0.0
  0
LINE
  8
L-ZISSEN
  6
CONTINUOUS
 62
     7
 10
86.969655
 20
74.7
 30
0.0
 11
86.969655
 21
84.7
 31
0.0
  0
LINE
  8
L-ZISSEN
  6
CONTINUOUS
 62
     7
 10
65.030345
 20
74.7
 30
0.0
 11
65.030345
 21
84.7
 31
0.0
  0
LINE
  8
L-ZISSEN
  6
CONTINUOUS
 62
     7
 10
86.969655
 20
74.7
 30
0.0
 11
82.0
 21
74.7
 31
0.0
  0
LINE
  8
L-ZISSEN
  6
CONTINUOUS
 62
     7
 10
173.030345
 20
74.7
 30
0.0
 11
178.0
 21
74.7
 31
0.0
  0
LINE
  8
L-ZISSEN
  6
CONTINUOUS
 62
     7
 10
194.969655
 20
74.7
 30
0.0
 11
194.969655
 21
84.7
 31
0.0
  0
LINE
  8
L-ZISSEN
  6
CONTINUOUS
 62
     7
 10
173.030345
 20
74.7
 30
0.0
 11
173.030345
 21
84.7
 31
0.0
  0
LINE
  8
L-ZISSEN
  6
CONTINUOUS
 62
     7
 10
179.5
 20
43.5
 30
0.0
 11
170.5
 21
43.5
 31
0.0
  0
LINE
  8
L-ZISSEN
  6
CONTINUOUS
 62
     7
 10
179.5
 20
54.5
 30
0.0
 11
170.5
 21
54.5
 31
0.0
  0
ARC
  8
L-ZISSEN
  6
CONTINUOUS
 62
     7
 10
170.5
 20
49.0
 30
0.0
 40
5.5
 50
90.0
 51
270.0
  0
ARC
  8
L-ZISSEN
  6
CONTINUOUS
 62
     7
 10
179.5
 20
49.0
 30
0.0
 40
5.5
 50
270.0
 51
90.0
  0
LINE
  8
L-ZISSEN
  6
CONTINUOUS
 62
     7
 10
60.0
 20
84.7
 30
0.0
 11
70.0
 21
84.7
 31
0.0
  0
LINE
  8
L-ZISSEN
  6
CONTINUOUS
 62
     7
 10
60.0
 20
34.0
 30
0.0
 11
60.0
 21
87.0
 31
0.0
  0
LINE
  8
L-ZISSEN
  6
CONTINUOUS
 62
     7
 10
200.0
 20
34.0
 30
0.0
 11
60.0
 21
34.0
 31
0.0
  0
LINE
  8
L-ZISSEN
  6
CONTINUOUS
 62
     7
 10
200.0
 20
87.0
 30
0.0
 11
200.0
 21
34.0
 31
0.0
  0
LINE
  8
L-ZISSEN
  6
CONTINUOUS
 62
     7
 10
194.75
 20
100.0
 30
0.0
 11
194.75
 21
97.0
 31
0.0
  0
LINE
  8
L-ZISSEN
  6
CONTINUOUS
 62
     7
 10
173.25
 20
100.0
 30
0.0
 11
173.25
 21
97.0
 31
0.0
  0
LINE
  8
L-ZISSEN
  6
CONTINUOUS
 62
     7
 10
173.030345
 20
97.0
 30
0.0
 11
194.969655
 21
97.0
 31
0.0
  0
LINE
  8
L-ZISSEN
  6
CONTINUOUS
 62
     7
 10
173.030345
 20
87.0
 30
0.0
 11
173.030345
 21
97.0
 31
0.0
  0
LINE
  8
L-ZISSEN
  6
CONTINUOUS
 62
     7
 10
194.969655
 20
87.0
 30
0.0
 11
194.969655
 21
97.0
 31
0.0
  0
LINE
  8
L-ZISSEN
  6
CONTINUOUS
 62
     7
 10
60.0
 20
87.0
 30
0.0
 11
124.0
 21
87.0
 31
0.0
  0
LINE
  8
L-ZISSEN
  6
CONTINUOUS
 62
     7
 10
58.0
 20
100.0
 30
0.0
 11
202.0
 21
100.0
 31
0.0
  0
LINE
  8
L-ZISSEN
  6
CONTINUOUS
 62
     7
 10
178.0
 20
362.5
 30
0.0
 11
190.0
 21
362.5
 31
0.0
  0
LINE
  8
L-ZISSEN
  6
CONTINUOUS
 62
     7
 10
190.0
 20
362.5
 30
0.0
 11
190.0
 21
348.0
 31
0.0
  0
LINE
  8
L-ZISSEN
  6
CONTINUOUS
 62
     7
 10
178.0
 20
362.5
 30
0.0
 11
178.0
 21
348.0
 31
0.0
  0
LINE
  8
L-ZISSEN
  6
CONTINUOUS
 62
     7
 10
178.0
 20
72.5
 30
0.0
 11
178.0
 21
87.0
 31
0.0
  0
LINE
  8
L-ZISSEN
  6
CONTINUOUS
 62
     7
 10
190.0
 20
72.5
 30
0.0
 11
190.0
 21
87.0
 31
0.0
  0
LINE
  8
L-ZISSEN
  6
CONTINUOUS
 62
     7
 10
178.0
 20
72.5
 30
0.0
 11
190.0
 21
72.5
 31
0.0
  0
LINE
  8
L-ZISSEN
  6
CONTINUOUS
 62
     7
 10
82.0
 20
72.5
 30
0.0
 11
70.0
 21
72.5
 31
0.0
  0
LINE
  8
L-ZISSEN
  6
CONTINUOUS
 62
     7
 10
70.0
 20
72.5
 30
0.0
 11
70.0
 21
87.0
 31
0.0
  0
LINE
  8
L-ZISSEN
  6
CONTINUOUS
 62
     7
 10
70.0
 20
362.5
 30
0.0
 11
70.0
 21
348.0
 31
0.0
  0
LINE
  8
L-ZISSEN
  6
CONTINUOUS
 62
     7
 10
82.0
 20
362.5
 30
0.0
 11
70.0
 21
362.5
 31
0.0
  0
LINE
  8
L-ZISSEN
  6
CONTINUOUS
 62
     7
 10
82.0
 20
362.5
 30
0.0
 11
82.0
 21
348.0
 31
0.0
  0
LINE
  8
L-ZISSEN
  6
CONTINUOUS
 62
     7
 10
82.0
 20
72.5
 30
0.0
 11
82.0
 21
87.0
 31
0.0
  0
LINE
  8
L-ZISSEN
  6
CONTINUOUS
 62
     7
 10
60.1
 20
310.0
 30
0.0
 11
60.1
 21
125.0
 31
0.0
  0
LINE
  8
L-ZISSEN
  6
CONTINUOUS
 62
     7
 10
58.0
 20
125.0
 30
0.0
 11
202.0
 21
125.0
 31
0.0
  0
LINE
  8
L-ZISSEN
  6
CONTINUOUS
 62
     7
 10
58.0
 20
125.0
 30
0.0
 11
58.0
 21
100.0
 31
0.0
  0
LINE
  8
L-ZISSEN
  6
CONTINUOUS
 62
     7
 10
202.0
 20
125.0
 30
0.0
 11
202.0
 21
100.0
 31
0.0
  0
LINE
  8
L-ZISSEN
  6
CONTINUOUS
 62
     7
 10
117.5
 20
95.0
 30
0.0
 11
142.5
 21
95.0
 31
0.0
  0
LINE
  8
L-ZISSEN
  6
CONTINUOUS
 62
     7
 10
100.0
 20
100.0
 30
0.0
 11
117.5
 21
95.0
 31
0.0
  0
LINE
  8
L-ZISSEN
  6
CONTINUOUS
 62
     7
 10
160.0
 20
100.0
 30
0.0
 11
142.5
 21
95.0
 31
0.0
  0
LINE
  8
L-ZISSEN
  6
CONTINUOUS
 62
     7
 10
82.0
 20
125.0
 30
0.0
 11
82.0
 21
310.0
 31
0.0
  0
LINE
  8
L-ZISSEN
  6
CONTINUOUS
 62
     7
 10
70.0
 20
125.0
 30
0.0
 11
70.0
 21
310.0
 31
0.0
  0
LINE
  8
L-ZISSEN
  6
CONTINUOUS
 62
     7
 10
178.0
 20
125.0
 30
0.0
 11
178.0
 21
310.0
 31
0.0
  0
LINE
  8
L-ZISSEN
  6
CONTINUOUS
 62
     7
 10
190.0
 20
125.0
 30
0.0
 11
190.0
 21
310.0
 31
0.0
  0
LINE
  8
L-ZISSEN
  6
CONTINUOUS
 62
     7
 10
136.0
 20
87.0
 30
0.0
 11
200.0
 21
87.0
 31
0.0
  0
LINE
  8
L-ZISSEN
  6
CONTINUOUS
 62
     7
 10
138.975522
 20
84.7
 30
0.0
 11
178.0
 21
84.7
 31
0.0
  0
LINE
  8
L-ZISSEN
  6
CONTINUOUS
 62
     7
 10
199.9
 20
310.0
 30
0.0
 11
199.9
 21
125.0
 31
0.0
  0
CIRCLE
  8
L-ZISSEN
  6
CONTINUOUS
 62
     7
 10
76.0
 20
476.0
 30
0.0
 40
6.0
  0
CIRCLE
  8
L-ZISSEN
  6
CONTINUOUS
 62
     7
 10
76.0
 20
584.0
 30
0.0
 40
6.0
  0
CIRCLE
  8
L-ZISSEN
  6
CONTINUOUS
 62
     7
 10
184.0
 20
584.0
 30
0.0
 40
6.0
  0
LINE
  8
L-ZISSEN
  6
CONTINUOUS
 62
     7
 10
200.0
 20
570.0
 30
0.0
 11
174.72136
 21
570.0
 31
0.0
  0
LINE
  8
L-ZISSEN
  6
CONTINUOUS
 62
     7
 10
60.0
 20
615.0
 30
0.0
 11
200.0
 21
615.0
 31
0.0
  0
LINE
  8
L-ZISSEN
  6
CONTINUOUS
 62
     7
 10
200.0
 20
612.7
 30
0.0
 11
60.0
 21
612.7
 31
0.0
  0
LINE
  8
L-ZISSEN
  6
CONTINUOUS
 62
     7
 10
200.0
 20
570.0
 30
0.0
 11
200.0
 21
615.0
 31
0.0
  0
LINE
  8
L-ZISSEN
  6
CONTINUOUS
 62
     7
 10
60.0
 20
615.0
 30
0.0
 11
60.0
 21
570.0
 31
0.0
  0
ARC
  8
L-ZISSEN
  6
CONTINUOUS
 62
     7
 10
130.0
 20
530.0
 30
0.0
 40
60.0
 50
41.810315
 51
138.189685
  0
LINE
  8
L-ZISSEN
  6
CONTINUOUS
 62
     7
 10
85.27864
 20
570.0
 30
0.0
 11
60.0
 21
570.0
 31
0.0
  0
LINE
  8
L-ZISSEN
  6
CONTINUOUS
 62
     7
 10
409.9
 20
310.0
 30
0.0
 11
409.9
 21
125.0
 31
0.0
  0
LINE
  8
L-ZISSEN
  6
CONTINUOUS
 62
     7
 10
400.0
 20
125.0
 30
0.0
 11
400.0
 21
310.0
 31
0.0
  0
LINE
  8
L-ZISSEN
  6
CONTINUOUS
 62
     7
 10
388.0
 20
125.0
 30
0.0
 11
388.0
 21
310.0
 31
0.0
  0
LINE
  8
L-ZISSEN
  6
CONTINUOUS
 62
     7
 10
280.0
 20
125.0
 30
0.0
 11
280.0
 21
310.0
 31
0.0
  0
LINE
  8
L-ZISSEN
  6
CONTINUOUS
 62
     7
 10
292.0
 20
125.0
 30
0.0
 11
292.0
 21
310.0
 31
0.0
  0
LINE
  8
L-ZISSEN
  6
CONTINUOUS
 62
     7
 10
370.0
 20
100.0
 30
0.0
 11
352.5
 21
95.0
 31
0.0
  0
LINE
  8
L-ZISSEN
  6
CONTINUOUS
 62
     7
 10
310.0
 20
100.0
 30
0.0
 11
327.5
 21
95.0
 31
0.0
  0
LINE
  8
L-ZISSEN
  6
CONTINUOUS
 62
     7
 10
327.5
 20
95.0
 30
0.0
 11
352.5
 21
95.0
 31
0.0
  0
LINE
  8
L-ZISSEN
  6
CONTINUOUS
 62
     7
 10
412.0
 20
125.0
 30
0.0
 11
412.0
 21
100.0
 31
0.0
  0
LINE
  8
L-ZISSEN
  6
CONTINUOUS
 62
     7
 10
268.0
 20
125.0
 30
0.0
 11
268.0
 21
100.0
 31
0.0
  0
LINE
  8
L-ZISSEN
  6
CONTINUOUS
 62
     7
 10
268.0
 20
125.0
 30
0.0
 11
412.0
 21
125.0
 31
0.0
  0
LINE
  8
L-ZISSEN
  6
CONTINUOUS
 62
     7
 10
270.1
 20
310.0
 30
0.0
 11
270.1
 21
125.0
 31
0.0
  0
LINE
  8
L-ZISSEN
  6
CONTINUOUS
 62
     7
 10
268.0
 20
100.0
 30
0.0
 11
412.0
 21
100.0
 31
0.0
  0
LINE
  8
L-ZISSEN
  6
CONTINUOUS
 62
     7
 10
412.0
 20
335.0
 30
0.0
 11
412.0
 21
310.0
 31
0.0
  0
LINE
  8
L-ZISSEN
  6
CONTINUOUS
 62
     7
 10
268.0
 20
310.0
 30
0.0
 11
268.0
 21
335.0
 31
0.0
  0
LINE
  8
L-ZISSEN
  6
CONTINUOUS
 62
     7
 10
268.0
 20
335.0
 30
0.0
 11
412.0
 21
335.0
 31
0.0
  0
LINE
  8
L-ZISSEN
  6
CONTINUOUS
 62
     7
 10
268.0
 20
310.0
 30
0.0
 11
412.0
 21
310.0
 31
0.0
  0
LINE
  8
L-TYUSIN
  6
CENTER
 62
     1
 10
340.0
 20
428.0
 30
0.0
 11
340.0
 21
49.0
 31
0.0
  0
LINE
  8
L-ZISSEN
  6
CONTINUOUS
 62
     7
 10
380.0
 20
87.0
 30
0.0
 11
425.0
 21
87.0
 31
0.0
  0
LINE
  8
L-ZISSEN
  6
CONTINUOUS
 62
     7
 10
380.0
 20
87.0
 30
0.0
 11
380.0
 21
84.7
 31
0.0
  0
LINE
  8
L-ZISSEN
  6
CONTINUOUS
 62
     7
 10
425.0
 20
34.0
 30
0.0
 11
425.0
 21
87.0
 31
0.0
  0
LINE
  8
L-ZISSEN
  6
CONTINUOUS
 62
     7
 10
422.7
 20
84.7
 30
0.0
 11
422.7
 21
34.0
 31
0.0
  0
LINE
  8
L-ZISSEN
  6
CONTINUOUS
 62
     7
 10
383.25
 20
97.0
 30
0.0
 11
404.75
 21
97.0
 31
0.0
  0
LINE
  8
L-ZISSEN
  6
CONTINUOUS
 62
     7
 10
383.25
 20
100.0
 30
0.0
 11
383.25
 21
97.0
 31
0.0
  0
LINE
  8
L-ZISSEN
  6
CONTINUOUS
 62
     7
 10
404.75
 20
100.0
 30
0.0
 11
404.75
 21
97.0
 31
0.0
  0
LINE
  8
L-ZISSEN
  6
CONTINUOUS
 62
     7
 10
425.0
 20
34.0
 30
0.0
 11
422.7
 21
34.0
 31
0.0
  0
LINE
  8
L-ZISSEN
  6
CONTINUOUS
 62
     7
 10
380.0
 20
84.7
 30
0.0
 11
422.7
 21
84.7
 31
0.0
  0
LINE
  8
L-TYUSIN
  6
CENTER
 62
     1
 10
417.7
 20
49.0
 30
0.0
 11
430.0
 21
49.0
 31
0.0
  0
LINE
  8
L-ZISSEN
  6
CONTINUOUS
 62
     7
 10
276.5
 20
87.0
 30
0.0
 11
295.5
 21
87.0
 31
0.0
  0
LINE
  8
L-ZISSEN
  6
CONTINUOUS
 62
     7
 10
280.0
 20
72.5
 30
0.0
 11
280.0
 21
87.0
 31
0.0
  0
LINE
  8
L-ZISSEN
  6
CONTINUOUS
 62
     7
 10
292.0
 20
72.5
 30
0.0
 11
280.0
 21
72.5
 31
0.0
  0
LINE
  8
L-ZISSEN
  6
CONTINUOUS
 62
     7
 10
292.0
 20
72.5
 30
0.0
 11
292.0
 21
87.0
 31
0.0
  0
LINE
  8
L-ZISSEN
  6
CONTINUOUS
 62
     7
 10
70.0
 20
360.3
 30
0.0
 11
65.030345
 21
360.3
 31
0.0
  0
LINE
  8
L-ZISSEN
  6
CONTINUOUS
 62
     7
 10
190.0
 20
360.3
 30
0.0
 11
194.969655
 21
360.3
 31
0.0
  0
LINE
  8
L-ZISSEN
  6
CONTINUOUS
 62
     7
 10
190.0
 20
350.3
 30
0.0
 11
200.0
 21
350.3
 31
0.0
  0
LINE
  8
L-ZISSEN
  6
CONTINUOUS
 62
     7
 10
190.0
 20
84.7
 30
0.0
 11
200.0
 21
84.7
 31
0.0
  0
LINE
  8
L-ZISSEN
  6
CONTINUOUS
 62
     7
 10
190.0
 20
74.7
 30
0.0
 11
194.969655
 21
74.7
 31
0.0
  0
LINE
  8
L-ZISSEN
  6
CONTINUOUS
 62
     7
 10
82.0
 20
84.7
 30
0.0
 11
121.024478
 21
84.7
 31
0.0
  0
LINE
  8
L-ZISSEN
  6
CONTINUOUS
 62
     7
 10
70.0
 20
74.7
 30
0.0
 11
65.030345
 21
74.7
 31
0.0
  0
LINE
  8
L-ZISSEN
  6
CONTINUOUS
 62
     7
 10
178.515172
 20
485.5
 30
0.0
 11
173.030345
 21
476.0
 31
0.0
  0
LINE
  8
L-ZISSEN
  6
CONTINUOUS
 62
     7
 10
173.030345
 20
476.0
 30
0.0
 11
178.515172
 21
466.5
 31
0.0
  0
LINE
  8
L-ZISSEN
  6
CONTINUOUS
 62
     7
 10
178.515172
 20
466.5
 30
0.0
 11
189.484828
 21
466.5
 31
0.0
  0
LINE
  8
L-ZISSEN
  6
CONTINUOUS
 62
     7
 10
189.484828
 20
466.5
 30
0.0
 11
194.969655
 21
476.0
 31
0.0
  0
LINE
  8
L-ZISSEN
  6
CONTINUOUS
 62
     7
 10
194.969655
 20
476.0
 30
0.0
 11
189.484828
 21
485.5
 31
0.0
  0
LINE
  8
L-ZISSEN
  6
CONTINUOUS
 62
     7
 10
189.484828
 20
485.5
 30
0.0
 11
178.515172
 21
485.5
 31
0.0
  0
LINE
  8
L-ZISSEN
  6
CONTINUOUS
 62
     7
 10
81.484828
 20
485.5
 30
0.0
 11
86.969655
 21
476.0
 31
0.0
  0
LINE
  8
L-ZISSEN
  6
CONTINUOUS
 62
     7
 10
86.969655
 20
476.0
 30
0.0
 11
81.484828
 21
466.5
 31
0.0
  0
LINE
  8
L-ZISSEN
  6
CONTINUOUS
 62
     7
 10
81.484828
 20
466.5
 30
0.0
 11
70.515172
 21
466.5
 31
0.0
  0
LINE
  8
L-ZISSEN
  6
CONTINUOUS
 62
     7
 10
70.515172
 20
466.5
 30
0.0
 11
65.030345
 21
476.0
 31
0.0
  0
LINE
  8
L-ZISSEN
  6
CONTINUOUS
 62
     7
 10
65.030345
 20
476.0
 30
0.0
 11
70.515172
 21
485.5
 31
0.0
  0
LINE
  8
L-ZISSEN
  6
CONTINUOUS
 62
     7
 10
70.515172
 20
485.5
 30
0.0
 11
81.484828
 21
485.5
 31
0.0
  0
LINE
  8
L-ZISSEN
  6
CONTINUOUS
 62
     7
 10
81.484828
 20
574.5
 30
0.0
 11
86.969655
 21
584.0
 31
0.0
  0
LINE
  8
L-ZISSEN
  6
CONTINUOUS
 62
     7
 10
86.969655
 20
584.0
 30
0.0
 11
81.484828
 21
593.5
 31
0.0
  0
LINE
  8
L-ZISSEN
  6
CONTINUOUS
 62
     7
 10
81.484828
 20
593.5
 30
0.0
 11
70.515172
 21
593.5
 31
0.0
  0
LINE
  8
L-ZISSEN
  6
CONTINUOUS
 62
     7
 10
70.515172
 20
593.5
 30
0.0
 11
65.030345
 21
584.0
 31
0.0
  0
LINE
  8
L-ZISSEN
  6
CONTINUOUS
 62
     7
 10
65.030345
 20
584.0
 30
0.0
 11
70.515172
 21
574.5
 31
0.0
  0
LINE
  8
L-ZISSEN
  6
CONTINUOUS
 62
     7
 10
70.515172
 20
574.5
 30
0.0
 11
81.484828
 21
574.5
 31
0.0
  0
LINE
  8
L-ZISSEN
  6
CONTINUOUS
 62
     7
 10
178.515172
 20
574.5
 30
0.0
 11
173.030345
 21
584.0
 31
0.0
  0
LINE
  8
L-ZISSEN
  6
CONTINUOUS
 62
     7
 10
173.030345
 20
584.0
 30
0.0
 11
178.515172
 21
593.5
 31
0.0
  0
LINE
  8
L-ZISSEN
  6
CONTINUOUS
 62
     7
 10
178.515172
 20
593.5
 30
0.0
 11
189.484828
 21
593.5
 31
0.0
  0
LINE
  8
L-ZISSEN
  6
CONTINUOUS
 62
     7
 10
189.484828
 20
593.5
 30
0.0
 11
194.969655
 21
584.0
 31
0.0
  0
LINE
  8
L-ZISSEN
  6
CONTINUOUS
 62
     7
 10
194.969655
 20
584.0
 30
0.0
 11
189.484828
 21
574.5
 31
0.0
  0
LINE
  8
L-ZISSEN
  6
CONTINUOUS
 62
     7
 10
189.484828
 20
574.5
 30
0.0
 11
178.515172
 21
574.5
 31
0.0
  0
CIRCLE
  8
L-ZISSEN
  6
CONTINUOUS
 62
     7
 10
130.0
 20
76.0
 30
0.0
 40
12.5
  0
LINE
  8
L-ZISSEN
  6
CONTINUOUS
 62
     7
 10
124.0
 20
89.5
 30
0.0
 11
136.0
 21
89.5
 31
0.0
  0
LINE
  8
L-ZISSEN
  6
CONTINUOUS
 62
     7
 10
136.0
 20
86.965856
 30
0.0
 11
136.0
 21
89.5
 31
0.0
  0
LINE
  8
L-ZISSEN
  6
CONTINUOUS
 62
     7
 10
124.0
 20
86.965856
 30
0.0
 11
124.0
 21
89.5
 31
0.0
  0
LINE
  8
L-ZISSEN
  6
CONTINUOUS
 62
     7
 10
130.0
 20
73.113249
 30
0.0
 11
132.5
 21
74.556624
 31
0.0
  0
LINE
  8
L-ZISSEN
  6
CONTINUOUS
 62
     7
 10
132.5
 20
77.443376
 30
0.0
 11
132.5
 21
74.556624
 31
0.0
  0
LINE
  8
L-ZISSEN
  6
CONTINUOUS
 62
     7
 10
130.0
 20
78.886751
 30
0.0
 11
132.5
 21
77.443376
 31
0.0
  0
LINE
  8
L-ZISSEN
  6
CONTINUOUS
 62
     7
 10
130.0
 20
73.113249
 30
0.0
 11
127.5
 21
74.556624
 31
0.0
  0
LINE
  8
L-ZISSEN
  6
CONTINUOUS
 62
     7
 10
127.5
 20
77.443376
 30
0.0
 11
127.5
 21
74.556624
 31
0.0
  0
LINE
  8
L-ZISSEN
  6
CONTINUOUS
 62
     7
 10
130.0
 20
78.886751
 30
0.0
 11
127.5
 21
77.443376
 31
0.0
  0
LINE
  8
L-ZISSEN
  6
CONTINUOUS
 62
     7
 10
134.25
 20
54.0
 30
0.0
 11
125.75
 21
54.0
 31
0.0
  0
LINE
  8
L-ZISSEN
  6
CONTINUOUS
 62
     7
 10
134.25
 20
54.0
 30
0.0
 11
134.25
 21
64.244682
 31
0.0
  0
LINE
  8
L-ZISSEN
  6
CONTINUOUS
 62
     7
 10
125.75
 20
54.0
 30
0.0
 11
125.75
 21
64.244682
 31
0.0
  0
LINE
  8
L-ZISSEN
  6
CONTINUOUS
 62
     7
 10
134.864
 20
95.0
 30
0.0
 11
134.864
 21
89.5
 31
0.0
  0
LINE
  8
L-ZISSEN
  6
CONTINUOUS
 62
     7
 10
125.136
 20
95.0
 30
0.0
 11
125.136
 21
89.5
 31
0.0
  0
LINE
  8
L-ZISSEN
  6
CONTINUOUS
 62
     7
 10
220.9
 20
146.5
 30
0.0
 11
220.9
 21
129.5
 31
0.0
  0
LINE
  8
L-ZISSEN
  6
CONTINUOUS
 62
     7
 10
208.9
 20
146.5
 30
0.0
 11
208.9
 21
139.5
 31
0.0
  0
LINE
  8
L-ZISSEN
  6
CONTINUOUS
 62
     7
 10
222.982904
 20
156.5
 30
0.0
 11
222.982904
 21
146.5
 31
0.0
  0
LINE
  8
L-ZISSEN
  6
CONTINUOUS
 62
     7
 10
206.817096
 20
146.5
 30
0.0
 11
222.982904
 21
146.5
 31
0.0
  0
LINE
  8
L-ZISSEN
  6
CONTINUOUS
 62
     7
 10
206.817096
 20
156.5
 30
0.0
 11
206.817096
 21
146.5
 31
0.0
  0
LINE
  8
L-ZISSEN
  6
CONTINUOUS
 62
     7
 10
206.817096
 20
156.5
 30
0.0
 11
222.982904
 21
156.5
 31
0.0
  0
LINE
  8
L-ZISSEN
  6
CONTINUOUS
 62
     7
 10
199.9
 20
139.5
 30
0.0
 11
208.9
 21
139.5
 31
0.0
  0
LINE
  8
L-ZISSEN
  6
CONTINUOUS
 62
     7
 10
199.9
 20
129.5
 30
0.0
 11
220.9
 21
129.5
 31
0.0
  0
LINE
  8
L-ZISSEN
  6
CONTINUOUS
 62
     7
 10
210.9
 20
156.5
 30
0.0
 11
210.9
 21
278.5
 31
0.0
  0
LINE
  8
L-ZISSEN
  6
CONTINUOUS
 62
     7
 10
218.9
 20
156.5
 30
0.0
 11
218.9
 21
278.5
 31
0.0
  0
LINE
  8
L-ZISSEN
  6
CONTINUOUS
 62
     7
 10
199.9
 20
305.5
 30
0.0
 11
220.9
 21
305.5
 31
0.0
  0
LINE
  8
L-ZISSEN
  6
CONTINUOUS
 62
     7
 10
199.9
 20
295.5
 30
0.0
 11
208.9
 21
295.5
 31
0.0
  0
LINE
  8
L-ZISSEN
  6
CONTINUOUS
 62
     7
 10
206.817096
 20
278.5
 30
0.0
 11
222.982904
 21
278.5
 31
0.0
  0
LINE
  8
L-ZISSEN
  6
CONTINUOUS
 62
     7
 10
206.817096
 20
278.5
 30
0.0
 11
206.817096
 21
288.5
 31
0.0
  0
LINE
  8
L-ZISSEN
  6
CONTINUOUS
 62
     7
 10
206.817096
 20
288.5
 30
0.0
 11
222.982904
 21
288.5
 31
0.0
  0
LINE
  8
L-ZISSEN
  6
CONTINUOUS
 62
     7
 10
222.982904
 20
278.5
 30
0.0
 11
222.982904
 21
288.5
 31
0.0
  0
LINE
  8
L-ZISSEN
  6
CONTINUOUS
 62
     7
 10
208.9
 20
288.5
 30
0.0
 11
208.9
 21
295.5
 31
0.0
  0
LINE
  8
L-ZISSEN
  6
CONTINUOUS
 62
     7
 10
220.9
 20
288.5
 30
0.0
 11
220.9
 21
305.5
 31
0.0
  0
LINE
  8
L-ZISSEN
  6
CONTINUOUS
 62
     7
 10
333.0
 20
278.5
 30
0.0
 11
347.0
 21
278.5
 31
0.0
  0
LINE
  8
L-ZISSEN
  6
CONTINUOUS
 62
     7
 10
333.0
 20
288.5
 30
0.0
 11
333.0
 21
278.5
 31
0.0
  0
LINE
  8
L-ZISSEN
  6
CONTINUOUS
 62
     7
 10
347.0
 20
288.5
 30
0.0
 11
347.0
 21
278.5
 31
0.0
  0
LINE
  8
L-ZISSEN
  6
CONTINUOUS
 62
     7
 10
334.0
 20
305.5
 30
0.0
 11
346.0
 21
305.5
 31
0.0
  0
LINE
  8
L-ZISSEN
  6
CONTINUOUS
 62
     7
 10
333.0
 20
288.5
 30
0.0
 11
347.0
 21
288.5
 31
0.0
  0
LINE
  8
L-ZISSEN
  6
CONTINUOUS
 62
     7
 10
334.0
 20
288.5
 30
0.0
 11
334.0
 21
305.5
 31
0.0
  0
LINE
  8
L-ZISSEN
  6
CONTINUOUS
 62
     7
 10
346.0
 20
288.5
 30
0.0
 11
346.0
 21
305.5
 31
0.0
  0
LINE
  8
L-ZISSEN
  6
CONTINUOUS
 62
     7
 10
334.0
 20
89.5
 30
0.0
 11
346.0
 21
89.5
 31
0.0
  0
LINE
  8
L-ZISSEN
  6
CONTINUOUS
 62
     7
 10
344.864
 20
95.0
 30
0.0
 11
344.864
 21
89.5
 31
0.0
  0
LINE
  8
L-ZISSEN
  6
CONTINUOUS
 62
     7
 10
335.136
 20
95.0
 30
0.0
 11
335.136
 21
89.5
 31
0.0
  0
LINE
  8
L-ZISSEN
  6
CONTINUOUS
 62
     7
 10
341.25
 20
54.0
 30
0.0
 11
332.75
 21
54.0
 31
0.0
  0
LINE
  8
L-ZISSEN
  6
CONTINUOUS
 62
     7
 10
310.0
 20
78.886751
 30
0.0
 11
310.0
 21
73.113249
 31
0.0
  0
LINE
  8
L-ZISSEN
  6
CONTINUOUS
 62
     7
 10
312.5
 20
63.5
 30
0.0
 11
312.5
 21
88.5
 31
0.0
  0
LINE
  8
L-ZISSEN
  6
CONTINUOUS
 62
     7
 10
316.0
 20
88.5
 30
0.0
 11
316.0
 21
63.5
 31
0.0
  0
LINE
  8
L-ZISSEN
  6
CONTINUOUS
 62
     7
 10
322.0
 20
84.082904
 30
0.0
 11
327.0
 21
84.082904
 31
0.0
  0
LINE
  8
L-ZISSEN
  6
CONTINUOUS
 62
     7
 10
322.0
 20
67.917096
 30
0.0
 11
327.0
 21
67.917096
 31
0.0
  0
LINE
  8
L-ZISSEN
  6
CONTINUOUS
 62
     7
 10
316.0
 20
78.25
 30
0.0
 11
322.0
 21
78.25
 31
0.0
  0
LINE
  8
L-ZISSEN
  6
CONTINUOUS
 62
     7
 10
316.0
 20
73.75
 30
0.0
 11
322.0
 21
73.75
 31
0.0
  0
LINE
  8
L-ZISSEN
  6
CONTINUOUS
 62
     7
 10
312.5
 20
88.5
 30
0.0
 11
316.0
 21
88.5
 31
0.0
  0
LINE
  8
L-ZISSEN
  6
CONTINUOUS
 62
     7
 10
312.5
 20
63.5
 30
0.0
 11
316.0
 21
63.5
 31
0.0
  0
LINE
  8
L-ZISSEN
  6
CONTINUOUS
 62
     7
 10
310.0
 20
78.886751
 30
0.0
 11
312.5
 21
78.886751
 31
0.0
  0
LINE
  8
L-ZISSEN
  6
CONTINUOUS
 62
     7
 10
310.0
 20
73.113249
 30
0.0
 11
312.5
 21
73.113249
 31
0.0
  0
LINE
  8
L-ZISSEN
  6
CONTINUOUS
 62
     7
 10
334.0
 20
82.0
 30
0.0
 11
334.0
 21
89.5
 31
0.0
  0
LINE
  8
L-ZISSEN
  6
CONTINUOUS
 62
     7
 10
346.0
 20
70.0
 30
0.0
 11
346.0
 21
89.5
 31
0.0
  0
LINE
  8
L-ZISSEN
  6
CONTINUOUS
 62
     7
 10
334.0
 20
82.0
 30
0.0
 11
327.0
 21
82.0
 31
0.0
  0
LINE
  8
L-ZISSEN
  6
CONTINUOUS
 62
     7
 10
346.0
 20
70.0
 30
0.0
 11
327.0
 21
70.0
 31
0.0
  0
LINE
  8
L-ZISSEN
  6
CONTINUOUS
 62
     7
 10
341.25
 20
54.0
 30
0.0
 11
341.25
 21
70.0
 31
0.0
  0
LINE
  8
L-ZISSEN
  6
CONTINUOUS
 62
     7
 10
332.75
 20
54.0
 30
0.0
 11
332.75
 21
70.0
 31
0.0
  0
LINE
  8
L-ZISSEN
  6
CONTINUOUS
 62
     7
 10
327.0
 20
84.082904
 30
0.0
 11
327.0
 21
67.917096
 31
0.0
  0
LINE
  8
L-ZISSEN
  6
CONTINUOUS
 62
     7
 10
322.0
 20
84.082904
 30
0.0
 11
322.0
 21
67.917096
 31
0.0
  0
LINE
  8
L-ZISSEN
  6
CONTINUOUS
 62
     7
 10
388.0
 20
72.5
 30
0.0
 11
388.0
 21
74.7
 31
0.0
  0
LINE
  8
L-ZISSEN
  6
CONTINUOUS
 62
     7
 10
400.0
 20
72.5
 30
0.0
 11
400.0
 21
74.7
 31
0.0
  0
LINE
  8
L-ZISSEN
  6
CONTINUOUS
 62
     7
 10
400.0
 20
72.5
 30
0.0
 11
388.0
 21
72.5
 31
0.0
  0
LINE
  8
L-ZISSEN
  6
CONTINUOUS
 62
     7
 10
276.5
 20
87.0
 30
0.0
 11
276.5
 21
97.0
 31
0.0
  0
LINE
  8
L-ZISSEN
  6
CONTINUOUS
 62
     7
 10
295.5
 20
87.0
 30
0.0
 11
295.5
 21
97.0
 31
0.0
  0
LINE
  8
L-ZISSEN
  6
CONTINUOUS
 62
     7
 10
403.5
 20
87.0
 30
0.0
 11
403.5
 21
97.0
 31
0.0
  0
LINE
  8
L-ZISSEN
  6
CONTINUOUS
 62
     7
 10
384.5
 20
87.0
 30
0.0
 11
384.5
 21
97.0
 31
0.0
  0
LINE
  8
L-ZISSEN
  6
CONTINUOUS
 62
     7
 10
384.5
 20
74.7
 30
0.0
 11
403.5
 21
74.7
 31
0.0
  0
LINE
  8
L-ZISSEN
  6
CONTINUOUS
 62
     7
 10
384.5
 20
74.7
 30
0.0
 11
384.5
 21
84.7
 31
0.0
  0
LINE
  8
L-ZISSEN
  6
CONTINUOUS
 62
     7
 10
403.5
 20
74.7
 30
0.0
 11
403.5
 21
84.7
 31
0.0
  0
LINE
  8
L-ZISSEN
  6
CONTINUOUS
 62
     7
 10
296.75
 20
100.0
 30
0.0
 11
296.75
 21
97.0
 31
0.0
  0
LINE
  8
L-ZISSEN
  6
CONTINUOUS
 62
     7
 10
275.25
 20
100.0
 30
0.0
 11
275.25
 21
97.0
 31
0.0
  0
LINE
  8
L-ZISSEN
  6
CONTINUOUS
 62
     7
 10
275.25
 20
97.0
 30
0.0
 11
296.75
 21
97.0
 31
0.0
  0
LINE
  8
L-ZISSEN
  6
CONTINUOUS
 62
     7
 10
403.5
 20
360.3
 30
0.0
 11
403.5
 21
350.3
 31
0.0
  0
LINE
  8
L-ZISSEN
  6
CONTINUOUS
 62
     7
 10
384.5
 20
360.3
 30
0.0
 11
384.5
 21
350.3
 31
0.0
  0
LINE
  8
L-ZISSEN
  6
CONTINUOUS
 62
     7
 10
384.5
 20
360.3
 30
0.0
 11
403.5
 21
360.3
 31
0.0
  0
LINE
  8
L-ZISSEN
  6
CONTINUOUS
 62
     7
 10
384.5
 20
348.0
 30
0.0
 11
384.5
 21
338.0
 31
0.0
  0
LINE
  8
L-ZISSEN
  6
CONTINUOUS
 62
     7
 10
403.5
 20
348.0
 30
0.0
 11
403.5
 21
338.0
 31
0.0
  0
LINE
  8
L-ZISSEN
  6
CONTINUOUS
 62
     7
 10
400.0
 20
362.5
 30
0.0
 11
388.0
 21
362.5
 31
0.0
  0
LINE
  8
L-ZISSEN
  6
CONTINUOUS
 62
     7
 10
400.0
 20
362.5
 30
0.0
 11
400.0
 21
360.3
 31
0.0
  0
LINE
  8
L-ZISSEN
  6
CONTINUOUS
 62
     7
 10
388.0
 20
362.5
 30
0.0
 11
388.0
 21
360.3
 31
0.0
  0
LINE
  8
L-TYUSIN
  6
CENTER
 62
     1
 10
417.7
 20
386.0
 30
0.0
 11
430.0
 21
386.0
 31
0.0
  0
LINE
  8
L-ZISSEN
  6
CONTINUOUS
 62
     7
 10
380.0
 20
350.3
 30
0.0
 11
422.7
 21
350.3
 31
0.0
  0
LINE
  8
L-ZISSEN
  6
CONTINUOUS
 62
     7
 10
425.0
 20
401.0
 30
0.0
 11
422.7
 21
401.0
 31
0.0
  0
LINE
  8
L-ZISSEN
  6
CONTINUOUS
 62
     7
 10
404.75
 20
335.0
 30
0.0
 11
404.75
 21
338.0
 31
0.0
  0
LINE
  8
L-ZISSEN
  6
CONTINUOUS
 62
     7
 10
383.25
 20
335.0
 30
0.0
 11
383.25
 21
338.0
 31
0.0
  0
LINE
  8
L-ZISSEN
  6
CONTINUOUS
 62
     7
 10
383.25
 20
338.0
 30
0.0
 11
404.75
 21
338.0
 31
0.0
  0
LINE
  8
L-ZISSEN
  6
CONTINUOUS
 62
     7
 10
422.7
 20
350.3
 30
0.0
 11
422.7
 21
401.0
 31
0.0
  0
LINE
  8
L-ZISSEN
  6
CONTINUOUS
 62
     7
 10
425.0
 20
401.0
 30
0.0
 11
425.0
 21
348.0
 31
0.0
  0
LINE
  8
L-ZISSEN
  6
CONTINUOUS
 62
     7
 10
380.0
 20
348.0
 30
0.0
 11
380.0
 21
350.3
 31
0.0
  0
LINE
  8
L-ZISSEN
  6
CONTINUOUS
 62
     7
 10
380.0
 20
348.0
 30
0.0
 11
425.0
 21
348.0
 31
0.0
  0
LINE
  8
L-ZISSEN
  6
CONTINUOUS
 62
     7
 10
275.25
 20
338.0
 30
0.0
 11
296.75
 21
338.0
 31
0.0
  0
LINE
  8
L-ZISSEN
  6
CONTINUOUS
 62
     7
 10
275.25
 20
335.0
 30
0.0
 11
275.25
 21
338.0
 31
0.0
  0
LINE
  8
L-ZISSEN
  6
CONTINUOUS
 62
     7
 10
296.75
 20
335.0
 30
0.0
 11
296.75
 21
338.0
 31
0.0
  0
LINE
  8
L-ZISSEN
  6
CONTINUOUS
 62
     7
 10
295.5
 20
348.0
 30
0.0
 11
295.5
 21
338.0
 31
0.0
  0
LINE
  8
L-ZISSEN
  6
CONTINUOUS
 62
     7
 10
276.5
 20
348.0
 30
0.0
 11
276.5
 21
338.0
 31
0.0
  0
LINE
  8
L-ZISSEN
  6
CONTINUOUS
 62
     7
 10
292.0
 20
362.5
 30
0.0
 11
292.0
 21
348.0
 31
0.0
  0
LINE
  8
L-ZISSEN
  6
CONTINUOUS
 62
     7
 10
292.0
 20
362.5
 30
0.0
 11
280.0
 21
362.5
 31
0.0
  0
LINE
  8
L-ZISSEN
  6
CONTINUOUS
 62
     7
 10
280.0
 20
362.5
 30
0.0
 11
280.0
 21
348.0
 31
0.0
  0
LINE
  8
L-ZISSEN
  6
CONTINUOUS
 62
     7
 10
276.5
 20
348.0
 30
0.0
 11
295.5
 21
348.0
 31
0.0
  0
LINE
  8
L-ZISSEN
  6
CONTINUOUS
 62
     7
 10
202.0
 20
535.0
 30
0.0
 11
220.9
 21
535.0
 31
0.0
  0
LINE
  8
L-TYUSIN
  6
CENTER
 62
     1
 10
160.0
 20
386.0
 30
0.0
 11
190.0
 21
386.0
 31
0.0
  0
LINE
  8
L-TYUSIN
  6
CENTER
 62
     1
 10
175.0
 20
376.0
 30
0.0
 11
175.0
 21
396.0
 31
0.0
  0
LINE
  8
L-TYUSIN
  6
CENTER
 62
     1
 10
100.0
 20
49.0
 30
0.0
 11
70.0
 21
49.0
 31
0.0
  0
LINE
  8
L-TYUSIN
  6
CENTER
 62
     1
 10
85.0
 20
39.0
 30
0.0
 11
85.0
 21
59.0
 31
0.0
  0
LINE
  8
L-TYUSIN
  6
CENTER
 62
     1
 10
160.0
 20
49.0
 30
0.0
 11
190.0
 21
49.0
 31
0.0
  0
LINE
  8
L-TYUSIN
  6
CENTER
 62
     1
 10
175.0
 20
39.0
 30
0.0
 11
175.0
 21
59.0
 31
0.0
  0
LINE
  8
L-ZISSEN
  6
CONTINUOUS
 62
     7
 10
220.9
 20
525.0
 30
0.0
 11
220.9
 21
535.0
 31
0.0
  0
LINE
  8
L-ZISSEN
  6
CONTINUOUS
 62
     7
 10
202.0
 20
525.0
 30
0.0
 11
220.9
 21
525.0
 31
0.0
  0
LINE
  8
L-ZISSEN
  6
CONTINUOUS
 62
     7
 10
210.858548
 20
537.0
 30
0.0
 11
209.703848
 21
535.0
 31
0.0
  0
LINE
  8
L-ZISSEN
  6
CONTINUOUS
 62
     7
 10
209.703848
 20
525.0
 30
0.0
 11
210.858548
 21
523.0
 31
0.0
  0
LINE
  8
L-ZISSEN
  6
CONTINUOUS
 62
     7
 10
210.858548
 20
523.0
 30
0.0
 11
218.941452
 21
523.0
 31
0.0
  0
LINE
  8
L-ZISSEN
  6
CONTINUOUS
 62
     7
 10
218.941452
 20
523.0
 30
0.0
 11
220.096152
 21
525.0
 31
0.0
  0
LINE
  8
L-ZISSEN
  6
CONTINUOUS
 62
     7
 10
222.982904
 20
530.0
 30
0.0
 11
220.9
 21
533.607695
 31
0.0
  0
LINE
  8
L-ZISSEN
  6
CONTINUOUS
 62
     7
 10
218.941452
 20
537.0
 30
0.0
 11
210.858548
 21
537.0
 31
0.0
  0
LINE
  8
L-ZISSEN
  6
CONTINUOUS
 62
     7
 10
220.9
 20
526.392305
 30
0.0
 11
222.982904
 21
530.0
 31
0.0
  0
LINE
  8
L-ZISSEN
  6
CONTINUOUS
 62
     7
 10
220.096152
 20
535.0
 30
0.0
 11
218.941452
 21
537.0
 31
0.0
  0
LINE
  8
L-ZISSEN
  6
CONTINUOUS
 62
     7
 10
173.0
 20
348.0
 30
0.0
 11
200.0
 21
348.0
 31
0.0
  0
LINE
  8
L-ZISSEN
  6
CONTINUOUS
 62
     7
 10
117.25
 20
401.0
 30
0.0
 11
60.0
 21
401.0
 31
0.0
  0
LINE
  8
L-TYUSIN
  6
CENTER
 62
     1
 10
85.0
 20
607.7
 30
0.0
 11
85.0
 21
620.0
 31
0.0
  0
LINE
  8
L-TYUSIN
  6
CENTER
 62
     1
 10
175.0
 20
607.7
 30
0.0
 11
175.0
 21
620.0
 31
0.0
  0
LINE
  8
L-ZISSEN
 10
1155.0
 20
270.0
 30
0.0
 11
1235.0
 21
270.0
 31
0.0
  0
LINE
  8
L-ZISSEN
 10
1155.0
 20
46.0
 30
0.0
 11
1235.0
 21
46.0
 31
0.0
  0
LINE
  8
L-ZISSEN
 10
1155.0
 20
46.0
 30
0.0
 11
1155.0
 21
270.0
 31
0.0
  0
LINE
  8
L-ZISSEN
 10
1175.0
 20
46.0
 30
0.0
 11
1175.0
 21
270.0
 31
0.0
  0
LINE
  8
L-ZISSEN
 10
1235.0
 20
46.0
 30
0.0
 11
1235.0
 21
270.0
 31
0.0
  0
LINE
  8
L-ZISSEN
 10
1215.0
 20
46.0
 30
0.0
 11
1215.0
 21
270.0
 31
0.0
  0
LINE
  8
L-ZISSEN
 10
1057.0
 20
46.0
 30
0.0
 11
1092.0
 21
46.0
 31
0.0
  0
LINE
  8
L-ZISSEN
 10
1057.0
 20
270.0
 30
0.0
 11
1092.0
 21
270.0
 31
0.0
  0
LINE
  8
L-ZISSEN
 10
1057.0
 20
250.0
 30
0.0
 11
1057.0
 21
65.0
 31
0.0
  0
LINE
  8
L-ZISSEN
 10
1058.2
 20
270.0
 30
0.0
 11
1058.2
 21
46.0
 31
0.0
  0
LINE
  8
L-ZISSEN
 10
1092.0
 20
270.0
 30
0.0
 11
1092.0
 21
46.0
 31
0.0
  0
LINE
  8
L-ZISSEN
  6
CONTINUOUS
 62
     7
 10
1054.9
 20
69.25
 30
0.0
 11
1057.0
 21
69.25
 31
0.0
  0
LINE
  8
L-ZISSEN
  6
CONTINUOUS
 62
     7
 10
1054.9
 20
79.75
 30
0.0
 11
1057.0
 21
79.75
 31
0.0
  0
LINE
  8
L-ZISSEN
  6
CONTINUOUS
 62
     7
 10
1054.9
 20
245.75
 30
0.0
 11
1057.0
 21
245.75
 31
0.0
  0
LINE
  8
L-ZISSEN
  6
CONTINUOUS
 62
     7
 10
1054.9
 20
235.25
 30
0.0
 11
1057.0
 21
235.25
 31
0.0
  0
LINE
  8
L-ZISSEN
  6
CONTINUOUS
 62
     7
 10
1092.0
 20
390.0
 30
0.0
 11
1092.0
 21
350.0
 31
0.0
  0
SOLID
  8
L-ZISSEN
 10
986.649916
 20
371.178511
 30
0.0
 11
986.178511
 21
371.649916
 31
0.0
 12
985.0
 22
370.0
 32
0.0
 13
985.0
 23
370.0
 33
0.0
  0
LINE
  8
L-ZISSEN
 10
986.414214
 20
371.414214
 30
0.0
 11
1000.0
 21
385.0
 31
0.0
  0
LINE
  8
L-ZISSEN
 10
1000.0
 20
385.0
 30
0.0
 11
1002.0
 21
385.0
 31
0.0
  0
TEXT
  8
L-ZISSEN
 10
1004.0
 20
382.75
 30
0.0
 40
4.5
  1
P.P
  0
LINE
  8
L-ZISSEN
  6
CONTINUOUS
 62
     7
 10
1058.2
 20
350.0
 30
0.0
 11
1058.2
 21
330.0
 31
0.0
  0
LINE
  8
L-ZISSEN
 10
1057.0
 20
410.0
 30
0.0
 11
1058.2
 21
410.0
 31
0.0
  0
LINE
  8
L-ZISSEN
 10
1057.0
 20
330.0
 30
0.0
 11
1058.2
 21
330.0
 31
0.0
  0
LINE
  8
L-ZISSEN
 10
1092.0
 20
350.0
 30
0.0
 11
1058.2
 21
350.0
 31
0.0
  0
LINE
  8
L-ZISSEN
 10
1090.8
 20
351.2
 30
0.0
 11
1057.0
 21
351.2
 31
0.0
  0
LINE
  8
L-ZISSEN
  6
CONTINUOUS
 62
     7
 10
1090.8
 20
388.8
 30
0.0
 11
1090.8
 21
351.2
 31
0.0
  0
LINE
  8
L-ZISSEN
 10
1090.8
 20
388.8
 30
0.0
 11
1057.0
 21
388.8
 31
0.0
  0
LINE
  8
L-ZISSEN
 10
1092.0
 20
390.0
 30
0.0
 11
1058.2
 21
390.0
 31
0.0
  0
LINE
  8
L-ZISSEN
 10
1057.0
 20
410.0
 30
0.0
 11
1058.2
 21
410.0
 31
0.0
  0
LINE
  8
L-ZISSEN
  6
CONTINUOUS
 62
     7
 10
1058.2
 20
390.0
 30
0.0
 11
1058.2
 21
410.0
 31
0.0
  0
LINE
  8
L-ZISSEN
 10
1162.113249
 20
267.5
 30
0.0
 11
1159.226497
 21
262.5
 31
0.0
  0
LINE
  8
L-ZISSEN
 10
1159.226497
 20
262.5
 30
0.0
 11
1162.113249
 21
257.5
 31
0.0
  0
LINE
  8
L-ZISSEN
 10
1162.113249
 20
257.5
 30
0.0
 11
1167.886751
 21
257.5
 31
0.0
  0
LINE
  8
L-ZISSEN
 10
1167.886751
 20
257.5
 30
0.0
 11
1170.773503
 21
262.5
 31
0.0
  0
LINE
  8
L-ZISSEN
 10
1170.773503
 20
262.5
 30
0.0
 11
1167.886751
 21
267.5
 31
0.0
  0
LINE
  8
L-ZISSEN
 10
1167.886751
 20
267.5
 30
0.0
 11
1162.113249
 21
267.5
 31
0.0
  0
LINE
  8
L-ZISSEN
 10
1227.886751
 20
267.5
 30
0.0
 11
1230.773503
 21
262.5
 31
0.0
  0
LINE
  8
L-ZISSEN
 10
1230.773503
 20
262.5
 30
0.0
 11
1227.886751
 21
257.5
 31
0.0
  0
LINE
  8
L-ZISSEN
 10
1227.886751
 20
257.5
 30
0.0
 11
1222.113249
 21
257.5
 31
0.0
  0
LINE
  8
L-ZISSEN
 10
1222.113249
 20
257.5
 30
0.0
 11
1219.226497
 21
262.5
 31
0.0
  0
LINE
  8
L-ZISSEN
 10
1219.226497
 20
262.5
 30
0.0
 11
1222.113249
 21
267.5
 31
0.0
  0
LINE
  8
L-ZISSEN
 10
1222.113249
 20
267.5
 30
0.0
 11
1227.886751
 21
267.5
 31
0.0
  0
LINE
  8
L-ZISSEN
 10
1063.7
 20
257.5
 30
0.0
 11
1059.7
 21
257.5
 31
0.0
  0
LINE
  8
L-ZISSEN
 10
1063.7
 20
267.5
 30
0.0
 11
1059.7
 21
267.5
 31
0.0
  0
LINE
  8
L-ZISSEN
 10
1059.7
 20
268.6
 30
0.0
 11
1059.7
 21
256.4
 31
0.0
  0
LINE
  8
L-ZISSEN
 10
1059.7
 20
256.4
 30
0.0
 11
1058.2
 21
256.4
 31
0.0
  0
LINE
  8
L-ZISSEN
 10
1059.7
 20
268.6
 30
0.0
 11
1058.2
 21
268.6
 31
0.0
  0
LINE
  8
L-ZISSEN
 10
1063.7
 20
267.5
 30
0.0
 11
1063.7
 21
257.5
 31
0.0
  0
LINE
  8
L-ZISSEN
 10
1063.7
 20
345.773503
 30
0.0
 11
1063.7
 21
334.226497
 31
0.0
  0
LINE
  8
L-ZISSEN
 10
1059.7
 20
346.1
 30
0.0
 11
1058.2
 21
346.1
 31
0.0
  0
LINE
  8
L-ZISSEN
 10
1059.7
 20
333.9
 30
0.0
 11
1058.2
 21
333.9
 31
0.0
  0
LINE
  8
L-ZISSEN
 10
1059.7
 20
346.1
 30
0.0
 11
1059.7
 21
333.9
 31
0.0
  0
LINE
  8
L-ZISSEN
 10
1063.7
 20
334.226497
 30
0.0
 11
1059.7
 21
334.226497
 31
0.0
  0
LINE
  8
L-ZISSEN
 10
1063.7
 20
345.773503
 30
0.0
 11
1059.7
 21
345.773503
 31
0.0
  0
LINE
  8
L-ZISSEN
 10
1063.7
 20
394.226497
 30
0.0
 11
1059.7
 21
394.226497
 31
0.0
  0
LINE
  8
L-ZISSEN
 10
1063.7
 20
405.773503
 30
0.0
 11
1059.7
 21
405.773503
 31
0.0
  0
LINE
  8
L-ZISSEN
 10
1059.7
 20
393.9
 30
0.0
 11
1059.7
 21
406.1
 31
0.0
  0
LINE
  8
L-ZISSEN
 10
1059.7
 20
406.1
 30
0.0
 11
1058.2
 21
406.1
 31
0.0
  0
LINE
  8
L-ZISSEN
 10
1059.7
 20
393.9
 30
0.0
 11
1058.2
 21
393.9
 31
0.0
  0
LINE
  8
L-ZISSEN
 10
1063.7
 20
394.226497
 30
0.0
 11
1063.7
 21
405.773503
 31
0.0
  0
LINE
  8
L-ZISSEN
 10
1222.113249
 20
48.5
 30
0.0
 11
1227.886751
 21
48.5
 31
0.0
  0
LINE
  8
L-ZISSEN
 10
1219.226497
 20
53.5
 30
0.0
 11
1222.113249
 21
48.5
 31
0.0
  0
LINE
  8
L-ZISSEN
 10
1222.113249
 20
58.5
 30
0.0
 11
1219.226497
 21
53.5
 31
0.0
  0
LINE
  8
L-ZISSEN
 10
1227.886751
 20
58.5
 30
0.0
 11
1222.113249
 21
58.5
 31
0.0
  0
LINE
  8
L-ZISSEN
 10
1230.773503
 20
53.5
 30
0.0
 11
1227.886751
 21
58.5
 31
0.0
  0
LINE
  8
L-ZISSEN
 10
1227.886751
 20
48.5
 30
0.0
 11
1230.773503
 21
53.5
 31
0.0
  0
LINE
  8
L-ZISSEN
 10
1167.886751
 20
48.5
 30
0.0
 11
1162.113249
 21
48.5
 31
0.0
  0
LINE
  8
L-ZISSEN
 10
1170.773503
 20
53.5
 30
0.0
 11
1167.886751
 21
48.5
 31
0.0
  0
LINE
  8
L-ZISSEN
 10
1167.886751
 20
58.5
 30
0.0
 11
1170.773503
 21
53.5
 31
0.0
  0
LINE
  8
L-ZISSEN
 10
1162.113249
 20
58.5
 30
0.0
 11
1167.886751
 21
58.5
 31
0.0
  0
LINE
  8
L-ZISSEN
 10
1159.226497
 20
53.5
 30
0.0
 11
1162.113249
 21
58.5
 31
0.0
  0
LINE
  8
L-ZISSEN
 10
1162.113249
 20
48.5
 30
0.0
 11
1159.226497
 21
53.5
 31
0.0
  0
LINE
  8
L-ZISSEN
 10
1063.7
 20
48.5
 30
0.0
 11
1063.7
 21
58.5
 31
0.0
  0
LINE
  8
L-ZISSEN
 10
1059.7
 20
47.4
 30
0.0
 11
1058.2
 21
47.4
 31
0.0
  0
LINE
  8
L-ZISSEN
 10
1059.7
 20
59.6
 30
0.0
 11
1058.2
 21
59.6
 31
0.0
  0
LINE
  8
L-ZISSEN
 10
1059.7
 20
47.4
 30
0.0
 11
1059.7
 21
59.6
 31
0.0
  0
LINE
  8
L-ZISSEN
 10
1063.7
 20
48.5
 30
0.0
 11
1059.7
 21
48.5
 31
0.0
  0
LINE
  8
L-ZISSEN
 10
1063.7
 20
58.5
 30
0.0
 11
1059.7
 21
58.5
 31
0.0
  0
LINE
  8
L-ZISSEN
  6
CONTINUOUS
 62
     7
 10
502.45
 20
591.05
 30
0.0
 11
502.45
 21
547.248182
 31
0.0
  0
LINE
  8
L-ZISSEN
  6
CONTINUOUS
 62
     7
 10
832.55
 20
591.05
 30
0.0
 11
832.55
 21
547.248182
 31
0.0
  0
LINE
  8
L-ZISSEN
  6
CONTINUOUS
 62
     7
 10
502.45
 20
206.05
 30
0.0
 11
502.45
 21
162.248182
 31
0.0
  0
LINE
  8
L-ZISSEN
  6
CONTINUOUS
 62
     7
 10
832.55
 20
206.05
 30
0.0
 11
832.55
 21
162.248182
 31
0.0
  0
LINE
  8
L-ZISSEN
  6
CONTINUOUS
 62
     7
 10
161.0
 20
336.0
 30
0.0
 11
161.0
 21
335.0
 31
0.0
  0
LINE
  8
L-ZISSEN
  6
CONTINUOUS
 62
     7
 10
167.0
 20
336.0
 30
0.0
 11
167.0
 21
335.0
 31
0.0
  0
LINE
  8
L-ZISSEN
  6
CONTINUOUS
 62
     7
 10
127.0
 20
336.0
 30
0.0
 11
127.0
 21
335.0
 31
0.0
  0
LINE
  8
L-ZISSEN
  6
CONTINUOUS
 62
     7
 10
133.0
 20
336.0
 30
0.0
 11
133.0
 21
335.0
 31
0.0
  0
LINE
  8
L-ZISSEN
  6
CONTINUOUS
 62
     7
 10
99.0
 20
336.0
 30
0.0
 11
99.0
 21
335.0
 31
0.0
  0
LINE
  8
L-ZISSEN
  6
CONTINUOUS
 62
     7
 10
93.0
 20
336.0
 30
0.0
 11
93.0
 21
335.0
 31
0.0
  0
LINE
  8
L-ZISSEN
  6
CONTINUOUS
 62
     7
 10
299.0
 20
336.0
 30
0.0
 11
299.0
 21
335.0
 31
0.0
  0
LINE
  8
L-ZISSEN
  6
CONTINUOUS
 62
     7
 10
317.0
 20
336.0
 30
0.0
 11
317.0
 21
335.0
 31
0.0
  0
LINE
  8
L-ZISSEN
  6
CONTINUOUS
 62
     7
 10
311.0
 20
336.0
 30
0.0
 11
311.0
 21
335.0
 31
0.0
  0
LINE
  8
L-ZISSEN
  6
CONTINUOUS
 62
     7
 10
369.0
 20
336.0
 30
0.0
 11
369.0
 21
335.0
 31
0.0
  0
LINE
  8
L-ZISSEN
  6
CONTINUOUS
 62
     7
 10
363.0
 20
336.0
 30
0.0
 11
363.0
 21
335.0
 31
0.0
  0
LINE
  8
L-ZISSEN
  6
CONTINUOUS
 62
     7
 10
381.0
 20
336.0
 30
0.0
 11
381.0
 21
335.0
 31
0.0
  0
CIRCLE
  8
L-ZISSEN
  6
CONTINUOUS
 62
     7
 10
130.0
 20
530.0
 30
0.0
 40
17.5
  0
CIRCLE
  8
L-ZISSEN
  6
CONTINUOUS
 62
     7
 10
130.0
 20
530.0
 30
0.0
 40
12.75
  0
LINE
  8
L-ZISSEN
  6
CONTINUOUS
 62
     7
 10
164.0
 20
562.0
 30
0.0
 11
157.202941
 21
562.0
 31
0.0
  0
ARC
  8
L-ZISSEN
  6
CONTINUOUS
 62
     7
 10
164.0
 20
556.0
 30
0.0
 40
6.0
 50
0.0
 51
90.0
  0
CIRCLE
  8
L-ZISSEN
  6
CONTINUOUS
 62
     7
 10
164.0
 20
556.0
 30
0.0
 40
5.25
  0
ARC
  8
L-ZISSEN
  6
CONTINUOUS
 62
     7
 10
96.0
 20
556.0
 30
0.0
 40
6.0
 50
90.0
 51
180.0
  0
LINE
  8
L-ZISSEN
  6
CONTINUOUS
 62
     7
 10
96.0
 20
562.0
 30
0.0
 11
102.797059
 21
562.0
 31
0.0
  0
CIRCLE
  8
L-ZISSEN
  6
CONTINUOUS
 62
     7
 10
96.0
 20
556.0
 30
0.0
 40
5.25
  0
ARC
  8
L-ZISSEN
  6
CONTINUOUS
 62
     7
 10
130.0
 20
574.0
 30
0.0
 40
6.0
 50
0.0
 51
180.0
  0
LINE
  8
L-ZISSEN
  6
CONTINUOUS
 62
     7
 10
124.0
 20
574.0
 30
0.0
 11
122.450326
 21
571.315886
 31
0.0
  0
LINE
  8
L-ZISSEN
  6
CONTINUOUS
 62
     7
 10
136.0
 20
574.0
 30
0.0
 11
137.549674
 21
571.315886
 31
0.0
  0
ARC
  8
L-ZISSEN
  6
CONTINUOUS
 62
     7
 10
130.0
 20
574.0
 30
0.0
 40
5.25
 50
306.802981
 51
233.197019
  0
ARC
  8
L-ZISSEN
  6
CONTINUOUS
 62
     7
 10
130.0
 20
530.0
 30
0.0
 40
42.0
 50
100.35544
 51
130.367594
  0
ARC
  8
L-ZISSEN
  6
CONTINUOUS
 62
     7
 10
130.0
 20
530.0
 30
0.0
 40
42.0
 50
49.632406
 51
79.64456
  0
ARC
  8
L-ZISSEN
  6
CONTINUOUS
 62
     7
 10
130.0
 20
530.0
 30
0.0
 40
42.0
 50
280.35544
 51
310.367594
  0
ARC
  8
L-ZISSEN
  6
CONTINUOUS
 62
     7
 10
130.0
 20
530.0
 30
0.0
 40
42.0
 50
229.632406
 51
259.64456
  0
ARC
  8
L-ZISSEN
  6
CONTINUOUS
 62
     7
 10
130.0
 20
486.0
 30
0.0
 40
5.25
 50
126.802981
 51
53.197019
  0
LINE
  8
L-ZISSEN
  6
CONTINUOUS
 62
     7
 10
136.0
 20
486.0
 30
0.0
 11
137.549674
 21
488.684114
 31
0.0
  0
LINE
  8
L-ZISSEN
  6
CONTINUOUS
 62
     7
 10
124.0
 20
486.0
 30
0.0
 11
122.450326
 21
488.684114
 31
0.0
  0
ARC
  8
L-ZISSEN
  6
CONTINUOUS
 62
     7
 10
130.0
 20
486.0
 30
0.0
 40
6.0
 50
180.0
 51
0.0
  0
CIRCLE
  8
L-ZISSEN
  6
CONTINUOUS
 62
     7
 10
96.0
 20
504.0
 30
0.0
 40
5.25
  0
LINE
  8
L-ZISSEN
  6
CONTINUOUS
 62
     7
 10
96.0
 20
498.0
 30
0.0
 11
102.797059
 21
498.0
 31
0.0
  0
ARC
  8
L-ZISSEN
  6
CONTINUOUS
 62
     7
 10
96.0
 20
504.0
 30
0.0
 40
6.0
 50
180.0
 51
270.0
  0
CIRCLE
  8
L-ZISSEN
  6
CONTINUOUS
 62
     7
 10
164.0
 20
504.0
 30
0.0
 40
5.25
  0
ARC
  8
L-ZISSEN
  6
CONTINUOUS
 62
     7
 10
164.0
 20
504.0
 30
0.0
 40
6.0
 50
270.0
 51
0.0
  0
LINE
  8
L-ZISSEN
  6
CONTINUOUS
 62
     7
 10
164.0
 20
498.0
 30
0.0
 11
157.202941
 21
498.0
 31
0.0
  0
LINE
  8
L-ZISSEN
  6
CONTINUOUS
 62
     7
 10
79.0
 20
551.0
 30
0.0
 11
79.0
 21
509.0
 31
0.0
  0
LINE
  8
L-ZISSEN
  6
CONTINUOUS
 62
     7
 10
170.0
 20
556.0
 30
0.0
 11
170.384615
 21
551.0
 31
0.0
  0
LINE
  8
L-ZISSEN
  6
CONTINUOUS
 62
     7
 10
170.0
 20
504.0
 30
0.0
 11
170.384615
 21
509.0
 31
0.0
  0
LINE
  8
L-ZISSEN
  6
CONTINUOUS
 62
     7
 10
90.0
 20
556.0
 30
0.0
 11
89.615385
 21
551.0
 31
0.0
  0
LINE
  8
L-ZISSEN
  6
CONTINUOUS
 62
     7
 10
90.0
 20
504.0
 30
0.0
 11
89.615385
 21
509.0
 31
0.0
  0
LINE
  8
L-ZISSEN
  6
CONTINUOUS
 62
     7
 10
79.0
 20
509.0
 30
0.0
 11
94.399219
 21
509.0
 31
0.0
  0
LINE
  8
L-ZISSEN
  6
CONTINUOUS
 62
     7
 10
97.600781
 20
509.0
 30
0.0
 11
109.0
 21
509.0
 31
0.0
  0
LINE
  8
L-ZISSEN
  6
CONTINUOUS
 62
     7
 10
97.600781
 20
551.0
 30
0.0
 11
109.0
 21
551.0
 31
0.0
  0
LINE
  8
L-ZISSEN
  6
CONTINUOUS
 62
     7
 10
79.0
 20
551.0
 30
0.0
 11
94.399219
 21
551.0
 31
0.0
  0
LINE
  8
L-ZISSEN
  6
CONTINUOUS
 62
     7
 10
109.0
 20
509.0
 30
0.0
 11
117.660254
 21
514.0
 31
0.0
  0
LINE
  8
L-ZISSEN
  6
CONTINUOUS
 62
     7
 10
109.0
 20
551.0
 30
0.0
 11
114.203337
 21
547.995852
 31
0.0
  0
LINE
  8
L-ZISSEN
  6
CONTINUOUS
 62
     7
 10
181.0
 20
551.0
 30
0.0
 11
165.600781
 21
551.0
 31
0.0
  0
LINE
  8
L-ZISSEN
  6
CONTINUOUS
 62
     7
 10
162.399219
 20
551.0
 30
0.0
 11
149.970488
 21
551.0
 31
0.0
  0
LINE
  8
L-ZISSEN
  6
CONTINUOUS
 62
     7
 10
162.399219
 20
509.0
 30
0.0
 11
149.970488
 21
509.0
 31
0.0
  0
LINE
  8
L-ZISSEN
  6
CONTINUOUS
 62
     7
 10
181.0
 20
509.0
 30
0.0
 11
165.600781
 21
509.0
 31
0.0
  0
LINE
  8
L-ZISSEN
  6
CONTINUOUS
 62
     7
 10
181.0
 20
551.0
 30
0.0
 11
181.0
 21
509.0
 31
0.0
  0
ARC
  8
L-ZISSEN
  6
CONTINUOUS
 62
     7
 10
144.142136
 20
544.142136
 30
0.0
 40
9.0
 50
0.0
 51
135.0
  0
LINE
  8
L-ZISSEN
  6
CONTINUOUS
 62
     7
 10
153.142136
 20
544.142136
 30
0.0
 11
153.142136
 21
515.857843
 31
0.0
  0
LINE
  8
L-ZISSEN
  6
CONTINUOUS
 62
     7
 10
137.778175
 20
550.506097
 30
0.0
 11
134.248532
 21
546.976454
 31
0.0
  0
ARC
  8
L-ZISSEN
  6
CONTINUOUS
 62
     7
 10
144.142136
 20
515.857864
 30
0.0
 40
9.0
 50
225.0
 51
0.0
  0
LINE
  8
L-ZISSEN
  6
CONTINUOUS
 62
     7
 10
137.778175
 20
509.493903
 30
0.0
 11
134.248532
 21
513.023546
 31
0.0
  0
ARC
  8
L-ZISSEN
  6
CONTINUOUS
 62
     7
 10
144.142136
 20
515.857864
 30
0.0
 40
3.5
 50
175.787038
 51
94.212962
  0
ARC
  8
L-ZISSEN
  6
CONTINUOUS
 62
     7
 10
130.0
 20
558.0
 30
0.0
 40
10.0
 50
128.255844
 51
180.0
  0
POLYLINE
  8
L-ZISSEN
  6
CONTINUOUS
 62
     7
 66
     1
 10
0.0
 20
0.0
 30
0.0
  0
VERTEX
  8
L-ZISSEN
  6
CONTINUOUS
 62
     7
 10
139.0
 20
558.0
 30
0.0
 42
-0.093065
  0
VERTEX
  8
L-ZISSEN
  6
CONTINUOUS
 62
     7
 10
138.306703
 20
554.307458
 30
0.0
 42
-0.096076
  0
VERTEX
  8
L-ZISSEN
  6
CONTINUOUS
 62
     7
 10
136.363961
 20
551.227614
 30
0.0
 42
-0.100664
 70
     2
 50
226.780821
  0
VERTEX
  8
L-ZISSEN
  6
CONTINUOUS
 62
     7
 10
133.416657
 20
549.142021
 30
0.0
 42
-0.104168
  0
VERTEX
  8
L-ZISSEN
  6
CONTINUOUS
 62
     7
 10
130.0
 20
548.4224
 30
0.0
 42
-0.104168
  0
VERTEX
  8
L-ZISSEN
  6
CONTINUOUS
 62
     7
 10
126.583343
 20
549.142021
 30
0.0
 42
-0.100664
  0
VERTEX
  8
L-ZISSEN
  6
CONTINUOUS
 62
     7
 10
123.636039
 20
551.227614
 30
0.0
 42
-0.096076
 70
     2
 50
133.219179
  0
VERTEX
  8
L-ZISSEN
  6
CONTINUOUS
 62
     7
 10
121.693297
 20
554.307458
 30
0.0
 42
-0.093065
  0
VERTEX
  8
L-ZISSEN
  6
CONTINUOUS
 62
     7
 10
121.0
 20
558.0
 30
0.0
 42
-0.093065
  0
SEQEND
  8
L-ZISSEN
  6
CONTINUOUS
 62
     7
  0
POLYLINE
  8
L-ZISSEN
  6
CONTINUOUS
 62
     7
 66
     1
 10
0.0
 20
0.0
 30
0.0
  0
VERTEX
  8
L-ZISSEN
  6
CONTINUOUS
 62
     7
 10
136.056778
 20
566.383533
 30
0.0
 42
-0.012076
  0
VERTEX
  8
L-ZISSEN
  6
CONTINUOUS
 62
     7
 10
136.363961
 20
566.072062
 30
0.0
 42
-0.096076
 70
     2
 50
313.219179
  0
VERTEX
  8
L-ZISSEN
  6
CONTINUOUS
 62
     7
 10
138.482264
 20
562.713901
 30
0.0
 42
-0.110798
  0
VERTEX
  8
L-ZISSEN
  6
CONTINUOUS
 62
     7
 10
139.0
 20
559.299677
 30
0.0
 42
-0.093065
  0
VERTEX
  8
L-ZISSEN
  6
CONTINUOUS
 62
     7
 10
138.306703
 20
555.607135
 30
0.0
 42
-0.096076
  0
VERTEX
  8
L-ZISSEN
  6
CONTINUOUS
 62
     7
 10
136.363961
 20
552.527291
 30
0.0
 42
-0.100664
 70
     2
 50
226.780821
  0
VERTEX
  8
L-ZISSEN
  6
CONTINUOUS
 62
     7
 10
133.416657
 20
550.441697
 30
0.0
 42
-0.104168
  0
VERTEX
  8
L-ZISSEN
  6
CONTINUOUS
 62
     7
 10
130.0
 20
549.722077
 30
0.0
 42
-0.104168
  0
VERTEX
  8
L-ZISSEN
  6
CONTINUOUS
 62
     7
 10
126.583343
 20
550.441697
 30
0.0
 42
-0.100664
  0
VERTEX
  8
L-ZISSEN
  6
CONTINUOUS
 62
     7
 10
123.636039
 20
552.527291
 30
0.0
 42
-0.096076
 70
     2
 50
133.219179
  0
VERTEX
  8
L-ZISSEN
  6
CONTINUOUS
 62
     7
 10
121.693297
 20
555.607135
 30
0.0
 42
-0.093065
  0
VERTEX
  8
L-ZISSEN
  6
CONTINUOUS
 62
     7
 10
121.0
 20
559.299677
 30
0.0
 42
-0.093065
  0
VERTEX
  8
L-ZISSEN
  6
CONTINUOUS
 62
     7
 10
121.693297
 20
562.992218
 30
0.0
 42
-0.096076
  0
VERTEX
  8
L-ZISSEN
  6
CONTINUOUS
 62
     7
 10
123.636039
 20
566.072062
 30
0.0
 42
-0.014888
 70
     2
 50
46.780821
  0
VERTEX
  8
L-ZISSEN
  6
CONTINUOUS
 62
     7
 10
124.01687
 20
566.453891
 30
0.0
 42
-0.104168
  0
SEQEND
  8
L-ZISSEN
  6
CONTINUOUS
 62
     7
  0
POLYLINE
  8
L-ZISSEN
  6
CONTINUOUS
 62
     7
 66
     1
 10
0.0
 20
0.0
 30
0.0
 70
     1
  0
VERTEX
  8
L-ZISSEN
  6
CONTINUOUS
 62
     7
 10
130.0
 20
570.663094
 30
0.0
 42
-0.104168
  0
VERTEX
  8
L-ZISSEN
  6
CONTINUOUS
 62
     7
 10
132.467586
 20
570.143368
 30
0.0
 42
-0.100664
  0
VERTEX
  8
L-ZISSEN
  6
CONTINUOUS
 62
     7
 10
134.596194
 20
568.637106
 30
0.0
 42
-0.096076
 70
     2
 50
313.219179
  0
VERTEX
  8
L-ZISSEN
  6
CONTINUOUS
 62
     7
 10
136.126079
 20
566.211767
 30
0.0
 42
-0.110798
  0
VERTEX
  8
L-ZISSEN
  6
CONTINUOUS
 62
     7
 10
136.5
 20
563.745938
 30
0.0
 42
-0.093065
  0
VERTEX
  8
L-ZISSEN
  6
CONTINUOUS
 62
     7
 10
135.999286
 20
561.079103
 30
0.0
 42
-0.096076
  0
VERTEX
  8
L-ZISSEN
  6
CONTINUOUS
 62
     7
 10
134.596194
 20
558.854771
 30
0.0
 42
-0.100664
 70
     2
 50
226.780821
  0
VERTEX
  8
L-ZISSEN
  6
CONTINUOUS
 62
     7
 10
132.467586
 20
557.348509
 30
0.0
 42
-0.104168
  0
VERTEX
  8
L-ZISSEN
  6
CONTINUOUS
 62
     7
 10
130.0
 20
556.828783
 30
0.0
 42
-0.104168
  0
VERTEX
  8
L-ZISSEN
  6
CONTINUOUS
 62
     7
 10
127.532414
 20
557.348509
 30
0.0
 42
-0.100664
  0
VERTEX
  8
L-ZISSEN
  6
CONTINUOUS
 62
     7
 10
125.403806
 20
558.854771
 30
0.0
 42
-0.096076
 70
     2
 50
133.219179
  0
VERTEX
  8
L-ZISSEN
  6
CONTINUOUS
 62
     7
 10
124.000714
 20
561.079103
 30
0.0
 42
-0.093065
  0
VERTEX
  8
L-ZISSEN
  6
CONTINUOUS
 62
     7
 10
123.5
 20
563.745938
 30
0.0
 42
-0.093065
  0
VERTEX
  8
L-ZISSEN
  6
CONTINUOUS
 62
     7
 10
124.000714
 20
566.412774
 30
0.0
 42
-0.096076
  0
VERTEX
  8
L-ZISSEN
  6
CONTINUOUS
 62
     7
 10
125.403806
 20
568.637106
 30
0.0
 42
-0.100664
 70
     2
 50
46.780821
  0
VERTEX
  8
L-ZISSEN
  6
CONTINUOUS
 62
     7
 10
127.532414
 20
570.143368
 30
0.0
 42
-0.104168
  0
SEQEND
  8
L-ZISSEN
  6
CONTINUOUS
 62
     7
  0
POLYLINE
  8
L-ZISSEN
  6
CONTINUOUS
 62
     7
 66
     1
 10
0.0
 20
0.0
 30
0.0
  0
VERTEX
  8
L-ZISSEN
  6
CONTINUOUS
 62
     7
 10
136.056778
 20
493.616467
 30
0.0
 42
0.012076
 50
90.0
  0
VERTEX
  8
L-ZISSEN
  6
CONTINUOUS
 62
     7
 10
136.363961
 20
493.927938
 30
0.0
 42
0.096076
 70
     2
 50
46.780821
  0
VERTEX
  8
L-ZISSEN
  6
CONTINUOUS
 62
     7
 10
138.482264
 20
497.286099
 30
0.0
 42
0.110798
 50
46.780821
  0
VERTEX
  8
L-ZISSEN
  6
CONTINUOUS
 62
     7
 10
139.0
 20
500.700323
 30
0.0
 42
0.093065
 50
90.0
  0
VERTEX
  8
L-ZISSEN
  6
CONTINUOUS
 62
     7
 10
138.306703
 20
504.392865
 30
0.0
 42
0.096076
 50
90.0
  0
VERTEX
  8
L-ZISSEN
  6
CONTINUOUS
 62
     7
 10
136.363961
 20
507.472709
 30
0.0
 42
0.100664
 70
     2
 50
133.219179
  0
VERTEX
  8
L-ZISSEN
  6
CONTINUOUS
 62
     7
 10
133.416657
 20
509.558303
 30
0.0
 42
0.104168
 50
133.219179
  0
VERTEX
  8
L-ZISSEN
  6
CONTINUOUS
 62
     7
 10
130.0
 20
510.277923
 30
0.0
 42
0.104168
 50
90.0
  0
VERTEX
  8
L-ZISSEN
  6
CONTINUOUS
 62
     7
 10
126.583343
 20
509.558303
 30
0.0
 42
0.100664
 50
90.0
  0
VERTEX
  8
L-ZISSEN
  6
CONTINUOUS
 62
     7
 10
123.636039
 20
507.472709
 30
0.0
 42
0.096076
 70
     2
 50
226.780821
  0
VERTEX
  8
L-ZISSEN
  6
CONTINUOUS
 62
     7
 10
121.693297
 20
504.392865
 30
0.0
 42
0.093065
 50
226.780821
  0
VERTEX
  8
L-ZISSEN
  6
CONTINUOUS
 62
     7
 10
121.0
 20
500.700323
 30
0.0
 42
0.093065
 50
90.0
  0
VERTEX
  8
L-ZISSEN
  6
CONTINUOUS
 62
     7
 10
121.693297
 20
497.007782
 30
0.0
 42
0.096076
 50
90.0
  0
VERTEX
  8
L-ZISSEN
  6
CONTINUOUS
 62
     7
 10
123.636039
 20
493.927938
 30
0.0
 42
0.014888
 70
     2
 50
313.219179
  0
VERTEX
  8
L-ZISSEN
  6
CONTINUOUS
 62
     7
 10
124.01687
 20
493.546109
 30
0.0
 42
0.104168
 50
313.219179
  0
SEQEND
  8
L-ZISSEN
  6
CONTINUOUS
 62
     7
  0
ARC
  8
L-ZISSEN
  6
CONTINUOUS
 62
     7
 10
130.0
 20
502.0
 30
0.0
 40
10.0
 50
308.843122
 51
0.0
  0
POLYLINE
  8
L-ZISSEN
  6
CONTINUOUS
 62
     7
 66
     1
 10
0.0
 20
0.0
 30
0.0
  0
VERTEX
  8
L-ZISSEN
  6
CONTINUOUS
 62
     7
 10
139.0
 20
502.0
 30
0.0
 42
0.093065
 50
90.0
  0
VERTEX
  8
L-ZISSEN
  6
CONTINUOUS
 62
     7
 10
138.306703
 20
505.692542
 30
0.0
 42
0.096076
 50
90.0
  0
VERTEX
  8
L-ZISSEN
  6
CONTINUOUS
 62
     7
 10
136.363961
 20
508.772386
 30
0.0
 42
0.100664
 70
     2
 50
133.219179
  0
VERTEX
  8
L-ZISSEN
  6
CONTINUOUS
 62
     7
 10
133.416657
 20
510.857979
 30
0.0
 42
0.104168
 50
133.219179
  0
VERTEX
  8
L-ZISSEN
  6
CONTINUOUS
 62
     7
 10
130.0
 20
511.5776
 30
0.0
 42
0.104168
 50
90.0
  0
VERTEX
  8
L-ZISSEN
  6
CONTINUOUS
 62
     7
 10
126.583343
 20
510.857979
 30
0.0
 42
0.100664
 50
90.0
  0
VERTEX
  8
L-ZISSEN
  6
CONTINUOUS
 62
     7
 10
123.636039
 20
508.772386
 30
0.0
 42
0.096076
 70
     2
 50
226.780821
  0
VERTEX
  8
L-ZISSEN
  6
CONTINUOUS
 62
     7
 10
121.693297
 20
505.692542
 30
0.0
 42
0.093065
 50
226.780821
  0
VERTEX
  8
L-ZISSEN
  6
CONTINUOUS
 62
     7
 10
121.0
 20
502.0
 30
0.0
 42
0.093065
 50
90.0
  0
SEQEND
  8
L-ZISSEN
  6
CONTINUOUS
 62
     7
  0
POLYLINE
  8
L-ZISSEN
  6
CONTINUOUS
 62
     7
 66
     1
 10
0.0
 20
0.0
 30
0.0
 70
     1
  0
VERTEX
  8
L-ZISSEN
  6
CONTINUOUS
 62
     7
 10
130.0
 20
489.336906
 30
0.0
 42
0.104168
 50
90.0
  0
VERTEX
  8
L-ZISSEN
  6
CONTINUOUS
 62
     7
 10
132.467586
 20
489.856632
 30
0.0
 42
0.100664
 50
90.0
  0
VERTEX
  8
L-ZISSEN
  6
CONTINUOUS
 62
     7
 10
134.596194
 20
491.362894
 30
0.0
 42
0.096076
 70
     2
 50
46.780821
  0
VERTEX
  8
L-ZISSEN
  6
CONTINUOUS
 62
     7
 10
136.126079
 20
493.788233
 30
0.0
 42
0.110798
 50
46.780821
  0
VERTEX
  8
L-ZISSEN
  6
CONTINUOUS
 62
     7
 10
136.5
 20
496.254062
 30
0.0
 42
0.093065
 50
90.0
  0
VERTEX
  8
L-ZISSEN
  6
CONTINUOUS
 62
     7
 10
135.999286
 20
498.920897
 30
0.0
 42
0.096076
 50
90.0
  0
VERTEX
  8
L-ZISSEN
  6
CONTINUOUS
 62
     7
 10
134.596194
 20
501.145229
 30
0.0
 42
0.100664
 70
     2
 50
133.219179
  0
VERTEX
  8
L-ZISSEN
  6
CONTINUOUS
 62
     7
 10
132.467586
 20
502.651491
 30
0.0
 42
0.104168
 50
133.219179
  0
VERTEX
  8
L-ZISSEN
  6
CONTINUOUS
 62
     7
 10
130.0
 20
503.171217
 30
0.0
 42
0.104168
 50
90.0
  0
VERTEX
  8
L-ZISSEN
  6
CONTINUOUS
 62
     7
 10
127.532414
 20
502.651491
 30
0.0
 42
0.100664
 50
90.0
  0
VERTEX
  8
L-ZISSEN
  6
CONTINUOUS
 62
     7
 10
125.403806
 20
501.145229
 30
0.0
 42
0.096076
 70
     2
 50
226.780821
  0
VERTEX
  8
L-ZISSEN
  6
CONTINUOUS
 62
     7
 10
124.000714
 20
498.920897
 30
0.0
 42
0.093065
 50
226.780821
  0
VERTEX
  8
L-ZISSEN
  6
CONTINUOUS
 62
     7
 10
123.5
 20
496.254062
 30
0.0
 42
0.093065
 50
90.0
  0
VERTEX
  8
L-ZISSEN
  6
CONTINUOUS
 62
     7
 10
124.000714
 20
493.587226
 30
0.0
 42
0.096076
 50
90.0
  0
VERTEX
  8
L-ZISSEN
  6
CONTINUOUS
 62
     7
 10
125.403806
 20
491.362894
 30
0.0
 42
0.100664
 70
     2
 50
313.219179
  0
VERTEX
  8
L-ZISSEN
  6
CONTINUOUS
 62
     7
 10
127.532414
 20
489.856632
 30
0.0
 42
0.104168
 50
313.219179
  0
SEQEND
  8
L-ZISSEN
  6
CONTINUOUS
 62
     7
  0
LINE
  8
L-ZISSEN
  6
CONTINUOUS
 62
     7
 10
140.0
 20
502.0
 30
0.0
 11
140.0
 21
507.867701
 31
0.0
  0
LINE
  8
L-ZISSEN
  6
CONTINUOUS
 62
     7
 10
120.0
 20
514.0
 30
0.0
 11
120.0
 21
502.0
 31
0.0
  0
ARC
  8
L-ZISSEN
  6
CONTINUOUS
 62
     7
 10
130.0
 20
502.0
 30
0.0
 40
10.0
 50
180.0
 51
231.744156
  0
LINE
  8
L-ZISSEN
  6
CONTINUOUS
 62
     7
 10
137.778175
 20
509.493903
 30
0.0
 11
134.248532
 21
513.023546
 31
0.0
  0
ARC
  8
L-ZISSEN
  6
CONTINUOUS
 62
     7
 10
130.0
 20
558.0
 30
0.0
 40
10.0
 50
0.0
 51
51.156878
  0
LINE
  8
L-ZISSEN
  6
CONTINUOUS
 62
     7
 10
120.0
 20
551.127074
 30
0.0
 11
120.0
 21
558.0
 31
0.0
  0
LINE
  8
L-ZISSEN
  6
CONTINUOUS
 62
     7
 10
79.0
 20
381.0
 30
0.0
 11
79.0
 21
362.5
 31
0.0
  0
LINE
  8
L-TYUSIN
  6
CENTER
 62
     1
 10
74.0
 20
360.0
 30
0.0
 11
186.0
 21
360.0
 31
0.0
  0
LINE
  8
L-ZISSEN
  6
CONTINUOUS
 62
     7
 10
181.0
 20
381.0
 30
0.0
 11
181.0
 21
362.5
 31
0.0
  0
LINE
  8
L-ZISSEN
  6
CONTINUOUS
 62
     7
 10
172.0
 20
336.0
 30
0.0
 11
88.0
 21
336.0
 31
0.0
  0
LINE
  8
L-ZISSEN
  6
CONTINUOUS
 62
     7
 10
88.0
 20
345.0
 30
0.0
 11
172.0
 21
345.0
 31
0.0
  0
LINE
  8
L-ZISSEN
  6
CONTINUOUS
 62
     7
 10
88.0
 20
345.0
 30
0.0
 11
88.0
 21
336.0
 31
0.0
  0
LINE
  8
L-ZISSEN
  6
CONTINUOUS
 62
     7
 10
172.0
 20
345.0
 30
0.0
 11
172.0
 21
336.0
 31
0.0
  0
LINE
  8
L-ZISSEN
  6
CONTINUOUS
 62
     7
 10
181.0
 20
381.0
 30
0.0
 11
79.0
 21
381.0
 31
0.0
  0
LINE
  8
L-ZISSEN
  6
CONTINUOUS
 62
     7
 10
173.030345
 20
339.0
 30
0.0
 11
172.0
 21
339.0
 31
0.0
  0
LINE
  8
L-ZISSEN
  6
CONTINUOUS
 62
     7
 10
88.0
 20
339.0
 30
0.0
 11
86.969655
 21
339.0
 31
0.0
  0
LINE
  8
L-ZISSEN
  6
CONTINUOUS
 62
     7
 10
114.0
 20
381.0
 30
0.0
 11
114.0
 21
385.3
 31
0.0
  0
LINE
  8
L-ZISSEN
  6
CONTINUOUS
 62
     7
 10
146.0
 20
381.0
 30
0.0
 11
146.0
 21
385.3
 31
0.0
  0
POLYLINE
  8
L-ZISSEN
  6
CONTINUOUS
 62
     7
 66
     1
 10
0.0
 20
0.0
 30
0.0
  0
VERTEX
  8
L-ZISSEN
  6
CONTINUOUS
 62
     7
 10
121.052131
 20
362.887921
 30
0.0
 42
0.078851
 70
     2
 50
220.679217
  0
VERTEX
  8
L-ZISSEN
  6
CONTINUOUS
 62
     7
 10
119.221638
 20
360.249024
 30
0.0
 42
0.112744
 50
220.679217
  0
VERTEX
  8
L-ZISSEN
  6
CONTINUOUS
 62
     7
 10
118.365393
 20
356.5
 30
0.0
 42
0.112744
  0
SEQEND
  8
L-ZISSEN
  6
CONTINUOUS
 62
     7
  0
POLYLINE
  8
L-ZISSEN
  6
CONTINUOUS
 62
     7
 66
     1
 10
0.0
 20
0.0
 30
0.0
  0
VERTEX
  8
L-ZISSEN
  6
CONTINUOUS
 62
     7
 10
120.4224
 20
359.973307
 30
0.0
 42
0.104168
  0
VERTEX
  8
L-ZISSEN
  6
CONTINUOUS
 62
     7
 10
121.142021
 20
356.556649
 30
0.0
 42
0.100664
  0
VERTEX
  8
L-ZISSEN
  6
CONTINUOUS
 62
     7
 10
123.227614
 20
353.609346
 30
0.0
 42
0.096076
 70
     2
 50
316.780821
  0
VERTEX
  8
L-ZISSEN
  6
CONTINUOUS
 62
     7
 10
126.585776
 20
351.491043
 30
0.0
 42
0.110798
 50
316.780821
  0
VERTEX
  8
L-ZISSEN
  6
CONTINUOUS
 62
     7
 10
130.0
 20
350.973307
 30
0.0
 42
0.093065
  0
VERTEX
  8
L-ZISSEN
  6
CONTINUOUS
 62
     7
 10
133.692542
 20
351.666604
 30
0.0
 42
0.096076
  0
VERTEX
  8
L-ZISSEN
  6
CONTINUOUS
 62
     7
 10
136.772386
 20
353.609346
 30
0.0
 42
0.100664
 70
     2
 50
43.219179
  0
VERTEX
  8
L-ZISSEN
  6
CONTINUOUS
 62
     7
 10
138.857979
 20
356.556649
 30
0.0
 42
0.104168
 50
43.219179
  0
VERTEX
  8
L-ZISSEN
  6
CONTINUOUS
 62
     7
 10
139.5776
 20
359.973307
 30
0.0
 42
0.104168
  0
SEQEND
  8
L-ZISSEN
  6
CONTINUOUS
 62
     7
  0
LINE
  8
L-ZISSEN
  6
CONTINUOUS
 62
     7
 10
136.917156
 20
372.286836
 30
0.0
 11
139.5776
 21
359.973307
 31
0.0
  0
LINE
  8
L-ZISSEN
  6
CONTINUOUS
 62
     7
 10
123.082844
 20
372.286836
 30
0.0
 11
120.4224
 21
359.973285
 31
0.0
  0
LINE
  8
L-ZISSEN
  6
CONTINUOUS
 62
     7
 10
139.5776
 20
359.973307
 30
0.0
 11
139.5776
 21
356.5
 31
0.0
  0
LINE
  8
L-ZISSEN
  6
CONTINUOUS
 62
     7
 10
120.4224
 20
359.973307
 30
0.0
 11
120.4224
 21
356.5
 31
0.0
  0
LINE
  8
L-ZISSEN
  6
CONTINUOUS
 62
     7
 10
141.634607
 20
356.5
 30
0.0
 11
141.634607
 21
345.0
 31
0.0
  0
LINE
  8
L-ZISSEN
  6
CONTINUOUS
 62
     7
 10
118.365393
 20
356.5
 30
0.0
 11
118.365393
 21
345.0
 31
0.0
  0
POLYLINE
  8
L-ZISSEN
  6
CONTINUOUS
 62
     7
 66
     1
 10
0.0
 20
0.0
 30
0.0
 70
     1
  0
VERTEX
  8
L-ZISSEN
  6
CONTINUOUS
 62
     7
 10
123.082844
 20
372.286836
 30
0.0
 42
0.104168
  0
VERTEX
  8
L-ZISSEN
  6
CONTINUOUS
 62
     7
 10
123.602571
 20
369.81925
 30
0.0
 42
0.100664
  0
VERTEX
  8
L-ZISSEN
  6
CONTINUOUS
 62
     7
 10
125.108832
 20
367.690642
 30
0.0
 42
0.096076
 70
     2
 50
316.780821
  0
VERTEX
  8
L-ZISSEN
  6
CONTINUOUS
 62
     7
 10
127.534171
 20
366.160757
 30
0.0
 42
0.110798
 50
316.780821
  0
VERTEX
  8
L-ZISSEN
  6
CONTINUOUS
 62
     7
 10
130.0
 20
365.786836
 30
0.0
 42
0.093065
  0
VERTEX
  8
L-ZISSEN
  6
CONTINUOUS
 62
     7
 10
132.666836
 20
366.287551
 30
0.0
 42
0.096076
  0
VERTEX
  8
L-ZISSEN
  6
CONTINUOUS
 62
     7
 10
134.891168
 20
367.690642
 30
0.0
 42
0.100664
 70
     2
 50
43.219179
  0
VERTEX
  8
L-ZISSEN
  6
CONTINUOUS
 62
     7
 10
136.397429
 20
369.81925
 30
0.0
 42
0.104168
 50
43.219179
  0
VERTEX
  8
L-ZISSEN
  6
CONTINUOUS
 62
     7
 10
136.917156
 20
372.286836
 30
0.0
 42
0.104168
  0
VERTEX
  8
L-ZISSEN
  6
CONTINUOUS
 62
     7
 10
136.397429
 20
374.754422
 30
0.0
 42
0.100664
  0
VERTEX
  8
L-ZISSEN
  6
CONTINUOUS
 62
     7
 10
134.891168
 20
376.88303
 30
0.0
 42
0.096076
 70
     2
 50
136.780821
  0
VERTEX
  8
L-ZISSEN
  6
CONTINUOUS
 62
     7
 10
132.666836
 20
378.286122
 30
0.0
 42
0.093065
 50
136.780821
  0
VERTEX
  8
L-ZISSEN
  6
CONTINUOUS
 62
     7
 10
130.0
 20
378.786836
 30
0.0
 42
0.093065
  0
VERTEX
  8
L-ZISSEN
  6
CONTINUOUS
 62
     7
 10
127.333164
 20
378.286122
 30
0.0
 42
0.096076
  0
VERTEX
  8
L-ZISSEN
  6
CONTINUOUS
 62
     7
 10
125.108832
 20
376.88303
 30
0.0
 42
0.100664
 70
     2
 50
223.219179
  0
VERTEX
  8
L-ZISSEN
  6
CONTINUOUS
 62
     7
 10
123.602571
 20
374.754422
 30
0.0
 42
0.104168
 50
223.219179
  0
SEQEND
  8
L-ZISSEN
  6
CONTINUOUS
 62
     7
  0
LINE
  8
L-ZISSEN
  6
CONTINUOUS
 62
     7
 10
109.0
 20
372.124356
 30
0.0
 11
109.0
 21
345.0
 31
0.0
  0
LINE
  8
L-ZISSEN
  6
CONTINUOUS
 62
     7
 10
153.142136
 20
381.0
 30
0.0
 11
153.142136
 21
345.0
 31
0.0
  0
LINE
  8
L-ZISSEN
  6
CONTINUOUS
 62
     7
 10
132.990182
 20
381.0
 30
0.0
 11
132.990182
 21
378.150717
 31
0.0
  0
LINE
  8
L-ZISSEN
  6
CONTINUOUS
 62
     7
 10
121.690576
 20
372.124356
 30
0.0
 11
121.690576
 21
365.842885
 31
0.0
  0
ARC
  8
L-ZISSEN
  6
CONTINUOUS
 62
     7
 10
130.0
 20
410.25
 30
0.0
 40
12.75
 50
360.0
 51
180.0
  0
LINE
  8
L-ZISSEN
  6
CONTINUOUS
 62
     7
 10
142.75
 20
410.25
 30
0.0
 11
142.75
 21
398.8
 31
0.0
  0
LINE
  8
L-ZISSEN
  6
CONTINUOUS
 62
     7
 10
117.25
 20
410.25
 30
0.0
 11
117.25
 21
398.8
 31
0.0
  0
LINE
  8
L-ZISSEN
  6
CONTINUOUS
 62
     7
 10
147.5
 20
385.3
 30
0.0
 11
112.5
 21
385.3
 31
0.0
  0
LINE
  8
L-ZISSEN
  6
CONTINUOUS
 62
     7
 10
147.5
 20
398.8
 30
0.0
 11
112.5
 21
398.8
 31
0.0
  0
LINE
  8
L-ZISSEN
  6
CONTINUOUS
 62
     7
 10
112.5
 20
385.3
 30
0.0
 11
112.5
 21
398.8
 31
0.0
  0
LINE
  8
L-ZISSEN
  6
CONTINUOUS
 62
     7
 10
147.5
 20
385.3
 30
0.0
 11
147.5
 21
398.8
 31
0.0
  0
LINE
  8
L-ZISSEN
  6
CONTINUOUS
 62
     7
 10
357.5
 20
385.3
 30
0.0
 11
322.5
 21
385.3
 31
0.0
  0
LINE
  8
L-ZISSEN
  6
CONTINUOUS
 62
     7
 10
327.25
 20
410.25
 30
0.0
 11
327.25
 21
398.8
 31
0.0
  0
LINE
  8
L-ZISSEN
  6
CONTINUOUS
 62
     7
 10
352.75
 20
410.25
 30
0.0
 11
352.75
 21
398.8
 31
0.0
  0
ARC
  8
L-ZISSEN
  6
CONTINUOUS
 62
     7
 10
340.0
 20
410.25
 30
0.0
 40
12.75
 50
360.0
 51
180.0
  0
LINE
  8
L-ZISSEN
  6
CONTINUOUS
 62
     7
 10
356.0
 20
381.0
 30
0.0
 11
356.0
 21
385.3
 31
0.0
  0
LINE
  8
L-ZISSEN
  6
CONTINUOUS
 62
     7
 10
324.0
 20
381.0
 30
0.0
 11
324.0
 21
385.3
 31
0.0
  0
LINE
  8
L-ZISSEN
  6
CONTINUOUS
 62
     7
 10
361.0
 20
339.0
 30
0.0
 11
319.0
 21
339.0
 31
0.0
  0
LINE
  8
L-ZISSEN
  6
CONTINUOUS
 62
     7
 10
363.142136
 20
381.0
 30
0.0
 11
316.857864
 21
381.0
 31
0.0
  0
LINE
  8
L-ZISSEN
  6
CONTINUOUS
 62
     7
 10
295.5
 20
345.0
 30
0.0
 11
319.0
 21
345.0
 31
0.0
  0
LINE
  8
L-ZISSEN
  6
CONTINUOUS
 62
     7
 10
383.25
 20
336.0
 30
0.0
 11
296.75
 21
336.0
 31
0.0
  0
LINE
  8
L-TYUSIN
  6
CENTER
 62
     1
 10
314.0
 20
360.0
 30
0.0
 11
366.0
 21
360.0
 31
0.0
  0
LINE
  8
L-ZISSEN
  6
CONTINUOUS
 62
     7
 10
319.0
 20
339.0
 30
0.0
 11
319.0
 21
372.124356
 31
0.0
  0
LINE
  8
L-ZISSEN
  6
CONTINUOUS
 62
     7
 10
361.0
 20
339.0
 30
0.0
 11
361.0
 21
372.124356
 31
0.0
  0
LINE
  8
L-ZISSEN
  6
CONTINUOUS
 62
     7
 10
361.0
 20
345.0
 30
0.0
 11
384.5
 21
345.0
 31
0.0
  0
ARC
  8
L-ZISSEN
  6
CONTINUOUS
 62
     7
 10
340.0
 20
360.0
 30
0.0
 40
21.0
 50
60.0
 51
120.0
  0
LINE
  8
L-ZISSEN
  6
CONTINUOUS
 62
     7
 10
329.5
 20
378.186533
 30
0.0
 11
319.0
 21
372.124356
 31
0.0
  0
LINE
  8
L-ZISSEN
  6
CONTINUOUS
 62
     7
 10
350.5
 20
378.186533
 30
0.0
 11
361.0
 21
372.124356
 31
0.0
  0
LINE
  8
L-ZISSEN
  6
CONTINUOUS
 62
     7
 10
181.0
 20
372.124356
 30
0.0
 11
153.142136
 21
372.124356
 31
0.0
  0
LINE
  8
L-ZISSEN
  6
CONTINUOUS
 62
     7
 10
79.0
 20
372.124356
 30
0.0
 11
121.690576
 21
372.124356
 31
0.0
  0
LINE
  8
L-ZISSEN
  6
CONTINUOUS
 62
     7
 10
121.690576
 20
372.124356
 30
0.0
 11
114.0
 21
381.0
 31
0.0
  0
LINE
  8
L-ZISSEN
  6
CONTINUOUS
 62
     7
 10
316.857864
 20
381.0
 30
0.0
 11
316.857864
 21
350.4
 31
0.0
  0
LINE
  8
L-ZISSEN
  6
CONTINUOUS
 62
     7
 10
363.142136
 20
381.0
 30
0.0
 11
363.142136
 21
350.4
 31
0.0
  0
LINE
  8
L-ZISSEN
  6
CONTINUOUS
 62
     7
 10
140.0
 20
558.0
 30
0.0
 11
140.0
 21
552.132299
 31
0.0
  0
ARC
  8
L-ZISSEN
  6
CONTINUOUS
 62
     7
 10
116.360033
 20
544.627074
 30
0.0
 40
4.0
 50
20.073877
 51
122.62742
  0
ARC
  8
L-ZISSEN
  6
CONTINUOUS
 62
     7
 10
116.360033
 20
544.627074
 30
0.0
 40
6.5
 50
90.0
 51
133.564346
  0
LINE
  8
L-ZISSEN
  6
CONTINUOUS
 62
     7
 10
122.911277
 20
546.0
 30
0.0
 11
120.117036
 21
546.0
 31
0.0
  0
LINE
  8
L-ZISSEN
  6
CONTINUOUS
 62
     7
 10
122.911277
 20
514.0
 30
0.0
 11
117.660254
 21
514.0
 31
0.0
  0
LINE
  8
L-ZISSEN
  6
CONTINUOUS
 62
     7
 10
363.142136
 20
358.16853
 30
0.0
 11
378.0
 21
352.76071
 31
0.0
  0
LINE
  8
L-ZISSEN
  6
CONTINUOUS
 62
     7
 10
363.142136
 20
367.451165
 30
0.0
 11
367.36432
 21
374.509967
 31
0.0
  0
LINE
  8
L-ZISSEN
  6
CONTINUOUS
 62
     7
 10
379.580324
 20
370.063705
 30
0.0
 11
367.36432
 21
374.509967
 31
0.0
  0
LINE
  8
L-ZISSEN
  6
CONTINUOUS
 62
     7
 10
376.183617
 20
353.421819
 30
0.0
 11
377.483294
 21
356.992651
 31
0.0
  0
LINE
  8
L-ZISSEN
  6
CONTINUOUS
 62
     7
 10
377.483294
 20
356.992651
 30
0.0
 11
379.580324
 21
370.063705
 31
0.0
  0
LINE
  8
L-ZISSEN
  6
CONTINUOUS
 62
     7
 10
378.0
 20
352.76071
 30
0.0
 11
378.0
 21
345.0
 31
0.0
  0
LINE
  8
L-ZISSEN
  6
CONTINUOUS
 62
     7
 10
316.857864
 20
367.451165
 30
0.0
 11
312.63568
 21
374.509967
 31
0.0
  0
LINE
  8
L-ZISSEN
  6
CONTINUOUS
 62
     7
 10
302.516706
 20
356.992651
 30
0.0
 11
300.419676
 21
370.063705
 31
0.0
  0
LINE
  8
L-ZISSEN
  6
CONTINUOUS
 62
     7
 10
303.816383
 20
353.421819
 30
0.0
 11
302.516706
 21
356.992651
 31
0.0
  0
LINE
  8
L-ZISSEN
  6
CONTINUOUS
 62
     7
 10
300.419676
 20
370.063705
 30
0.0
 11
312.63568
 21
374.509967
 31
0.0
  0
LINE
  8
L-ZISSEN
  6
CONTINUOUS
 62
     7
 10
316.857864
 20
358.16853
 30
0.0
 11
302.0
 21
352.76071
 31
0.0
  0
LINE
  8
L-ZISSEN
  6
CONTINUOUS
 62
     7
 10
302.0
 20
352.76071
 30
0.0
 11
302.0
 21
345.0
 31
0.0
  0
LINE
  8
L-ZISSEN
  6
CONTINUOUS
 62
     7
 10
101.25
 20
350.4
 30
0.0
 11
101.25
 21
345.0
 31
0.0
  0
LINE
  8
L-ZISSEN
  6
CONTINUOUS
 62
     7
 10
90.75
 20
350.4
 30
0.0
 11
90.75
 21
345.0
 31
0.0
  0
LINE
  8
L-ZISSEN
  6
CONTINUOUS
 62
     7
 10
357.5
 20
398.8
 30
0.0
 11
322.5
 21
398.8
 31
0.0
  0
LINE
  8
L-ZISSEN
  6
CONTINUOUS
 62
     7
 10
357.5
 20
385.3
 30
0.0
 11
357.5
 21
398.8
 31
0.0
  0
LINE
  8
L-ZISSEN
  6
CONTINUOUS
 62
     7
 10
322.5
 20
385.3
 30
0.0
 11
322.5
 21
398.8
 31
0.0
  0
LINE
  8
L-ZISSEN
 10
90.75
 20
350.4
 30
0.0
 11
101.25
 21
350.4
 31
0.0
  0
LINE
  8
L-ZISSEN
  6
CONTINUOUS
 62
     7
 10
135.25
 20
350.4
 30
0.0
 11
135.25
 21
345.0
 31
0.0
  0
LINE
  8
L-ZISSEN
 10
124.75
 20
350.4
 30
0.0
 11
135.25
 21
350.4
 31
0.0
  0
LINE
  8
L-ZISSEN
  6
CONTINUOUS
 62
     7
 10
124.75
 20
350.4
 30
0.0
 11
124.75
 21
345.0
 31
0.0
  0
LINE
  8
L-ZISSEN
 10
158.75
 20
350.4
 30
0.0
 11
169.25
 21
350.4
 31
0.0
  0
LINE
  8
L-ZISSEN
  6
CONTINUOUS
 62
     7
 10
158.75
 20
350.4
 30
0.0
 11
158.75
 21
345.0
 31
0.0
  0
LINE
  8
L-ZISSEN
  6
CONTINUOUS
 62
     7
 10
169.25
 20
350.4
 30
0.0
 11
169.25
 21
345.0
 31
0.0
  0
POLYLINE
  8
L-ZISSEN
  6
CONTINUOUS
 62
     7
 66
     1
 10
0.0
 20
0.0
 30
0.0
  0
VERTEX
  8
L-ZISSEN
  6
CONTINUOUS
 62
     7
 10
118.365393
 20
356.5
 30
0.0
 42
0.112744
  0
VERTEX
  8
L-ZISSEN
  6
CONTINUOUS
 62
     7
 10
119.221638
 20
352.750976
 30
0.0
 42
0.103298
  0
VERTEX
  8
L-ZISSEN
  6
CONTINUOUS
 62
     7
 10
121.773091
 20
349.428932
 30
0.0
 42
0.06945
 70
     2
 50
319.320783
  0
VERTEX
  8
L-ZISSEN
  6
CONTINUOUS
 62
     7
 10
124.75
 20
347.515322
 30
0.0
 42
0.102683
 50
319.320783
  0
SEQEND
  8
L-ZISSEN
  6
CONTINUOUS
 62
     7
  0
POLYLINE
  8
L-ZISSEN
  6
CONTINUOUS
 62
     7
 66
     1
 10
0.0
 20
0.0
 30
0.0
  0
VERTEX
  8
L-ZISSEN
  6
CONTINUOUS
 62
     7
 10
120.4224
 20
356.5
 30
0.0
 42
0.104168
  0
VERTEX
  8
L-ZISSEN
  6
CONTINUOUS
 62
     7
 10
121.142021
 20
353.083343
 30
0.0
 42
0.100664
  0
VERTEX
  8
L-ZISSEN
  6
CONTINUOUS
 62
     7
 10
123.227614
 20
350.136039
 30
0.0
 42
0.046364
 70
     2
 50
316.780821
  0
VERTEX
  8
L-ZISSEN
  6
CONTINUOUS
 62
     7
 10
124.75
 20
348.950463
 30
0.0
 42
0.110798
 50
316.780821
  0
SEQEND
  8
L-ZISSEN
  6
CONTINUOUS
 62
     7
  0
POLYLINE
  8
L-ZISSEN
  6
CONTINUOUS
 62
     7
 66
     1
 10
0.0
 20
0.0
 30
0.0
  0
VERTEX
  8
L-ZISSEN
  6
CONTINUOUS
 62
     7
 10
135.25
 20
348.969405
 30
0.0
 42
0.050269
  0
VERTEX
  8
L-ZISSEN
  6
CONTINUOUS
 62
     7
 10
136.772386
 20
350.136039
 30
0.0
 42
0.100664
 70
     2
 50
43.219179
  0
VERTEX
  8
L-ZISSEN
  6
CONTINUOUS
 62
     7
 10
138.857979
 20
353.083343
 30
0.0
 42
0.104168
 50
43.219179
  0
VERTEX
  8
L-ZISSEN
  6
CONTINUOUS
 62
     7
 10
139.5776
 20
356.5
 30
0.0
 42
0.104168
  0
SEQEND
  8
L-ZISSEN
  6
CONTINUOUS
 62
     7
  0
POLYLINE
  8
L-ZISSEN
  6
CONTINUOUS
 62
     7
 66
     1
 10
0.0
 20
0.0
 30
0.0
  0
VERTEX
  8
L-ZISSEN
  6
CONTINUOUS
 62
     7
 10
135.25
 20
347.566055
 30
0.0
 42
0.075558
  0
VERTEX
  8
L-ZISSEN
  6
CONTINUOUS
 62
     7
 10
138.226909
 20
349.428932
 30
0.0
 42
0.103298
 70
     2
 50
40.679217
  0
VERTEX
  8
L-ZISSEN
  6
CONTINUOUS
 62
     7
 10
140.778362
 20
352.750976
 30
0.0
 42
0.112744
 50
40.679217
  0
VERTEX
  8
L-ZISSEN
  6
CONTINUOUS
 62
     7
 10
141.634607
 20
356.5
 30
0.0
 42
0.112744
  0
VERTEX
  8
L-ZISSEN
  6
CONTINUOUS
 62
     7
 10
140.778362
 20
360.249024
 30
0.0
 42
0.078851
  0
VERTEX
  8
L-ZISSEN
  6
CONTINUOUS
 62
     7
 10
138.947873
 20
362.887916
 30
0.0
 42
0.09225
 70
     2
 50
139.320783
  0
SEQEND
  8
L-ZISSEN
  6
CONTINUOUS
 62
     7
  0
LINE
  8
L-ZISSEN
 10
116.360033
 20
551.127074
 30
0.0
 11
120.0
 21
551.127074
 31
0.0
  0
LINE
  8
L-ZISSEN
 10
292.0
 20
350.4
 30
0.0
 11
301.25
 21
350.4
 31
0.0
  0
LINE
  8
L-ZISSEN
  6
CONTINUOUS
 62
     7
 10
301.25
 20
350.4
 30
0.0
 11
301.25
 21
345.0
 31
0.0
  0
LINE
  8
L-ZISSEN
 10
308.75
 20
350.4
 30
0.0
 11
319.0
 21
350.4
 31
0.0
  0
LINE
  8
L-ZISSEN
  6
CONTINUOUS
 62
     7
 10
308.75
 20
350.4
 30
0.0
 11
308.75
 21
345.0
 31
0.0
  0
LINE
  8
L-ZISSEN
 10
384.5
 20
350.4
 30
0.0
 11
378.75
 21
350.4
 31
0.0
  0
LINE
  8
L-ZISSEN
  6
CONTINUOUS
 62
     7
 10
378.75
 20
350.4
 30
0.0
 11
378.75
 21
345.0
 31
0.0
  0
LINE
  8
L-ZISSEN
 10
371.25
 20
350.4
 30
0.0
 11
361.0
 21
350.4
 31
0.0
  0
LINE
  8
L-ZISSEN
  6
CONTINUOUS
 62
     7
 10
371.25
 20
350.4
 30
0.0
 11
371.25
 21
345.0
 31
0.0
  0
CIRCLE
  8
L-ZISSEN
 10
340.0
 20
360.0
 30
0.0
 40
12.0585
  0
LINE
  8
L-ZISSEN
 10
91.5
 20
336.0
 30
0.0
 11
91.5
 21
335.0
 31
0.0
  0
LINE
  8
L-ZISSEN
 10
168.5
 20
336.0
 30
0.0
 11
168.5
 21
335.0
 31
0.0
  0
LINE
  8
L-ZISSEN
 10
301.5
 20
336.0
 30
0.0
 11
301.5
 21
335.0
 31
0.0
  0
LINE
  8
L-ZISSEN
 10
378.5
 20
336.0
 30
0.0
 11
378.5
 21
335.0
 31
0.0
  0
SOLID
  8
L-ZISSEN
 10
128.985643
 20
528.244383
 30
0.0
 11
129.609863
 21
528.0103
 31
0.0
 12
130.0
 22
530.0
 32
0.0
 13
130.0
 23
530.0
 33
0.0
  0
LINE
  8
L-ZISSEN
 10
129.297753
 20
528.127342
 30
0.0
 11
100.0
 21
450.0
 31
0.0
  0
LINE
  8
L-ZISSEN
 10
100.0
 20
450.0
 30
0.0
 11
98.0
 21
450.0
 31
0.0
  0
TEXT
  8
L-ZISSEN
 10
87.0
 20
447.75
 30
0.0
 40
4.5
  1
P.P
  0
SOLID
  8
L-ZISSEN
 10
77.16433
 20
529.138938
 30
0.0
 11
77.542819
 21
528.59013
 31
0.0
 12
79.0
 22
530.0
 32
0.0
 13
79.0
 23
530.0
 33
0.0
  0
LINE
  8
L-ZISSEN
 10
77.353574
 20
528.864534
 30
0.0
 11
50.0
 21
510.0
 31
0.0
  0
LINE
  8
L-ZISSEN
 10
50.0
 20
510.0
 30
0.0
 11
48.0
 21
510.0
 31
0.0
  0
TEXT
  8
L-ZISSEN
 10
40.0
 20
507.75
 30
0.0
 40
4.5
  1
IN
  0
TEXT
  8
L-ZISSEN
 10
25.0
 20
500.0
 30
0.0
 40
4.5
  1
Rc 3/4
  0
TEXT
  8
L-ZISSEN
 10
25.0
 20
490.0
 30
0.0
 40
4.5
  1
Rc 1
  0
TEXT
  8
L-ZISSEN
 10
116.0
 20
647.5
 30
0.0
 40
4.5
  1
06
  0
TEXT
  8
L-ZISSEN
 10
116.5
 20
641.5
 30
0.0
 40
4.5
  1
10
  0
SOLID
  8
L-ZISSEN
 10
131.50968
 20
361.353506
 30
0.0
 11
130.9891
 21
361.769969
 31
0.0
 12
130.0
 22
360.0
 32
0.0
 13
130.0
 23
360.0
 33
0.0
  0
LINE
  8
L-ZISSEN
 10
131.24939
 20
361.561738
 30
0.0
 11
170.0
 21
410.0
 31
0.0
  0
LINE
  8
L-ZISSEN
 10
170.0
 20
410.0
 30
0.0
 11
172.0
 21
410.0
 31
0.0
  0
TEXT
  8
L-ZISSEN
 10
174.0
 20
407.75
 30
0.0
 40
4.5
  1
P.P
  0
SOLID
  8
L-ZISSEN
 10
341.749837
 20
361.024295
 30
0.0
 11
341.323048
 21
361.536443
 31
0.0
 12
340.0
 22
360.0
 32
0.0
 13
340.0
 23
360.0
 33
0.0
  0
LINE
  8
L-ZISSEN
 10
341.536443
 20
361.280369
 30
0.0
 11
370.0
 21
385.0
 31
0.0
  0
LINE
  8
L-ZISSEN
 10
370.0
 20
385.0
 30
0.0
 11
372.0
 21
385.0
 31
0.0
  0
TEXT
  8
L-ZISSEN
 10
374.0
 20
382.75
 30
0.0
 40
4.5
  1
P.P
  0
SOLID
  8
L-ZISSEN
 10
609.774523
 20
487.277493
 30
0.0
 11
609.275092
 21
487.719095
 31
0.0
 12
608.2
 22
486.0
 32
0.0
 13
608.2
 23
486.0
 33
0.0
  0
LINE
  8
L-ZISSEN
 10
609.524807
 20
487.498294
 30
0.0
 11
625.0
 21
505.0
 31
0.0
  0
LINE
  8
L-ZISSEN
 10
625.0
 20
505.0
 30
0.0
 11
627.0
 21
505.0
 31
0.0
  0
TEXT
  8
L-ZISSEN
 10
629.0
 20
502.75
 30
0.0
 40
4.5
  1
P.P
  0
SOLID
  8
L-ZISSEN
 10
497.649916
 20
487.178511
 30
0.0
 11
497.178511
 21
487.649916
 31
0.0
 12
496.0
 22
486.0
 32
0.0
 13
496.0
 23
486.0
 33
0.0
  0
LINE
  8
L-ZISSEN
 10
497.414214
 20
487.414214
 30
0.0
 11
515.0
 21
505.0
 31
0.0
  0
LINE
  8
L-ZISSEN
 10
515.0
 20
505.0
 30
0.0
 11
517.0
 21
505.0
 31
0.0
  0
TEXT
  8
L-ZISSEN
 10
519.0
 20
502.75
 30
0.0
 40
4.5
  1
P.P
  0
SOLID
  8
L-ZISSEN
 10
497.619165
 20
616.220416
 30
0.0
 11
497.135832
 21
616.679582
 31
0.0
 12
496.0
 22
615.0
 32
0.0
 13
496.0
 23
615.0
 33
0.0
  0
LINE
  8
L-ZISSEN
 10
497.377499
 20
616.449999
 30
0.0
 11
515.0
 21
635.0
 31
0.0
  0
LINE
  8
L-ZISSEN
 10
515.0
 20
635.0
 30
0.0
 11
517.0
 21
635.0
 31
0.0
  0
TEXT
  8
L-ZISSEN
 10
519.0
 20
632.75
 30
0.0
 40
4.5
  1
P.P
  0
SOLID
  8
L-ZISSEN
 10
837.821489
 20
487.649916
 30
0.0
 11
837.350084
 21
487.178511
 31
0.0
 12
839.0
 22
486.0
 32
0.0
 13
839.0
 23
486.0
 33
0.0
  0
LINE
  8
L-ZISSEN
 10
837.585786
 20
487.414214
 30
0.0
 11
820.0
 21
505.0
 31
0.0
  0
LINE
  8
L-ZISSEN
 10
820.0
 20
505.0
 30
0.0
 11
818.0
 21
505.0
 31
0.0
  0
TEXT
  8
L-ZISSEN
 10
807.0
 20
502.75
 30
0.0
 40
4.5
  1
P.P
  0
SOLID
  8
L-ZISSEN
 10
854.774523
 20
487.277493
 30
0.0
 11
854.275092
 21
487.719095
 31
0.0
 12
853.2
 22
486.0
 32
0.0
 13
853.2
 23
486.0
 33
0.0
  0
LINE
  8
L-ZISSEN
 10
854.524807
 20
487.498294
 30
0.0
 11
870.0
 21
505.0
 31
0.0
  0
LINE
  8
L-ZISSEN
 10
870.0
 20
505.0
 30
0.0
 11
872.0
 21
505.0
 31
0.0
  0
TEXT
  8
L-ZISSEN
 10
874.0
 20
502.75
 30
0.0
 40
4.5
  1
P.P
  0
SOLID
  8
L-ZISSEN
 10
837.864168
 20
616.679582
 30
0.0
 11
837.380835
 21
616.220416
 31
0.0
 12
839.0
 22
615.0
 32
0.0
 13
839.0
 23
615.0
 33
0.0
  0
LINE
  8
L-ZISSEN
 10
837.622501
 20
616.449999
 30
0.0
 11
820.0
 21
635.0
 31
0.0
  0
LINE
  8
L-ZISSEN
 10
820.0
 20
635.0
 30
0.0
 11
818.0
 21
635.0
 31
0.0
  0
TEXT
  8
L-ZISSEN
 10
807.0
 20
632.75
 30
0.0
 40
4.5
  1
P.P
  0
SOLID
  8
L-ZISSEN
 10
497.649916
 20
102.178511
 30
0.0
 11
497.178511
 21
102.649916
 31
0.0
 12
496.0
 22
101.0
 32
0.0
 13
496.0
 23
101.0
 33
0.0
  0
LINE
  8
L-ZISSEN
 10
497.414214
 20
102.414214
 30
0.0
 11
515.0
 21
120.0
 31
0.0
  0
LINE
  8
L-ZISSEN
 10
515.0
 20
120.0
 30
0.0
 11
517.0
 21
120.0
 31
0.0
  0
TEXT
  8
L-ZISSEN
 10
519.0
 20
117.75
 30
0.0
 40
4.5
  1
P.P
  0
SOLID
  8
L-ZISSEN
 10
609.926733
 20
102.062782
 30
0.0
 11
609.48871
 21
102.565356
 31
0.0
 12
608.2
 22
101.0
 32
0.0
 13
608.2
 23
101.0
 33
0.0
  0
LINE
  8
L-ZISSEN
 10
609.707721
 20
102.314069
 30
0.0
 11
630.0
 21
120.0
 31
0.0
  0
LINE
  8
L-ZISSEN
 10
630.0
 20
120.0
 30
0.0
 11
632.0
 21
120.0
 31
0.0
  0
TEXT
  8
L-ZISSEN
 10
634.0
 20
117.75
 30
0.0
 40
4.5
  1
P.P
  0
SOLID
  8
L-ZISSEN
 10
497.619165
 20
286.220416
 30
0.0
 11
497.135832
 21
286.679582
 31
0.0
 12
496.0
 22
285.0
 32
0.0
 13
496.0
 23
285.0
 33
0.0
  0
LINE
  8
L-ZISSEN
 10
497.377499
 20
286.449999
 30
0.0
 11
515.0
 21
305.0
 31
0.0
  0
LINE
  8
L-ZISSEN
 10
515.0
 20
305.0
 30
0.0
 11
517.0
 21
305.0
 31
0.0
  0
TEXT
  8
L-ZISSEN
 10
519.0
 20
302.75
 30
0.0
 40
4.5
  1
P.P
  0
SOLID
  8
L-ZISSEN
 10
837.821489
 20
102.649916
 30
0.0
 11
837.350084
 21
102.178511
 31
0.0
 12
839.0
 22
101.0
 32
0.0
 13
839.0
 23
101.0
 33
0.0
  0
LINE
  8
L-ZISSEN
 10
837.585786
 20
102.414214
 30
0.0
 11
820.0
 21
120.0
 31
0.0
  0
LINE
  8
L-ZISSEN
 10
820.0
 20
120.0
 30
0.0
 11
818.0
 21
120.0
 31
0.0
  0
TEXT
  8
L-ZISSEN
 10
807.0
 20
117.75
 30
0.0
 40
4.5
  1
P.P
  0
SOLID
  8
L-ZISSEN
 10
854.774523
 20
102.277493
 30
0.0
 11
854.275092
 21
102.719095
 31
0.0
 12
853.2
 22
101.0
 32
0.0
 13
853.2
 23
101.0
 33
0.0
  0
LINE
  8
L-ZISSEN
 10
854.524807
 20
102.498294
 30
0.0
 11
870.0
 21
120.0
 31
0.0
  0
LINE
  8
L-ZISSEN
 10
870.0
 20
120.0
 30
0.0
 11
872.0
 21
120.0
 31
0.0
  0
TEXT
  8
L-ZISSEN
 10
874.0
 20
117.75
 30
0.0
 40
4.5
  1
P.P
  0
SOLID
  8
L-ZISSEN
 10
837.864168
 20
286.679582
 30
0.0
 11
837.380835
 21
286.220416
 31
0.0
 12
839.0
 22
285.0
 32
0.0
 13
839.0
 23
285.0
 33
0.0
  0
LINE
  8
L-ZISSEN
 10
837.622501
 20
286.449999
 30
0.0
 11
820.0
 21
305.0
 31
0.0
  0
LINE
  8
L-ZISSEN
 10
820.0
 20
305.0
 30
0.0
 11
818.0
 21
305.0
 31
0.0
  0
TEXT
  8
L-ZISSEN
 10
807.0
 20
302.75
 30
0.0
 40
4.5
  1
P.P
  0
SOLID
  8
L-ZISSEN
 10
986.234671
 20
302.391678
 30
0.0
 11
986.68955
 21
302.879049
 31
0.0
 12
985.0
 22
304.0
 32
0.0
 13
985.0
 23
304.0
 33
0.0
  0
LINE
  8
L-ZISSEN
 10
986.462111
 20
302.635363
 30
0.0
 11
1000.0
 21
290.0
 31
0.0
  0
LINE
  8
L-ZISSEN
 10
1000.0
 20
290.0
 30
0.0
 11
1002.0
 21
290.0
 31
0.0
  0
TEXT
  8
L-ZISSEN
 10
1004.0
 20
287.75
 30
0.0
 40
4.5
  1
P.P
  0
SOLID
  8
L-ZISSEN
 10
1196.234671
 20
302.391678
 30
0.0
 11
1196.68955
 21
302.879049
 31
0.0
 12
1195.0
 22
304.0
 32
0.0
 13
1195.0
 23
304.0
 33
0.0
  0
LINE
  8
L-ZISSEN
 10
1196.462111
 20
302.635363
 30
0.0
 11
1210.0
 21
290.0
 31
0.0
  0
LINE
  8
L-ZISSEN
 10
1210.0
 20
290.0
 30
0.0
 11
1212.0
 21
290.0
 31
0.0
  0
TEXT
  8
L-ZISSEN
 10
1214.0
 20
287.75
 30
0.0
 40
4.5
  1
P.P
  0
LINE
  8
L-ZISSEN
 10
831.0
 20
696.8
 30
0.0
 11
769.0
 21
696.8
 31
0.0
  0
LINE
  8
L-ZISSEN
  6
CONTINUOUS
 62
     7
 10
831.0
 20
700.0
 30
0.0
 11
831.0
 21
696.8
 31
0.0
  0
LINE
  8
L-ZISSEN
  6
CONTINUOUS
 62
     7
 10
504.0
 20
700.0
 30
0.0
 11
504.0
 21
696.8
 31
0.0
  0
LINE
  8
L-ZISSEN
 10
566.0
 20
696.8
 30
0.0
 11
504.0
 21
696.8
 31
0.0
  0
LINE
  8
L-ZISSEN
 10
831.0
 20
366.8
 30
0.0
 11
769.0
 21
366.8
 31
0.0
  0
LINE
  8
L-ZISSEN
  6
CONTINUOUS
 62
     7
 10
504.0
 20
366.8
 30
0.0
 11
504.0
 21
370.0
 31
0.0
  0
LINE
  8
L-ZISSEN
  6
CONTINUOUS
 62
     7
 10
831.0
 20
366.8
 30
0.0
 11
831.0
 21
370.0
 31
0.0
  0
LINE
  8
L-ZISSEN
 10
566.0
 20
366.8
 30
0.0
 11
504.0
 21
366.8
 31
0.0
  0
TEXT
  8
L-ZISSEN
 10
142.923362
 20
645.05205
 30
0.0
 40
4.5
  1
(S)
  0
ENDSEC
  0
EOF
