  0
SECTION
  2
HEADER
  9
$ACADVER
  1
AC1006
  9
$INSBASE
 10
0.0
 20
0.0
 30
0.0
  9
$EXTMIN
 10
25.0
 20
29.0
  9
$EXTMAX
 10
1290.0
 20
750.0
  9
$LIMMIN
 10
0.0
 20
0.0
  9
$LIMMAX
 10
1189.0
 20
841.0
  9
$ORTHOMODE
 70
     0
  9
$REGENMODE
 70
     1
  9
$FILLMODE
 70
     1
  9
$QTEXTMODE
 70
     0
  9
$MIRRTEXT
 70
     1
  9
$DRAGMODE
 70
     2
  9
$LTSCALE
 40
1.0
  9
$OSMODE
 70
     0
  9
$ATTMODE
 70
     1
  9
$TEXTSIZE
 40
4.5
  9
$TRACEWID
 40
0.05
  9
$TEXTSTYLE
  7
STANDARD
  9
$CLAYER
  8
L-ZISSEN
  9
$CELTYPE
  6
BYLAYER
  9
$CECOLOR
 62
   256
  9
$DIMSCALE
 40
1.0
  9
$DIMASZ
 40
2.0
  9
$DIMEXO
 40
1.0
  9
$DIMDLI
 40
0.38
  9
$DIMRND
 40
0.0
  9
$DIMDLE
 40
1.0
  9
$DIMEXE
 40
1.0
  9
$DIMTP
 40
0.0
  9
$DIMTM
 40
0.0
  9
$DIMTXT
 40
4.5
  9
$DIMCEN
 40
0.09
  9
$DIMTSZ
 40
0.0
  9
$DIMTOL
 70
     0
  9
$DIMLIM
 70
     0
  9
$DIMTIH
 70
     0
  9
$DIMTOH
 70
     0
  9
$DIMSE1
 70
     0
  9
$DIMSE2
 70
     0
  9
$DIMTAD
 70
     1
  9
$DIMZIN
 70
     0
  9
$DIMBLK
  1

  9
$DIMASO
 70
     0
  9
$DIMSHO
 70
     0
  9
$DIMPOST
  1

  9
$DIMAPOST
  1

  9
$DIMALT
 70
     0
  9
$DIMALTD
 70
     2
  9
$DIMALTF
 40
25.4
  9
$DIMLFAC
 40
1.0
  9
$DIMTOFL
 70
     1
  9
$DIMTVP
 40
0.0
  9
$DIMTIX
 70
     1
  9
$DIMSOXD
 70
     0
  9
$DIMSAH
 70
     0
  9
$DIMBLK1
  1

  9
$DIMBLK2
  1

  9
$LUNITS
 70
     2
  9
$LUPREC
 70
     4
  9
$AXISMODE
 70
     0
  9
$AXISUNIT
 10
0.0
 20
0.0
  9
$SKETCHINC
 40
0.1
  9
$FILLETRAD
 40
33.0
  9
$AUNITS
 70
     0
  9
$AUPREC
 70
     0
  9
$MENU
  1
acad
  9
$ELEVATION
 40
0.0
  9
$THICKNESS
 40
0.0
  9
$LIMCHECK
 70
     0
  9
$BLIPMODE
 70
     1
  9
$CHAMFERA
 40
2.0
  9
$CHAMFERB
 40
2.0
  9
$SKPOLY
 70
     0
  9
$TDCREATE
 40
2449202.5388031248
  9
$TDUPDATE
 40
2449202.5388031248
  9
$TDINDWG
 40
0.0000000000
  9
$TDUSRTIMER
 40
0.0000000000
  9
$USRTIMER
 70
     1
  9
$ANGBASE
 50
0.0
  9
$ANGDIR
 70
     0
  9
$PDMODE
 70
     0
  9
$PDSIZE
 40
0.0
  9
$PLINEWID
 40
0.0
  9
$COORDS
 70
     2
  9
$SPLFRAME
 70
     0
  9
$SPLINETYPE
 70
     6
  9
$SPLINESEGS
 70
     8
  9
$ATTDIA
 70
     0
  9
$ATTREQ
 70
     1
  9
$HANDLING
 70
     0
  9
$HANDSEED
  5
0
  9
$SURFTAB1
 70
     6
  9
$SURFTAB2
 70
     6
  9
$SURFTYPE
 70
     6
  9
$SURFU
 70
     6
  9
$SURFV
 70
     6
  9
$FLATLAND
 70
     0
  9
$UCSNAME
  2

  9
$UCSORG
 10
0.0
 20
0.0
 30
0.0
  9
$UCSXDIR
 10
1.0
 20
0.0
 30
0.0
  9
$UCSYDIR
 10
0.0
 20
1.0
 30
0.0
  9
$USERI1
 70
     0
  9
$USERI2
 70
     0
  9
$USERI3
 70
     0
  9
$USERI4
 70
     0
  9
$USERI5
 70
     0
  9
$USERR1
 40
0.0
  9
$USERR2
 40
0.0
  9
$USERR3
 40
0.0
  9
$USERR4
 40
0.0
  9
$USERR5
 40
0.0
  9
$WORLDVIEW
 70
     1
  0
ENDSEC
  0
SECTION
  2
TABLES
  0
TABLE
  2
VPORT
 70
     2
  0
VPORT
  2
*ACTIVE
 70
     0
 10
0.0
 20
0.0
 11
1.0
 21
1.0
 12
674.578245
 22
435.577173
 13
0.0
 23
0.0
 14
5.0
 24
5.0
 15
0.0
 25
0.0
 16
0.0
 26
0.0
 36
1.0
 17
0.0
 27
0.0
 37
0.0
 40
871.154346
 41
1.5487
 42
50.0
 43
0.0
 44
0.0
 50
0.0
 51
0.0
 71
     0
 72
   100
 73
     1
 74
     0
 75
     0
 76
     0
 77
     0
 78
     0
  0
ENDTAB
  0
TABLE
  2
LTYPE
 70
     2
  0
LTYPE
  2
CONTINUOUS
 70
    64
  3
Solid line
 72
    65
 73
     0
 40
0.0
  0
LTYPE
  2
CENTER
 70
    64
  3
____ _ ____ _ ____ _ ____ _ 
 72
    65
 73
     4
 40
60.0
 49
45.0
 49
-5.0
 49
5.0
 49
-5.0
  0
ENDTAB
  0
TABLE
  2
LAYER
 70
     3
  0
LAYER
  2
0
 70
     0
 62
     7
  6
CONTINUOUS
  0
LAYER
  2
L-ZISSEN
 70
    64
 62
     7
  6
CONTINUOUS
  0
LAYER
  2
L-TYUSIN
 70
    64
 62
     1
  6
CENTER
  0
ENDTAB
  0
TABLE
  2
STYLE
 70
     1
  0
STYLE
  2
STANDARD
 70
    64
 40
0.0
 41
1.0
 50
0.0
 71
     0
 42
4.5
  3
TXT
  4

  0
ENDTAB
  0
TABLE
  2
VIEW
 70
     0
  0
ENDTAB
  0
TABLE
  2
UCS
 70
     0
  0
ENDTAB
  0
TABLE
  2
DWGMGR
 70
     0
  0
ENDTAB
  0
ENDSEC
  0
SECTION
  2
BLOCKS
  0
ENDSEC
  0
SECTION
  2
ENTITIES
  0
LINE
  8
L-ZISSEN
  6
CONTINUOUS
 62
     7
 10
336.0
 20
156.5
 30
0.0
 11
336.0
 21
278.5
 31
0.0
  0
LINE
  8
L-ZISSEN
  6
CONTINUOUS
 62
     7
 10
344.0
 20
156.5
 30
0.0
 11
344.0
 21
278.5
 31
0.0
  0
LINE
  8
L-TYUSIN
  6
CENTER
 62
     1
 10
475.0
 20
750.0
 30
0.0
 11
475.0
 21
30.0
 31
0.0
  0
LINE
  8
L-ZISSEN
  6
CONTINUOUS
 62
     7
 10
596.0
 20
554.5
 30
0.0
 11
583.8
 21
554.5
 31
0.0
  0
LINE
  8
L-ZISSEN
  6
CONTINUOUS
 62
     7
 10
596.0
 20
575.5
 30
0.0
 11
583.8
 21
575.5
 31
0.0
  0
LINE
  8
L-ZISSEN
  6
CONTINUOUS
 62
     7
 10
601.0
 20
551.0
 30
0.0
 11
596.0
 21
551.0
 31
0.0
  0
LINE
  8
L-ZISSEN
  6
CONTINUOUS
 62
     7
 10
601.0
 20
579.0
 30
0.0
 11
596.0
 21
579.0
 31
0.0
  0
LINE
  8
L-ZISSEN
  6
CONTINUOUS
 62
     7
 10
596.0
 20
551.0
 30
0.0
 11
596.0
 21
579.0
 31
0.0
  0
LINE
  8
L-ZISSEN
  6
CONTINUOUS
 62
     7
 10
601.0
 20
551.0
 30
0.0
 11
601.0
 21
579.0
 31
0.0
  0
LINE
  8
L-ZISSEN
  6
CONTINUOUS
 62
     7
 10
583.8
 20
577.5
 30
0.0
 11
583.8
 21
552.5
 31
0.0
  0
LINE
  8
L-ZISSEN
  6
CONTINUOUS
 62
     7
 10
567.55
 20
577.5
 30
0.0
 11
583.8
 21
577.5
 31
0.0
  0
LINE
  8
L-ZISSEN
  6
CONTINUOUS
 62
     7
 10
583.8
 20
552.5
 30
0.0
 11
567.55
 21
552.5
 31
0.0
  0
LINE
  8
L-ZISSEN
  6
CONTINUOUS
 62
     7
 10
693.2
 20
589.0
 30
0.0
 11
690.0
 21
589.0
 31
0.0
  0
LINE
  8
L-ZISSEN
  6
CONTINUOUS
 62
     7
 10
690.0
 20
527.0
 30
0.0
 11
690.0
 21
589.3
 31
0.0
  0
LINE
  8
L-ZISSEN
  6
CONTINUOUS
 62
     7
 10
652.4
 20
538.95
 30
0.0
 11
652.4
 21
591.05
 31
0.0
  0
LINE
  8
L-ZISSEN
  6
CONTINUOUS
 62
     7
 10
657.2
 20
591.05
 30
0.0
 11
657.2
 21
570.670979
 31
0.0
  0
LINE
  8
L-ZISSEN
  6
CONTINUOUS
 62
     7
 10
657.2
 20
540.7
 30
0.0
 11
690.0
 21
540.7
 31
0.0
  0
LINE
  8
L-ZISSEN
  6
CONTINUOUS
 62
     7
 10
690.0
 20
589.3
 30
0.0
 11
657.2
 21
589.3
 31
0.0
  0
CIRCLE
  8
L-ZISSEN
  6
CONTINUOUS
 62
     7
 10
670.0
 20
565.0
 30
0.0
 40
7.5
  0
CIRCLE
  8
L-ZISSEN
  6
CONTINUOUS
 62
     7
 10
670.0
 20
565.0
 30
0.0
 40
14.0
  0
LINE
  8
L-ZISSEN
  6
CONTINUOUS
 62
     7
 10
596.0
 20
666.3
 30
0.0
 11
583.8
 21
666.3
 31
0.0
  0
LINE
  8
L-ZISSEN
  6
CONTINUOUS
 62
     7
 10
596.0
 20
687.3
 30
0.0
 11
583.8
 21
687.3
 31
0.0
  0
LINE
  8
L-ZISSEN
  6
CONTINUOUS
 62
     7
 10
601.0
 20
662.8
 30
0.0
 11
601.0
 21
690.8
 31
0.0
  0
LINE
  8
L-ZISSEN
  6
CONTINUOUS
 62
     7
 10
596.0
 20
662.8
 30
0.0
 11
596.0
 21
690.8
 31
0.0
  0
LINE
  8
L-ZISSEN
  6
CONTINUOUS
 62
     7
 10
601.0
 20
690.8
 30
0.0
 11
596.0
 21
690.8
 31
0.0
  0
LINE
  8
L-ZISSEN
  6
CONTINUOUS
 62
     7
 10
601.0
 20
662.8
 30
0.0
 11
596.0
 21
662.8
 31
0.0
  0
LINE
  8
L-ZISSEN
  6
CONTINUOUS
 62
     7
 10
583.8
 20
664.3
 30
0.0
 11
565.8
 21
664.3
 31
0.0
  0
LINE
  8
L-ZISSEN
  6
CONTINUOUS
 62
     7
 10
565.8
 20
689.3
 30
0.0
 11
583.8
 21
689.3
 31
0.0
  0
LINE
  8
L-ZISSEN
  6
CONTINUOUS
 62
     7
 10
583.8
 20
689.3
 30
0.0
 11
583.8
 21
664.3
 31
0.0
  0
LINE
  8
L-ZISSEN
  6
CONTINUOUS
 62
     7
 10
567.55
 20
664.0
 30
0.0
 11
567.55
 21
659.2
 31
0.0
  0
LINE
  8
L-ZISSEN
  6
CONTINUOUS
 62
     7
 10
502.45
 20
664.0
 30
0.0
 11
502.45
 21
659.2
 31
0.0
  0
LINE
  8
L-ZISSEN
  6
CONTINUOUS
 62
     7
 10
502.45
 20
664.0
 30
0.0
 11
567.55
 21
664.0
 31
0.0
  0
LINE
  8
L-ZISSEN
  6
CONTINUOUS
 62
     7
 10
567.55
 20
659.2
 30
0.0
 11
502.45
 21
659.2
 31
0.0
  0
LINE
  8
L-ZISSEN
  6
CONTINUOUS
 62
     7
 10
504.2
 20
664.0
 30
0.0
 11
504.2
 21
696.8
 31
0.0
  0
LINE
  8
L-ZISSEN
  6
CONTINUOUS
 62
     7
 10
565.8
 20
696.8
 30
0.0
 11
565.8
 21
664.0
 31
0.0
  0
LINE
  8
L-ZISSEN
  6
CONTINUOUS
 62
     7
 10
502.45
 20
591.05
 30
0.0
 11
567.55
 21
591.05
 31
0.0
  0
LINE
  8
L-ZISSEN
  6
CONTINUOUS
 62
     7
 10
502.45
 20
538.95
 30
0.0
 11
567.55
 21
538.95
 31
0.0
  0
LINE
  8
L-ZISSEN
  6
CONTINUOUS
 62
     7
 10
652.4
 20
538.95
 30
0.0
 11
657.2
 21
538.95
 31
0.0
  0
LINE
  8
L-ZISSEN
  6
CONTINUOUS
 62
     7
 10
652.4
 20
591.05
 30
0.0
 11
657.2
 21
591.05
 31
0.0
  0
LINE
  8
L-ZISSEN
  6
CONTINUOUS
 62
     7
 10
657.2
 20
559.329021
 30
0.0
 11
657.2
 21
538.95
 31
0.0
  0
LINE
  8
L-ZISSEN
  6
CONTINUOUS
 62
     7
 10
693.2
 20
527.0
 30
0.0
 11
693.2
 21
589.0
 31
0.0
  0
TEXT
  8
L-ZISSEN
  6
CONTINUOUS
 62
     7
 10
495.0
 20
740.0
 30
0.0
 40
4.5
  1
JUNCTION BOX
  0
TEXT
  8
L-ZISSEN
  6
CONTINUOUS
 62
     7
 10
495.0
 20
730.0
 30
0.0
 40
4.5
  1
MODEL NO. :
  0
TEXT
  8
L-ZISSEN
  6
CONTINUOUS
 62
     7
 10
735.0
 20
730.0
 30
0.0
 40
4.5
  1
MODEL NO. :
  0
TEXT
  8
L-ZISSEN
  6
CONTINUOUS
 62
     7
 10
735.0
 20
740.0
 30
0.0
 40
4.5
  1
JUNCTION BOX
  0
LINE
  8
L-ZISSEN
  6
CONTINUOUS
 62
     7
 10
938.2
 20
527.0
 30
0.0
 11
938.2
 21
589.0
 31
0.0
  0
LINE
  8
L-ZISSEN
  6
CONTINUOUS
 62
     7
 10
897.4
 20
591.05
 30
0.0
 11
902.2
 21
591.05
 31
0.0
  0
LINE
  8
L-ZISSEN
  6
CONTINUOUS
 62
     7
 10
897.4
 20
538.95
 30
0.0
 11
902.2
 21
538.95
 31
0.0
  0
LINE
  8
L-ZISSEN
  6
CONTINUOUS
 62
     7
 10
832.55
 20
538.95
 30
0.0
 11
767.45
 21
538.95
 31
0.0
  0
LINE
  8
L-ZISSEN
  6
CONTINUOUS
 62
     7
 10
832.55
 20
591.05
 30
0.0
 11
767.45
 21
591.05
 31
0.0
  0
LINE
  8
L-ZISSEN
  6
CONTINUOUS
 62
     7
 10
769.2
 20
696.8
 30
0.0
 11
769.2
 21
664.0
 31
0.0
  0
LINE
  8
L-ZISSEN
  6
CONTINUOUS
 62
     7
 10
830.8
 20
664.0
 30
0.0
 11
830.8
 21
696.8
 31
0.0
  0
LINE
  8
L-ZISSEN
  6
CONTINUOUS
 62
     7
 10
767.45
 20
659.2
 30
0.0
 11
832.55
 21
659.2
 31
0.0
  0
LINE
  8
L-ZISSEN
  6
CONTINUOUS
 62
     7
 10
832.55
 20
664.0
 30
0.0
 11
767.45
 21
664.0
 31
0.0
  0
LINE
  8
L-ZISSEN
  6
CONTINUOUS
 62
     7
 10
832.55
 20
664.0
 30
0.0
 11
832.55
 21
659.2
 31
0.0
  0
LINE
  8
L-ZISSEN
  6
CONTINUOUS
 62
     7
 10
767.45
 20
664.0
 30
0.0
 11
767.45
 21
659.2
 31
0.0
  0
LINE
  8
L-ZISSEN
  6
CONTINUOUS
 62
     7
 10
751.2
 20
689.3
 30
0.0
 11
751.2
 21
664.3
 31
0.0
  0
LINE
  8
L-ZISSEN
  6
CONTINUOUS
 62
     7
 10
769.2
 20
689.3
 30
0.0
 11
751.2
 21
689.3
 31
0.0
  0
LINE
  8
L-ZISSEN
  6
CONTINUOUS
 62
     7
 10
751.2
 20
664.3
 30
0.0
 11
769.2
 21
664.3
 31
0.0
  0
LINE
  8
L-ZISSEN
  6
CONTINUOUS
 62
     7
 10
734.0
 20
662.8
 30
0.0
 11
739.0
 21
662.8
 31
0.0
  0
LINE
  8
L-ZISSEN
  6
CONTINUOUS
 62
     7
 10
734.0
 20
690.8
 30
0.0
 11
739.0
 21
690.8
 31
0.0
  0
LINE
  8
L-ZISSEN
  6
CONTINUOUS
 62
     7
 10
739.0
 20
662.8
 30
0.0
 11
739.0
 21
690.8
 31
0.0
  0
LINE
  8
L-ZISSEN
  6
CONTINUOUS
 62
     7
 10
734.0
 20
662.8
 30
0.0
 11
734.0
 21
690.8
 31
0.0
  0
LINE
  8
L-ZISSEN
  6
CONTINUOUS
 62
     7
 10
739.0
 20
687.3
 30
0.0
 11
751.2
 21
687.3
 31
0.0
  0
LINE
  8
L-ZISSEN
  6
CONTINUOUS
 62
     7
 10
739.0
 20
666.3
 30
0.0
 11
751.2
 21
666.3
 31
0.0
  0
LINE
  8
L-ZISSEN
  6
CONTINUOUS
 62
     7
 10
935.0
 20
589.3
 30
0.0
 11
902.2
 21
589.3
 31
0.0
  0
LINE
  8
L-ZISSEN
  6
CONTINUOUS
 62
     7
 10
902.2
 20
540.7
 30
0.0
 11
935.0
 21
540.7
 31
0.0
  0
LINE
  8
L-ZISSEN
  6
CONTINUOUS
 62
     7
 10
897.4
 20
538.95
 30
0.0
 11
897.4
 21
591.05
 31
0.0
  0
LINE
  8
L-ZISSEN
  6
CONTINUOUS
 62
     7
 10
935.0
 20
527.0
 30
0.0
 11
935.0
 21
589.3
 31
0.0
  0
LINE
  8
L-ZISSEN
  6
CONTINUOUS
 62
     7
 10
938.2
 20
589.0
 30
0.0
 11
935.0
 21
589.0
 31
0.0
  0
LINE
  8
L-ZISSEN
  6
CONTINUOUS
 62
     7
 10
767.45
 20
591.05
 30
0.0
 11
767.45
 21
538.95
 31
0.0
  0
LINE
  8
L-ZISSEN
  6
CONTINUOUS
 62
     7
 10
751.2
 20
552.5
 30
0.0
 11
767.45
 21
552.5
 31
0.0
  0
LINE
  8
L-ZISSEN
  6
CONTINUOUS
 62
     7
 10
767.45
 20
577.5
 30
0.0
 11
751.2
 21
577.5
 31
0.0
  0
LINE
  8
L-ZISSEN
  6
CONTINUOUS
 62
     7
 10
751.2
 20
577.5
 30
0.0
 11
751.2
 21
552.5
 31
0.0
  0
LINE
  8
L-ZISSEN
  6
CONTINUOUS
 62
     7
 10
734.0
 20
551.0
 30
0.0
 11
734.0
 21
579.0
 31
0.0
  0
LINE
  8
L-ZISSEN
  6
CONTINUOUS
 62
     7
 10
739.0
 20
551.0
 30
0.0
 11
739.0
 21
579.0
 31
0.0
  0
LINE
  8
L-ZISSEN
  6
CONTINUOUS
 62
     7
 10
734.0
 20
579.0
 30
0.0
 11
739.0
 21
579.0
 31
0.0
  0
LINE
  8
L-ZISSEN
  6
CONTINUOUS
 62
     7
 10
734.0
 20
551.0
 30
0.0
 11
739.0
 21
551.0
 31
0.0
  0
LINE
  8
L-ZISSEN
  6
CONTINUOUS
 62
     7
 10
739.0
 20
575.5
 30
0.0
 11
751.2
 21
575.5
 31
0.0
  0
LINE
  8
L-ZISSEN
  6
CONTINUOUS
 62
     7
 10
739.0
 20
554.5
 30
0.0
 11
751.2
 21
554.5
 31
0.0
  0
LINE
  8
L-ZISSEN
  6
CONTINUOUS
 62
     7
 10
902.2
 20
591.05
 30
0.0
 11
902.2
 21
538.95
 31
0.0
  0
LINE
  8
L-TYUSIN
  6
CENTER
 62
     1
 10
475.0
 20
450.0
 30
0.0
 11
1290.0
 21
450.0
 31
0.0
  0
TEXT
  8
L-ZISSEN
  6
CONTINUOUS
 62
     7
 10
735.0
 20
425.0
 30
0.0
 40
4.5
  1
MODEL NO. :
  0
TEXT
  8
L-ZISSEN
  6
CONTINUOUS
 62
     7
 10
735.0
 20
435.0
 30
0.0
 40
4.5
  1
JUNCTION BOX
  0
LINE
  8
L-ZISSEN
  6
CONTINUOUS
 62
     7
 10
938.2
 20
142.0
 30
0.0
 11
938.2
 21
259.0
 31
0.0
  0
LINE
  8
L-ZISSEN
  6
CONTINUOUS
 62
     7
 10
902.2
 20
206.05
 30
0.0
 11
902.2
 21
153.95
 31
0.0
  0
LINE
  8
L-ZISSEN
  6
CONTINUOUS
 62
     7
 10
897.4
 20
206.05
 30
0.0
 11
902.2
 21
206.05
 31
0.0
  0
LINE
  8
L-ZISSEN
  6
CONTINUOUS
 62
     7
 10
897.4
 20
153.95
 30
0.0
 11
902.2
 21
153.95
 31
0.0
  0
LINE
  8
L-ZISSEN
  6
CONTINUOUS
 62
     7
 10
832.55
 20
153.95
 30
0.0
 11
767.45
 21
153.95
 31
0.0
  0
LINE
  8
L-ZISSEN
  6
CONTINUOUS
 62
     7
 10
832.55
 20
206.05
 30
0.0
 11
767.45
 21
206.05
 31
0.0
  0
LINE
  8
L-ZISSEN
  6
CONTINUOUS
 62
     7
 10
769.2
 20
366.8
 30
0.0
 11
769.2
 21
334.0
 31
0.0
  0
LINE
  8
L-ZISSEN
  6
CONTINUOUS
 62
     7
 10
830.8
 20
334.0
 30
0.0
 11
830.8
 21
366.8
 31
0.0
  0
LINE
  8
L-ZISSEN
  6
CONTINUOUS
 62
     7
 10
767.45
 20
329.2
 30
0.0
 11
832.55
 21
329.2
 31
0.0
  0
LINE
  8
L-ZISSEN
  6
CONTINUOUS
 62
     7
 10
832.55
 20
334.0
 30
0.0
 11
767.45
 21
334.0
 31
0.0
  0
LINE
  8
L-ZISSEN
  6
CONTINUOUS
 62
     7
 10
832.55
 20
334.0
 30
0.0
 11
832.55
 21
329.2
 31
0.0
  0
LINE
  8
L-ZISSEN
  6
CONTINUOUS
 62
     7
 10
767.45
 20
334.0
 30
0.0
 11
767.45
 21
329.2
 31
0.0
  0
LINE
  8
L-ZISSEN
  6
CONTINUOUS
 62
     7
 10
751.2
 20
359.3
 30
0.0
 11
751.2
 21
334.3
 31
0.0
  0
LINE
  8
L-ZISSEN
  6
CONTINUOUS
 62
     7
 10
769.2
 20
359.3
 30
0.0
 11
751.2
 21
359.3
 31
0.0
  0
LINE
  8
L-ZISSEN
  6
CONTINUOUS
 62
     7
 10
751.2
 20
334.3
 30
0.0
 11
769.2
 21
334.3
 31
0.0
  0
LINE
  8
L-ZISSEN
  6
CONTINUOUS
 62
     7
 10
734.0
 20
332.8
 30
0.0
 11
739.0
 21
332.8
 31
0.0
  0
LINE
  8
L-ZISSEN
  6
CONTINUOUS
 62
     7
 10
734.0
 20
360.8
 30
0.0
 11
739.0
 21
360.8
 31
0.0
  0
LINE
  8
L-ZISSEN
  6
CONTINUOUS
 62
     7
 10
739.0
 20
332.8
 30
0.0
 11
739.0
 21
360.8
 31
0.0
  0
LINE
  8
L-ZISSEN
  6
CONTINUOUS
 62
     7
 10
734.0
 20
332.8
 30
0.0
 11
734.0
 21
360.8
 31
0.0
  0
LINE
  8
L-ZISSEN
  6
CONTINUOUS
 62
     7
 10
739.0
 20
357.3
 30
0.0
 11
751.2
 21
357.3
 31
0.0
  0
LINE
  8
L-ZISSEN
  6
CONTINUOUS
 62
     7
 10
739.0
 20
336.3
 30
0.0
 11
751.2
 21
336.3
 31
0.0
  0
LINE
  8
L-ZISSEN
  6
CONTINUOUS
 62
     7
 10
935.0
 20
204.3
 30
0.0
 11
902.2
 21
204.3
 31
0.0
  0
LINE
  8
L-ZISSEN
  6
CONTINUOUS
 62
     7
 10
902.2
 20
155.7
 30
0.0
 11
935.0
 21
155.7
 31
0.0
  0
LINE
  8
L-ZISSEN
  6
CONTINUOUS
 62
     7
 10
897.4
 20
153.95
 30
0.0
 11
897.4
 21
206.05
 31
0.0
  0
LINE
  8
L-ZISSEN
  6
CONTINUOUS
 62
     7
 10
935.0
 20
142.0
 30
0.0
 11
935.0
 21
259.3
 31
0.0
  0
LINE
  8
L-ZISSEN
  6
CONTINUOUS
 62
     7
 10
767.45
 20
206.05
 30
0.0
 11
767.45
 21
153.95
 31
0.0
  0
LINE
  8
L-ZISSEN
  6
CONTINUOUS
 62
     7
 10
751.2
 20
167.5
 30
0.0
 11
767.45
 21
167.5
 31
0.0
  0
LINE
  8
L-ZISSEN
  6
CONTINUOUS
 62
     7
 10
767.45
 20
192.5
 30
0.0
 11
751.2
 21
192.5
 31
0.0
  0
LINE
  8
L-ZISSEN
  6
CONTINUOUS
 62
     7
 10
751.2
 20
192.5
 30
0.0
 11
751.2
 21
167.5
 31
0.0
  0
LINE
  8
L-ZISSEN
  6
CONTINUOUS
 62
     7
 10
734.0
 20
166.0
 30
0.0
 11
734.0
 21
194.0
 31
0.0
  0
LINE
  8
L-ZISSEN
  6
CONTINUOUS
 62
     7
 10
739.0
 20
166.0
 30
0.0
 11
739.0
 21
194.0
 31
0.0
  0
LINE
  8
L-ZISSEN
  6
CONTINUOUS
 62
     7
 10
734.0
 20
194.0
 30
0.0
 11
739.0
 21
194.0
 31
0.0
  0
LINE
  8
L-ZISSEN
  6
CONTINUOUS
 62
     7
 10
734.0
 20
166.0
 30
0.0
 11
739.0
 21
166.0
 31
0.0
  0
LINE
  8
L-ZISSEN
  6
CONTINUOUS
 62
     7
 10
739.0
 20
190.5
 30
0.0
 11
751.2
 21
190.5
 31
0.0
  0
LINE
  8
L-ZISSEN
  6
CONTINUOUS
 62
     7
 10
739.0
 20
169.5
 30
0.0
 11
751.2
 21
169.5
 31
0.0
  0
LINE
  8
L-ZISSEN
  6
CONTINUOUS
 62
     7
 10
769.0
 20
142.0
 30
0.0
 11
769.0
 21
153.95
 31
0.0
  0
LINE
  8
L-ZISSEN
  6
CONTINUOUS
 62
     7
 10
739.0
 20
224.5
 30
0.0
 11
751.2
 21
224.5
 31
0.0
  0
LINE
  8
L-ZISSEN
  6
CONTINUOUS
 62
     7
 10
739.0
 20
245.5
 30
0.0
 11
751.2
 21
245.5
 31
0.0
  0
LINE
  8
L-ZISSEN
  6
CONTINUOUS
 62
     7
 10
734.0
 20
221.0
 30
0.0
 11
739.0
 21
221.0
 31
0.0
  0
LINE
  8
L-ZISSEN
  6
CONTINUOUS
 62
     7
 10
734.0
 20
249.0
 30
0.0
 11
739.0
 21
249.0
 31
0.0
  0
LINE
  8
L-ZISSEN
  6
CONTINUOUS
 62
     7
 10
739.0
 20
221.0
 30
0.0
 11
739.0
 21
249.0
 31
0.0
  0
LINE
  8
L-ZISSEN
  6
CONTINUOUS
 62
     7
 10
734.0
 20
221.0
 30
0.0
 11
734.0
 21
249.0
 31
0.0
  0
LINE
  8
L-ZISSEN
  6
CONTINUOUS
 62
     7
 10
751.2
 20
247.5
 30
0.0
 11
751.2
 21
222.5
 31
0.0
  0
LINE
  8
L-ZISSEN
  6
CONTINUOUS
 62
     7
 10
767.45
 20
247.5
 30
0.0
 11
751.2
 21
247.5
 31
0.0
  0
LINE
  8
L-ZISSEN
  6
CONTINUOUS
 62
     7
 10
751.2
 20
222.5
 30
0.0
 11
767.45
 21
222.5
 31
0.0
  0
LINE
  8
L-ZISSEN
  6
CONTINUOUS
 62
     7
 10
767.45
 20
261.05
 30
0.0
 11
767.45
 21
208.95
 31
0.0
  0
LINE
  8
L-ZISSEN
  6
CONTINUOUS
 62
     7
 10
832.55
 20
261.05
 30
0.0
 11
832.55
 21
208.95
 31
0.0
  0
LINE
  8
L-ZISSEN
  6
CONTINUOUS
 62
     7
 10
832.55
 20
261.05
 30
0.0
 11
767.45
 21
261.05
 31
0.0
  0
LINE
  8
L-ZISSEN
  6
CONTINUOUS
 62
     7
 10
832.55
 20
208.95
 30
0.0
 11
767.45
 21
208.95
 31
0.0
  0
LINE
  8
L-ZISSEN
  6
CONTINUOUS
 62
     7
 10
938.2
 20
259.0
 30
0.0
 11
935.0
 21
259.0
 31
0.0
  0
LINE
  8
L-ZISSEN
  6
CONTINUOUS
 62
     7
 10
897.4
 20
208.95
 30
0.0
 11
897.4
 21
261.05
 31
0.0
  0
LINE
  8
L-ZISSEN
  6
CONTINUOUS
 62
     7
 10
902.2
 20
210.7
 30
0.0
 11
935.0
 21
210.7
 31
0.0
  0
LINE
  8
L-ZISSEN
  6
CONTINUOUS
 62
     7
 10
935.0
 20
259.3
 30
0.0
 11
902.2
 21
259.3
 31
0.0
  0
LINE
  8
L-ZISSEN
  6
CONTINUOUS
 62
     7
 10
897.4
 20
208.95
 30
0.0
 11
902.2
 21
208.95
 31
0.0
  0
LINE
  8
L-ZISSEN
  6
CONTINUOUS
 62
     7
 10
897.4
 20
261.05
 30
0.0
 11
902.2
 21
261.05
 31
0.0
  0
LINE
  8
L-ZISSEN
  6
CONTINUOUS
 62
     7
 10
902.2
 20
261.05
 30
0.0
 11
902.2
 21
208.95
 31
0.0
  0
LINE
  8
L-ZISSEN
  6
CONTINUOUS
 62
     7
 10
938.2
 20
259.0
 30
0.0
 11
935.0
 21
259.0
 31
0.0
  0
LINE
  8
L-ZISSEN
  6
CONTINUOUS
 62
     7
 10
831.0
 20
206.05
 30
0.0
 11
831.0
 21
208.95
 31
0.0
  0
LINE
  8
L-ZISSEN
  6
CONTINUOUS
 62
     7
 10
769.0
 20
206.05
 30
0.0
 11
769.0
 21
208.95
 31
0.0
  0
LINE
  8
L-ZISSEN
  6
CONTINUOUS
 62
     7
 10
566.0
 20
206.05
 30
0.0
 11
566.0
 21
208.95
 31
0.0
  0
LINE
  8
L-ZISSEN
  6
CONTINUOUS
 62
     7
 10
504.0
 20
206.05
 30
0.0
 11
504.0
 21
208.95
 31
0.0
  0
LINE
  8
L-ZISSEN
  6
CONTINUOUS
 62
     7
 10
693.2
 20
259.0
 30
0.0
 11
690.0
 21
259.0
 31
0.0
  0
LINE
  8
L-ZISSEN
  6
CONTINUOUS
 62
     7
 10
657.2
 20
229.329021
 30
0.0
 11
657.2
 21
208.95
 31
0.0
  0
LINE
  8
L-ZISSEN
  6
CONTINUOUS
 62
     7
 10
652.4
 20
261.05
 30
0.0
 11
657.2
 21
261.05
 31
0.0
  0
LINE
  8
L-ZISSEN
  6
CONTINUOUS
 62
     7
 10
652.4
 20
208.95
 30
0.0
 11
657.2
 21
208.95
 31
0.0
  0
CIRCLE
  8
L-ZISSEN
  6
CONTINUOUS
 62
     7
 10
670.0
 20
235.0
 30
0.0
 40
14.0
  0
CIRCLE
  8
L-ZISSEN
  6
CONTINUOUS
 62
     7
 10
670.0
 20
235.0
 30
0.0
 40
7.5
  0
LINE
  8
L-ZISSEN
  6
CONTINUOUS
 62
     7
 10
690.0
 20
259.3
 30
0.0
 11
657.2
 21
259.3
 31
0.0
  0
LINE
  8
L-ZISSEN
  6
CONTINUOUS
 62
     7
 10
657.2
 20
210.7
 30
0.0
 11
690.0
 21
210.7
 31
0.0
  0
LINE
  8
L-ZISSEN
  6
CONTINUOUS
 62
     7
 10
657.2
 20
261.05
 30
0.0
 11
657.2
 21
240.670979
 31
0.0
  0
LINE
  8
L-ZISSEN
  6
CONTINUOUS
 62
     7
 10
652.4
 20
208.95
 30
0.0
 11
652.4
 21
261.05
 31
0.0
  0
LINE
  8
L-ZISSEN
  6
CONTINUOUS
 62
     7
 10
693.2
 20
259.0
 30
0.0
 11
690.0
 21
259.0
 31
0.0
  0
LINE
  8
L-ZISSEN
  6
CONTINUOUS
 62
     7
 10
502.45
 20
208.95
 30
0.0
 11
567.55
 21
208.95
 31
0.0
  0
LINE
  8
L-ZISSEN
  6
CONTINUOUS
 62
     7
 10
502.45
 20
261.05
 30
0.0
 11
567.55
 21
261.05
 31
0.0
  0
LINE
  8
L-ZISSEN
  6
CONTINUOUS
 62
     7
 10
502.45
 20
261.05
 30
0.0
 11
502.45
 21
208.95
 31
0.0
  0
LINE
  8
L-ZISSEN
  6
CONTINUOUS
 62
     7
 10
567.55
 20
261.05
 30
0.0
 11
567.55
 21
208.95
 31
0.0
  0
LINE
  8
L-ZISSEN
  6
CONTINUOUS
 62
     7
 10
583.8
 20
222.5
 30
0.0
 11
567.55
 21
222.5
 31
0.0
  0
LINE
  8
L-ZISSEN
  6
CONTINUOUS
 62
     7
 10
567.55
 20
247.5
 30
0.0
 11
583.8
 21
247.5
 31
0.0
  0
LINE
  8
L-ZISSEN
  6
CONTINUOUS
 62
     7
 10
583.8
 20
247.5
 30
0.0
 11
583.8
 21
222.5
 31
0.0
  0
LINE
  8
L-ZISSEN
  6
CONTINUOUS
 62
     7
 10
601.0
 20
221.0
 30
0.0
 11
601.0
 21
249.0
 31
0.0
  0
LINE
  8
L-ZISSEN
  6
CONTINUOUS
 62
     7
 10
596.0
 20
221.0
 30
0.0
 11
596.0
 21
249.0
 31
0.0
  0
LINE
  8
L-ZISSEN
  6
CONTINUOUS
 62
     7
 10
601.0
 20
249.0
 30
0.0
 11
596.0
 21
249.0
 31
0.0
  0
LINE
  8
L-ZISSEN
  6
CONTINUOUS
 62
     7
 10
601.0
 20
221.0
 30
0.0
 11
596.0
 21
221.0
 31
0.0
  0
LINE
  8
L-ZISSEN
  6
CONTINUOUS
 62
     7
 10
596.0
 20
245.5
 30
0.0
 11
583.8
 21
245.5
 31
0.0
  0
LINE
  8
L-ZISSEN
  6
CONTINUOUS
 62
     7
 10
596.0
 20
224.5
 30
0.0
 11
583.8
 21
224.5
 31
0.0
  0
LINE
  8
L-ZISSEN
  6
CONTINUOUS
 62
     7
 10
566.0
 20
142.0
 30
0.0
 11
566.0
 21
153.95
 31
0.0
  0
LINE
  8
L-ZISSEN
  6
CONTINUOUS
 62
     7
 10
596.0
 20
169.5
 30
0.0
 11
583.8
 21
169.5
 31
0.0
  0
LINE
  8
L-ZISSEN
  6
CONTINUOUS
 62
     7
 10
596.0
 20
190.5
 30
0.0
 11
583.8
 21
190.5
 31
0.0
  0
LINE
  8
L-ZISSEN
  6
CONTINUOUS
 62
     7
 10
601.0
 20
166.0
 30
0.0
 11
596.0
 21
166.0
 31
0.0
  0
LINE
  8
L-ZISSEN
  6
CONTINUOUS
 62
     7
 10
601.0
 20
194.0
 30
0.0
 11
596.0
 21
194.0
 31
0.0
  0
LINE
  8
L-ZISSEN
  6
CONTINUOUS
 62
     7
 10
596.0
 20
166.0
 30
0.0
 11
596.0
 21
194.0
 31
0.0
  0
LINE
  8
L-ZISSEN
  6
CONTINUOUS
 62
     7
 10
601.0
 20
166.0
 30
0.0
 11
601.0
 21
194.0
 31
0.0
  0
LINE
  8
L-ZISSEN
  6
CONTINUOUS
 62
     7
 10
583.8
 20
192.5
 30
0.0
 11
583.8
 21
167.5
 31
0.0
  0
LINE
  8
L-ZISSEN
  6
CONTINUOUS
 62
     7
 10
567.55
 20
192.5
 30
0.0
 11
583.8
 21
192.5
 31
0.0
  0
LINE
  8
L-ZISSEN
  6
CONTINUOUS
 62
     7
 10
583.8
 20
167.5
 30
0.0
 11
567.55
 21
167.5
 31
0.0
  0
LINE
  8
L-ZISSEN
  6
CONTINUOUS
 62
     7
 10
567.55
 20
206.05
 30
0.0
 11
567.55
 21
153.95
 31
0.0
  0
LINE
  8
L-ZISSEN
  6
CONTINUOUS
 62
     7
 10
690.0
 20
142.0
 30
0.0
 11
690.0
 21
259.3
 31
0.0
  0
LINE
  8
L-ZISSEN
  6
CONTINUOUS
 62
     7
 10
652.4
 20
153.95
 30
0.0
 11
652.4
 21
206.05
 31
0.0
  0
LINE
  8
L-ZISSEN
  6
CONTINUOUS
 62
     7
 10
657.2
 20
206.05
 30
0.0
 11
657.2
 21
185.670979
 31
0.0
  0
LINE
  8
L-ZISSEN
  6
CONTINUOUS
 62
     7
 10
657.2
 20
155.7
 30
0.0
 11
690.0
 21
155.7
 31
0.0
  0
LINE
  8
L-ZISSEN
  6
CONTINUOUS
 62
     7
 10
690.0
 20
204.3
 30
0.0
 11
657.2
 21
204.3
 31
0.0
  0
CIRCLE
  8
L-ZISSEN
  6
CONTINUOUS
 62
     7
 10
670.0
 20
180.0
 30
0.0
 40
7.5
  0
CIRCLE
  8
L-ZISSEN
  6
CONTINUOUS
 62
     7
 10
670.0
 20
180.0
 30
0.0
 40
14.0
  0
LINE
  8
L-ZISSEN
  6
CONTINUOUS
 62
     7
 10
596.0
 20
336.3
 30
0.0
 11
583.8
 21
336.3
 31
0.0
  0
LINE
  8
L-ZISSEN
  6
CONTINUOUS
 62
     7
 10
596.0
 20
357.3
 30
0.0
 11
583.8
 21
357.3
 31
0.0
  0
LINE
  8
L-ZISSEN
  6
CONTINUOUS
 62
     7
 10
601.0
 20
332.8
 30
0.0
 11
601.0
 21
360.8
 31
0.0
  0
LINE
  8
L-ZISSEN
  6
CONTINUOUS
 62
     7
 10
596.0
 20
332.8
 30
0.0
 11
596.0
 21
360.8
 31
0.0
  0
LINE
  8
L-ZISSEN
  6
CONTINUOUS
 62
     7
 10
601.0
 20
360.8
 30
0.0
 11
596.0
 21
360.8
 31
0.0
  0
LINE
  8
L-ZISSEN
  6
CONTINUOUS
 62
     7
 10
601.0
 20
332.8
 30
0.0
 11
596.0
 21
332.8
 31
0.0
  0
LINE
  8
L-ZISSEN
  6
CONTINUOUS
 62
     7
 10
583.8
 20
334.3
 30
0.0
 11
565.8
 21
334.3
 31
0.0
  0
LINE
  8
L-ZISSEN
  6
CONTINUOUS
 62
     7
 10
565.8
 20
359.3
 30
0.0
 11
583.8
 21
359.3
 31
0.0
  0
LINE
  8
L-ZISSEN
  6
CONTINUOUS
 62
     7
 10
583.8
 20
359.3
 30
0.0
 11
583.8
 21
334.3
 31
0.0
  0
LINE
  8
L-ZISSEN
  6
CONTINUOUS
 62
     7
 10
567.55
 20
334.0
 30
0.0
 11
567.55
 21
329.2
 31
0.0
  0
LINE
  8
L-ZISSEN
  6
CONTINUOUS
 62
     7
 10
502.45
 20
334.0
 30
0.0
 11
502.45
 21
329.2
 31
0.0
  0
LINE
  8
L-ZISSEN
  6
CONTINUOUS
 62
     7
 10
502.45
 20
334.0
 30
0.0
 11
567.55
 21
334.0
 31
0.0
  0
LINE
  8
L-ZISSEN
  6
CONTINUOUS
 62
     7
 10
567.55
 20
329.2
 30
0.0
 11
502.45
 21
329.2
 31
0.0
  0
LINE
  8
L-ZISSEN
  6
CONTINUOUS
 62
     7
 10
504.2
 20
334.0
 30
0.0
 11
504.2
 21
366.8
 31
0.0
  0
LINE
  8
L-ZISSEN
  6
CONTINUOUS
 62
     7
 10
565.8
 20
366.8
 30
0.0
 11
565.8
 21
334.0
 31
0.0
  0
LINE
  8
L-ZISSEN
  6
CONTINUOUS
 62
     7
 10
502.45
 20
206.05
 30
0.0
 11
567.55
 21
206.05
 31
0.0
  0
LINE
  8
L-ZISSEN
  6
CONTINUOUS
 62
     7
 10
502.45
 20
153.95
 30
0.0
 11
567.55
 21
153.95
 31
0.0
  0
LINE
  8
L-ZISSEN
  6
CONTINUOUS
 62
     7
 10
652.4
 20
153.95
 30
0.0
 11
657.2
 21
153.95
 31
0.0
  0
LINE
  8
L-ZISSEN
  6
CONTINUOUS
 62
     7
 10
652.4
 20
206.05
 30
0.0
 11
657.2
 21
206.05
 31
0.0
  0
LINE
  8
L-ZISSEN
  6
CONTINUOUS
 62
     7
 10
657.2
 20
174.329021
 30
0.0
 11
657.2
 21
153.95
 31
0.0
  0
LINE
  8
L-ZISSEN
  6
CONTINUOUS
 62
     7
 10
693.2
 20
142.0
 30
0.0
 11
693.2
 21
259.0
 31
0.0
  0
TEXT
  8
L-ZISSEN
  6
CONTINUOUS
 62
     7
 10
495.0
 20
435.0
 30
0.0
 40
4.5
  1
JUNCTION BOX
  0
TEXT
  8
L-ZISSEN
  6
CONTINUOUS
 62
     7
 10
495.0
 20
425.0
 30
0.0
 40
4.5
  1
MODEL NO. :
  0
TEXT
  8
L-ZISSEN
  6
CONTINUOUS
 62
     7
 10
785.0
 20
730.0
 30
0.0
 40
4.5
  1
NOL-5**-2XL FG20L
  0
TEXT
  8
L-ZISSEN
  6
CONTINUOUS
 62
     7
 10
785.0
 20
720.0
 30
0.0
 40
4.5
  1
NOL-5**-2XL FG21L
  0
LINE
  8
L-ZISSEN
  6
CONTINUOUS
 62
     7
 10
346.0
 20
146.5
 30
0.0
 11
346.0
 21
129.5
 31
0.0
  0
LINE
  8
L-ZISSEN
  6
CONTINUOUS
 62
     7
 10
334.0
 20
146.5
 30
0.0
 11
334.0
 21
129.5
 31
0.0
  0
LINE
  8
L-ZISSEN
  6
CONTINUOUS
 62
     7
 10
333.0
 20
146.5
 30
0.0
 11
347.0
 21
146.5
 31
0.0
  0
LINE
  8
L-ZISSEN
  6
CONTINUOUS
 62
     7
 10
334.0
 20
129.5
 30
0.0
 11
346.0
 21
129.5
 31
0.0
  0
LINE
  8
L-ZISSEN
  6
CONTINUOUS
 62
     7
 10
347.0
 20
146.5
 30
0.0
 11
347.0
 21
156.5
 31
0.0
  0
LINE
  8
L-ZISSEN
  6
CONTINUOUS
 62
     7
 10
333.0
 20
146.5
 30
0.0
 11
333.0
 21
156.5
 31
0.0
  0
LINE
  8
L-ZISSEN
  6
CONTINUOUS
 62
     7
 10
333.0
 20
156.5
 30
0.0
 11
347.0
 21
156.5
 31
0.0
  0
TEXT
  8
L-ZISSEN
  6
CONTINUOUS
 62
     7
 10
545.0
 20
720.0
 30
0.0
 40
4.5
  1
NOL-5**-2XL FG21R
  0
TEXT
  8
L-ZISSEN
  6
CONTINUOUS
 62
     7
 10
545.0
 20
730.0
 30
0.0
 40
4.5
  1
NOL-5**-2XL FG20R
  0
LINE
  8
L-TYUSIN
  6
CENTER
 62
     1
 10
715.0
 20
750.0
 30
0.0
 11
715.0
 21
30.0
 31
0.0
  0
TEXT
  8
L-ZISSEN
  6
CONTINUOUS
 62
     7
 10
545.0
 20
425.0
 30
0.0
 40
4.5
  1
NOL-5**-2XL FG22R
  0
TEXT
  8
L-ZISSEN
  6
CONTINUOUS
 62
     7
 10
545.0
 20
415.0
 30
0.0
 40
4.5
  1
NOL-5**-2XL FG23R
  0
TEXT
  8
L-ZISSEN
  6
CONTINUOUS
 62
     7
 10
545.0
 20
395.0
 30
0.0
 40
4.5
  1
NOL-5**-2XL FG25R
  0
TEXT
  8
L-ZISSEN
  6
CONTINUOUS
 62
     7
 10
545.0
 20
405.0
 30
0.0
 40
4.5
  1
NOL-5**-2XL FG24R
  0
LINE
  8
L-ZISSEN
  6
CONTINUOUS
 62
     7
 10
567.55
 20
591.05
 30
0.0
 11
567.55
 21
538.95
 31
0.0
  0
LINE
  8
L-ZISSEN
  6
CONTINUOUS
 62
     7
 10
566.0
 20
538.95
 30
0.0
 11
566.0
 21
527.0
 31
0.0
  0
LINE
  8
L-ZISSEN
  6
CONTINUOUS
 62
     7
 10
769.0
 20
538.95
 30
0.0
 11
769.0
 21
527.0
 31
0.0
  0
TEXT
  8
L-ZISSEN
  6
CONTINUOUS
 62
     7
 10
785.0
 20
425.0
 30
0.0
 40
4.5
  1
NOL-5**-2XL FG22L
  0
TEXT
  8
L-ZISSEN
  6
CONTINUOUS
 62
     7
 10
785.0
 20
415.0
 30
0.0
 40
4.5
  1
NOL-5**-2XL FG23L
  0
TEXT
  8
L-ZISSEN
  6
CONTINUOUS
 62
     7
 10
785.0
 20
405.0
 30
0.0
 40
4.5
  1
NOL-5**-2XL FG24L
  0
TEXT
  8
L-ZISSEN
  6
CONTINUOUS
 62
     7
 10
785.0
 20
395.0
 30
0.0
 40
4.5
  1
NOL-5**-2XL FG25R
  0
TEXT
  8
L-ZISSEN
  6
CONTINUOUS
 62
     7
 10
45.0
 20
645.0
 30
0.0
 40
4.5
  1
MODEL NO. : NOL-503-2XL
  0
TEXT
  8
L-ZISSEN
  6
CONTINUOUS
 62
     7
 10
115.5
 20
652.0
 30
0.0
 40
4.5
  1
02
  0
TEXT
  8
L-ZISSEN
  6
CONTINUOUS
 62
     7
 10
115.5
 20
638.5
 30
0.0
 40
4.5
  1
04
  0
LINE
  8
L-TYUSIN
  6
CENTER
 62
     1
 10
955.0
 20
750.0
 30
0.0
 11
955.0
 21
30.0
 31
0.0
  0
TEXT
  8
L-ZISSEN
  6
CONTINUOUS
 62
     7
 10
1025.0
 20
730.0
 30
0.0
 40
4.5
  1
NOL-5**-2S
  0
TEXT
  8
L-ZISSEN
  6
CONTINUOUS
 62
     7
 10
975.0
 20
730.0
 30
0.0
 40
4.5
  1
MODEL NO. :
  0
LINE
  8
L-ZISSEN
  6
CONTINUOUS
 62
     7
 10
1057.0
 20
364.75
 30
0.0
 11
1065.493267
 21
364.75
 31
0.0
  0
LINE
  8
L-ZISSEN
  6
CONTINUOUS
 62
     7
 10
1057.0
 20
375.25
 30
0.0
 11
1065.493267
 21
375.25
 31
0.0
  0
LINE
  8
L-ZISSEN
  6
CONTINUOUS
 62
     7
 10
1064.9
 20
365.092523
 30
0.0
 11
1073.4
 21
360.185045
 31
0.0
  0
LINE
  8
L-ZISSEN
  6
CONTINUOUS
 62
     7
 10
1073.4
 20
360.185045
 30
0.0
 11
1081.9
 21
365.092523
 31
0.0
  0
LINE
  8
L-ZISSEN
  6
CONTINUOUS
 62
     7
 10
1081.9
 20
365.092523
 30
0.0
 11
1081.9
 21
374.907477
 31
0.0
  0
LINE
  8
L-ZISSEN
  6
CONTINUOUS
 62
     7
 10
1081.9
 20
374.907477
 30
0.0
 11
1073.4
 21
379.814955
 31
0.0
  0
LINE
  8
L-ZISSEN
  6
CONTINUOUS
 62
     7
 10
1073.4
 20
379.814955
 30
0.0
 11
1064.9
 21
374.907477
 31
0.0
  0
LINE
  8
L-ZISSEN
  6
CONTINUOUS
 62
     7
 10
1064.9
 20
374.907477
 30
0.0
 11
1064.9
 21
365.092523
 31
0.0
  0
LINE
  8
L-ZISSEN
  6
CONTINUOUS
 62
     7
 10
1063.9
 20
364.515172
 30
0.0
 11
1073.4
 21
359.030345
 31
0.0
  0
LINE
  8
L-ZISSEN
  6
CONTINUOUS
 62
     7
 10
1073.4
 20
359.030345
 30
0.0
 11
1082.9
 21
364.515172
 31
0.0
  0
LINE
  8
L-ZISSEN
  6
CONTINUOUS
 62
     7
 10
1082.9
 20
364.515172
 30
0.0
 11
1082.9
 21
375.484828
 31
0.0
  0
LINE
  8
L-ZISSEN
  6
CONTINUOUS
 62
     7
 10
1082.9
 20
375.484828
 30
0.0
 11
1073.4
 21
380.969655
 31
0.0
  0
LINE
  8
L-ZISSEN
  6
CONTINUOUS
 62
     7
 10
1073.4
 20
380.969655
 30
0.0
 11
1063.9
 21
375.484828
 31
0.0
  0
LINE
  8
L-ZISSEN
  6
CONTINUOUS
 62
     7
 10
1063.9
 20
375.484828
 30
0.0
 11
1063.9
 21
375.25
 31
0.0
  0
LINE
  8
L-ZISSEN
  6
CONTINUOUS
 62
     7
 10
1063.9
 20
364.75
 30
0.0
 11
1063.9
 21
364.515172
 31
0.0
  0
TEXT
  8
L-ZISSEN
  6
CONTINUOUS
 62
     7
 10
975.0
 20
740.0
 30
0.0
 40
4.5
  1
SUPER CYLINDER
  0
TEXT
  8
L-ZISSEN
  6
CONTINUOUS
 62
     7
 10
975.0
 20
435.0
 30
0.0
 40
4.5
  1
GLASS LEVEL GAUGE
  0
TEXT
  8
L-ZISSEN
  6
CONTINUOUS
 62
     7
 10
975.0
 20
425.0
 30
0.0
 40
4.5
  1
MODEL NO. :
  0
TEXT
  8
L-ZISSEN
  6
CONTINUOUS
 62
     7
 10
1025.0
 20
425.0
 30
0.0
 40
4.5
  1
NOL-5**-2XLS
  0
LINE
  8
L-TYUSIN
  6
CENTER
 62
     1
 10
130.0
 20
418.0
 30
0.0
 11
130.0
 21
29.0
 31
0.0
  0
LINE
  8
L-ZISSEN
  6
CONTINUOUS
 62
     7
 10
58.0
 20
310.0
 30
0.0
 11
202.0
 21
310.0
 31
0.0
  0
LINE
  8
L-ZISSEN
  6
CONTINUOUS
 62
     7
 10
58.0
 20
335.0
 30
0.0
 11
202.0
 21
335.0
 31
0.0
  0
LINE
  8
L-TYUSIN
  6
CENTER
 62
     1
 10
130.0
 20
620.0
 30
0.0
 11
130.0
 21
453.0
 31
0.0
  0
LINE
  8
L-TYUSIN
  6
CENTER
 62
     1
 10
227.982904
 20
530.0
 30
0.0
 11
53.0
 21
530.0
 31
0.0
  0
LINE
  8
L-ZISSEN
  6
CONTINUOUS
 62
     7
 10
202.0
 20
584.0
 30
0.0
 11
202.0
 21
476.0
 31
0.0
  0
LINE
  8
L-ZISSEN
  6
CONTINUOUS
 62
     7
 10
58.0
 20
310.0
 30
0.0
 11
58.0
 21
335.0
 31
0.0
  0
LINE
  8
L-ZISSEN
  6
CONTINUOUS
 62
     7
 10
76.0
 20
458.0
 30
0.0
 11
184.0
 21
458.0
 31
0.0
  0
LINE
  8
L-ZISSEN
  6
CONTINUOUS
 62
     7
 10
202.0
 20
335.0
 30
0.0
 11
202.0
 21
310.0
 31
0.0
  0
LINE
  8
L-ZISSEN
  6
CONTINUOUS
 62
     7
 10
58.0
 20
476.0
 30
0.0
 11
58.0
 21
584.0
 31
0.0
  0
ARC
  8
L-ZISSEN
  6
CONTINUOUS
 62
     7
 10
184.0
 20
584.0
 30
0.0
 40
18.0
 50
0.0
 51
27.266044
  0
ARC
  8
L-ZISSEN
  6
CONTINUOUS
 62
     7
 10
76.0
 20
584.0
 30
0.0
 40
18.0
 50
152.733956
 51
180.0
  0
ARC
  8
L-ZISSEN
  6
CONTINUOUS
 62
     7
 10
76.0
 20
476.0
 30
0.0
 40
18.0
 50
180.0
 51
270.0
  0
ARC
  8
L-ZISSEN
  6
CONTINUOUS
 62
     7
 10
184.0
 20
476.0
 30
0.0
 40
18.0
 50
270.0
 51
0.0
  0
LINE
  8
L-ZISSEN
  6
CONTINUOUS
 62
     7
 10
168.5
 20
336.0
 30
0.0
 11
168.5
 21
335.0
 31
0.0
  0
LINE
  8
L-ZISSEN
  6
CONTINUOUS
 62
     7
 10
91.5
 20
336.0
 30
0.0
 11
91.5
 21
335.0
 31
0.0
  0
CIRCLE
  8
L-ZISSEN
  6
CONTINUOUS
 62
     7
 10
184.0
 20
476.0
 30
0.0
 40
6.0
  0
LINE
  8
L-ZISSEN
  6
CONTINUOUS
 62
     7
 10
60.0
 20
348.0
 30
0.0
 11
87.0
 21
348.0
 31
0.0
  0
LINE
  8
L-ZISSEN
  6
CONTINUOUS
 62
     7
 10
194.969655
 20
348.0
 30
0.0
 11
194.969655
 21
338.0
 31
0.0
  0
LINE
  8
L-ZISSEN
  6
CONTINUOUS
 62
     7
 10
173.030345
 20
348.0
 30
0.0
 11
173.030345
 21
338.0
 31
0.0
  0
LINE
  8
L-ZISSEN
  6
CONTINUOUS
 62
     7
 10
173.030345
 20
338.0
 30
0.0
 11
194.969655
 21
338.0
 31
0.0
  0
LINE
  8
L-ZISSEN
  6
CONTINUOUS
 62
     7
 10
173.25
 20
335.0
 30
0.0
 11
173.25
 21
338.0
 31
0.0
  0
LINE
  8
L-ZISSEN
  6
CONTINUOUS
 62
     7
 10
194.75
 20
335.0
 30
0.0
 11
194.75
 21
338.0
 31
0.0
  0
LINE
  8
L-ZISSEN
  6
CONTINUOUS
 62
     7
 10
200.0
 20
348.0
 30
0.0
 11
200.0
 21
401.0
 31
0.0
  0
LINE
  8
L-ZISSEN
  6
CONTINUOUS
 62
     7
 10
200.0
 20
401.0
 30
0.0
 11
142.727922
 21
401.0
 31
0.0
  0
LINE
  8
L-ZISSEN
  6
CONTINUOUS
 62
     7
 10
60.0
 20
401.0
 30
0.0
 11
60.0
 21
348.0
 31
0.0
  0
LINE
  8
L-ZISSEN
  6
CONTINUOUS
 62
     7
 10
60.0
 20
350.3
 30
0.0
 11
70.0
 21
350.3
 31
0.0
  0
ARC
  8
L-ZISSEN
  6
CONTINUOUS
 62
     7
 10
179.5
 20
386.0
 30
0.0
 40
5.5
 50
270.0
 51
90.0
  0
ARC
  8
L-ZISSEN
  6
CONTINUOUS
 62
     7
 10
170.5
 20
386.0
 30
0.0
 40
5.5
 50
90.0
 51
270.0
  0
LINE
  8
L-ZISSEN
  6
CONTINUOUS
 62
     7
 10
179.5
 20
380.5
 30
0.0
 11
170.5
 21
380.5
 31
0.0
  0
LINE
  8
L-ZISSEN
  6
CONTINUOUS
 62
     7
 10
179.5
 20
391.5
 30
0.0
 11
170.5
 21
391.5
 31
0.0
  0
LINE
  8
L-ZISSEN
  6
CONTINUOUS
 62
     7
 10
173.030345
 20
360.3
 30
0.0
 11
173.030345
 21
350.3
 31
0.0
  0
LINE
  8
L-ZISSEN
  6
CONTINUOUS
 62
     7
 10
194.969655
 20
360.3
 30
0.0
 11
194.969655
 21
350.3
 31
0.0
  0
LINE
  8
L-ZISSEN
  6
CONTINUOUS
 62
     7
 10
173.030345
 20
360.3
 30
0.0
 11
178.0
 21
360.3
 31
0.0
  0
LINE
  8
L-ZISSEN
  6
CONTINUOUS
 62
     7
 10
86.969655
 20
360.3
 30
0.0
 11
82.0
 21
360.3
 31
0.0
  0
LINE
  8
L-ZISSEN
  6
CONTINUOUS
 62
     7
 10
65.030345
 20
360.3
 30
0.0
 11
65.030345
 21
350.3
 31
0.0
  0
LINE
  8
L-ZISSEN
  6
CONTINUOUS
 62
     7
 10
86.969655
 20
360.3
 30
0.0
 11
86.969655
 21
350.3
 31
0.0
  0
LINE
  8
L-ZISSEN
  6
CONTINUOUS
 62
     7
 10
65.25
 20
335.0
 30
0.0
 11
65.25
 21
338.0
 31
0.0
  0
LINE
  8
L-ZISSEN
  6
CONTINUOUS
 62
     7
 10
86.75
 20
335.0
 30
0.0
 11
86.75
 21
338.0
 31
0.0
  0
LINE
  8
L-ZISSEN
  6
CONTINUOUS
 62
     7
 10
86.969655
 20
338.0
 30
0.0
 11
65.030345
 21
338.0
 31
0.0
  0
LINE
  8
L-ZISSEN
  6
CONTINUOUS
 62
     7
 10
86.969655
 20
348.0
 30
0.0
 11
86.969655
 21
338.0
 31
0.0
  0
LINE
  8
L-ZISSEN
  6
CONTINUOUS
 62
     7
 10
65.030345
 20
348.0
 30
0.0
 11
65.030345
 21
338.0
 31
0.0
  0
LINE
  8
L-ZISSEN
  6
CONTINUOUS
 62
     7
 10
80.5
 20
391.5
 30
0.0
 11
89.5
 21
391.5
 31
0.0
  0
LINE
  8
L-ZISSEN
  6
CONTINUOUS
 62
     7
 10
80.5
 20
380.5
 30
0.0
 11
89.5
 21
380.5
 31
0.0
  0
ARC
  8
L-ZISSEN
  6
CONTINUOUS
 62
     7
 10
89.5
 20
386.0
 30
0.0
 40
5.5
 50
270.0
 51
90.0
  0
ARC
  8
L-ZISSEN
  6
CONTINUOUS
 62
     7
 10
80.5
 20
386.0
 30
0.0
 40
5.5
 50
90.0
 51
270.0
  0
LINE
  8
L-TYUSIN
  6
CENTER
 62
     1
 10
85.0
 20
376.0
 30
0.0
 11
85.0
 21
396.0
 31
0.0
  0
LINE
  8
L-TYUSIN
  6
CENTER
 62
     1
 10
100.0
 20
386.0
 30
0.0
 11
70.0
 21
386.0
 31
0.0
  0
ARC
  8
L-ZISSEN
  6
CONTINUOUS
 62
     7
 10
80.5
 20
49.0
 30
0.0
 40
5.5
 50
90.0
 51
270.0
  0
ARC
  8
L-ZISSEN
  6
CONTINUOUS
 62
     7
 10
89.5
 20
49.0
 30
0.0
 40
5.5
 50
270.0
 51
90.0
  0
LINE
  8
L-ZISSEN
  6
CONTINUOUS
 62
     7
 10
80.5
 20
54.5
 30
0.0
 11
89.5
 21
54.5
 31
0.0
  0
LINE
  8
L-ZISSEN
  6
CONTINUOUS
 62
     7
 10
80.5
 20
43.5
 30
0.0
 11
89.5
 21
43.5
 31
0.0
  0
LINE
  8
L-ZISSEN
  6
CONTINUOUS
 62
     7
 10
65.030345
 20
87.0
 30
0.0
 11
65.030345
 21
97.0
 31
0.0
  0
LINE
  8
L-ZISSEN
  6
CONTINUOUS
 62
     7
 10
86.969655
 20
87.0
 30
0.0
 11
86.969655
 21
97.0
 31
0.0
  0
LINE
  8
L-ZISSEN
  6
CONTINUOUS
 62
     7
 10
86.969655
 20
97.0
 30
0.0
 11
65.030345
 21
97.0
 31
0.0
  0
LINE
  8
L-ZISSEN
  6
CONTINUOUS
 62
     7
 10
86.75
 20
100.0
 30
0.0
 11
86.75
 21
97.0
 31
0.0
  0
LINE
  8
L-ZISSEN
  6
CONTINUOUS
 62
     7
 10
65.25
 20
100.0
 30
0.0
 11
65.25
 21
97.0
 31
0.0
  0
LINE
  8
L-ZISSEN
  6
CONTINUOUS
 62
     7
 10
86.969655
 20
74.7
 30
0.0
 11
86.969655
 21
84.7
 31
0.0
  0
LINE
  8
L-ZISSEN
  6
CONTINUOUS
 62
     7
 10
65.030345
 20
74.7
 30
0.0
 11
65.030345
 21
84.7
 31
0.0
  0
LINE
  8
L-ZISSEN
  6
CONTINUOUS
 62
     7
 10
86.969655
 20
74.7
 30
0.0
 11
82.0
 21
74.7
 31
0.0
  0
LINE
  8
L-ZISSEN
  6
CONTINUOUS
 62
     7
 10
173.030345
 20
74.7
 30
0.0
 11
178.0
 21
74.7
 31
0.0
  0
LINE
  8
L-ZISSEN
  6
CONTINUOUS
 62
     7
 10
194.969655
 20
74.7
 30
0.0
 11
194.969655
 21
84.7
 31
0.0
  0
LINE
  8
L-ZISSEN
  6
CONTINUOUS
 62
     7
 10
173.030345
 20
74.7
 30
0.0
 11
173.030345
 21
84.7
 31
0.0
  0
LINE
  8
L-ZISSEN
  6
CONTINUOUS
 62
     7
 10
179.5
 20
43.5
 30
0.0
 11
170.5
 21
43.5
 31
0.0
  0
LINE
  8
L-ZISSEN
  6
CONTINUOUS
 62
     7
 10
179.5
 20
54.5
 30
0.0
 11
170.5
 21
54.5
 31
0.0
  0
ARC
  8
L-ZISSEN
  6
CONTINUOUS
 62
     7
 10
170.5
 20
49.0
 30
0.0
 40
5.5
 50
90.0
 51
270.0
  0
ARC
  8
L-ZISSEN
  6
CONTINUOUS
 62
     7
 10
179.5
 20
49.0
 30
0.0
 40
5.5
 50
270.0
 51
90.0
  0
LINE
  8
L-ZISSEN
  6
CONTINUOUS
 62
     7
 10
60.0
 20
84.7
 30
0.0
 11
70.0
 21
84.7
 31
0.0
  0
LINE
  8
L-ZISSEN
  6
CONTINUOUS
 62
     7
 10
60.0
 20
34.0
 30
0.0
 11
60.0
 21
87.0
 31
0.0
  0
LINE
  8
L-ZISSEN
  6
CONTINUOUS
 62
     7
 10
200.0
 20
34.0
 30
0.0
 11
60.0
 21
34.0
 31
0.0
  0
LINE
  8
L-ZISSEN
  6
CONTINUOUS
 62
     7
 10
200.0
 20
87.0
 30
0.0
 11
200.0
 21
34.0
 31
0.0
  0
LINE
  8
L-ZISSEN
  6
CONTINUOUS
 62
     7
 10
194.75
 20
100.0
 30
0.0
 11
194.75
 21
97.0
 31
0.0
  0
LINE
  8
L-ZISSEN
  6
CONTINUOUS
 62
     7
 10
173.25
 20
100.0
 30
0.0
 11
173.25
 21
97.0
 31
0.0
  0
LINE
  8
L-ZISSEN
  6
CONTINUOUS
 62
     7
 10
173.030345
 20
97.0
 30
0.0
 11
194.969655
 21
97.0
 31
0.0
  0
LINE
  8
L-ZISSEN
  6
CONTINUOUS
 62
     7
 10
173.030345
 20
87.0
 30
0.0
 11
173.030345
 21
97.0
 31
0.0
  0
LINE
  8
L-ZISSEN
  6
CONTINUOUS
 62
     7
 10
194.969655
 20
87.0
 30
0.0
 11
194.969655
 21
97.0
 31
0.0
  0
LINE
  8
L-ZISSEN
  6
CONTINUOUS
 62
     7
 10
60.0
 20
87.0
 30
0.0
 11
124.0
 21
87.0
 31
0.0
  0
LINE
  8
L-ZISSEN
  6
CONTINUOUS
 62
     7
 10
58.0
 20
100.0
 30
0.0
 11
202.0
 21
100.0
 31
0.0
  0
LINE
  8
L-ZISSEN
  6
CONTINUOUS
 62
     7
 10
178.0
 20
362.5
 30
0.0
 11
190.0
 21
362.5
 31
0.0
  0
LINE
  8
L-ZISSEN
  6
CONTINUOUS
 62
     7
 10
190.0
 20
362.5
 30
0.0
 11
190.0
 21
348.0
 31
0.0
  0
LINE
  8
L-ZISSEN
  6
CONTINUOUS
 62
     7
 10
178.0
 20
362.5
 30
0.0
 11
178.0
 21
348.0
 31
0.0
  0
LINE
  8
L-ZISSEN
  6
CONTINUOUS
 62
     7
 10
178.0
 20
72.5
 30
0.0
 11
178.0
 21
87.0
 31
0.0
  0
LINE
  8
L-ZISSEN
  6
CONTINUOUS
 62
     7
 10
190.0
 20
72.5
 30
0.0
 11
190.0
 21
87.0
 31
0.0
  0
LINE
  8
L-ZISSEN
  6
CONTINUOUS
 62
     7
 10
178.0
 20
72.5
 30
0.0
 11
190.0
 21
72.5
 31
0.0
  0
LINE
  8
L-ZISSEN
  6
CONTINUOUS
 62
     7
 10
82.0
 20
72.5
 30
0.0
 11
70.0
 21
72.5
 31
0.0
  0
LINE
  8
L-ZISSEN
  6
CONTINUOUS
 62
     7
 10
70.0
 20
72.5
 30
0.0
 11
70.0
 21
87.0
 31
0.0
  0
LINE
  8
L-ZISSEN
  6
CONTINUOUS
 62
     7
 10
70.0
 20
362.5
 30
0.0
 11
70.0
 21
348.0
 31
0.0
  0
LINE
  8
L-ZISSEN
  6
CONTINUOUS
 62
     7
 10
82.0
 20
362.5
 30
0.0
 11
70.0
 21
362.5
 31
0.0
  0
LINE
  8
L-ZISSEN
  6
CONTINUOUS
 62
     7
 10
82.0
 20
362.5
 30
0.0
 11
82.0
 21
348.0
 31
0.0
  0
LINE
  8
L-ZISSEN
  6
CONTINUOUS
 62
     7
 10
82.0
 20
72.5
 30
0.0
 11
82.0
 21
87.0
 31
0.0
  0
LINE
  8
L-ZISSEN
  6
CONTINUOUS
 62
     7
 10
60.1
 20
310.0
 30
0.0
 11
60.1
 21
125.0
 31
0.0
  0
LINE
  8
L-ZISSEN
  6
CONTINUOUS
 62
     7
 10
58.0
 20
125.0
 30
0.0
 11
202.0
 21
125.0
 31
0.0
  0
LINE
  8
L-ZISSEN
  6
CONTINUOUS
 62
     7
 10
58.0
 20
125.0
 30
0.0
 11
58.0
 21
100.0
 31
0.0
  0
LINE
  8
L-ZISSEN
  6
CONTINUOUS
 62
     7
 10
202.0
 20
125.0
 30
0.0
 11
202.0
 21
100.0
 31
0.0
  0
LINE
  8
L-ZISSEN
  6
CONTINUOUS
 62
     7
 10
117.5
 20
95.0
 30
0.0
 11
142.5
 21
95.0
 31
0.0
  0
LINE
  8
L-ZISSEN
  6
CONTINUOUS
 62
     7
 10
100.0
 20
100.0
 30
0.0
 11
117.5
 21
95.0
 31
0.0
  0
LINE
  8
L-ZISSEN
  6
CONTINUOUS
 62
     7
 10
160.0
 20
100.0
 30
0.0
 11
142.5
 21
95.0
 31
0.0
  0
LINE
  8
L-ZISSEN
  6
CONTINUOUS
 62
     7
 10
82.0
 20
125.0
 30
0.0
 11
82.0
 21
310.0
 31
0.0
  0
LINE
  8
L-ZISSEN
  6
CONTINUOUS
 62
     7
 10
70.0
 20
125.0
 30
0.0
 11
70.0
 21
310.0
 31
0.0
  0
LINE
  8
L-ZISSEN
  6
CONTINUOUS
 62
     7
 10
178.0
 20
125.0
 30
0.0
 11
178.0
 21
310.0
 31
0.0
  0
LINE
  8
L-ZISSEN
  6
CONTINUOUS
 62
     7
 10
190.0
 20
125.0
 30
0.0
 11
190.0
 21
310.0
 31
0.0
  0
LINE
  8
L-ZISSEN
  6
CONTINUOUS
 62
     7
 10
136.0
 20
87.0
 30
0.0
 11
200.0
 21
87.0
 31
0.0
  0
LINE
  8
L-ZISSEN
  6
CONTINUOUS
 62
     7
 10
138.975522
 20
84.7
 30
0.0
 11
178.0
 21
84.7
 31
0.0
  0
LINE
  8
L-ZISSEN
  6
CONTINUOUS
 62
     7
 10
199.9
 20
310.0
 30
0.0
 11
199.9
 21
125.0
 31
0.0
  0
CIRCLE
  8
L-ZISSEN
  6
CONTINUOUS
 62
     7
 10
76.0
 20
476.0
 30
0.0
 40
6.0
  0
CIRCLE
  8
L-ZISSEN
  6
CONTINUOUS
 62
     7
 10
76.0
 20
584.0
 30
0.0
 40
6.0
  0
CIRCLE
  8
L-ZISSEN
  6
CONTINUOUS
 62
     7
 10
184.0
 20
584.0
 30
0.0
 40
6.0
  0
LINE
  8
L-ZISSEN
  6
CONTINUOUS
 62
     7
 10
200.0
 20
570.0
 30
0.0
 11
174.72136
 21
570.0
 31
0.0
  0
LINE
  8
L-ZISSEN
  6
CONTINUOUS
 62
     7
 10
60.0
 20
615.0
 30
0.0
 11
200.0
 21
615.0
 31
0.0
  0
LINE
  8
L-ZISSEN
  6
CONTINUOUS
 62
     7
 10
200.0
 20
612.7
 30
0.0
 11
60.0
 21
612.7
 31
0.0
  0
LINE
  8
L-ZISSEN
  6
CONTINUOUS
 62
     7
 10
200.0
 20
570.0
 30
0.0
 11
200.0
 21
615.0
 31
0.0
  0
LINE
  8
L-ZISSEN
  6
CONTINUOUS
 62
     7
 10
60.0
 20
615.0
 30
0.0
 11
60.0
 21
570.0
 31
0.0
  0
ARC
  8
L-ZISSEN
  6
CONTINUOUS
 62
     7
 10
130.0
 20
530.0
 30
0.0
 40
60.0
 50
41.810315
 51
138.189685
  0
LINE
  8
L-ZISSEN
  6
CONTINUOUS
 62
     7
 10
85.27864
 20
570.0
 30
0.0
 11
60.0
 21
570.0
 31
0.0
  0
LINE
  8
L-ZISSEN
  6
CONTINUOUS
 62
     7
 10
409.9
 20
310.0
 30
0.0
 11
409.9
 21
125.0
 31
0.0
  0
LINE
  8
L-ZISSEN
  6
CONTINUOUS
 62
     7
 10
400.0
 20
125.0
 30
0.0
 11
400.0
 21
310.0
 31
0.0
  0
LINE
  8
L-ZISSEN
  6
CONTINUOUS
 62
     7
 10
388.0
 20
125.0
 30
0.0
 11
388.0
 21
310.0
 31
0.0
  0
LINE
  8
L-ZISSEN
  6
CONTINUOUS
 62
     7
 10
280.0
 20
125.0
 30
0.0
 11
280.0
 21
310.0
 31
0.0
  0
LINE
  8
L-ZISSEN
  6
CONTINUOUS
 62
     7
 10
292.0
 20
125.0
 30
0.0
 11
292.0
 21
310.0
 31
0.0
  0
LINE
  8
L-ZISSEN
  6
CONTINUOUS
 62
     7
 10
370.0
 20
100.0
 30
0.0
 11
352.5
 21
95.0
 31
0.0
  0
LINE
  8
L-ZISSEN
  6
CONTINUOUS
 62
     7
 10
310.0
 20
100.0
 30
0.0
 11
327.5
 21
95.0
 31
0.0
  0
LINE
  8
L-ZISSEN
  6
CONTINUOUS
 62
     7
 10
327.5
 20
95.0
 30
0.0
 11
352.5
 21
95.0
 31
0.0
  0
LINE
  8
L-ZISSEN
  6
CONTINUOUS
 62
     7
 10
412.0
 20
125.0
 30
0.0
 11
412.0
 21
100.0
 31
0.0
  0
LINE
  8
L-ZISSEN
  6
CONTINUOUS
 62
     7
 10
268.0
 20
125.0
 30
0.0
 11
268.0
 21
100.0
 31
0.0
  0
LINE
  8
L-ZISSEN
  6
CONTINUOUS
 62
     7
 10
268.0
 20
125.0
 30
0.0
 11
412.0
 21
125.0
 31
0.0
  0
LINE
  8
L-ZISSEN
  6
CONTINUOUS
 62
     7
 10
270.1
 20
310.0
 30
0.0
 11
270.1
 21
125.0
 31
0.0
  0
LINE
  8
L-ZISSEN
  6
CONTINUOUS
 62
     7
 10
268.0
 20
100.0
 30
0.0
 11
412.0
 21
100.0
 31
0.0
  0
LINE
  8
L-ZISSEN
  6
CONTINUOUS
 62
     7
 10
301.5
 20
336.0
 30
0.0
 11
301.5
 21
335.0
 31
0.0
  0
LINE
  8
L-ZISSEN
  6
CONTINUOUS
 62
     7
 10
378.5
 20
336.0
 30
0.0
 11
378.5
 21
335.0
 31
0.0
  0
LINE
  8
L-ZISSEN
  6
CONTINUOUS
 62
     7
 10
412.0
 20
335.0
 30
0.0
 11
412.0
 21
310.0
 31
0.0
  0
LINE
  8
L-ZISSEN
  6
CONTINUOUS
 62
     7
 10
268.0
 20
310.0
 30
0.0
 11
268.0
 21
335.0
 31
0.0
  0
LINE
  8
L-ZISSEN
  6
CONTINUOUS
 62
     7
 10
268.0
 20
335.0
 30
0.0
 11
412.0
 21
335.0
 31
0.0
  0
LINE
  8
L-ZISSEN
  6
CONTINUOUS
 62
     7
 10
268.0
 20
310.0
 30
0.0
 11
412.0
 21
310.0
 31
0.0
  0
LINE
  8
L-TYUSIN
  6
CENTER
 62
     1
 10
340.0
 20
419.0
 30
0.0
 11
340.0
 21
49.0
 31
0.0
  0
LINE
  8
L-ZISSEN
  6
CONTINUOUS
 62
     7
 10
380.0
 20
87.0
 30
0.0
 11
425.0
 21
87.0
 31
0.0
  0
LINE
  8
L-ZISSEN
  6
CONTINUOUS
 62
     7
 10
380.0
 20
87.0
 30
0.0
 11
380.0
 21
84.7
 31
0.0
  0
LINE
  8
L-ZISSEN
  6
CONTINUOUS
 62
     7
 10
425.0
 20
34.0
 30
0.0
 11
425.0
 21
87.0
 31
0.0
  0
LINE
  8
L-ZISSEN
  6
CONTINUOUS
 62
     7
 10
422.7
 20
84.7
 30
0.0
 11
422.7
 21
34.0
 31
0.0
  0
LINE
  8
L-ZISSEN
  6
CONTINUOUS
 62
     7
 10
383.25
 20
97.0
 30
0.0
 11
404.75
 21
97.0
 31
0.0
  0
LINE
  8
L-ZISSEN
  6
CONTINUOUS
 62
     7
 10
383.25
 20
100.0
 30
0.0
 11
383.25
 21
97.0
 31
0.0
  0
LINE
  8
L-ZISSEN
  6
CONTINUOUS
 62
     7
 10
404.75
 20
100.0
 30
0.0
 11
404.75
 21
97.0
 31
0.0
  0
LINE
  8
L-ZISSEN
  6
CONTINUOUS
 62
     7
 10
425.0
 20
34.0
 30
0.0
 11
422.7
 21
34.0
 31
0.0
  0
LINE
  8
L-ZISSEN
  6
CONTINUOUS
 62
     7
 10
380.0
 20
84.7
 30
0.0
 11
422.7
 21
84.7
 31
0.0
  0
LINE
  8
L-TYUSIN
  6
CENTER
 62
     1
 10
417.7
 20
49.0
 30
0.0
 11
430.0
 21
49.0
 31
0.0
  0
LINE
  8
L-ZISSEN
  6
CONTINUOUS
 62
     7
 10
276.5
 20
87.0
 30
0.0
 11
295.5
 21
87.0
 31
0.0
  0
LINE
  8
L-ZISSEN
  6
CONTINUOUS
 62
     7
 10
280.0
 20
72.5
 30
0.0
 11
280.0
 21
87.0
 31
0.0
  0
LINE
  8
L-ZISSEN
  6
CONTINUOUS
 62
     7
 10
292.0
 20
72.5
 30
0.0
 11
280.0
 21
72.5
 31
0.0
  0
LINE
  8
L-ZISSEN
  6
CONTINUOUS
 62
     7
 10
292.0
 20
72.5
 30
0.0
 11
292.0
 21
87.0
 31
0.0
  0
LINE
  8
L-ZISSEN
  6
CONTINUOUS
 62
     7
 10
70.0
 20
360.3
 30
0.0
 11
65.030345
 21
360.3
 31
0.0
  0
LINE
  8
L-ZISSEN
  6
CONTINUOUS
 62
     7
 10
190.0
 20
360.3
 30
0.0
 11
194.969655
 21
360.3
 31
0.0
  0
LINE
  8
L-ZISSEN
  6
CONTINUOUS
 62
     7
 10
190.0
 20
350.3
 30
0.0
 11
200.0
 21
350.3
 31
0.0
  0
LINE
  8
L-ZISSEN
  6
CONTINUOUS
 62
     7
 10
82.0
 20
350.3
 30
0.0
 11
87.0
 21
350.3
 31
0.0
  0
LINE
  8
L-ZISSEN
  6
CONTINUOUS
 62
     7
 10
190.0
 20
84.7
 30
0.0
 11
200.0
 21
84.7
 31
0.0
  0
LINE
  8
L-ZISSEN
  6
CONTINUOUS
 62
     7
 10
190.0
 20
74.7
 30
0.0
 11
194.969655
 21
74.7
 31
0.0
  0
LINE
  8
L-ZISSEN
  6
CONTINUOUS
 62
     7
 10
82.0
 20
84.7
 30
0.0
 11
121.024478
 21
84.7
 31
0.0
  0
LINE
  8
L-ZISSEN
  6
CONTINUOUS
 62
     7
 10
70.0
 20
74.7
 30
0.0
 11
65.030345
 21
74.7
 31
0.0
  0
LINE
  8
L-ZISSEN
  6
CONTINUOUS
 62
     7
 10
178.515172
 20
485.5
 30
0.0
 11
173.030345
 21
476.0
 31
0.0
  0
LINE
  8
L-ZISSEN
  6
CONTINUOUS
 62
     7
 10
173.030345
 20
476.0
 30
0.0
 11
178.515172
 21
466.5
 31
0.0
  0
LINE
  8
L-ZISSEN
  6
CONTINUOUS
 62
     7
 10
178.515172
 20
466.5
 30
0.0
 11
189.484828
 21
466.5
 31
0.0
  0
LINE
  8
L-ZISSEN
  6
CONTINUOUS
 62
     7
 10
189.484828
 20
466.5
 30
0.0
 11
194.969655
 21
476.0
 31
0.0
  0
LINE
  8
L-ZISSEN
  6
CONTINUOUS
 62
     7
 10
194.969655
 20
476.0
 30
0.0
 11
189.484828
 21
485.5
 31
0.0
  0
LINE
  8
L-ZISSEN
  6
CONTINUOUS
 62
     7
 10
189.484828
 20
485.5
 30
0.0
 11
178.515172
 21
485.5
 31
0.0
  0
LINE
  8
L-ZISSEN
  6
CONTINUOUS
 62
     7
 10
81.484828
 20
485.5
 30
0.0
 11
86.969655
 21
476.0
 31
0.0
  0
LINE
  8
L-ZISSEN
  6
CONTINUOUS
 62
     7
 10
86.969655
 20
476.0
 30
0.0
 11
81.484828
 21
466.5
 31
0.0
  0
LINE
  8
L-ZISSEN
  6
CONTINUOUS
 62
     7
 10
81.484828
 20
466.5
 30
0.0
 11
70.515172
 21
466.5
 31
0.0
  0
LINE
  8
L-ZISSEN
  6
CONTINUOUS
 62
     7
 10
70.515172
 20
466.5
 30
0.0
 11
65.030345
 21
476.0
 31
0.0
  0
LINE
  8
L-ZISSEN
  6
CONTINUOUS
 62
     7
 10
65.030345
 20
476.0
 30
0.0
 11
70.515172
 21
485.5
 31
0.0
  0
LINE
  8
L-ZISSEN
  6
CONTINUOUS
 62
     7
 10
70.515172
 20
485.5
 30
0.0
 11
81.484828
 21
485.5
 31
0.0
  0
LINE
  8
L-ZISSEN
  6
CONTINUOUS
 62
     7
 10
81.484828
 20
574.5
 30
0.0
 11
86.969655
 21
584.0
 31
0.0
  0
LINE
  8
L-ZISSEN
  6
CONTINUOUS
 62
     7
 10
86.969655
 20
584.0
 30
0.0
 11
81.484828
 21
593.5
 31
0.0
  0
LINE
  8
L-ZISSEN
  6
CONTINUOUS
 62
     7
 10
81.484828
 20
593.5
 30
0.0
 11
70.515172
 21
593.5
 31
0.0
  0
LINE
  8
L-ZISSEN
  6
CONTINUOUS
 62
     7
 10
70.515172
 20
593.5
 30
0.0
 11
65.030345
 21
584.0
 31
0.0
  0
LINE
  8
L-ZISSEN
  6
CONTINUOUS
 62
     7
 10
65.030345
 20
584.0
 30
0.0
 11
70.515172
 21
574.5
 31
0.0
  0
LINE
  8
L-ZISSEN
  6
CONTINUOUS
 62
     7
 10
70.515172
 20
574.5
 30
0.0
 11
81.484828
 21
574.5
 31
0.0
  0
LINE
  8
L-ZISSEN
  6
CONTINUOUS
 62
     7
 10
178.515172
 20
574.5
 30
0.0
 11
173.030345
 21
584.0
 31
0.0
  0
LINE
  8
L-ZISSEN
  6
CONTINUOUS
 62
     7
 10
173.030345
 20
584.0
 30
0.0
 11
178.515172
 21
593.5
 31
0.0
  0
LINE
  8
L-ZISSEN
  6
CONTINUOUS
 62
     7
 10
178.515172
 20
593.5
 30
0.0
 11
189.484828
 21
593.5
 31
0.0
  0
LINE
  8
L-ZISSEN
  6
CONTINUOUS
 62
     7
 10
189.484828
 20
593.5
 30
0.0
 11
194.969655
 21
584.0
 31
0.0
  0
LINE
  8
L-ZISSEN
  6
CONTINUOUS
 62
     7
 10
194.969655
 20
584.0
 30
0.0
 11
189.484828
 21
574.5
 31
0.0
  0
LINE
  8
L-ZISSEN
  6
CONTINUOUS
 62
     7
 10
189.484828
 20
574.5
 30
0.0
 11
178.515172
 21
574.5
 31
0.0
  0
CIRCLE
  8
L-ZISSEN
  6
CONTINUOUS
 62
     7
 10
130.0
 20
76.0
 30
0.0
 40
12.5
  0
LINE
  8
L-ZISSEN
  6
CONTINUOUS
 62
     7
 10
124.0
 20
89.5
 30
0.0
 11
136.0
 21
89.5
 31
0.0
  0
LINE
  8
L-ZISSEN
  6
CONTINUOUS
 62
     7
 10
136.0
 20
86.965856
 30
0.0
 11
136.0
 21
89.5
 31
0.0
  0
LINE
  8
L-ZISSEN
  6
CONTINUOUS
 62
     7
 10
124.0
 20
86.965856
 30
0.0
 11
124.0
 21
89.5
 31
0.0
  0
LINE
  8
L-ZISSEN
  6
CONTINUOUS
 62
     7
 10
130.0
 20
73.113249
 30
0.0
 11
132.5
 21
74.556624
 31
0.0
  0
LINE
  8
L-ZISSEN
  6
CONTINUOUS
 62
     7
 10
132.5
 20
77.443376
 30
0.0
 11
132.5
 21
74.556624
 31
0.0
  0
LINE
  8
L-ZISSEN
  6
CONTINUOUS
 62
     7
 10
130.0
 20
78.886751
 30
0.0
 11
132.5
 21
77.443376
 31
0.0
  0
LINE
  8
L-ZISSEN
  6
CONTINUOUS
 62
     7
 10
130.0
 20
73.113249
 30
0.0
 11
127.5
 21
74.556624
 31
0.0
  0
LINE
  8
L-ZISSEN
  6
CONTINUOUS
 62
     7
 10
127.5
 20
77.443376
 30
0.0
 11
127.5
 21
74.556624
 31
0.0
  0
LINE
  8
L-ZISSEN
  6
CONTINUOUS
 62
     7
 10
130.0
 20
78.886751
 30
0.0
 11
127.5
 21
77.443376
 31
0.0
  0
LINE
  8
L-ZISSEN
  6
CONTINUOUS
 62
     7
 10
134.25
 20
54.0
 30
0.0
 11
125.75
 21
54.0
 31
0.0
  0
LINE
  8
L-ZISSEN
  6
CONTINUOUS
 62
     7
 10
134.25
 20
54.0
 30
0.0
 11
134.25
 21
64.244682
 31
0.0
  0
LINE
  8
L-ZISSEN
  6
CONTINUOUS
 62
     7
 10
125.75
 20
54.0
 30
0.0
 11
125.75
 21
64.244682
 31
0.0
  0
LINE
  8
L-ZISSEN
  6
CONTINUOUS
 62
     7
 10
134.864
 20
95.0
 30
0.0
 11
134.864
 21
89.5
 31
0.0
  0
LINE
  8
L-ZISSEN
  6
CONTINUOUS
 62
     7
 10
125.136
 20
95.0
 30
0.0
 11
125.136
 21
89.5
 31
0.0
  0
LINE
  8
L-ZISSEN
  6
CONTINUOUS
 62
     7
 10
220.9
 20
146.5
 30
0.0
 11
220.9
 21
129.5
 31
0.0
  0
LINE
  8
L-ZISSEN
  6
CONTINUOUS
 62
     7
 10
208.9
 20
146.5
 30
0.0
 11
208.9
 21
139.5
 31
0.0
  0
LINE
  8
L-ZISSEN
  6
CONTINUOUS
 62
     7
 10
222.982904
 20
156.5
 30
0.0
 11
222.982904
 21
146.5
 31
0.0
  0
LINE
  8
L-ZISSEN
  6
CONTINUOUS
 62
     7
 10
206.817096
 20
146.5
 30
0.0
 11
222.982904
 21
146.5
 31
0.0
  0
LINE
  8
L-ZISSEN
  6
CONTINUOUS
 62
     7
 10
206.817096
 20
156.5
 30
0.0
 11
206.817096
 21
146.5
 31
0.0
  0
LINE
  8
L-ZISSEN
  6
CONTINUOUS
 62
     7
 10
206.817096
 20
156.5
 30
0.0
 11
222.982904
 21
156.5
 31
0.0
  0
LINE
  8
L-ZISSEN
  6
CONTINUOUS
 62
     7
 10
199.9
 20
139.5
 30
0.0
 11
208.9
 21
139.5
 31
0.0
  0
LINE
  8
L-ZISSEN
  6
CONTINUOUS
 62
     7
 10
199.9
 20
129.5
 30
0.0
 11
220.9
 21
129.5
 31
0.0
  0
LINE
  8
L-ZISSEN
  6
CONTINUOUS
 62
     7
 10
210.9
 20
156.5
 30
0.0
 11
210.9
 21
278.5
 31
0.0
  0
LINE
  8
L-ZISSEN
  6
CONTINUOUS
 62
     7
 10
218.9
 20
156.5
 30
0.0
 11
218.9
 21
278.5
 31
0.0
  0
LINE
  8
L-ZISSEN
  6
CONTINUOUS
 62
     7
 10
199.9
 20
305.5
 30
0.0
 11
220.9
 21
305.5
 31
0.0
  0
LINE
  8
L-ZISSEN
  6
CONTINUOUS
 62
     7
 10
199.9
 20
295.5
 30
0.0
 11
208.9
 21
295.5
 31
0.0
  0
LINE
  8
L-ZISSEN
  6
CONTINUOUS
 62
     7
 10
206.817096
 20
278.5
 30
0.0
 11
222.982904
 21
278.5
 31
0.0
  0
LINE
  8
L-ZISSEN
  6
CONTINUOUS
 62
     7
 10
206.817096
 20
278.5
 30
0.0
 11
206.817096
 21
288.5
 31
0.0
  0
LINE
  8
L-ZISSEN
  6
CONTINUOUS
 62
     7
 10
206.817096
 20
288.5
 30
0.0
 11
222.982904
 21
288.5
 31
0.0
  0
LINE
  8
L-ZISSEN
  6
CONTINUOUS
 62
     7
 10
222.982904
 20
278.5
 30
0.0
 11
222.982904
 21
288.5
 31
0.0
  0
LINE
  8
L-ZISSEN
  6
CONTINUOUS
 62
     7
 10
208.9
 20
288.5
 30
0.0
 11
208.9
 21
295.5
 31
0.0
  0
LINE
  8
L-ZISSEN
  6
CONTINUOUS
 62
     7
 10
220.9
 20
288.5
 30
0.0
 11
220.9
 21
305.5
 31
0.0
  0
LINE
  8
L-ZISSEN
  6
CONTINUOUS
 62
     7
 10
333.0
 20
278.5
 30
0.0
 11
347.0
 21
278.5
 31
0.0
  0
LINE
  8
L-ZISSEN
  6
CONTINUOUS
 62
     7
 10
333.0
 20
288.5
 30
0.0
 11
333.0
 21
278.5
 31
0.0
  0
LINE
  8
L-ZISSEN
  6
CONTINUOUS
 62
     7
 10
347.0
 20
288.5
 30
0.0
 11
347.0
 21
278.5
 31
0.0
  0
LINE
  8
L-ZISSEN
  6
CONTINUOUS
 62
     7
 10
334.0
 20
305.5
 30
0.0
 11
346.0
 21
305.5
 31
0.0
  0
LINE
  8
L-ZISSEN
  6
CONTINUOUS
 62
     7
 10
333.0
 20
288.5
 30
0.0
 11
347.0
 21
288.5
 31
0.0
  0
LINE
  8
L-ZISSEN
  6
CONTINUOUS
 62
     7
 10
334.0
 20
288.5
 30
0.0
 11
334.0
 21
305.5
 31
0.0
  0
LINE
  8
L-ZISSEN
  6
CONTINUOUS
 62
     7
 10
346.0
 20
288.5
 30
0.0
 11
346.0
 21
305.5
 31
0.0
  0
LINE
  8
L-ZISSEN
  6
CONTINUOUS
 62
     7
 10
334.0
 20
89.5
 30
0.0
 11
346.0
 21
89.5
 31
0.0
  0
LINE
  8
L-ZISSEN
  6
CONTINUOUS
 62
     7
 10
344.864
 20
95.0
 30
0.0
 11
344.864
 21
89.5
 31
0.0
  0
LINE
  8
L-ZISSEN
  6
CONTINUOUS
 62
     7
 10
335.136
 20
95.0
 30
0.0
 11
335.136
 21
89.5
 31
0.0
  0
LINE
  8
L-ZISSEN
  6
CONTINUOUS
 62
     7
 10
341.25
 20
54.0
 30
0.0
 11
332.75
 21
54.0
 31
0.0
  0
LINE
  8
L-ZISSEN
  6
CONTINUOUS
 62
     7
 10
310.0
 20
78.886751
 30
0.0
 11
310.0
 21
73.113249
 31
0.0
  0
LINE
  8
L-ZISSEN
  6
CONTINUOUS
 62
     7
 10
312.5
 20
63.5
 30
0.0
 11
312.5
 21
88.5
 31
0.0
  0
LINE
  8
L-ZISSEN
  6
CONTINUOUS
 62
     7
 10
316.0
 20
88.5
 30
0.0
 11
316.0
 21
63.5
 31
0.0
  0
LINE
  8
L-ZISSEN
  6
CONTINUOUS
 62
     7
 10
322.0
 20
84.082904
 30
0.0
 11
327.0
 21
84.082904
 31
0.0
  0
LINE
  8
L-ZISSEN
  6
CONTINUOUS
 62
     7
 10
322.0
 20
67.917096
 30
0.0
 11
327.0
 21
67.917096
 31
0.0
  0
LINE
  8
L-ZISSEN
  6
CONTINUOUS
 62
     7
 10
316.0
 20
78.25
 30
0.0
 11
322.0
 21
78.25
 31
0.0
  0
LINE
  8
L-ZISSEN
  6
CONTINUOUS
 62
     7
 10
316.0
 20
73.75
 30
0.0
 11
322.0
 21
73.75
 31
0.0
  0
LINE
  8
L-ZISSEN
  6
CONTINUOUS
 62
     7
 10
312.5
 20
88.5
 30
0.0
 11
316.0
 21
88.5
 31
0.0
  0
LINE
  8
L-ZISSEN
  6
CONTINUOUS
 62
     7
 10
312.5
 20
63.5
 30
0.0
 11
316.0
 21
63.5
 31
0.0
  0
LINE
  8
L-ZISSEN
  6
CONTINUOUS
 62
     7
 10
310.0
 20
78.886751
 30
0.0
 11
312.5
 21
78.886751
 31
0.0
  0
LINE
  8
L-ZISSEN
  6
CONTINUOUS
 62
     7
 10
310.0
 20
73.113249
 30
0.0
 11
312.5
 21
73.113249
 31
0.0
  0
LINE
  8
L-ZISSEN
  6
CONTINUOUS
 62
     7
 10
334.0
 20
82.0
 30
0.0
 11
334.0
 21
89.5
 31
0.0
  0
LINE
  8
L-ZISSEN
  6
CONTINUOUS
 62
     7
 10
346.0
 20
70.0
 30
0.0
 11
346.0
 21
89.5
 31
0.0
  0
LINE
  8
L-ZISSEN
  6
CONTINUOUS
 62
     7
 10
334.0
 20
82.0
 30
0.0
 11
327.0
 21
82.0
 31
0.0
  0
LINE
  8
L-ZISSEN
  6
CONTINUOUS
 62
     7
 10
346.0
 20
70.0
 30
0.0
 11
327.0
 21
70.0
 31
0.0
  0
LINE
  8
L-ZISSEN
  6
CONTINUOUS
 62
     7
 10
341.25
 20
54.0
 30
0.0
 11
341.25
 21
70.0
 31
0.0
  0
LINE
  8
L-ZISSEN
  6
CONTINUOUS
 62
     7
 10
332.75
 20
54.0
 30
0.0
 11
332.75
 21
70.0
 31
0.0
  0
LINE
  8
L-ZISSEN
  6
CONTINUOUS
 62
     7
 10
327.0
 20
84.082904
 30
0.0
 11
327.0
 21
67.917096
 31
0.0
  0
LINE
  8
L-ZISSEN
  6
CONTINUOUS
 62
     7
 10
322.0
 20
84.082904
 30
0.0
 11
322.0
 21
67.917096
 31
0.0
  0
LINE
  8
L-ZISSEN
  6
CONTINUOUS
 62
     7
 10
388.0
 20
72.5
 30
0.0
 11
388.0
 21
74.7
 31
0.0
  0
LINE
  8
L-ZISSEN
  6
CONTINUOUS
 62
     7
 10
400.0
 20
72.5
 30
0.0
 11
400.0
 21
74.7
 31
0.0
  0
LINE
  8
L-ZISSEN
  6
CONTINUOUS
 62
     7
 10
400.0
 20
72.5
 30
0.0
 11
388.0
 21
72.5
 31
0.0
  0
LINE
  8
L-ZISSEN
  6
CONTINUOUS
 62
     7
 10
276.5
 20
87.0
 30
0.0
 11
276.5
 21
97.0
 31
0.0
  0
LINE
  8
L-ZISSEN
  6
CONTINUOUS
 62
     7
 10
295.5
 20
87.0
 30
0.0
 11
295.5
 21
97.0
 31
0.0
  0
LINE
  8
L-ZISSEN
  6
CONTINUOUS
 62
     7
 10
403.5
 20
87.0
 30
0.0
 11
403.5
 21
97.0
 31
0.0
  0
LINE
  8
L-ZISSEN
  6
CONTINUOUS
 62
     7
 10
384.5
 20
87.0
 30
0.0
 11
384.5
 21
97.0
 31
0.0
  0
LINE
  8
L-ZISSEN
  6
CONTINUOUS
 62
     7
 10
384.5
 20
74.7
 30
0.0
 11
403.5
 21
74.7
 31
0.0
  0
LINE
  8
L-ZISSEN
  6
CONTINUOUS
 62
     7
 10
384.5
 20
74.7
 30
0.0
 11
384.5
 21
84.7
 31
0.0
  0
LINE
  8
L-ZISSEN
  6
CONTINUOUS
 62
     7
 10
403.5
 20
74.7
 30
0.0
 11
403.5
 21
84.7
 31
0.0
  0
LINE
  8
L-ZISSEN
  6
CONTINUOUS
 62
     7
 10
296.75
 20
100.0
 30
0.0
 11
296.75
 21
97.0
 31
0.0
  0
LINE
  8
L-ZISSEN
  6
CONTINUOUS
 62
     7
 10
275.25
 20
100.0
 30
0.0
 11
275.25
 21
97.0
 31
0.0
  0
LINE
  8
L-ZISSEN
  6
CONTINUOUS
 62
     7
 10
275.25
 20
97.0
 30
0.0
 11
296.75
 21
97.0
 31
0.0
  0
LINE
  8
L-ZISSEN
  6
CONTINUOUS
 62
     7
 10
403.5
 20
360.3
 30
0.0
 11
403.5
 21
350.3
 31
0.0
  0
LINE
  8
L-ZISSEN
  6
CONTINUOUS
 62
     7
 10
384.5
 20
360.3
 30
0.0
 11
384.5
 21
350.3
 31
0.0
  0
LINE
  8
L-ZISSEN
  6
CONTINUOUS
 62
     7
 10
384.5
 20
360.3
 30
0.0
 11
403.5
 21
360.3
 31
0.0
  0
LINE
  8
L-ZISSEN
  6
CONTINUOUS
 62
     7
 10
384.5
 20
348.0
 30
0.0
 11
384.5
 21
338.0
 31
0.0
  0
LINE
  8
L-ZISSEN
  6
CONTINUOUS
 62
     7
 10
403.5
 20
348.0
 30
0.0
 11
403.5
 21
338.0
 31
0.0
  0
LINE
  8
L-ZISSEN
  6
CONTINUOUS
 62
     7
 10
400.0
 20
362.5
 30
0.0
 11
388.0
 21
362.5
 31
0.0
  0
LINE
  8
L-ZISSEN
  6
CONTINUOUS
 62
     7
 10
400.0
 20
362.5
 30
0.0
 11
400.0
 21
360.3
 31
0.0
  0
LINE
  8
L-ZISSEN
  6
CONTINUOUS
 62
     7
 10
388.0
 20
362.5
 30
0.0
 11
388.0
 21
360.3
 31
0.0
  0
LINE
  8
L-TYUSIN
  6
CENTER
 62
     1
 10
417.7
 20
386.0
 30
0.0
 11
430.0
 21
386.0
 31
0.0
  0
LINE
  8
L-ZISSEN
  6
CONTINUOUS
 62
     7
 10
380.0
 20
350.3
 30
0.0
 11
422.7
 21
350.3
 31
0.0
  0
LINE
  8
L-ZISSEN
  6
CONTINUOUS
 62
     7
 10
425.0
 20
401.0
 30
0.0
 11
422.7
 21
401.0
 31
0.0
  0
LINE
  8
L-ZISSEN
  6
CONTINUOUS
 62
     7
 10
404.75
 20
335.0
 30
0.0
 11
404.75
 21
338.0
 31
0.0
  0
LINE
  8
L-ZISSEN
  6
CONTINUOUS
 62
     7
 10
383.25
 20
335.0
 30
0.0
 11
383.25
 21
338.0
 31
0.0
  0
LINE
  8
L-ZISSEN
  6
CONTINUOUS
 62
     7
 10
383.25
 20
338.0
 30
0.0
 11
404.75
 21
338.0
 31
0.0
  0
LINE
  8
L-ZISSEN
  6
CONTINUOUS
 62
     7
 10
422.7
 20
350.3
 30
0.0
 11
422.7
 21
401.0
 31
0.0
  0
LINE
  8
L-ZISSEN
  6
CONTINUOUS
 62
     7
 10
425.0
 20
401.0
 30
0.0
 11
425.0
 21
348.0
 31
0.0
  0
LINE
  8
L-ZISSEN
  6
CONTINUOUS
 62
     7
 10
380.0
 20
348.0
 30
0.0
 11
380.0
 21
350.3
 31
0.0
  0
LINE
  8
L-ZISSEN
  6
CONTINUOUS
 62
     7
 10
380.0
 20
348.0
 30
0.0
 11
425.0
 21
348.0
 31
0.0
  0
LINE
  8
L-ZISSEN
  6
CONTINUOUS
 62
     7
 10
275.25
 20
338.0
 30
0.0
 11
296.75
 21
338.0
 31
0.0
  0
LINE
  8
L-ZISSEN
  6
CONTINUOUS
 62
     7
 10
275.25
 20
335.0
 30
0.0
 11
275.25
 21
338.0
 31
0.0
  0
LINE
  8
L-ZISSEN
  6
CONTINUOUS
 62
     7
 10
296.75
 20
335.0
 30
0.0
 11
296.75
 21
338.0
 31
0.0
  0
LINE
  8
L-ZISSEN
  6
CONTINUOUS
 62
     7
 10
295.5
 20
348.0
 30
0.0
 11
295.5
 21
338.0
 31
0.0
  0
LINE
  8
L-ZISSEN
  6
CONTINUOUS
 62
     7
 10
276.5
 20
348.0
 30
0.0
 11
276.5
 21
338.0
 31
0.0
  0
LINE
  8
L-ZISSEN
  6
CONTINUOUS
 62
     7
 10
292.0
 20
362.5
 30
0.0
 11
292.0
 21
348.0
 31
0.0
  0
LINE
  8
L-ZISSEN
  6
CONTINUOUS
 62
     7
 10
292.0
 20
362.5
 30
0.0
 11
280.0
 21
362.5
 31
0.0
  0
LINE
  8
L-ZISSEN
  6
CONTINUOUS
 62
     7
 10
280.0
 20
362.5
 30
0.0
 11
280.0
 21
348.0
 31
0.0
  0
LINE
  8
L-ZISSEN
  6
CONTINUOUS
 62
     7
 10
276.5
 20
348.0
 30
0.0
 11
295.5
 21
348.0
 31
0.0
  0
LINE
  8
L-ZISSEN
  6
CONTINUOUS
 62
     7
 10
202.0
 20
535.0
 30
0.0
 11
220.9
 21
535.0
 31
0.0
  0
LINE
  8
L-TYUSIN
  6
CENTER
 62
     1
 10
160.0
 20
386.0
 30
0.0
 11
190.0
 21
386.0
 31
0.0
  0
LINE
  8
L-TYUSIN
  6
CENTER
 62
     1
 10
175.0
 20
376.0
 30
0.0
 11
175.0
 21
396.0
 31
0.0
  0
LINE
  8
L-TYUSIN
  6
CENTER
 62
     1
 10
100.0
 20
49.0
 30
0.0
 11
70.0
 21
49.0
 31
0.0
  0
LINE
  8
L-TYUSIN
  6
CENTER
 62
     1
 10
85.0
 20
39.0
 30
0.0
 11
85.0
 21
59.0
 31
0.0
  0
LINE
  8
L-TYUSIN
  6
CENTER
 62
     1
 10
160.0
 20
49.0
 30
0.0
 11
190.0
 21
49.0
 31
0.0
  0
LINE
  8
L-TYUSIN
  6
CENTER
 62
     1
 10
175.0
 20
39.0
 30
0.0
 11
175.0
 21
59.0
 31
0.0
  0
LINE
  8
L-ZISSEN
  6
CONTINUOUS
 62
     7
 10
220.9
 20
525.0
 30
0.0
 11
220.9
 21
535.0
 31
0.0
  0
LINE
  8
L-ZISSEN
  6
CONTINUOUS
 62
     7
 10
202.0
 20
525.0
 30
0.0
 11
220.9
 21
525.0
 31
0.0
  0
LINE
  8
L-ZISSEN
  6
CONTINUOUS
 62
     7
 10
210.858548
 20
537.0
 30
0.0
 11
209.703848
 21
535.0
 31
0.0
  0
LINE
  8
L-ZISSEN
  6
CONTINUOUS
 62
     7
 10
209.703848
 20
525.0
 30
0.0
 11
210.858548
 21
523.0
 31
0.0
  0
LINE
  8
L-ZISSEN
  6
CONTINUOUS
 62
     7
 10
210.858548
 20
523.0
 30
0.0
 11
218.941452
 21
523.0
 31
0.0
  0
LINE
  8
L-ZISSEN
  6
CONTINUOUS
 62
     7
 10
218.941452
 20
523.0
 30
0.0
 11
220.096152
 21
525.0
 31
0.0
  0
LINE
  8
L-ZISSEN
  6
CONTINUOUS
 62
     7
 10
222.982904
 20
530.0
 30
0.0
 11
220.9
 21
533.607695
 31
0.0
  0
LINE
  8
L-ZISSEN
  6
CONTINUOUS
 62
     7
 10
218.941452
 20
537.0
 30
0.0
 11
210.858548
 21
537.0
 31
0.0
  0
LINE
  8
L-ZISSEN
  6
CONTINUOUS
 62
     7
 10
220.9
 20
526.392305
 30
0.0
 11
222.982904
 21
530.0
 31
0.0
  0
LINE
  8
L-ZISSEN
  6
CONTINUOUS
 62
     7
 10
220.096152
 20
535.0
 30
0.0
 11
218.941452
 21
537.0
 31
0.0
  0
LINE
  8
L-ZISSEN
  6
CONTINUOUS
 62
     7
 10
164.0
 20
498.0
 30
0.0
 11
157.202941
 21
498.0
 31
0.0
  0
ARC
  8
L-ZISSEN
  6
CONTINUOUS
 62
     7
 10
164.0
 20
504.0
 30
0.0
 40
6.0
 50
270.0
 51
0.0
  0
CIRCLE
  8
L-ZISSEN
  6
CONTINUOUS
 62
     7
 10
164.0
 20
504.0
 30
0.0
 40
5.25
  0
ARC
  8
L-ZISSEN
  6
CONTINUOUS
 62
     7
 10
96.0
 20
504.0
 30
0.0
 40
6.0
 50
180.0
 51
270.0
  0
LINE
  8
L-ZISSEN
  6
CONTINUOUS
 62
     7
 10
96.0
 20
498.0
 30
0.0
 11
102.797059
 21
498.0
 31
0.0
  0
CIRCLE
  8
L-ZISSEN
  6
CONTINUOUS
 62
     7
 10
96.0
 20
504.0
 30
0.0
 40
5.25
  0
LINE
  8
L-ZISSEN
  6
CONTINUOUS
 62
     7
 10
87.0
 20
515.0
 30
0.0
 11
87.0
 21
545.0
 31
0.0
  0
ARC
  8
L-ZISSEN
  6
CONTINUOUS
 62
     7
 10
130.0
 20
486.0
 30
0.0
 40
6.0
 50
180.0
 51
0.0
  0
LINE
  8
L-ZISSEN
  6
CONTINUOUS
 62
     7
 10
124.0
 20
486.0
 30
0.0
 11
122.450326
 21
488.684114
 31
0.0
  0
LINE
  8
L-ZISSEN
  6
CONTINUOUS
 62
     7
 10
136.0
 20
486.0
 30
0.0
 11
137.549674
 21
488.684114
 31
0.0
  0
ARC
  8
L-ZISSEN
  6
CONTINUOUS
 62
     7
 10
130.0
 20
486.0
 30
0.0
 40
5.25
 50
126.802981
 51
53.197019
  0
ARC
  8
L-ZISSEN
  6
CONTINUOUS
 62
     7
 10
130.0
 20
530.0
 30
0.0
 40
42.0
 50
229.632406
 51
259.64456
  0
ARC
  8
L-ZISSEN
  6
CONTINUOUS
 62
     7
 10
130.0
 20
530.0
 30
0.0
 40
42.0
 50
280.35544
 51
310.367594
  0
ARC
  8
L-ZISSEN
  6
CONTINUOUS
 62
     7
 10
130.0
 20
530.0
 30
0.0
 40
42.0
 50
49.632406
 51
79.64456
  0
ARC
  8
L-ZISSEN
  6
CONTINUOUS
 62
     7
 10
130.0
 20
530.0
 30
0.0
 40
42.0
 50
100.35544
 51
130.367594
  0
ARC
  8
L-ZISSEN
  6
CONTINUOUS
 62
     7
 10
130.0
 20
574.0
 30
0.0
 40
5.25
 50
306.802981
 51
233.197019
  0
LINE
  8
L-ZISSEN
  6
CONTINUOUS
 62
     7
 10
136.0
 20
574.0
 30
0.0
 11
137.549674
 21
571.315886
 31
0.0
  0
LINE
  8
L-ZISSEN
  6
CONTINUOUS
 62
     7
 10
124.0
 20
574.0
 30
0.0
 11
122.450326
 21
571.315886
 31
0.0
  0
ARC
  8
L-ZISSEN
  6
CONTINUOUS
 62
     7
 10
130.0
 20
574.0
 30
0.0
 40
6.0
 50
0.0
 51
180.0
  0
CIRCLE
  8
L-ZISSEN
  6
CONTINUOUS
 62
     7
 10
96.0
 20
556.0
 30
0.0
 40
5.25
  0
LINE
  8
L-ZISSEN
  6
CONTINUOUS
 62
     7
 10
96.0
 20
562.0
 30
0.0
 11
102.797059
 21
562.0
 31
0.0
  0
ARC
  8
L-ZISSEN
  6
CONTINUOUS
 62
     7
 10
96.0
 20
556.0
 30
0.0
 40
6.0
 50
90.0
 51
180.0
  0
CIRCLE
  8
L-ZISSEN
  6
CONTINUOUS
 62
     7
 10
164.0
 20
556.0
 30
0.0
 40
5.25
  0
ARC
  8
L-ZISSEN
  6
CONTINUOUS
 62
     7
 10
164.0
 20
556.0
 30
0.0
 40
6.0
 50
0.0
 51
90.0
  0
LINE
  8
L-ZISSEN
  6
CONTINUOUS
 62
     7
 10
164.0
 20
562.0
 30
0.0
 11
157.202941
 21
562.0
 31
0.0
  0
LINE
  8
L-ZISSEN
  6
CONTINUOUS
 62
     7
 10
173.0
 20
545.0
 30
0.0
 11
153.84798
 21
545.0
 31
0.0
  0
LINE
  8
L-ZISSEN
  6
CONTINUOUS
 62
     7
 10
87.0
 20
515.0
 30
0.0
 11
120.986122
 21
515.0
 31
0.0
  0
LINE
  8
L-ZISSEN
  6
CONTINUOUS
 62
     7
 10
140.0
 20
558.0
 30
0.0
 11
140.0
 21
552.431119
 31
0.0
  0
LINE
  8
L-ZISSEN
  6
CONTINUOUS
 62
     7
 10
120.0
 20
546.918201
 30
0.0
 11
120.0
 21
558.0
 31
0.0
  0
ARC
  8
L-ZISSEN
  6
CONTINUOUS
 62
     7
 10
130.0
 20
558.0
 30
0.0
 40
10.0
 50
0.0
 51
51.156878
  0
ARC
  8
L-ZISSEN
  6
CONTINUOUS
 62
     7
 10
117.272078
 20
542.727922
 30
0.0
 40
5.0
 50
27.027338
 51
152.972662
  0
ARC
  8
L-ZISSEN
  6
CONTINUOUS
 62
     7
 10
144.849242
 20
515.150758
 30
0.0
 40
9.0
 50
225.0
 51
45.0
  0
LINE
  8
L-ZISSEN
  6
CONTINUOUS
 62
     7
 10
151.213203
 20
521.514719
 30
0.0
 11
146.976454
 21
525.751468
 31
0.0
  0
LINE
  8
L-ZISSEN
  6
CONTINUOUS
 62
     7
 10
138.485281
 20
508.786797
 30
0.0
 11
134.248532
 21
513.023546
 31
0.0
  0
LINE
  8
L-ZISSEN
  6
CONTINUOUS
 62
     7
 10
120.986122
 20
545.0
 30
0.0
 11
87.0
 21
545.0
 31
0.0
  0
LINE
  8
L-ZISSEN
  6
CONTINUOUS
 62
     7
 10
153.84798
 20
515.0
 30
0.0
 11
173.0
 21
515.0
 31
0.0
  0
LINE
  8
L-ZISSEN
  6
CONTINUOUS
 62
     7
 10
138.485281
 20
551.213203
 30
0.0
 11
134.248532
 21
546.976454
 31
0.0
  0
LINE
  8
L-ZISSEN
  6
CONTINUOUS
 62
     7
 10
151.213203
 20
538.485281
 30
0.0
 11
146.976454
 21
534.248532
 31
0.0
  0
ARC
  8
L-ZISSEN
  6
CONTINUOUS
 62
     7
 10
144.849242
 20
544.849242
 30
0.0
 40
9.0
 50
315.0
 51
135.0
  0
ARC
  8
L-ZISSEN
  6
CONTINUOUS
 62
     7
 10
130.0
 20
502.0
 30
0.0
 40
10.0
 50
180.0
 51
231.744156
  0
LINE
  8
L-ZISSEN
  6
CONTINUOUS
 62
     7
 10
120.0
 20
515.0
 30
0.0
 11
120.0
 21
502.0
 31
0.0
  0
LINE
  8
L-ZISSEN
  6
CONTINUOUS
 62
     7
 10
140.0
 20
502.0
 30
0.0
 11
140.0
 21
507.568881
 31
0.0
  0
CIRCLE
  8
L-ZISSEN
  6
CONTINUOUS
 62
     7
 10
144.849242
 20
515.150758
 30
0.0
 40
3.5
  0
LINE
  8
L-ZISSEN
  6
CONTINUOUS
 62
     7
 10
87.0
 20
336.0
 30
0.0
 11
87.0
 21
369.0
 31
0.0
  0
LINE
  8
L-ZISSEN
  6
CONTINUOUS
 62
     7
 10
173.0
 20
369.0
 30
0.0
 11
173.0
 21
336.0
 31
0.0
  0
LINE
  8
L-TYUSIN
  6
CENTER
 62
     1
 10
82.0
 20
354.0
 30
0.0
 11
178.0
 21
354.0
 31
0.0
  0
LINE
  8
L-ZISSEN
  6
CONTINUOUS
 62
     7
 10
173.0
 20
336.0
 30
0.0
 11
87.0
 21
336.0
 31
0.0
  0
LINE
  8
L-ZISSEN
  6
CONTINUOUS
 62
     7
 10
172.0
 20
344.0
 30
0.0
 11
88.0
 21
344.0
 31
0.0
  0
LINE
  8
L-ZISSEN
  6
CONTINUOUS
 62
     7
 10
173.0
 20
369.0
 30
0.0
 11
153.849242
 21
369.0
 31
0.0
  0
ARC
  8
L-ZISSEN
  6
CONTINUOUS
 62
     7
 10
130.0
 20
400.25
 30
0.0
 40
12.75
 50
360.0
 51
180.0
  0
LINE
  8
L-ZISSEN
  6
CONTINUOUS
 62
     7
 10
142.75
 20
400.25
 30
0.0
 11
142.75
 21
388.8
 31
0.0
  0
LINE
  8
L-ZISSEN
  6
CONTINUOUS
 62
     7
 10
117.25
 20
400.25
 30
0.0
 11
117.25
 21
388.8
 31
0.0
  0
LINE
  8
L-ZISSEN
  6
CONTINUOUS
 62
     7
 10
147.5
 20
375.3
 30
0.0
 11
136.257343
 21
375.3
 31
0.0
  0
LINE
  8
L-ZISSEN
  6
CONTINUOUS
 62
     7
 10
147.5
 20
388.8
 30
0.0
 11
112.5
 21
388.8
 31
0.0
  0
LINE
  8
L-ZISSEN
  6
CONTINUOUS
 62
     7
 10
112.5
 20
375.3
 30
0.0
 11
112.5
 21
388.8
 31
0.0
  0
LINE
  8
L-ZISSEN
  6
CONTINUOUS
 62
     7
 10
147.5
 20
375.3
 30
0.0
 11
147.5
 21
388.8
 31
0.0
  0
LINE
  8
L-ZISSEN
  6
CONTINUOUS
 62
     7
 10
113.5
 20
375.3
 30
0.0
 11
113.5
 21
369.0
 31
0.0
  0
LINE
  8
L-ZISSEN
  6
CONTINUOUS
 62
     7
 10
146.5
 20
375.3
 30
0.0
 11
146.5
 21
371.0
 31
0.0
  0
CIRCLE
  8
L-ZISSEN
  6
CONTINUOUS
 62
     7
 10
130.0
 20
530.0
 30
0.0
 40
12.75
  0
CIRCLE
  8
L-ZISSEN
  6
CONTINUOUS
 62
     7
 10
130.0
 20
530.0
 30
0.0
 40
17.5
  0
LINE
  8
L-ZISSEN
  6
CONTINUOUS
 62
     7
 10
384.5
 20
344.0
 30
0.0
 11
355.0
 21
344.0
 31
0.0
  0
LINE
  8
L-ZISSEN
  6
CONTINUOUS
 62
     7
 10
383.25
 20
336.0
 30
0.0
 11
296.75
 21
336.0
 31
0.0
  0
LINE
  8
L-TYUSIN
  6
CENTER
 62
     1
 10
320.0
 20
354.0
 30
0.0
 11
360.0
 21
354.0
 31
0.0
  0
LINE
  8
L-ZISSEN
  6
CONTINUOUS
 62
     7
 10
356.5
 20
375.3
 30
0.0
 11
356.5
 21
371.0
 31
0.0
  0
LINE
  8
L-ZISSEN
  6
CONTINUOUS
 62
     7
 10
323.5
 20
375.3
 30
0.0
 11
323.5
 21
371.0
 31
0.0
  0
LINE
  8
L-ZISSEN
  6
CONTINUOUS
 62
     7
 10
357.5
 20
375.3
 30
0.0
 11
357.5
 21
388.8
 31
0.0
  0
LINE
  8
L-ZISSEN
  6
CONTINUOUS
 62
     7
 10
322.5
 20
375.3
 30
0.0
 11
322.5
 21
388.8
 31
0.0
  0
LINE
  8
L-ZISSEN
  6
CONTINUOUS
 62
     7
 10
357.5
 20
388.8
 30
0.0
 11
322.5
 21
388.8
 31
0.0
  0
LINE
  8
L-ZISSEN
  6
CONTINUOUS
 62
     7
 10
357.5
 20
375.3
 30
0.0
 11
322.5
 21
375.3
 31
0.0
  0
LINE
  8
L-ZISSEN
  6
CONTINUOUS
 62
     7
 10
327.25
 20
400.25
 30
0.0
 11
327.25
 21
388.8
 31
0.0
  0
LINE
  8
L-ZISSEN
  6
CONTINUOUS
 62
     7
 10
352.75
 20
400.25
 30
0.0
 11
352.75
 21
388.8
 31
0.0
  0
ARC
  8
L-ZISSEN
  6
CONTINUOUS
 62
     7
 10
340.0
 20
400.25
 30
0.0
 40
12.75
 50
360.0
 51
180.0
  0
ARC
  8
L-ZISSEN
  6
CONTINUOUS
 62
     7
 10
340.0
 20
354.0
 30
0.0
 40
15.0
 50
60.0
 51
120.0
  0
LINE
  8
L-ZISSEN
  6
CONTINUOUS
 62
     7
 10
355.0
 20
362.082904
 30
0.0
 11
355.0
 21
336.0
 31
0.0
  0
LINE
  8
L-ZISSEN
  6
CONTINUOUS
 62
     7
 10
325.0
 20
362.082904
 30
0.0
 11
325.0
 21
336.0
 31
0.0
  0
LINE
  8
L-ZISSEN
  6
CONTINUOUS
 62
     7
 10
363.849242
 20
371.0
 30
0.0
 11
316.150758
 21
371.0
 31
0.0
  0
LINE
  8
L-ZISSEN
  6
CONTINUOUS
 62
     7
 10
316.150758
 20
371.0
 30
0.0
 11
316.150758
 21
349.4
 31
0.0
  0
LINE
  8
L-ZISSEN
  6
CONTINUOUS
 62
     7
 10
363.849242
 20
371.0
 30
0.0
 11
363.849242
 21
349.4
 31
0.0
  0
LINE
  8
L-ZISSEN
  6
CONTINUOUS
 62
     7
 10
325.0
 20
344.0
 30
0.0
 11
295.5
 21
344.0
 31
0.0
  0
LINE
  8
L-ZISSEN
  6
CONTINUOUS
 62
     7
 10
332.5
 20
366.990381
 30
0.0
 11
325.5
 21
362.948929
 31
0.0
  0
LINE
  8
L-ZISSEN
  6
CONTINUOUS
 62
     7
 10
347.5
 20
366.990381
 30
0.0
 11
354.5
 21
362.948929
 31
0.0
  0
ARC
  8
L-ZISSEN
  6
CONTINUOUS
 62
     7
 10
326.0
 20
362.082904
 30
0.0
 40
1.0
 50
120.0
 51
180.0
  0
ARC
  8
L-ZISSEN
  6
CONTINUOUS
 62
     7
 10
354.0
 20
362.082904
 30
0.0
 40
1.0
 50
0.0
 51
60.0
  0
LINE
  8
L-ZISSEN
  6
CONTINUOUS
 62
     7
 10
336.585157
 20
371.0
 30
0.0
 11
336.585157
 21
368.606124
 31
0.0
  0
LINE
  8
L-ZISSEN
  6
CONTINUOUS
 62
     7
 10
343.414843
 20
371.0
 30
0.0
 11
343.414843
 21
368.606124
 31
0.0
  0
LINE
  8
L-ZISSEN
  6
CONTINUOUS
 62
     7
 10
302.0
 20
353.008955
 30
0.0
 11
302.0
 21
344.0
 31
0.0
  0
LINE
  8
L-ZISSEN
  6
CONTINUOUS
 62
     7
 10
316.150758
 20
358.15941
 30
0.0
 11
302.0
 21
353.008955
 31
0.0
  0
LINE
  8
L-ZISSEN
  6
CONTINUOUS
 62
     7
 10
300.419676
 20
370.311951
 30
0.0
 11
312.63568
 21
374.758213
 31
0.0
  0
LINE
  8
L-ZISSEN
  6
CONTINUOUS
 62
     7
 10
303.816383
 20
353.670065
 30
0.0
 11
302.516706
 21
357.240897
 31
0.0
  0
LINE
  8
L-ZISSEN
  6
CONTINUOUS
 62
     7
 10
302.516706
 20
357.240897
 30
0.0
 11
300.419676
 21
370.311951
 31
0.0
  0
LINE
  8
L-ZISSEN
  6
CONTINUOUS
 62
     7
 10
316.150758
 20
368.881578
 30
0.0
 11
312.63568
 21
374.758213
 31
0.0
  0
LINE
  8
L-ZISSEN
  6
CONTINUOUS
 62
     7
 10
378.0
 20
353.008955
 30
0.0
 11
378.0
 21
344.0
 31
0.0
  0
LINE
  8
L-ZISSEN
  6
CONTINUOUS
 62
     7
 10
377.483294
 20
357.240897
 30
0.0
 11
379.580324
 21
370.311951
 31
0.0
  0
LINE
  8
L-ZISSEN
  6
CONTINUOUS
 62
     7
 10
376.183617
 20
353.670065
 30
0.0
 11
377.483294
 21
357.240897
 31
0.0
  0
LINE
  8
L-ZISSEN
  6
CONTINUOUS
 62
     7
 10
379.580324
 20
370.311951
 30
0.0
 11
367.36432
 21
374.758213
 31
0.0
  0
LINE
  8
L-ZISSEN
  6
CONTINUOUS
 62
     7
 10
363.849242
 20
368.881578
 30
0.0
 11
367.36432
 21
374.758213
 31
0.0
  0
LINE
  8
L-ZISSEN
  6
CONTINUOUS
 62
     7
 10
363.849242
 20
358.15941
 30
0.0
 11
378.0
 21
353.008955
 31
0.0
  0
POLYLINE
  8
L-ZISSEN
  6
CONTINUOUS
 62
     7
 66
     1
 10
0.0
 20
0.0
 30
0.0
 70
     1
  0
VERTEX
  8
L-ZISSEN
  6
CONTINUOUS
 62
     7
 10
123.082844
 20
372.535082
 30
0.0
 42
0.104168
  0
VERTEX
  8
L-ZISSEN
  6
CONTINUOUS
 62
     7
 10
123.602571
 20
370.067496
 30
0.0
 42
0.100664
  0
VERTEX
  8
L-ZISSEN
  6
CONTINUOUS
 62
     7
 10
125.108832
 20
367.938888
 30
0.0
 42
0.096076
 70
     2
 50
316.780821
  0
VERTEX
  8
L-ZISSEN
  6
CONTINUOUS
 62
     7
 10
127.534171
 20
366.409003
 30
0.0
 42
0.110798
 50
316.780821
  0
VERTEX
  8
L-ZISSEN
  6
CONTINUOUS
 62
     7
 10
130.0
 20
366.035082
 30
0.0
 42
0.093065
  0
VERTEX
  8
L-ZISSEN
  6
CONTINUOUS
 62
     7
 10
132.666836
 20
366.535796
 30
0.0
 42
0.096076
  0
VERTEX
  8
L-ZISSEN
  6
CONTINUOUS
 62
     7
 10
134.891168
 20
367.938888
 30
0.0
 42
0.100664
 70
     2
 50
43.219179
  0
VERTEX
  8
L-ZISSEN
  6
CONTINUOUS
 62
     7
 10
136.397429
 20
370.067496
 30
0.0
 42
0.104168
 50
43.219179
  0
VERTEX
  8
L-ZISSEN
  6
CONTINUOUS
 62
     7
 10
136.917156
 20
372.535082
 30
0.0
 42
0.104168
  0
VERTEX
  8
L-ZISSEN
  6
CONTINUOUS
 62
     7
 10
136.397429
 20
375.002668
 30
0.0
 42
0.100664
  0
VERTEX
  8
L-ZISSEN
  6
CONTINUOUS
 62
     7
 10
134.891168
 20
377.131276
 30
0.0
 42
0.096076
 70
     2
 50
136.780821
  0
VERTEX
  8
L-ZISSEN
  6
CONTINUOUS
 62
     7
 10
132.666836
 20
378.534367
 30
0.0
 42
0.093065
 50
136.780821
  0
VERTEX
  8
L-ZISSEN
  6
CONTINUOUS
 62
     7
 10
130.0
 20
379.035082
 30
0.0
 42
0.093065
  0
VERTEX
  8
L-ZISSEN
  6
CONTINUOUS
 62
     7
 10
127.333164
 20
378.534367
 30
0.0
 42
0.096076
  0
VERTEX
  8
L-ZISSEN
  6
CONTINUOUS
 62
     7
 10
125.108832
 20
377.131276
 30
0.0
 42
0.100664
 70
     2
 50
223.219179
  0
VERTEX
  8
L-ZISSEN
  6
CONTINUOUS
 62
     7
 10
123.602571
 20
375.002668
 30
0.0
 42
0.104168
 50
223.219179
  0
SEQEND
  8
L-ZISSEN
  6
CONTINUOUS
 62
     7
  0
POLYLINE
  8
L-ZISSEN
  6
CONTINUOUS
 62
     7
 66
     1
 10
0.0
 20
0.0
 30
0.0
 70
     1
  0
VERTEX
  8
L-ZISSEN
  6
CONTINUOUS
 62
     7
 10
130.0
 20
489.336906
 30
0.0
 42
0.104168
 50
90.0
  0
VERTEX
  8
L-ZISSEN
  6
CONTINUOUS
 62
     7
 10
132.467586
 20
489.856632
 30
0.0
 42
0.100664
 50
90.0
  0
VERTEX
  8
L-ZISSEN
  6
CONTINUOUS
 62
     7
 10
134.596194
 20
491.362894
 30
0.0
 42
0.096076
 70
     2
 50
46.780821
  0
VERTEX
  8
L-ZISSEN
  6
CONTINUOUS
 62
     7
 10
136.126079
 20
493.788233
 30
0.0
 42
0.110798
 50
46.780821
  0
VERTEX
  8
L-ZISSEN
  6
CONTINUOUS
 62
     7
 10
136.5
 20
496.254062
 30
0.0
 42
0.093065
 50
90.0
  0
VERTEX
  8
L-ZISSEN
  6
CONTINUOUS
 62
     7
 10
135.999286
 20
498.920897
 30
0.0
 42
0.096076
 50
90.0
  0
VERTEX
  8
L-ZISSEN
  6
CONTINUOUS
 62
     7
 10
134.596194
 20
501.145229
 30
0.0
 42
0.100664
 70
     2
 50
133.219179
  0
VERTEX
  8
L-ZISSEN
  6
CONTINUOUS
 62
     7
 10
132.467586
 20
502.651491
 30
0.0
 42
0.104168
 50
133.219179
  0
VERTEX
  8
L-ZISSEN
  6
CONTINUOUS
 62
     7
 10
130.0
 20
503.171217
 30
0.0
 42
0.104168
 50
90.0
  0
VERTEX
  8
L-ZISSEN
  6
CONTINUOUS
 62
     7
 10
127.532414
 20
502.651491
 30
0.0
 42
0.100664
 50
90.0
  0
VERTEX
  8
L-ZISSEN
  6
CONTINUOUS
 62
     7
 10
125.403806
 20
501.145229
 30
0.0
 42
0.096076
 70
     2
 50
226.780821
  0
VERTEX
  8
L-ZISSEN
  6
CONTINUOUS
 62
     7
 10
124.000714
 20
498.920897
 30
0.0
 42
0.093065
 50
226.780821
  0
VERTEX
  8
L-ZISSEN
  6
CONTINUOUS
 62
     7
 10
123.5
 20
496.254062
 30
0.0
 42
0.093065
 50
90.0
  0
VERTEX
  8
L-ZISSEN
  6
CONTINUOUS
 62
     7
 10
124.000714
 20
493.587226
 30
0.0
 42
0.096076
 50
90.0
  0
VERTEX
  8
L-ZISSEN
  6
CONTINUOUS
 62
     7
 10
125.403806
 20
491.362894
 30
0.0
 42
0.100664
 70
     2
 50
313.219179
  0
VERTEX
  8
L-ZISSEN
  6
CONTINUOUS
 62
     7
 10
127.532414
 20
489.856632
 30
0.0
 42
0.104168
 50
313.219179
  0
SEQEND
  8
L-ZISSEN
  6
CONTINUOUS
 62
     7
  0
LINE
  8
L-ZISSEN
  6
CONTINUOUS
 62
     7
 10
118.365393
 20
356.748246
 30
0.0
 11
118.365393
 21
344.0
 31
0.0
  0
LINE
  8
L-ZISSEN
  6
CONTINUOUS
 62
     7
 10
141.634607
 20
356.748246
 30
0.0
 11
141.634607
 21
344.0
 31
0.0
  0
LINE
  8
L-ZISSEN
  6
CONTINUOUS
 62
     7
 10
120.4224
 20
360.221553
 30
0.0
 11
120.4224
 21
356.748246
 31
0.0
  0
LINE
  8
L-ZISSEN
  6
CONTINUOUS
 62
     7
 10
139.5776
 20
360.221553
 30
0.0
 11
139.5776
 21
356.748246
 31
0.0
  0
LINE
  8
L-ZISSEN
  6
CONTINUOUS
 62
     7
 10
123.082844
 20
372.535082
 30
0.0
 11
120.4224
 21
360.221531
 31
0.0
  0
LINE
  8
L-ZISSEN
  6
CONTINUOUS
 62
     7
 10
136.917156
 20
372.535082
 30
0.0
 11
139.5776
 21
360.221553
 31
0.0
  0
POLYLINE
  8
L-ZISSEN
  6
CONTINUOUS
 62
     7
 66
     1
 10
0.0
 20
0.0
 30
0.0
  0
VERTEX
  8
L-ZISSEN
  6
CONTINUOUS
 62
     7
 10
120.4224
 20
360.221553
 30
0.0
 42
0.104168
  0
VERTEX
  8
L-ZISSEN
  6
CONTINUOUS
 62
     7
 10
121.142021
 20
356.804895
 30
0.0
 42
0.100664
  0
VERTEX
  8
L-ZISSEN
  6
CONTINUOUS
 62
     7
 10
123.227614
 20
353.857592
 30
0.0
 42
0.096076
 70
     2
 50
316.780821
  0
VERTEX
  8
L-ZISSEN
  6
CONTINUOUS
 62
     7
 10
126.585776
 20
351.739289
 30
0.0
 42
0.110798
 50
316.780821
  0
VERTEX
  8
L-ZISSEN
  6
CONTINUOUS
 62
     7
 10
130.0
 20
351.221553
 30
0.0
 42
0.093065
  0
VERTEX
  8
L-ZISSEN
  6
CONTINUOUS
 62
     7
 10
133.692542
 20
351.91485
 30
0.0
 42
0.096076
  0
VERTEX
  8
L-ZISSEN
  6
CONTINUOUS
 62
     7
 10
136.772386
 20
353.857592
 30
0.0
 42
0.100664
 70
     2
 50
43.219179
  0
VERTEX
  8
L-ZISSEN
  6
CONTINUOUS
 62
     7
 10
138.857979
 20
356.804895
 30
0.0
 42
0.104168
 50
43.219179
  0
VERTEX
  8
L-ZISSEN
  6
CONTINUOUS
 62
     7
 10
139.5776
 20
360.221553
 30
0.0
 42
0.104168
  0
SEQEND
  8
L-ZISSEN
  6
CONTINUOUS
 62
     7
  0
POLYLINE
  8
L-ZISSEN
  6
CONTINUOUS
 62
     7
 66
     1
 10
0.0
 20
0.0
 30
0.0
  0
VERTEX
  8
L-ZISSEN
  6
CONTINUOUS
 62
     7
 10
121.052131
 20
363.136167
 30
0.0
 42
0.078851
 70
     2
 50
220.679217
  0
VERTEX
  8
L-ZISSEN
  6
CONTINUOUS
 62
     7
 10
119.221638
 20
360.49727
 30
0.0
 42
0.112744
 50
220.679217
  0
VERTEX
  8
L-ZISSEN
  6
CONTINUOUS
 62
     7
 10
118.365393
 20
356.748246
 30
0.0
 42
0.112744
  0
SEQEND
  8
L-ZISSEN
  6
CONTINUOUS
 62
     7
  0
LINE
  8
L-ZISSEN
  6
CONTINUOUS
 62
     7
 10
122.319061
 20
369.0
 30
0.0
 11
87.0
 21
369.0
 31
0.0
  0
LINE
  8
L-ZISSEN
  6
CONTINUOUS
 62
     7
 10
123.742657
 20
375.3
 30
0.0
 11
112.5
 21
375.3
 31
0.0
  0
POLYLINE
  8
L-ZISSEN
  6
CONTINUOUS
 62
     7
 66
     1
 10
0.0
 20
0.0
 30
0.0
  0
VERTEX
  8
L-ZISSEN
  6
CONTINUOUS
 62
     7
 10
139.0
 20
502.0
 30
0.0
 42
0.093065
 50
90.0
  0
VERTEX
  8
L-ZISSEN
  6
CONTINUOUS
 62
     7
 10
138.306703
 20
505.692542
 30
0.0
 42
0.096076
 50
90.0
  0
VERTEX
  8
L-ZISSEN
  6
CONTINUOUS
 62
     7
 10
136.363961
 20
508.772386
 30
0.0
 42
0.100664
 70
     2
 50
133.219179
  0
VERTEX
  8
L-ZISSEN
  6
CONTINUOUS
 62
     7
 10
133.416657
 20
510.857979
 30
0.0
 42
0.104168
 50
133.219179
  0
VERTEX
  8
L-ZISSEN
  6
CONTINUOUS
 62
     7
 10
130.0
 20
511.5776
 30
0.0
 42
0.104168
 50
90.0
  0
VERTEX
  8
L-ZISSEN
  6
CONTINUOUS
 62
     7
 10
126.583343
 20
510.857979
 30
0.0
 42
0.100664
 50
90.0
  0
VERTEX
  8
L-ZISSEN
  6
CONTINUOUS
 62
     7
 10
123.636039
 20
508.772386
 30
0.0
 42
0.096076
 70
     2
 50
226.780821
  0
VERTEX
  8
L-ZISSEN
  6
CONTINUOUS
 62
     7
 10
121.693297
 20
505.692542
 30
0.0
 42
0.093065
 50
226.780821
  0
VERTEX
  8
L-ZISSEN
  6
CONTINUOUS
 62
     7
 10
121.0
 20
502.0
 30
0.0
 42
0.093065
 50
90.0
  0
SEQEND
  8
L-ZISSEN
  6
CONTINUOUS
 62
     7
  0
ARC
  8
L-ZISSEN
  6
CONTINUOUS
 62
     7
 10
130.0
 20
502.0
 30
0.0
 40
10.0
 50
308.843122
 51
0.0
  0
POLYLINE
  8
L-ZISSEN
  6
CONTINUOUS
 62
     7
 66
     1
 10
0.0
 20
0.0
 30
0.0
  0
VERTEX
  8
L-ZISSEN
  6
CONTINUOUS
 62
     7
 10
136.056778
 20
493.616467
 30
0.0
 42
0.012076
 50
90.0
  0
VERTEX
  8
L-ZISSEN
  6
CONTINUOUS
 62
     7
 10
136.363961
 20
493.927938
 30
0.0
 42
0.096076
 70
     2
 50
46.780821
  0
VERTEX
  8
L-ZISSEN
  6
CONTINUOUS
 62
     7
 10
138.482264
 20
497.286099
 30
0.0
 42
0.110798
 50
46.780821
  0
VERTEX
  8
L-ZISSEN
  6
CONTINUOUS
 62
     7
 10
139.0
 20
500.700323
 30
0.0
 42
0.093065
 50
90.0
  0
VERTEX
  8
L-ZISSEN
  6
CONTINUOUS
 62
     7
 10
138.306703
 20
504.392865
 30
0.0
 42
0.096076
 50
90.0
  0
VERTEX
  8
L-ZISSEN
  6
CONTINUOUS
 62
     7
 10
136.363961
 20
507.472709
 30
0.0
 42
0.100664
 70
     2
 50
133.219179
  0
VERTEX
  8
L-ZISSEN
  6
CONTINUOUS
 62
     7
 10
133.416657
 20
509.558303
 30
0.0
 42
0.104168
 50
133.219179
  0
VERTEX
  8
L-ZISSEN
  6
CONTINUOUS
 62
     7
 10
130.0
 20
510.277923
 30
0.0
 42
0.104168
 50
90.0
  0
VERTEX
  8
L-ZISSEN
  6
CONTINUOUS
 62
     7
 10
126.583343
 20
509.558303
 30
0.0
 42
0.100664
 50
90.0
  0
VERTEX
  8
L-ZISSEN
  6
CONTINUOUS
 62
     7
 10
123.636039
 20
507.472709
 30
0.0
 42
0.096076
 70
     2
 50
226.780821
  0
VERTEX
  8
L-ZISSEN
  6
CONTINUOUS
 62
     7
 10
121.693297
 20
504.392865
 30
0.0
 42
0.093065
 50
226.780821
  0
VERTEX
  8
L-ZISSEN
  6
CONTINUOUS
 62
     7
 10
121.0
 20
500.700323
 30
0.0
 42
0.093065
 50
90.0
  0
VERTEX
  8
L-ZISSEN
  6
CONTINUOUS
 62
     7
 10
121.693297
 20
497.007782
 30
0.0
 42
0.096076
 50
90.0
  0
VERTEX
  8
L-ZISSEN
  6
CONTINUOUS
 62
     7
 10
123.636039
 20
493.927938
 30
0.0
 42
0.014888
 70
     2
 50
313.219179
  0
VERTEX
  8
L-ZISSEN
  6
CONTINUOUS
 62
     7
 10
124.01687
 20
493.546109
 30
0.0
 42
0.104168
 50
313.219179
  0
SEQEND
  8
L-ZISSEN
  6
CONTINUOUS
 62
     7
  0
POLYLINE
  8
L-ZISSEN
  6
CONTINUOUS
 62
     7
 66
     1
 10
0.0
 20
0.0
 30
0.0
 70
     1
  0
VERTEX
  8
L-ZISSEN
  6
CONTINUOUS
 62
     7
 10
130.0
 20
570.663094
 30
0.0
 42
-0.104168
  0
VERTEX
  8
L-ZISSEN
  6
CONTINUOUS
 62
     7
 10
132.467586
 20
570.143368
 30
0.0
 42
-0.100664
  0
VERTEX
  8
L-ZISSEN
  6
CONTINUOUS
 62
     7
 10
134.596194
 20
568.637106
 30
0.0
 42
-0.096076
 70
     2
 50
313.219179
  0
VERTEX
  8
L-ZISSEN
  6
CONTINUOUS
 62
     7
 10
136.126079
 20
566.211767
 30
0.0
 42
-0.110798
  0
VERTEX
  8
L-ZISSEN
  6
CONTINUOUS
 62
     7
 10
136.5
 20
563.745938
 30
0.0
 42
-0.093065
  0
VERTEX
  8
L-ZISSEN
  6
CONTINUOUS
 62
     7
 10
135.999286
 20
561.079103
 30
0.0
 42
-0.096076
  0
VERTEX
  8
L-ZISSEN
  6
CONTINUOUS
 62
     7
 10
134.596194
 20
558.854771
 30
0.0
 42
-0.100664
 70
     2
 50
226.780821
  0
VERTEX
  8
L-ZISSEN
  6
CONTINUOUS
 62
     7
 10
132.467586
 20
557.348509
 30
0.0
 42
-0.104168
  0
VERTEX
  8
L-ZISSEN
  6
CONTINUOUS
 62
     7
 10
130.0
 20
556.828783
 30
0.0
 42
-0.104168
  0
VERTEX
  8
L-ZISSEN
  6
CONTINUOUS
 62
     7
 10
127.532414
 20
557.348509
 30
0.0
 42
-0.100664
  0
VERTEX
  8
L-ZISSEN
  6
CONTINUOUS
 62
     7
 10
125.403806
 20
558.854771
 30
0.0
 42
-0.096076
 70
     2
 50
133.219179
  0
VERTEX
  8
L-ZISSEN
  6
CONTINUOUS
 62
     7
 10
124.000714
 20
561.079103
 30
0.0
 42
-0.093065
  0
VERTEX
  8
L-ZISSEN
  6
CONTINUOUS
 62
     7
 10
123.5
 20
563.745938
 30
0.0
 42
-0.093065
  0
VERTEX
  8
L-ZISSEN
  6
CONTINUOUS
 62
     7
 10
124.000714
 20
566.412774
 30
0.0
 42
-0.096076
  0
VERTEX
  8
L-ZISSEN
  6
CONTINUOUS
 62
     7
 10
125.403806
 20
568.637106
 30
0.0
 42
-0.100664
 70
     2
 50
46.780821
  0
VERTEX
  8
L-ZISSEN
  6
CONTINUOUS
 62
     7
 10
127.532414
 20
570.143368
 30
0.0
 42
-0.104168
  0
SEQEND
  8
L-ZISSEN
  6
CONTINUOUS
 62
     7
  0
POLYLINE
  8
L-ZISSEN
  6
CONTINUOUS
 62
     7
 66
     1
 10
0.0
 20
0.0
 30
0.0
  0
VERTEX
  8
L-ZISSEN
  6
CONTINUOUS
 62
     7
 10
136.056778
 20
566.383533
 30
0.0
 42
-0.012076
  0
VERTEX
  8
L-ZISSEN
  6
CONTINUOUS
 62
     7
 10
136.363961
 20
566.072062
 30
0.0
 42
-0.096076
 70
     2
 50
313.219179
  0
VERTEX
  8
L-ZISSEN
  6
CONTINUOUS
 62
     7
 10
138.482264
 20
562.713901
 30
0.0
 42
-0.110798
  0
VERTEX
  8
L-ZISSEN
  6
CONTINUOUS
 62
     7
 10
139.0
 20
559.299677
 30
0.0
 42
-0.093065
  0
VERTEX
  8
L-ZISSEN
  6
CONTINUOUS
 62
     7
 10
138.306703
 20
555.607135
 30
0.0
 42
-0.096076
  0
VERTEX
  8
L-ZISSEN
  6
CONTINUOUS
 62
     7
 10
136.363961
 20
552.527291
 30
0.0
 42
-0.100664
 70
     2
 50
226.780821
  0
VERTEX
  8
L-ZISSEN
  6
CONTINUOUS
 62
     7
 10
133.416657
 20
550.441697
 30
0.0
 42
-0.104168
  0
VERTEX
  8
L-ZISSEN
  6
CONTINUOUS
 62
     7
 10
130.0
 20
549.722077
 30
0.0
 42
-0.104168
  0
VERTEX
  8
L-ZISSEN
  6
CONTINUOUS
 62
     7
 10
126.583343
 20
550.441697
 30
0.0
 42
-0.100664
  0
VERTEX
  8
L-ZISSEN
  6
CONTINUOUS
 62
     7
 10
123.636039
 20
552.527291
 30
0.0
 42
-0.096076
 70
     2
 50
133.219179
  0
VERTEX
  8
L-ZISSEN
  6
CONTINUOUS
 62
     7
 10
121.693297
 20
555.607135
 30
0.0
 42
-0.093065
  0
VERTEX
  8
L-ZISSEN
  6
CONTINUOUS
 62
     7
 10
121.0
 20
559.299677
 30
0.0
 42
-0.093065
  0
VERTEX
  8
L-ZISSEN
  6
CONTINUOUS
 62
     7
 10
121.693297
 20
562.992218
 30
0.0
 42
-0.096076
  0
VERTEX
  8
L-ZISSEN
  6
CONTINUOUS
 62
     7
 10
123.636039
 20
566.072062
 30
0.0
 42
-0.014888
 70
     2
 50
46.780821
  0
VERTEX
  8
L-ZISSEN
  6
CONTINUOUS
 62
     7
 10
124.01687
 20
566.453891
 30
0.0
 42
-0.104168
  0
SEQEND
  8
L-ZISSEN
  6
CONTINUOUS
 62
     7
  0
POLYLINE
  8
L-ZISSEN
  6
CONTINUOUS
 62
     7
 66
     1
 10
0.0
 20
0.0
 30
0.0
  0
VERTEX
  8
L-ZISSEN
  6
CONTINUOUS
 62
     7
 10
139.0
 20
558.0
 30
0.0
 42
-0.093065
  0
VERTEX
  8
L-ZISSEN
  6
CONTINUOUS
 62
     7
 10
138.306703
 20
554.307458
 30
0.0
 42
-0.096076
  0
VERTEX
  8
L-ZISSEN
  6
CONTINUOUS
 62
     7
 10
136.363961
 20
551.227614
 30
0.0
 42
-0.100664
 70
     2
 50
226.780821
  0
VERTEX
  8
L-ZISSEN
  6
CONTINUOUS
 62
     7
 10
133.416657
 20
549.142021
 30
0.0
 42
-0.104168
  0
VERTEX
  8
L-ZISSEN
  6
CONTINUOUS
 62
     7
 10
130.0
 20
548.4224
 30
0.0
 42
-0.104168
  0
VERTEX
  8
L-ZISSEN
  6
CONTINUOUS
 62
     7
 10
126.583343
 20
549.142021
 30
0.0
 42
-0.100664
  0
VERTEX
  8
L-ZISSEN
  6
CONTINUOUS
 62
     7
 10
123.636039
 20
551.227614
 30
0.0
 42
-0.096076
 70
     2
 50
133.219179
  0
VERTEX
  8
L-ZISSEN
  6
CONTINUOUS
 62
     7
 10
121.693297
 20
554.307458
 30
0.0
 42
-0.093065
  0
VERTEX
  8
L-ZISSEN
  6
CONTINUOUS
 62
     7
 10
121.0
 20
558.0
 30
0.0
 42
-0.093065
  0
SEQEND
  8
L-ZISSEN
  6
CONTINUOUS
 62
     7
  0
ARC
  8
L-ZISSEN
  6
CONTINUOUS
 62
     7
 10
130.0
 20
558.0
 30
0.0
 40
10.0
 50
128.255844
 51
180.0
  0
LINE
  8
L-ZISSEN
  6
CONTINUOUS
 62
     7
 10
90.75
 20
349.4
 30
0.0
 11
90.75
 21
344.0
 31
0.0
  0
LINE
  8
L-ZISSEN
  6
CONTINUOUS
 62
     7
 10
101.25
 20
349.4
 30
0.0
 11
101.25
 21
344.0
 31
0.0
  0
LINE
  8
L-ZISSEN
  6
CONTINUOUS
 62
     7
 10
173.0
 20
362.082904
 30
0.0
 11
153.849242
 21
362.082904
 31
0.0
  0
LINE
  8
L-ZISSEN
  6
CONTINUOUS
 62
     7
 10
120.170792
 20
362.082904
 30
0.0
 11
87.0
 21
362.082904
 31
0.0
  0
LINE
  8
L-ZISSEN
  6
CONTINUOUS
 62
     7
 10
90.75
 20
349.4
 30
0.0
 11
101.25
 21
349.4
 31
0.0
  0
LINE
  8
L-ZISSEN
  6
CONTINUOUS
 62
     7
 10
124.75
 20
349.4
 30
0.0
 11
124.75
 21
344.0
 31
0.0
  0
LINE
  8
L-ZISSEN
  6
CONTINUOUS
 62
     7
 10
124.75
 20
349.4
 30
0.0
 11
135.25
 21
349.4
 31
0.0
  0
LINE
  8
L-ZISSEN
  6
CONTINUOUS
 62
     7
 10
135.25
 20
349.4
 30
0.0
 11
135.25
 21
344.0
 31
0.0
  0
POLYLINE
  8
L-ZISSEN
  6
CONTINUOUS
 62
     7
 66
     1
 10
0.0
 20
0.0
 30
0.0
  0
VERTEX
  8
L-ZISSEN
  6
CONTINUOUS
 62
     7
 10
120.4224
 20
356.748246
 30
0.0
 42
0.104168
  0
VERTEX
  8
L-ZISSEN
  6
CONTINUOUS
 62
     7
 10
121.142021
 20
353.331589
 30
0.0
 42
0.100664
  0
VERTEX
  8
L-ZISSEN
  6
CONTINUOUS
 62
     7
 10
123.227614
 20
350.384285
 30
0.0
 42
0.046364
 70
     2
 50
316.780821
  0
VERTEX
  8
L-ZISSEN
  6
CONTINUOUS
 62
     7
 10
124.75
 20
349.198708
 30
0.0
 42
0.110798
 50
316.780821
  0
SEQEND
  8
L-ZISSEN
  6
CONTINUOUS
 62
     7
  0
POLYLINE
  8
L-ZISSEN
  6
CONTINUOUS
 62
     7
 66
     1
 10
0.0
 20
0.0
 30
0.0
  0
VERTEX
  8
L-ZISSEN
  6
CONTINUOUS
 62
     7
 10
118.365393
 20
356.748246
 30
0.0
 42
0.112744
  0
VERTEX
  8
L-ZISSEN
  6
CONTINUOUS
 62
     7
 10
119.221638
 20
352.999222
 30
0.0
 42
0.103298
  0
VERTEX
  8
L-ZISSEN
  6
CONTINUOUS
 62
     7
 10
121.773091
 20
349.677178
 30
0.0
 42
0.06945
 70
     2
 50
319.320783
  0
VERTEX
  8
L-ZISSEN
  6
CONTINUOUS
 62
     7
 10
124.75
 20
347.763568
 30
0.0
 42
0.102683
 50
319.320783
  0
SEQEND
  8
L-ZISSEN
  6
CONTINUOUS
 62
     7
  0
POLYLINE
  8
L-ZISSEN
  6
CONTINUOUS
 62
     7
 66
     1
 10
0.0
 20
0.0
 30
0.0
  0
VERTEX
  8
L-ZISSEN
  6
CONTINUOUS
 62
     7
 10
135.25
 20
349.217651
 30
0.0
 42
0.050269
  0
VERTEX
  8
L-ZISSEN
  6
CONTINUOUS
 62
     7
 10
136.772386
 20
350.384285
 30
0.0
 42
0.100664
 70
     2
 50
43.219179
  0
VERTEX
  8
L-ZISSEN
  6
CONTINUOUS
 62
     7
 10
138.857979
 20
353.331589
 30
0.0
 42
0.104168
 50
43.219179
  0
VERTEX
  8
L-ZISSEN
  6
CONTINUOUS
 62
     7
 10
139.5776
 20
356.748246
 30
0.0
 42
0.104168
  0
SEQEND
  8
L-ZISSEN
  6
CONTINUOUS
 62
     7
  0
POLYLINE
  8
L-ZISSEN
  6
CONTINUOUS
 62
     7
 66
     1
 10
0.0
 20
0.0
 30
0.0
  0
VERTEX
  8
L-ZISSEN
  6
CONTINUOUS
 62
     7
 10
135.25
 20
347.814301
 30
0.0
 42
0.075558
  0
VERTEX
  8
L-ZISSEN
  6
CONTINUOUS
 62
     7
 10
138.226909
 20
349.677178
 30
0.0
 42
0.103298
 70
     2
 50
40.679217
  0
VERTEX
  8
L-ZISSEN
  6
CONTINUOUS
 62
     7
 10
140.778362
 20
352.999222
 30
0.0
 42
0.112744
 50
40.679217
  0
VERTEX
  8
L-ZISSEN
  6
CONTINUOUS
 62
     7
 10
141.634607
 20
356.748246
 30
0.0
 42
0.112744
  0
VERTEX
  8
L-ZISSEN
  6
CONTINUOUS
 62
     7
 10
140.778362
 20
360.49727
 30
0.0
 42
0.078851
  0
VERTEX
  8
L-ZISSEN
  6
CONTINUOUS
 62
     7
 10
138.947873
 20
363.136162
 30
0.0
 42
0.09225
 70
     2
 50
139.320783
  0
SEQEND
  8
L-ZISSEN
  6
CONTINUOUS
 62
     7
  0
LINE
  8
L-ZISSEN
  6
CONTINUOUS
 62
     7
 10
158.75
 20
349.4
 30
0.0
 11
169.25
 21
349.4
 31
0.0
  0
LINE
  8
L-ZISSEN
  6
CONTINUOUS
 62
     7
 10
158.75
 20
349.4
 30
0.0
 11
158.75
 21
344.0
 31
0.0
  0
LINE
  8
L-ZISSEN
  6
CONTINUOUS
 62
     7
 10
169.25
 20
349.4
 30
0.0
 11
169.25
 21
344.0
 31
0.0
  0
LINE
  8
L-ZISSEN
  6
CONTINUOUS
 62
     7
 10
173.0
 20
515.0
 30
0.0
 11
173.0
 21
545.0
 31
0.0
  0
LINE
  8
L-ZISSEN
  6
CONTINUOUS
 62
     7
 10
153.849242
 20
371.0
 30
0.0
 11
153.849242
 21
344.0
 31
0.0
  0
LINE
  8
L-ZISSEN
  6
CONTINUOUS
 62
     7
 10
292.0
 20
349.4
 30
0.0
 11
301.25
 21
349.4
 31
0.0
  0
LINE
  8
L-ZISSEN
  6
CONTINUOUS
 62
     7
 10
301.25
 20
349.4
 30
0.0
 11
301.25
 21
344.0
 31
0.0
  0
LINE
  8
L-ZISSEN
  6
CONTINUOUS
 62
     7
 10
360.75
 20
349.4
 30
0.0
 11
371.25
 21
349.4
 31
0.0
  0
LINE
  8
L-ZISSEN
  6
CONTINUOUS
 62
     7
 10
360.75
 20
349.4
 30
0.0
 11
360.75
 21
344.0
 31
0.0
  0
LINE
  8
L-ZISSEN
  6
CONTINUOUS
 62
     7
 10
371.25
 20
349.4
 30
0.0
 11
371.25
 21
344.0
 31
0.0
  0
LINE
  8
L-ZISSEN
  6
CONTINUOUS
 62
     7
 10
378.75
 20
349.4
 30
0.0
 11
380.0
 21
349.4
 31
0.0
  0
LINE
  8
L-ZISSEN
  6
CONTINUOUS
 62
     7
 10
378.75
 20
349.4
 30
0.0
 11
378.75
 21
344.0
 31
0.0
  0
LINE
  8
L-ZISSEN
  6
CONTINUOUS
 62
     7
 10
308.75
 20
349.4
 30
0.0
 11
319.25
 21
349.4
 31
0.0
  0
LINE
  8
L-ZISSEN
  6
CONTINUOUS
 62
     7
 10
308.75
 20
349.4
 30
0.0
 11
308.75
 21
344.0
 31
0.0
  0
LINE
  8
L-ZISSEN
  6
CONTINUOUS
 62
     7
 10
319.25
 20
349.4
 30
0.0
 11
319.25
 21
344.0
 31
0.0
  0
LINE
  8
L-ZISSEN
  6
CONTINUOUS
 62
     7
 10
153.849242
 20
371.0
 30
0.0
 11
137.248823
 21
371.0
 31
0.0
  0
LINE
  8
L-ZISSEN
  6
CONTINUOUS
 62
     7
 10
88.0
 20
344.0
 30
0.0
 11
88.0
 21
336.0
 31
0.0
  0
LINE
  8
L-ZISSEN
  6
CONTINUOUS
 62
     7
 10
172.0
 20
344.0
 30
0.0
 11
172.0
 21
336.0
 31
0.0
  0
LINE
  8
L-ZISSEN
  6
CONTINUOUS
 62
     7
 10
89.153846
 20
515.0
 30
0.0
 11
90.0
 21
504.0
 31
0.0
  0
LINE
  8
L-ZISSEN
  6
CONTINUOUS
 62
     7
 10
89.153846
 20
545.0
 30
0.0
 11
90.0
 21
556.0
 31
0.0
  0
LINE
  8
L-ZISSEN
  6
CONTINUOUS
 62
     7
 10
170.846154
 20
545.0
 30
0.0
 11
170.0
 21
556.0
 31
0.0
  0
LINE
  8
L-ZISSEN
  6
CONTINUOUS
 62
     7
 10
170.846154
 20
515.0
 30
0.0
 11
170.0
 21
504.0
 31
0.0
  0
CIRCLE
  8
L-ZISSEN
  6
CONTINUOUS
 62
     7
 10
340.0
 20
354.0
 30
0.0
 40
5.7225
  0
LINE
  8
L-ZISSEN
  6
CONTINUOUS
 62
     7
 10
173.0
 20
350.3
 30
0.0
 11
178.0
 21
350.3
 31
0.0
  0
LINE
  8
L-ZISSEN
  6
CONTINUOUS
 62
     7
 10
173.0
 20
348.0
 30
0.0
 11
200.0
 21
348.0
 31
0.0
  0
LINE
  8
L-ZISSEN
  6
CONTINUOUS
 62
     7
 10
117.272078
 20
401.0
 30
0.0
 11
60.0
 21
401.0
 31
0.0
  0
LINE
  8
L-ZISSEN
  6
CONTINUOUS
 62
     7
 10
363.0
 20
336.0
 30
0.0
 11
363.0
 21
335.0
 31
0.0
  0
LINE
  8
L-ZISSEN
  6
CONTINUOUS
 62
     7
 10
369.0
 20
336.0
 30
0.0
 11
369.0
 21
335.0
 31
0.0
  0
LINE
  8
L-ZISSEN
  6
CONTINUOUS
 62
     7
 10
311.0
 20
336.0
 30
0.0
 11
311.0
 21
335.0
 31
0.0
  0
LINE
  8
L-ZISSEN
  6
CONTINUOUS
 62
     7
 10
317.0
 20
336.0
 30
0.0
 11
317.0
 21
335.0
 31
0.0
  0
LINE
  8
L-ZISSEN
  6
CONTINUOUS
 62
     7
 10
299.0
 20
336.0
 30
0.0
 11
299.0
 21
335.0
 31
0.0
  0
LINE
  8
L-ZISSEN
  6
CONTINUOUS
 62
     7
 10
381.0
 20
336.0
 30
0.0
 11
381.0
 21
335.0
 31
0.0
  0
LINE
  8
L-ZISSEN
  6
CONTINUOUS
 62
     7
 10
99.0
 20
336.0
 30
0.0
 11
99.0
 21
335.0
 31
0.0
  0
LINE
  8
L-ZISSEN
  6
CONTINUOUS
 62
     7
 10
93.0
 20
336.0
 30
0.0
 11
93.0
 21
335.0
 31
0.0
  0
LINE
  8
L-ZISSEN
  6
CONTINUOUS
 62
     7
 10
127.0
 20
336.0
 30
0.0
 11
127.0
 21
335.0
 31
0.0
  0
LINE
  8
L-ZISSEN
  6
CONTINUOUS
 62
     7
 10
133.0
 20
336.0
 30
0.0
 11
133.0
 21
335.0
 31
0.0
  0
LINE
  8
L-ZISSEN
  6
CONTINUOUS
 62
     7
 10
167.0
 20
336.0
 30
0.0
 11
167.0
 21
335.0
 31
0.0
  0
LINE
  8
L-ZISSEN
  6
CONTINUOUS
 62
     7
 10
161.0
 20
336.0
 30
0.0
 11
161.0
 21
335.0
 31
0.0
  0
LINE
  8
L-ZISSEN
 10
978.5
 20
471.0
 30
0.0
 11
978.5
 21
656.0
 31
0.0
  0
LINE
  8
L-ZISSEN
 10
1111.5
 20
471.0
 30
0.0
 11
1111.5
 21
656.0
 31
0.0
  0
LINE
  8
L-ZISSEN
 10
1138.5
 20
471.0
 30
0.0
 11
1138.5
 21
656.0
 31
0.0
  0
LINE
  8
L-ZISSEN
 10
1271.5
 20
471.0
 30
0.0
 11
1271.5
 21
656.0
 31
0.0
  0
SOLID
  8
L-ZISSEN
 10
1046.178511
 20
698.350084
 30
0.0
 11
1046.649916
 21
698.821489
 31
0.0
 12
1045.0
 22
700.0
 32
0.0
 13
1045.0
 23
700.0
 33
0.0
  0
LINE
  8
L-ZISSEN
 10
1046.414214
 20
698.585786
 30
0.0
 11
1065.0
 21
680.0
 31
0.0
  0
LINE
  8
L-ZISSEN
 10
1065.0
 20
680.0
 30
0.0
 11
1067.0
 21
680.0
 31
0.0
  0
TEXT
  8
L-ZISSEN
 10
1069.0
 20
677.75
 30
0.0
 40
4.5
  1
P.P
  0
SOLID
  8
L-ZISSEN
 10
1206.178511
 20
698.350084
 30
0.0
 11
1206.649916
 21
698.821489
 31
0.0
 12
1205.0
 22
700.0
 32
0.0
 13
1205.0
 23
700.0
 33
0.0
  0
LINE
  8
L-ZISSEN
 10
1206.414214
 20
698.585786
 30
0.0
 11
1225.0
 21
680.0
 31
0.0
  0
LINE
  8
L-ZISSEN
 10
1225.0
 20
680.0
 30
0.0
 11
1227.0
 21
680.0
 31
0.0
  0
TEXT
  8
L-ZISSEN
 10
1229.0
 20
677.75
 30
0.0
 40
4.5
  1
P.P
  0
SOLID
  8
L-ZISSEN
 10
85.021286
 20
529.557503
 30
0.0
 11
85.271756
 21
528.939677
 31
0.0
 12
87.0
 22
530.0
 32
0.0
 13
87.0
 23
530.0
 33
0.0
  0
LINE
  8
L-ZISSEN
 10
85.146521
 20
529.24859
 30
0.0
 11
50.0
 21
515.0
 31
0.0
  0
LINE
  8
L-ZISSEN
 10
50.0
 20
515.0
 30
0.0
 11
48.0
 21
515.0
 31
0.0
  0
TEXT
  8
L-ZISSEN
 10
40.0
 20
512.75
 30
0.0
 40
4.5
  1
IN
  0
TEXT
  8
L-ZISSEN
 10
25.0
 20
505.0
 30
0.0
 40
4.5
  1
Rc 1/4
  0
TEXT
  8
L-ZISSEN
 10
25.0
 20
495.0
 30
0.0
 40
4.5
  1
Rc 3/8
  0
TEXT
  8
L-ZISSEN
 10
25.0
 20
485.0
 30
0.0
 40
4.5
  1
Rc 1/2
  0
LINE
  8
L-TYUSIN
  6
CENTER
 62
     1
 10
85.0
 20
607.7
 30
0.0
 11
85.0
 21
620.0
 31
0.0
  0
LINE
  8
L-TYUSIN
  6
CENTER
 62
     1
 10
175.0
 20
607.7
 30
0.0
 11
175.0
 21
620.0
 31
0.0
  0
LINE
  8
L-ZISSEN
 10
1155.0
 20
271.0
 30
0.0
 11
1235.0
 21
271.0
 31
0.0
  0
LINE
  8
L-ZISSEN
 10
1155.0
 20
46.0
 30
0.0
 11
1235.0
 21
46.0
 31
0.0
  0
LINE
  8
L-ZISSEN
 10
1155.0
 20
46.0
 30
0.0
 11
1155.0
 21
271.0
 31
0.0
  0
LINE
  8
L-ZISSEN
 10
1175.0
 20
46.0
 30
0.0
 11
1175.0
 21
271.0
 31
0.0
  0
LINE
  8
L-ZISSEN
 10
1235.0
 20
46.0
 30
0.0
 11
1235.0
 21
271.0
 31
0.0
  0
LINE
  8
L-ZISSEN
 10
1215.0
 20
46.0
 30
0.0
 11
1215.0
 21
271.0
 31
0.0
  0
LINE
  8
L-ZISSEN
 10
1057.0
 20
46.0
 30
0.0
 11
1092.0
 21
46.0
 31
0.0
  0
LINE
  8
L-ZISSEN
 10
1057.0
 20
271.0
 30
0.0
 11
1092.0
 21
271.0
 31
0.0
  0
LINE
  8
L-ZISSEN
 10
1057.0
 20
251.0
 30
0.0
 11
1057.0
 21
65.0
 31
0.0
  0
LINE
  8
L-ZISSEN
 10
1058.2
 20
271.0
 30
0.0
 11
1058.2
 21
46.0
 31
0.0
  0
LINE
  8
L-ZISSEN
 10
1092.0
 20
271.0
 30
0.0
 11
1092.0
 21
46.0
 31
0.0
  0
LINE
  8
L-ZISSEN
  6
CONTINUOUS
 62
     7
 10
1054.9
 20
70.25
 30
0.0
 11
1057.0
 21
70.25
 31
0.0
  0
LINE
  8
L-ZISSEN
  6
CONTINUOUS
 62
     7
 10
1054.9
 20
80.75
 30
0.0
 11
1057.0
 21
80.75
 31
0.0
  0
SOLID
  8
L-ZISSEN
 10
986.649916
 20
296.178511
 30
0.0
 11
986.178511
 21
296.649916
 31
0.0
 12
985.0
 22
295.0
 32
0.0
 13
985.0
 23
295.0
 33
0.0
  0
LINE
  8
L-ZISSEN
 10
986.414214
 20
296.414214
 30
0.0
 11
1000.0
 21
310.0
 31
0.0
  0
LINE
  8
L-ZISSEN
 10
1000.0
 20
310.0
 30
0.0
 11
1002.0
 21
310.0
 31
0.0
  0
TEXT
  8
L-ZISSEN
 10
1004.0
 20
307.75
 30
0.0
 40
4.5
  1
P.P
  0
SOLID
  8
L-ZISSEN
 10
1196.649916
 20
296.178511
 30
0.0
 11
1196.178511
 21
296.649916
 31
0.0
 12
1195.0
 22
295.0
 32
0.0
 13
1195.0
 23
295.0
 33
0.0
  0
LINE
  8
L-ZISSEN
 10
1196.414214
 20
296.414214
 30
0.0
 11
1210.0
 21
310.0
 31
0.0
  0
LINE
  8
L-ZISSEN
 10
1210.0
 20
310.0
 30
0.0
 11
1212.0
 21
310.0
 31
0.0
  0
TEXT
  8
L-ZISSEN
 10
1214.0
 20
307.75
 30
0.0
 40
4.5
  1
P.P
  0
LINE
  8
L-ZISSEN
  6
CONTINUOUS
 62
     7
 10
1092.0
 20
390.0
 30
0.0
 11
1092.0
 21
350.0
 31
0.0
  0
SOLID
  8
L-ZISSEN
 10
986.649916
 20
371.178511
 30
0.0
 11
986.178511
 21
371.649916
 31
0.0
 12
985.0
 22
370.0
 32
0.0
 13
985.0
 23
370.0
 33
0.0
  0
LINE
  8
L-ZISSEN
 10
986.414214
 20
371.414214
 30
0.0
 11
1000.0
 21
385.0
 31
0.0
  0
LINE
  8
L-ZISSEN
 10
1000.0
 20
385.0
 30
0.0
 11
1002.0
 21
385.0
 31
0.0
  0
TEXT
  8
L-ZISSEN
 10
1004.0
 20
382.75
 30
0.0
 40
4.5
  1
P.P
  0
LINE
  8
L-ZISSEN
  6
CONTINUOUS
 62
     7
 10
1058.2
 20
350.0
 30
0.0
 11
1058.2
 21
330.0
 31
0.0
  0
LINE
  8
L-ZISSEN
 10
1057.0
 20
410.0
 30
0.0
 11
1058.2
 21
410.0
 31
0.0
  0
LINE
  8
L-ZISSEN
 10
1057.0
 20
330.0
 30
0.0
 11
1058.2
 21
330.0
 31
0.0
  0
LINE
  8
L-ZISSEN
 10
1092.0
 20
350.0
 30
0.0
 11
1058.2
 21
350.0
 31
0.0
  0
LINE
  8
L-ZISSEN
 10
1090.8
 20
351.2
 30
0.0
 11
1057.0
 21
351.2
 31
0.0
  0
LINE
  8
L-ZISSEN
  6
CONTINUOUS
 62
     7
 10
1090.8
 20
388.8
 30
0.0
 11
1090.8
 21
351.2
 31
0.0
  0
LINE
  8
L-ZISSEN
 10
1090.8
 20
388.8
 30
0.0
 11
1057.0
 21
388.8
 31
0.0
  0
LINE
  8
L-ZISSEN
 10
1092.0
 20
390.0
 30
0.0
 11
1058.2
 21
390.0
 31
0.0
  0
LINE
  8
L-ZISSEN
 10
1057.0
 20
410.0
 30
0.0
 11
1058.2
 21
410.0
 31
0.0
  0
LINE
  8
L-ZISSEN
  6
CONTINUOUS
 62
     7
 10
1058.2
 20
390.0
 30
0.0
 11
1058.2
 21
410.0
 31
0.0
  0
LINE
  8
L-ZISSEN
 10
1162.113249
 20
268.5
 30
0.0
 11
1159.226497
 21
263.5
 31
0.0
  0
LINE
  8
L-ZISSEN
 10
1159.226497
 20
263.5
 30
0.0
 11
1162.113249
 21
258.5
 31
0.0
  0
LINE
  8
L-ZISSEN
 10
1162.113249
 20
258.5
 30
0.0
 11
1167.886751
 21
258.5
 31
0.0
  0
LINE
  8
L-ZISSEN
 10
1167.886751
 20
258.5
 30
0.0
 11
1170.773503
 21
263.5
 31
0.0
  0
LINE
  8
L-ZISSEN
 10
1170.773503
 20
263.5
 30
0.0
 11
1167.886751
 21
268.5
 31
0.0
  0
LINE
  8
L-ZISSEN
 10
1167.886751
 20
268.5
 30
0.0
 11
1162.113249
 21
268.5
 31
0.0
  0
LINE
  8
L-ZISSEN
 10
1227.886751
 20
268.5
 30
0.0
 11
1230.773503
 21
263.5
 31
0.0
  0
LINE
  8
L-ZISSEN
 10
1230.773503
 20
263.5
 30
0.0
 11
1227.886751
 21
258.5
 31
0.0
  0
LINE
  8
L-ZISSEN
 10
1227.886751
 20
258.5
 30
0.0
 11
1222.113249
 21
258.5
 31
0.0
  0
LINE
  8
L-ZISSEN
 10
1222.113249
 20
258.5
 30
0.0
 11
1219.226497
 21
263.5
 31
0.0
  0
LINE
  8
L-ZISSEN
 10
1219.226497
 20
263.5
 30
0.0
 11
1222.113249
 21
268.5
 31
0.0
  0
LINE
  8
L-ZISSEN
 10
1222.113249
 20
268.5
 30
0.0
 11
1227.886751
 21
268.5
 31
0.0
  0
LINE
  8
L-ZISSEN
 10
1063.7
 20
258.5
 30
0.0
 11
1059.7
 21
258.5
 31
0.0
  0
LINE
  8
L-ZISSEN
 10
1063.7
 20
268.5
 30
0.0
 11
1059.7
 21
268.5
 31
0.0
  0
LINE
  8
L-ZISSEN
 10
1059.7
 20
269.6
 30
0.0
 11
1059.7
 21
257.4
 31
0.0
  0
LINE
  8
L-ZISSEN
 10
1059.7
 20
257.4
 30
0.0
 11
1058.2
 21
257.4
 31
0.0
  0
LINE
  8
L-ZISSEN
 10
1059.7
 20
269.6
 30
0.0
 11
1058.2
 21
269.6
 31
0.0
  0
LINE
  8
L-ZISSEN
 10
1063.7
 20
268.5
 30
0.0
 11
1063.7
 21
258.5
 31
0.0
  0
LINE
  8
L-ZISSEN
 10
1063.7
 20
345.773503
 30
0.0
 11
1063.7
 21
334.226497
 31
0.0
  0
LINE
  8
L-ZISSEN
 10
1059.7
 20
346.1
 30
0.0
 11
1058.2
 21
346.1
 31
0.0
  0
LINE
  8
L-ZISSEN
 10
1059.7
 20
333.9
 30
0.0
 11
1058.2
 21
333.9
 31
0.0
  0
LINE
  8
L-ZISSEN
 10
1059.7
 20
346.1
 30
0.0
 11
1059.7
 21
333.9
 31
0.0
  0
LINE
  8
L-ZISSEN
 10
1063.7
 20
334.226497
 30
0.0
 11
1059.7
 21
334.226497
 31
0.0
  0
LINE
  8
L-ZISSEN
 10
1063.7
 20
345.773503
 30
0.0
 11
1059.7
 21
345.773503
 31
0.0
  0
LINE
  8
L-ZISSEN
 10
1063.7
 20
394.226497
 30
0.0
 11
1059.7
 21
394.226497
 31
0.0
  0
LINE
  8
L-ZISSEN
 10
1063.7
 20
405.773503
 30
0.0
 11
1059.7
 21
405.773503
 31
0.0
  0
LINE
  8
L-ZISSEN
 10
1059.7
 20
393.9
 30
0.0
 11
1059.7
 21
406.1
 31
0.0
  0
LINE
  8
L-ZISSEN
 10
1059.7
 20
406.1
 30
0.0
 11
1058.2
 21
406.1
 31
0.0
  0
LINE
  8
L-ZISSEN
 10
1059.7
 20
393.9
 30
0.0
 11
1058.2
 21
393.9
 31
0.0
  0
LINE
  8
L-ZISSEN
 10
1063.7
 20
394.226497
 30
0.0
 11
1063.7
 21
405.773503
 31
0.0
  0
LINE
  8
L-ZISSEN
 10
1222.113249
 20
48.5
 30
0.0
 11
1227.886751
 21
48.5
 31
0.0
  0
LINE
  8
L-ZISSEN
 10
1219.226497
 20
53.5
 30
0.0
 11
1222.113249
 21
48.5
 31
0.0
  0
LINE
  8
L-ZISSEN
 10
1222.113249
 20
58.5
 30
0.0
 11
1219.226497
 21
53.5
 31
0.0
  0
LINE
  8
L-ZISSEN
 10
1227.886751
 20
58.5
 30
0.0
 11
1222.113249
 21
58.5
 31
0.0
  0
LINE
  8
L-ZISSEN
 10
1230.773503
 20
53.5
 30
0.0
 11
1227.886751
 21
58.5
 31
0.0
  0
LINE
  8
L-ZISSEN
 10
1227.886751
 20
48.5
 30
0.0
 11
1230.773503
 21
53.5
 31
0.0
  0
LINE
  8
L-ZISSEN
 10
1167.886751
 20
48.5
 30
0.0
 11
1162.113249
 21
48.5
 31
0.0
  0
LINE
  8
L-ZISSEN
 10
1170.773503
 20
53.5
 30
0.0
 11
1167.886751
 21
48.5
 31
0.0
  0
LINE
  8
L-ZISSEN
 10
1167.886751
 20
58.5
 30
0.0
 11
1170.773503
 21
53.5
 31
0.0
  0
LINE
  8
L-ZISSEN
 10
1162.113249
 20
58.5
 30
0.0
 11
1167.886751
 21
58.5
 31
0.0
  0
LINE
  8
L-ZISSEN
 10
1159.226497
 20
53.5
 30
0.0
 11
1162.113249
 21
58.5
 31
0.0
  0
LINE
  8
L-ZISSEN
 10
1162.113249
 20
48.5
 30
0.0
 11
1159.226497
 21
53.5
 31
0.0
  0
LINE
  8
L-ZISSEN
 10
1063.7
 20
48.5
 30
0.0
 11
1063.7
 21
58.5
 31
0.0
  0
LINE
  8
L-ZISSEN
 10
1059.7
 20
47.4
 30
0.0
 11
1058.2
 21
47.4
 31
0.0
  0
LINE
  8
L-ZISSEN
 10
1059.7
 20
59.6
 30
0.0
 11
1058.2
 21
59.6
 31
0.0
  0
LINE
  8
L-ZISSEN
 10
1059.7
 20
47.4
 30
0.0
 11
1059.7
 21
59.6
 31
0.0
  0
LINE
  8
L-ZISSEN
 10
1063.7
 20
48.5
 30
0.0
 11
1059.7
 21
48.5
 31
0.0
  0
LINE
  8
L-ZISSEN
 10
1063.7
 20
58.5
 30
0.0
 11
1059.7
 21
58.5
 31
0.0
  0
LINE
  8
L-ZISSEN
  6
CONTINUOUS
 62
     7
 10
502.45
 20
591.05
 30
0.0
 11
502.45
 21
538.95
 31
0.0
  0
LINE
  8
L-ZISSEN
  6
CONTINUOUS
 62
     7
 10
504.0
 20
538.95
 30
0.0
 11
504.0
 21
536.177865
 31
0.0
  0
LINE
  8
L-ZISSEN
  6
CONTINUOUS
 62
     7
 10
832.55
 20
591.05
 30
0.0
 11
832.55
 21
538.95
 31
0.0
  0
LINE
  8
L-ZISSEN
  6
CONTINUOUS
 62
     7
 10
831.0
 20
538.95
 30
0.0
 11
831.0
 21
536.177865
 31
0.0
  0
SOLID
  8
L-ZISSEN
 10
128.892977
 20
528.301292
 30
0.0
 11
129.503748
 21
528.034079
 31
0.0
 12
130.0
 22
530.0
 32
0.0
 13
130.0
 23
530.0
 33
0.0
  0
LINE
  8
L-ZISSEN
 10
129.198362
 20
528.167685
 30
0.0
 11
95.0
 21
450.0
 31
0.0
  0
LINE
  8
L-ZISSEN
 10
95.0
 20
450.0
 30
0.0
 11
93.0
 21
450.0
 31
0.0
  0
TEXT
  8
L-ZISSEN
 10
82.0
 20
447.75
 30
0.0
 40
4.5
  1
P.P
  0
LINE
  8
L-ZISSEN
  6
CONTINUOUS
 62
     7
 10
502.45
 20
206.05
 30
0.0
 11
502.45
 21
153.95
 31
0.0
  0
LINE
  8
L-ZISSEN
  6
CONTINUOUS
 62
     7
 10
504.0
 20
151.177865
 30
0.0
 11
504.0
 21
153.95
 31
0.0
  0
LINE
  8
L-ZISSEN
  6
CONTINUOUS
 62
     7
 10
831.0
 20
151.177865
 30
0.0
 11
831.0
 21
153.95
 31
0.0
  0
LINE
  8
L-ZISSEN
  6
CONTINUOUS
 62
     7
 10
832.55
 20
206.05
 30
0.0
 11
832.55
 21
153.95
 31
0.0
  0
SOLID
  8
L-ZISSEN
 10
131.119681
 20
355.690392
 30
0.0
 11
130.510922
 21
355.962159
 31
0.0
 12
130.0
 22
354.0
 32
0.0
 13
130.0
 23
354.0
 33
0.0
  0
LINE
  8
L-ZISSEN
 10
130.815302
 20
355.826276
 30
0.0
 11
155.0
 21
410.0
 31
0.0
  0
LINE
  8
L-ZISSEN
 10
155.0
 20
410.0
 30
0.0
 11
157.0
 21
410.0
 31
0.0
  0
TEXT
  8
L-ZISSEN
 10
159.0
 20
407.75
 30
0.0
 40
4.5
  1
P.P
  0
SOLID
  8
L-ZISSEN
 10
341.630377
 20
355.205397
 30
0.0
 11
341.151309
 21
355.669011
 31
0.0
 12
340.0
 22
354.0
 32
0.0
 13
340.0
 23
354.0
 33
0.0
  0
LINE
  8
L-ZISSEN
 10
341.390843
 20
355.437204
 30
0.0
 11
370.0
 21
385.0
 31
0.0
  0
LINE
  8
L-ZISSEN
 10
370.0
 20
385.0
 30
0.0
 11
372.0
 21
385.0
 31
0.0
  0
TEXT
  8
L-ZISSEN
 10
374.0
 20
382.75
 30
0.0
 40
4.5
  1
P.P
  0
SOLID
  8
L-ZISSEN
 10
497.420002
 20
481.44731
 30
0.0
 11
496.873847
 21
481.829618
 31
0.0
 12
496.0
 22
480.0
 32
0.0
 13
496.0
 23
480.0
 33
0.0
  0
LINE
  8
L-ZISSEN
 10
497.146925
 20
481.638464
 30
0.0
 11
510.0
 21
500.0
 31
0.0
  0
LINE
  8
L-ZISSEN
 10
510.0
 20
500.0
 30
0.0
 11
512.0
 21
500.0
 31
0.0
  0
TEXT
  8
L-ZISSEN
 10
514.0
 20
497.75
 30
0.0
 40
4.5
  1
P.P
  0
SOLID
  8
L-ZISSEN
 10
609.741619
 20
481.317012
 30
0.0
 11
609.231149
 21
481.745807
 31
0.0
 12
608.2
 22
480.0
 32
0.0
 13
608.2
 23
480.0
 33
0.0
  0
LINE
  8
L-ZISSEN
 10
609.486384
 20
481.53141
 30
0.0
 11
625.0
 21
500.0
 31
0.0
  0
LINE
  8
L-ZISSEN
 10
625.0
 20
500.0
 30
0.0
 11
627.0
 21
500.0
 31
0.0
  0
TEXT
  8
L-ZISSEN
 10
629.0
 20
497.75
 30
0.0
 40
4.5
  1
P.P
  0
SOLID
  8
L-ZISSEN
 10
838.126153
 20
481.829618
 30
0.0
 11
837.579998
 21
481.44731
 31
0.0
 12
839.0
 22
480.0
 32
0.0
 13
839.0
 23
480.0
 33
0.0
  0
LINE
  8
L-ZISSEN
 10
837.853075
 20
481.638464
 30
0.0
 11
825.0
 21
500.0
 31
0.0
  0
LINE
  8
L-ZISSEN
 10
825.0
 20
500.0
 30
0.0
 11
823.0
 21
500.0
 31
0.0
  0
TEXT
  8
L-ZISSEN
 10
812.0
 20
497.75
 30
0.0
 40
4.5
  1
P.P
  0
SOLID
  8
L-ZISSEN
 10
854.741619
 20
481.317012
 30
0.0
 11
854.231149
 21
481.745807
 31
0.0
 12
853.2
 22
480.0
 32
0.0
 13
853.2
 23
480.0
 33
0.0
  0
LINE
  8
L-ZISSEN
 10
854.486384
 20
481.53141
 30
0.0
 11
870.0
 21
500.0
 31
0.0
  0
LINE
  8
L-ZISSEN
 10
870.0
 20
500.0
 30
0.0
 11
872.0
 21
500.0
 31
0.0
  0
TEXT
  8
L-ZISSEN
 10
874.0
 20
497.75
 30
0.0
 40
4.5
  1
P.P
  0
SOLID
  8
L-ZISSEN
 10
497.619165
 20
96.220416
 30
0.0
 11
497.135832
 21
96.679582
 31
0.0
 12
496.0
 22
95.0
 32
0.0
 13
496.0
 23
95.0
 33
0.0
  0
LINE
  8
L-ZISSEN
 10
497.377499
 20
96.449999
 30
0.0
 11
515.0
 21
115.0
 31
0.0
  0
LINE
  8
L-ZISSEN
 10
515.0
 20
115.0
 30
0.0
 11
517.0
 21
115.0
 31
0.0
  0
TEXT
  8
L-ZISSEN
 10
519.0
 20
112.75
 30
0.0
 40
4.5
  1
P.P
  0
SOLID
  8
L-ZISSEN
 10
609.741619
 20
96.317012
 30
0.0
 11
609.231149
 21
96.745807
 31
0.0
 12
608.2
 22
95.0
 32
0.0
 13
608.2
 23
95.0
 33
0.0
  0
LINE
  8
L-ZISSEN
 10
609.486384
 20
96.53141
 30
0.0
 11
625.0
 21
115.0
 31
0.0
  0
LINE
  8
L-ZISSEN
 10
625.0
 20
115.0
 30
0.0
 11
627.0
 21
115.0
 31
0.0
  0
TEXT
  8
L-ZISSEN
 10
629.0
 20
112.75
 30
0.0
 40
4.5
  1
P.P
  0
SOLID
  8
L-ZISSEN
 10
837.864168
 20
96.679582
 30
0.0
 11
837.380835
 21
96.220416
 31
0.0
 12
839.0
 22
95.0
 32
0.0
 13
839.0
 23
95.0
 33
0.0
  0
LINE
  8
L-ZISSEN
 10
837.622501
 20
96.449999
 30
0.0
 11
820.0
 21
115.0
 31
0.0
  0
LINE
  8
L-ZISSEN
 10
820.0
 20
115.0
 30
0.0
 11
818.0
 21
115.0
 31
0.0
  0
TEXT
  8
L-ZISSEN
 10
807.0
 20
112.75
 30
0.0
 40
4.5
  1
P.P
  0
SOLID
  8
L-ZISSEN
 10
854.741619
 20
96.317012
 30
0.0
 11
854.231149
 21
96.745807
 31
0.0
 12
853.2
 22
95.0
 32
0.0
 13
853.2
 23
95.0
 33
0.0
  0
LINE
  8
L-ZISSEN
 10
854.486384
 20
96.53141
 30
0.0
 11
870.0
 21
115.0
 31
0.0
  0
LINE
  8
L-ZISSEN
 10
870.0
 20
115.0
 30
0.0
 11
872.0
 21
115.0
 31
0.0
  0
TEXT
  8
L-ZISSEN
 10
874.0
 20
112.75
 30
0.0
 40
4.5
  1
P.P
  0
SOLID
  8
L-ZISSEN
 10
497.619165
 20
616.220416
 30
0.0
 11
497.135832
 21
616.679582
 31
0.0
 12
496.0
 22
615.0
 32
0.0
 13
496.0
 23
615.0
 33
0.0
  0
LINE
  8
L-ZISSEN
 10
497.377499
 20
616.449999
 30
0.0
 11
515.0
 21
635.0
 31
0.0
  0
LINE
  8
L-ZISSEN
 10
515.0
 20
635.0
 30
0.0
 11
517.0
 21
635.0
 31
0.0
  0
TEXT
  8
L-ZISSEN
 10
519.0
 20
632.75
 30
0.0
 40
4.5
  1
P.P
  0
SOLID
  8
L-ZISSEN
 10
837.864168
 20
616.679582
 30
0.0
 11
837.380835
 21
616.220416
 31
0.0
 12
839.0
 22
615.0
 32
0.0
 13
839.0
 23
615.0
 33
0.0
  0
LINE
  8
L-ZISSEN
 10
837.622501
 20
616.449999
 30
0.0
 11
820.0
 21
635.0
 31
0.0
  0
LINE
  8
L-ZISSEN
 10
820.0
 20
635.0
 30
0.0
 11
818.0
 21
635.0
 31
0.0
  0
TEXT
  8
L-ZISSEN
 10
807.0
 20
632.75
 30
0.0
 40
4.5
  1
P.P
  0
SOLID
  8
L-ZISSEN
 10
497.608322
 20
286.234671
 30
0.0
 11
497.120951
 21
286.68955
 31
0.0
 12
496.0
 22
285.0
 32
0.0
 13
496.0
 23
285.0
 33
0.0
  0
LINE
  8
L-ZISSEN
 10
497.364637
 20
286.462111
 30
0.0
 11
510.0
 21
300.0
 31
0.0
  0
LINE
  8
L-ZISSEN
 10
510.0
 20
300.0
 30
0.0
 11
512.0
 21
300.0
 31
0.0
  0
TEXT
  8
L-ZISSEN
 10
514.0
 20
297.75
 30
0.0
 40
4.5
  1
P.P
  0
SOLID
  8
L-ZISSEN
 10
837.864168
 20
286.679582
 30
0.0
 11
837.380835
 21
286.220416
 31
0.0
 12
839.0
 22
285.0
 32
0.0
 13
839.0
 23
285.0
 33
0.0
  0
LINE
  8
L-ZISSEN
 10
837.622501
 20
286.449999
 30
0.0
 11
820.0
 21
305.0
 31
0.0
  0
LINE
  8
L-ZISSEN
 10
820.0
 20
305.0
 30
0.0
 11
818.0
 21
305.0
 31
0.0
  0
TEXT
  8
L-ZISSEN
 10
807.0
 20
302.75
 30
0.0
 40
4.5
  1
P.P
  0
LINE
  8
L-ZISSEN
  6
CONTINUOUS
 62
     7
 10
1054.9
 20
236.25
 30
0.0
 11
1057.0
 21
236.25
 31
0.0
  0
LINE
  8
L-ZISSEN
  6
CONTINUOUS
 62
     7
 10
1054.9
 20
246.75
 30
0.0
 11
1057.0
 21
246.75
 31
0.0
  0
LINE
  8
L-ZISSEN
  6
CONTINUOUS
 62
     7
 10
504.0
 20
700.0
 30
0.0
 11
504.0
 21
696.8
 31
0.0
  0
LINE
  8
L-ZISSEN
 10
566.0
 20
696.8
 30
0.0
 11
504.0
 21
696.8
 31
0.0
  0
LINE
  8
L-ZISSEN
 10
769.0
 20
696.8
 30
0.0
 11
831.0
 21
696.8
 31
0.0
  0
LINE
  8
L-ZISSEN
  6
CONTINUOUS
 62
     7
 10
831.0
 20
700.0
 30
0.0
 11
831.0
 21
696.8
 31
0.0
  0
LINE
  8
L-ZISSEN
 10
504.0
 20
366.8
 30
0.0
 11
566.0
 21
366.8
 31
0.0
  0
LINE
  8
L-ZISSEN
  6
CONTINUOUS
 62
     7
 10
504.0
 20
366.8
 30
0.0
 11
504.0
 21
370.0
 31
0.0
  0
LINE
  8
L-ZISSEN
 10
769.0
 20
366.8
 30
0.0
 11
831.0
 21
366.8
 31
0.0
  0
LINE
  8
L-ZISSEN
  6
CONTINUOUS
 62
     7
 10
831.0
 20
366.8
 30
0.0
 11
831.0
 21
370.0
 31
0.0
  0
ENDSEC
  0
EOF
