  0
SECTION
  2
HEADER
  9
$ACADVER
  1
AC1006
  9
$INSBASE
 10
0.0
 20
0.0
 30
0.0
  9
$EXTMIN
 10
25.0
 20
10.0
  9
$EXTMAX
 10
845.0
 20
525.0
  9
$LIMMIN
 10
0.0
 20
0.0
  9
$LIMMAX
 10
841.0
 20
594.0
  9
$ORTHOMODE
 70
     0
  9
$REGENMODE
 70
     1
  9
$FILLMODE
 70
     1
  9
$QTEXTMODE
 70
     0
  9
$MIRRTEXT
 70
     1
  9
$DRAGMODE
 70
     2
  9
$LTSCALE
 40
1.0
  9
$OSMODE
 70
     0
  9
$ATTMODE
 70
     1
  9
$TEXTSIZE
 40
4.5
  9
$TRACEWID
 40
0.05
  9
$TEXTSTYLE
  7
STANDARD
  9
$CLAYER
  8
L-ZISSEN
  9
$CELTYPE
  6
BYLAYER
  9
$CECOLOR
 62
   256
  9
$DIMSCALE
 40
1.0
  9
$DIMASZ
 40
2.0
  9
$DIMEXO
 40
1.0
  9
$DIMDLI
 40
0.38
  9
$DIMRND
 40
0.0
  9
$DIMDLE
 40
1.0
  9
$DIMEXE
 40
1.0
  9
$DIMTP
 40
0.0
  9
$DIMTM
 40
0.0
  9
$DIMTXT
 40
4.5
  9
$DIMCEN
 40
0.09
  9
$DIMTSZ
 40
0.0
  9
$DIMTOL
 70
     0
  9
$DIMLIM
 70
     0
  9
$DIMTIH
 70
     0
  9
$DIMTOH
 70
     0
  9
$DIMSE1
 70
     0
  9
$DIMSE2
 70
     0
  9
$DIMTAD
 70
     1
  9
$DIMZIN
 70
     0
  9
$DIMBLK
  1

  9
$DIMASO
 70
     0
  9
$DIMSHO
 70
     0
  9
$DIMPOST
  1

  9
$DIMAPOST
  1

  9
$DIMALT
 70
     0
  9
$DIMALTD
 70
     2
  9
$DIMALTF
 40
25.4
  9
$DIMLFAC
 40
1.0
  9
$DIMTOFL
 70
     1
  9
$DIMTVP
 40
0.0
  9
$DIMTIX
 70
     1
  9
$DIMSOXD
 70
     0
  9
$DIMSAH
 70
     0
  9
$DIMBLK1
  1

  9
$DIMBLK2
  1

  9
$LUNITS
 70
     2
  9
$LUPREC
 70
     4
  9
$AXISMODE
 70
     0
  9
$AXISUNIT
 10
0.0
 20
0.0
  9
$SKETCHINC
 40
0.1
  9
$FILLETRAD
 40
33.0
  9
$AUNITS
 70
     0
  9
$AUPREC
 70
     0
  9
$MENU
  1
acad
  9
$ELEVATION
 40
0.0
  9
$THICKNESS
 40
0.0
  9
$LIMCHECK
 70
     0
  9
$BLIPMODE
 70
     1
  9
$CHAMFERA
 40
2.0
  9
$CHAMFERB
 40
2.0
  9
$SKPOLY
 70
     0
  9
$TDCREATE
 40
2449653.7181348382
  9
$TDUPDATE
 40
2449653.7181348382
  9
$TDINDWG
 40
0.0000000000
  9
$TDUSRTIMER
 40
0.0000000000
  9
$USRTIMER
 70
     1
  9
$ANGBASE
 50
0.0
  9
$ANGDIR
 70
     0
  9
$PDMODE
 70
     0
  9
$PDSIZE
 40
0.0
  9
$PLINEWID
 40
0.0
  9
$COORDS
 70
     2
  9
$SPLFRAME
 70
     0
  9
$SPLINETYPE
 70
     6
  9
$SPLINESEGS
 70
     8
  9
$ATTDIA
 70
     0
  9
$ATTREQ
 70
     1
  9
$HANDLING
 70
     0
  9
$HANDSEED
  5
0
  9
$SURFTAB1
 70
     6
  9
$SURFTAB2
 70
     6
  9
$SURFTYPE
 70
     6
  9
$SURFU
 70
     6
  9
$SURFV
 70
     6
  9
$FLATLAND
 70
     0
  9
$UCSNAME
  2

  9
$UCSORG
 10
0.0
 20
0.0
 30
0.0
  9
$UCSXDIR
 10
1.0
 20
0.0
 30
0.0
  9
$UCSYDIR
 10
0.0
 20
1.0
 30
0.0
  9
$USERI1
 70
     0
  9
$USERI2
 70
     0
  9
$USERI3
 70
     0
  9
$USERI4
 70
     0
  9
$USERI5
 70
     0
  9
$USERR1
 40
0.0
  9
$USERR2
 40
0.0
  9
$USERR3
 40
0.0
  9
$USERR4
 40
0.0
  9
$USERR5
 40
0.0
  9
$WORLDVIEW
 70
     1
  0
ENDSEC
  0
SECTION
  2
TABLES
  0
TABLE
  2
VPORT
 70
     2
  0
VPORT
  2
*ACTIVE
 70
     0
 10
0.0
 20
0.0
 11
1.0
 21
1.0
 12
455.948082
 22
269.062623
 13
0.0
 23
0.0
 14
5.0
 24
5.0
 15
0.0
 25
0.0
 16
0.0
 26
0.0
 36
1.0
 17
0.0
 27
0.0
 37
0.0
 40
582.472117
 41
1.5487
 42
50.0
 43
0.0
 44
0.0
 50
0.0
 51
0.0
 71
     0
 72
   100
 73
     1
 74
     0
 75
     0
 76
     0
 77
     0
 78
     0
  0
ENDTAB
  0
TABLE
  2
LTYPE
 70
     2
  0
LTYPE
  2
CONTINUOUS
 70
    64
  3
Solid line
 72
    65
 73
     0
 40
0.0
  0
LTYPE
  2
CENTER
 70
    64
  3
____ _ ____ _ ____ _ ____ _ 
 72
    65
 73
     4
 40
60.0
 49
45.0
 49
-5.0
 49
5.0
 49
-5.0
  0
ENDTAB
  0
TABLE
  2
LAYER
 70
     3
  0
LAYER
  2
0
 70
     0
 62
     7
  6
CONTINUOUS
  0
LAYER
  2
L-ZISSEN
 70
    64
 62
     7
  6
CONTINUOUS
  0
LAYER
  2
L-TYUSIN
 70
    64
 62
     1
  6
CENTER
  0
ENDTAB
  0
TABLE
  2
STYLE
 70
     1
  0
STYLE
  2
STANDARD
 70
    64
 40
0.0
 41
1.0
 50
0.0
 71
     0
 42
4.5
  3
TXT
  4

  0
ENDTAB
  0
TABLE
  2
VIEW
 70
     0
  0
ENDTAB
  0
TABLE
  2
UCS
 70
     0
  0
ENDTAB
  0
TABLE
  2
DWGMGR
 70
     0
  0
ENDTAB
  0
ENDSEC
  0
SECTION
  2
BLOCKS
  0
ENDSEC
  0
SECTION
  2
ENTITIES
  0
LINE
  8
L-TYUSIN
  6
CENTER
 62
     1
 10
115.0
 20
274.0
 30
0.0
 11
115.0
 21
37.0
 31
0.0
  0
LINE
  8
L-TYUSIN
  6
CENTER
 62
     1
 10
245.0
 20
274.0
 30
0.0
 11
245.0
 21
37.0
 31
0.0
  0
LINE
  8
L-ZISSEN
  6
CONTINUOUS
 62
     7
 10
73.0
 20
176.7
 30
0.0
 11
157.0
 21
176.7
 31
0.0
  0
LINE
  8
L-ZISSEN
  6
CONTINUOUS
 62
     7
 10
73.0
 20
164.7
 30
0.0
 11
157.0
 21
164.7
 31
0.0
  0
LINE
  8
L-ZISSEN
  6
CONTINUOUS
 62
     7
 10
157.0
 20
176.7
 30
0.0
 11
157.0
 21
164.7
 31
0.0
  0
LINE
  8
L-ZISSEN
  6
CONTINUOUS
 62
     7
 10
73.0
 20
176.7
 30
0.0
 11
73.0
 21
164.7
 31
0.0
  0
LINE
  8
L-ZISSEN
  6
CONTINUOUS
 62
     7
 10
146.0
 20
182.0
 30
0.0
 11
146.0
 21
176.7
 31
0.0
  0
LINE
  8
L-ZISSEN
  6
CONTINUOUS
 62
     7
 10
152.0
 20
182.0
 30
0.0
 11
152.0
 21
176.7
 31
0.0
  0
LINE
  8
L-ZISSEN
  6
CONTINUOUS
 62
     7
 10
112.0
 20
182.0
 30
0.0
 11
112.0
 21
176.7
 31
0.0
  0
LINE
  8
L-ZISSEN
  6
CONTINUOUS
 62
     7
 10
118.0
 20
182.0
 30
0.0
 11
118.0
 21
176.7
 31
0.0
  0
LINE
  8
L-ZISSEN
  6
CONTINUOUS
 62
     7
 10
84.0
 20
182.0
 30
0.0
 11
84.0
 21
176.7
 31
0.0
  0
LINE
  8
L-ZISSEN
  6
CONTINUOUS
 62
     7
 10
78.0
 20
182.0
 30
0.0
 11
78.0
 21
176.7
 31
0.0
  0
LINE
  8
L-ZISSEN
  6
CONTINUOUS
 62
     7
 10
76.2
 20
182.0
 30
0.0
 11
76.2
 21
176.7
 31
0.0
  0
LINE
  8
L-ZISSEN
  6
CONTINUOUS
 62
     7
 10
153.8
 20
182.0
 30
0.0
 11
153.8
 21
176.7
 31
0.0
  0
LINE
  8
L-ZISSEN
  6
CONTINUOUS
 62
     7
 10
97.564404
 20
64.5
 30
0.0
 11
132.435596
 21
64.5
 31
0.0
  0
LINE
  8
L-ZISSEN
  6
CONTINUOUS
 62
     7
 10
78.8
 20
83.483537
 30
0.0
 11
78.8
 21
164.7
 31
0.0
  0
LINE
  8
L-ZISSEN
  6
CONTINUOUS
 62
     7
 10
151.2
 20
83.483537
 30
0.0
 11
151.2
 21
164.7
 31
0.0
  0
ARC
  8
L-ZISSEN
  6
CONTINUOUS
 62
     7
 10
115.0
 20
100.5
 30
0.0
 40
40.0
 50
205.176717
 51
244.158067
  0
ARC
  8
L-ZISSEN
  6
CONTINUOUS
 62
     7
 10
115.0
 20
100.5
 30
0.0
 40
40.0
 50
295.841933
 51
334.823283
  0
LINE
  8
L-ZISSEN
  6
CONTINUOUS
 62
     7
 10
106.75
 20
53.0
 30
0.0
 11
123.25
 21
53.0
 31
0.0
  0
LINE
  8
L-ZISSEN
  6
CONTINUOUS
 62
     7
 10
103.0
 20
56.0
 30
0.0
 11
127.0
 21
56.0
 31
0.0
  0
LINE
  8
L-ZISSEN
  6
CONTINUOUS
 62
     7
 10
103.0
 20
62.0
 30
0.0
 11
103.0
 21
56.0
 31
0.0
  0
LINE
  8
L-ZISSEN
  6
CONTINUOUS
 62
     7
 10
127.0
 20
62.0
 30
0.0
 11
127.0
 21
56.0
 31
0.0
  0
LINE
  8
L-ZISSEN
  6
CONTINUOUS
 62
     7
 10
106.75
 20
53.0
 30
0.0
 11
103.75
 21
56.0
 31
0.0
  0
LINE
  8
L-ZISSEN
  6
CONTINUOUS
 62
     7
 10
123.25
 20
53.0
 30
0.0
 11
126.25
 21
56.0
 31
0.0
  0
LINE
  8
L-ZISSEN
  6
CONTINUOUS
 62
     7
 10
110.75
 20
52.0
 30
0.0
 11
119.25
 21
52.0
 31
0.0
  0
LINE
  8
L-ZISSEN
  6
CONTINUOUS
 62
     7
 10
110.75
 20
52.0
 30
0.0
 11
110.75
 21
53.0
 31
0.0
  0
LINE
  8
L-ZISSEN
  6
CONTINUOUS
 62
     7
 10
119.25
 20
52.0
 30
0.0
 11
119.25
 21
53.0
 31
0.0
  0
ARC
  8
L-ZISSEN
  6
CONTINUOUS
 62
     7
 10
245.0
 20
100.5
 30
0.0
 40
40.0
 50
295.841933
 51
334.823283
  0
ARC
  8
L-ZISSEN
  6
CONTINUOUS
 62
     7
 10
245.0
 20
100.5
 30
0.0
 40
40.0
 50
205.176717
 51
244.158067
  0
LINE
  8
L-ZISSEN
  6
CONTINUOUS
 62
     7
 10
281.2
 20
83.483537
 30
0.0
 11
281.2
 21
164.7
 31
0.0
  0
LINE
  8
L-ZISSEN
  6
CONTINUOUS
 62
     7
 10
208.8
 20
83.483537
 30
0.0
 11
208.8
 21
164.7
 31
0.0
  0
LINE
  8
L-ZISSEN
  6
CONTINUOUS
 62
     7
 10
227.564404
 20
64.5
 30
0.0
 11
262.435596
 21
64.5
 31
0.0
  0
LINE
  8
L-ZISSEN
  6
CONTINUOUS
 62
     7
 10
195.0
 20
164.7
 30
0.0
 11
295.0
 21
164.7
 31
0.0
  0
LINE
  8
L-ZISSEN
  6
CONTINUOUS
 62
     7
 10
195.0
 20
176.7
 30
0.0
 11
295.0
 21
176.7
 31
0.0
  0
LINE
  8
L-ZISSEN
  6
CONTINUOUS
 62
     7
 10
195.0
 20
176.7
 30
0.0
 11
195.0
 21
164.7
 31
0.0
  0
LINE
  8
L-ZISSEN
  6
CONTINUOUS
 62
     7
 10
295.0
 20
176.7
 30
0.0
 11
295.0
 21
164.7
 31
0.0
  0
LINE
  8
L-ZISSEN
  6
CONTINUOUS
 62
     7
 10
206.2
 20
182.0
 30
0.0
 11
206.2
 21
176.7
 31
0.0
  0
LINE
  8
L-ZISSEN
  6
CONTINUOUS
 62
     7
 10
283.8
 20
182.0
 30
0.0
 11
283.8
 21
176.7
 31
0.0
  0
LINE
  8
L-ZISSEN
  6
CONTINUOUS
 62
     7
 10
198.0
 20
182.0
 30
0.0
 11
198.0
 21
176.7
 31
0.0
  0
LINE
  8
L-ZISSEN
  6
CONTINUOUS
 62
     7
 10
204.0
 20
182.0
 30
0.0
 11
204.0
 21
176.7
 31
0.0
  0
LINE
  8
L-ZISSEN
  6
CONTINUOUS
 62
     7
 10
222.0
 20
182.0
 30
0.0
 11
222.0
 21
176.7
 31
0.0
  0
LINE
  8
L-ZISSEN
  6
CONTINUOUS
 62
     7
 10
216.0
 20
182.0
 30
0.0
 11
216.0
 21
176.7
 31
0.0
  0
LINE
  8
L-ZISSEN
  6
CONTINUOUS
 62
     7
 10
274.0
 20
182.0
 30
0.0
 11
274.0
 21
176.7
 31
0.0
  0
LINE
  8
L-ZISSEN
  6
CONTINUOUS
 62
     7
 10
268.0
 20
182.0
 30
0.0
 11
268.0
 21
176.7
 31
0.0
  0
LINE
  8
L-ZISSEN
  6
CONTINUOUS
 62
     7
 10
286.0
 20
182.0
 30
0.0
 11
286.0
 21
176.7
 31
0.0
  0
LINE
  8
L-ZISSEN
  6
CONTINUOUS
 62
     7
 10
292.0
 20
182.0
 30
0.0
 11
292.0
 21
176.7
 31
0.0
  0
TEXT
  8
L-ZISSEN
  6
CONTINUOUS
 62
     7
 10
65.0
 20
420.0
 30
0.0
 40
4.5
  1
MODEL No. : NOL-5
  0
TEXT
  8
L-ZISSEN
  6
CONTINUOUS
 62
     7
 10
355.0
 20
505.0
 30
0.0
 40
4.5
  1
MODEL No. : NOL-5**B
  0
TEXT
  8
L-ZISSEN
  6
CONTINUOUS
 62
     7
 10
355.0
 20
515.0
 30
0.0
 40
4.5
  1
BRACKET
  0
LINE
  8
L-ZISSEN
  6
CONTINUOUS
 62
     7
 10
817.0
 20
422.0
 30
0.0
 11
817.0
 21
417.5
 31
0.0
  0
LINE
  8
L-ZISSEN
  6
CONTINUOUS
 62
     7
 10
811.0
 20
422.0
 30
0.0
 11
811.0
 21
417.5
 31
0.0
  0
LINE
  8
L-ZISSEN
  6
CONTINUOUS
 62
     7
 10
793.0
 20
422.0
 30
0.0
 11
793.0
 21
417.5
 31
0.0
  0
LINE
  8
L-ZISSEN
  6
CONTINUOUS
 62
     7
 10
799.0
 20
422.0
 30
0.0
 11
799.0
 21
417.5
 31
0.0
  0
LINE
  8
L-ZISSEN
  6
CONTINUOUS
 62
     7
 10
741.0
 20
422.0
 30
0.0
 11
741.0
 21
417.5
 31
0.0
  0
LINE
  8
L-ZISSEN
  6
CONTINUOUS
 62
     7
 10
747.0
 20
422.0
 30
0.0
 11
747.0
 21
417.5
 31
0.0
  0
LINE
  8
L-ZISSEN
  6
CONTINUOUS
 62
     7
 10
729.0
 20
422.0
 30
0.0
 11
729.0
 21
417.5
 31
0.0
  0
LINE
  8
L-ZISSEN
  6
CONTINUOUS
 62
     7
 10
723.0
 20
422.0
 30
0.0
 11
723.0
 21
417.5
 31
0.0
  0
LINE
  8
L-ZISSEN
  6
CONTINUOUS
 62
     7
 10
808.8
 20
422.0
 30
0.0
 11
808.8
 21
417.5
 31
0.0
  0
LINE
  8
L-ZISSEN
  6
CONTINUOUS
 62
     7
 10
731.2
 20
422.0
 30
0.0
 11
731.2
 21
417.5
 31
0.0
  0
LINE
  8
L-ZISSEN
  6
CONTINUOUS
 62
     7
 10
820.0
 20
417.5
 30
0.0
 11
820.0
 21
405.5
 31
0.0
  0
LINE
  8
L-ZISSEN
  6
CONTINUOUS
 62
     7
 10
720.0
 20
417.5
 30
0.0
 11
720.0
 21
405.5
 31
0.0
  0
LINE
  8
L-ZISSEN
  6
CONTINUOUS
 62
     7
 10
720.0
 20
417.5
 30
0.0
 11
820.0
 21
417.5
 31
0.0
  0
LINE
  8
L-ZISSEN
  6
CONTINUOUS
 62
     7
 10
720.0
 20
405.5
 30
0.0
 11
820.0
 21
405.5
 31
0.0
  0
LINE
  8
L-ZISSEN
  6
CONTINUOUS
 62
     7
 10
664.25
 20
291.2
 30
0.0
 11
664.25
 21
292.2
 31
0.0
  0
LINE
  8
L-ZISSEN
  6
CONTINUOUS
 62
     7
 10
655.75
 20
291.2
 30
0.0
 11
655.75
 21
292.2
 31
0.0
  0
LINE
  8
L-ZISSEN
  6
CONTINUOUS
 62
     7
 10
655.75
 20
291.2
 30
0.0
 11
664.25
 21
291.2
 31
0.0
  0
LINE
  8
L-ZISSEN
  6
CONTINUOUS
 62
     7
 10
668.25
 20
292.2
 30
0.0
 11
671.25
 21
295.2
 31
0.0
  0
LINE
  8
L-ZISSEN
  6
CONTINUOUS
 62
     7
 10
651.75
 20
292.2
 30
0.0
 11
648.75
 21
295.2
 31
0.0
  0
LINE
  8
L-ZISSEN
  6
CONTINUOUS
 62
     7
 10
672.0
 20
310.2
 30
0.0
 11
672.0
 21
305.2
 31
0.0
  0
LINE
  8
L-ZISSEN
  6
CONTINUOUS
 62
     7
 10
648.0
 20
310.2
 30
0.0
 11
648.0
 21
305.2
 31
0.0
  0
LINE
  8
L-ZISSEN
  6
CONTINUOUS
 62
     7
 10
648.0
 20
295.2
 30
0.0
 11
672.0
 21
295.2
 31
0.0
  0
LINE
  8
L-ZISSEN
  6
CONTINUOUS
 62
     7
 10
651.75
 20
292.2
 30
0.0
 11
668.25
 21
292.2
 31
0.0
  0
LINE
  8
L-ZISSEN
  6
CONTINUOUS
 62
     7
 10
648.0
 20
301.2
 30
0.0
 11
672.0
 21
301.2
 31
0.0
  0
LINE
  8
L-ZISSEN
  6
CONTINUOUS
 62
     7
 10
698.8
 20
422.0
 30
0.0
 11
698.8
 21
417.5
 31
0.0
  0
LINE
  8
L-ZISSEN
  6
CONTINUOUS
 62
     7
 10
621.2
 20
422.0
 30
0.0
 11
621.2
 21
417.5
 31
0.0
  0
LINE
  8
L-ZISSEN
  6
CONTINUOUS
 62
     7
 10
623.0
 20
422.0
 30
0.0
 11
623.0
 21
417.5
 31
0.0
  0
LINE
  8
L-ZISSEN
  6
CONTINUOUS
 62
     7
 10
629.0
 20
422.0
 30
0.0
 11
629.0
 21
417.5
 31
0.0
  0
LINE
  8
L-ZISSEN
  6
CONTINUOUS
 62
     7
 10
663.0
 20
422.0
 30
0.0
 11
663.0
 21
417.5
 31
0.0
  0
LINE
  8
L-ZISSEN
  6
CONTINUOUS
 62
     7
 10
657.0
 20
422.0
 30
0.0
 11
657.0
 21
417.5
 31
0.0
  0
LINE
  8
L-ZISSEN
  6
CONTINUOUS
 62
     7
 10
697.0
 20
422.0
 30
0.0
 11
697.0
 21
417.5
 31
0.0
  0
LINE
  8
L-ZISSEN
  6
CONTINUOUS
 62
     7
 10
691.0
 20
422.0
 30
0.0
 11
691.0
 21
417.5
 31
0.0
  0
LINE
  8
L-ZISSEN
  6
CONTINUOUS
 62
     7
 10
618.0
 20
417.5
 30
0.0
 11
618.0
 21
405.5
 31
0.0
  0
LINE
  8
L-ZISSEN
  6
CONTINUOUS
 62
     7
 10
702.0
 20
417.5
 30
0.0
 11
702.0
 21
405.5
 31
0.0
  0
LINE
  8
L-ZISSEN
  6
CONTINUOUS
 62
     7
 10
618.0
 20
405.5
 30
0.0
 11
702.0
 21
405.5
 31
0.0
  0
LINE
  8
L-ZISSEN
  6
CONTINUOUS
 62
     7
 10
618.0
 20
417.5
 30
0.0
 11
702.0
 21
417.5
 31
0.0
  0
LINE
  8
L-ZISSEN
  6
CONTINUOUS
 62
     7
 10
672.0
 20
310.2
 30
0.0
 11
648.0
 21
310.2
 31
0.0
  0
LINE
  8
L-ZISSEN
  6
CONTINUOUS
 62
     7
 10
693.0
 20
343.0
 30
0.0
 11
693.0
 21
405.5
 31
0.0
  0
ARC
  8
L-ZISSEN
  6
CONTINUOUS
 62
     7
 10
660.0
 20
342.152113
 30
0.0
 40
33.0
 50
284.477512
 51
1.472294
  0
ARC
  8
L-ZISSEN
  6
CONTINUOUS
 62
     7
 10
660.0
 20
342.152113
 30
0.0
 40
33.0
 50
178.527706
 51
255.522488
  0
LINE
  8
L-ZISSEN
  6
CONTINUOUS
 62
     7
 10
627.0
 20
343.0
 30
0.0
 11
627.0
 21
405.5
 31
0.0
  0
LINE
  8
L-ZISSEN
  6
CONTINUOUS
 62
     7
 10
737.0
 20
343.0
 30
0.0
 11
737.0
 21
405.5
 31
0.0
  0
ARC
  8
L-ZISSEN
  6
CONTINUOUS
 62
     7
 10
770.0
 20
342.152113
 30
0.0
 40
33.0
 50
178.527706
 51
255.522488
  0
ARC
  8
L-ZISSEN
  6
CONTINUOUS
 62
     7
 10
770.0
 20
342.152113
 30
0.0
 40
33.0
 50
284.477512
 51
1.472294
  0
LINE
  8
L-ZISSEN
  6
CONTINUOUS
 62
     7
 10
803.0
 20
343.0
 30
0.0
 11
803.0
 21
405.5
 31
0.0
  0
LINE
  8
L-ZISSEN
  6
CONTINUOUS
 62
     7
 10
672.0
 20
305.2
 30
0.0
 11
648.0
 21
305.2
 31
0.0
  0
LINE
  8
L-ZISSEN
  6
CONTINUOUS
 62
     7
 10
672.0
 20
301.2
 30
0.0
 11
672.0
 21
295.2
 31
0.0
  0
LINE
  8
L-ZISSEN
  6
CONTINUOUS
 62
     7
 10
648.0
 20
301.2
 30
0.0
 11
648.0
 21
295.2
 31
0.0
  0
LINE
  8
L-ZISSEN
  6
CONTINUOUS
 62
     7
 10
652.0
 20
305.2
 30
0.0
 11
652.0
 21
301.2
 31
0.0
  0
LINE
  8
L-ZISSEN
  6
CONTINUOUS
 62
     7
 10
668.0
 20
305.2
 30
0.0
 11
668.0
 21
301.2
 31
0.0
  0
LINE
  8
L-ZISSEN
  6
CONTINUOUS
 62
     7
 10
778.0
 20
305.2
 30
0.0
 11
778.0
 21
301.2
 31
0.0
  0
LINE
  8
L-ZISSEN
  6
CONTINUOUS
 62
     7
 10
762.0
 20
305.2
 30
0.0
 11
762.0
 21
301.2
 31
0.0
  0
LINE
  8
L-ZISSEN
  6
CONTINUOUS
 62
     7
 10
758.0
 20
301.2
 30
0.0
 11
758.0
 21
295.2
 31
0.0
  0
LINE
  8
L-ZISSEN
  6
CONTINUOUS
 62
     7
 10
782.0
 20
301.2
 30
0.0
 11
782.0
 21
295.2
 31
0.0
  0
LINE
  8
L-ZISSEN
  6
CONTINUOUS
 62
     7
 10
782.0
 20
305.2
 30
0.0
 11
758.0
 21
305.2
 31
0.0
  0
LINE
  8
L-ZISSEN
  6
CONTINUOUS
 62
     7
 10
782.0
 20
310.2
 30
0.0
 11
758.0
 21
310.2
 31
0.0
  0
LINE
  8
L-ZISSEN
  6
CONTINUOUS
 62
     7
 10
758.0
 20
301.2
 30
0.0
 11
782.0
 21
301.2
 31
0.0
  0
LINE
  8
L-ZISSEN
  6
CONTINUOUS
 62
     7
 10
761.75
 20
292.2
 30
0.0
 11
778.25
 21
292.2
 31
0.0
  0
LINE
  8
L-ZISSEN
  6
CONTINUOUS
 62
     7
 10
758.0
 20
295.2
 30
0.0
 11
782.0
 21
295.2
 31
0.0
  0
LINE
  8
L-ZISSEN
  6
CONTINUOUS
 62
     7
 10
758.0
 20
310.2
 30
0.0
 11
758.0
 21
305.2
 31
0.0
  0
LINE
  8
L-ZISSEN
  6
CONTINUOUS
 62
     7
 10
782.0
 20
310.2
 30
0.0
 11
782.0
 21
305.2
 31
0.0
  0
LINE
  8
L-ZISSEN
  6
CONTINUOUS
 62
     7
 10
761.75
 20
292.2
 30
0.0
 11
758.75
 21
295.2
 31
0.0
  0
LINE
  8
L-ZISSEN
  6
CONTINUOUS
 62
     7
 10
778.25
 20
292.2
 30
0.0
 11
781.25
 21
295.2
 31
0.0
  0
LINE
  8
L-ZISSEN
  6
CONTINUOUS
 62
     7
 10
765.75
 20
291.2
 30
0.0
 11
774.25
 21
291.2
 31
0.0
  0
LINE
  8
L-ZISSEN
  6
CONTINUOUS
 62
     7
 10
765.75
 20
291.2
 30
0.0
 11
765.75
 21
292.2
 31
0.0
  0
LINE
  8
L-ZISSEN
  6
CONTINUOUS
 62
     7
 10
774.25
 20
291.2
 30
0.0
 11
774.25
 21
292.2
 31
0.0
  0
LINE
  8
L-ZISSEN
  6
CONTINUOUS
 62
     7
 10
127.0
 20
62.0
 30
0.0
 11
103.0
 21
62.0
 31
0.0
  0
LINE
  8
L-ZISSEN
  6
CONTINUOUS
 62
     7
 10
107.0
 20
64.5
 30
0.0
 11
107.0
 21
62.0
 31
0.0
  0
LINE
  8
L-ZISSEN
  6
CONTINUOUS
 62
     7
 10
123.0
 20
64.5
 30
0.0
 11
123.0
 21
62.0
 31
0.0
  0
LINE
  8
L-ZISSEN
  6
CONTINUOUS
 62
     7
 10
253.0
 20
64.5
 30
0.0
 11
253.0
 21
62.0
 31
0.0
  0
LINE
  8
L-ZISSEN
  6
CONTINUOUS
 62
     7
 10
237.0
 20
64.5
 30
0.0
 11
237.0
 21
62.0
 31
0.0
  0
LINE
  8
L-ZISSEN
  6
CONTINUOUS
 62
     7
 10
257.0
 20
62.0
 30
0.0
 11
233.0
 21
62.0
 31
0.0
  0
LINE
  8
L-ZISSEN
  6
CONTINUOUS
 62
     7
 10
249.25
 20
52.0
 30
0.0
 11
249.25
 21
53.0
 31
0.0
  0
LINE
  8
L-ZISSEN
  6
CONTINUOUS
 62
     7
 10
240.75
 20
52.0
 30
0.0
 11
240.75
 21
53.0
 31
0.0
  0
LINE
  8
L-ZISSEN
  6
CONTINUOUS
 62
     7
 10
240.75
 20
52.0
 30
0.0
 11
249.25
 21
52.0
 31
0.0
  0
LINE
  8
L-ZISSEN
  6
CONTINUOUS
 62
     7
 10
253.25
 20
53.0
 30
0.0
 11
256.25
 21
56.0
 31
0.0
  0
LINE
  8
L-ZISSEN
  6
CONTINUOUS
 62
     7
 10
236.75
 20
53.0
 30
0.0
 11
233.75
 21
56.0
 31
0.0
  0
LINE
  8
L-ZISSEN
  6
CONTINUOUS
 62
     7
 10
257.0
 20
62.0
 30
0.0
 11
257.0
 21
56.0
 31
0.0
  0
LINE
  8
L-ZISSEN
  6
CONTINUOUS
 62
     7
 10
233.0
 20
62.0
 30
0.0
 11
233.0
 21
56.0
 31
0.0
  0
LINE
  8
L-ZISSEN
  6
CONTINUOUS
 62
     7
 10
233.0
 20
56.0
 30
0.0
 11
257.0
 21
56.0
 31
0.0
  0
LINE
  8
L-ZISSEN
  6
CONTINUOUS
 62
     7
 10
236.75
 20
53.0
 30
0.0
 11
253.25
 21
53.0
 31
0.0
  0
LINE
  8
L-TYUSIN
  6
CENTER
 62
     1
 10
330.0
 20
525.0
 30
0.0
 11
330.0
 21
10.0
 31
0.0
  0
LINE
  8
L-TYUSIN
  6
CENTER
 62
     1
 10
590.0
 20
525.0
 30
0.0
 11
590.0
 21
10.0
 31
0.0
  0
TEXT
  8
L-ZISSEN
  6
CONTINUOUS
 62
     7
 10
615.0
 20
480.0
 30
0.0
 40
4.5
  1
SUPER BOWL
  0
TEXT
  8
L-ZISSEN
  6
CONTINUOUS
 62
     7
 10
615.0
 20
470.0
 30
0.0
 40
4.5
  1
MODEL No. : NOL-5**S
  0
LINE
  8
L-ZISSEN
  6
CONTINUOUS
 62
     7
 10
572.0
 20
182.0
 30
0.0
 11
572.0
 21
178.0
 31
0.0
  0
LINE
  8
L-ZISSEN
  6
CONTINUOUS
 62
     7
 10
566.0
 20
182.0
 30
0.0
 11
566.0
 21
178.0
 31
0.0
  0
LINE
  8
L-ZISSEN
  6
CONTINUOUS
 62
     7
 10
548.0
 20
182.0
 30
0.0
 11
548.0
 21
178.0
 31
0.0
  0
LINE
  8
L-ZISSEN
  6
CONTINUOUS
 62
     7
 10
554.0
 20
182.0
 30
0.0
 11
554.0
 21
178.0
 31
0.0
  0
LINE
  8
L-ZISSEN
  6
CONTINUOUS
 62
     7
 10
496.0
 20
182.0
 30
0.0
 11
496.0
 21
178.0
 31
0.0
  0
LINE
  8
L-ZISSEN
  6
CONTINUOUS
 62
     7
 10
502.0
 20
182.0
 30
0.0
 11
502.0
 21
178.0
 31
0.0
  0
LINE
  8
L-ZISSEN
  6
CONTINUOUS
 62
     7
 10
484.0
 20
182.0
 30
0.0
 11
484.0
 21
178.0
 31
0.0
  0
LINE
  8
L-ZISSEN
  6
CONTINUOUS
 62
     7
 10
478.0
 20
182.0
 30
0.0
 11
478.0
 21
178.0
 31
0.0
  0
LINE
  8
L-ZISSEN
  6
CONTINUOUS
 62
     7
 10
563.8
 20
182.0
 30
0.0
 11
563.8
 21
178.0
 31
0.0
  0
LINE
  8
L-ZISSEN
  6
CONTINUOUS
 62
     7
 10
486.2
 20
182.0
 30
0.0
 11
486.2
 21
178.0
 31
0.0
  0
LINE
  8
L-ZISSEN
  6
CONTINUOUS
 62
     7
 10
575.0
 20
178.0
 30
0.0
 11
575.0
 21
166.0
 31
0.0
  0
LINE
  8
L-ZISSEN
  6
CONTINUOUS
 62
     7
 10
475.0
 20
178.0
 30
0.0
 11
475.0
 21
166.0
 31
0.0
  0
LINE
  8
L-ZISSEN
  6
CONTINUOUS
 62
     7
 10
475.0
 20
178.0
 30
0.0
 11
575.0
 21
178.0
 31
0.0
  0
LINE
  8
L-ZISSEN
  6
CONTINUOUS
 62
     7
 10
475.0
 20
166.0
 30
0.0
 11
575.0
 21
166.0
 31
0.0
  0
LINE
  8
L-ZISSEN
  6
CONTINUOUS
 62
     7
 10
358.0
 20
182.0
 30
0.0
 11
358.0
 21
178.0
 31
0.0
  0
LINE
  8
L-ZISSEN
  6
CONTINUOUS
 62
     7
 10
364.0
 20
182.0
 30
0.0
 11
364.0
 21
178.0
 31
0.0
  0
LINE
  8
L-ZISSEN
  6
CONTINUOUS
 62
     7
 10
398.0
 20
182.0
 30
0.0
 11
398.0
 21
178.0
 31
0.0
  0
LINE
  8
L-ZISSEN
  6
CONTINUOUS
 62
     7
 10
392.0
 20
182.0
 30
0.0
 11
392.0
 21
178.0
 31
0.0
  0
LINE
  8
L-ZISSEN
  6
CONTINUOUS
 62
     7
 10
432.0
 20
182.0
 30
0.0
 11
432.0
 21
178.0
 31
0.0
  0
LINE
  8
L-ZISSEN
  6
CONTINUOUS
 62
     7
 10
426.0
 20
182.0
 30
0.0
 11
426.0
 21
178.0
 31
0.0
  0
LINE
  8
L-ZISSEN
  6
CONTINUOUS
 62
     7
 10
353.0
 20
178.0
 30
0.0
 11
353.0
 21
166.0
 31
0.0
  0
LINE
  8
L-ZISSEN
  6
CONTINUOUS
 62
     7
 10
437.0
 20
178.0
 30
0.0
 11
437.0
 21
166.0
 31
0.0
  0
LINE
  8
L-ZISSEN
  6
CONTINUOUS
 62
     7
 10
353.0
 20
166.0
 30
0.0
 11
437.0
 21
166.0
 31
0.0
  0
LINE
  8
L-ZISSEN
  6
CONTINUOUS
 62
     7
 10
353.0
 20
178.0
 30
0.0
 11
437.0
 21
178.0
 31
0.0
  0
LINE
  8
L-ZISSEN
  6
CONTINUOUS
 62
     7
 10
407.5
 20
69.5
 30
0.0
 11
382.5
 21
69.5
 31
0.0
  0
LINE
  8
L-ZISSEN
  6
CONTINUOUS
 62
     7
 10
356.2
 20
182.0
 30
0.0
 11
356.2
 21
178.0
 31
0.0
  0
LINE
  8
L-ZISSEN
  6
CONTINUOUS
 62
     7
 10
433.8
 20
182.0
 30
0.0
 11
433.8
 21
178.0
 31
0.0
  0
LINE
  8
L-ZISSEN
  6
CONTINUOUS
 62
     7
 10
362.0
 20
166.0
 30
0.0
 11
362.0
 21
74.992958
 31
0.0
  0
LINE
  8
L-ZISSEN
  6
CONTINUOUS
 62
     7
 10
428.0
 20
166.0
 30
0.0
 11
428.0
 21
74.992958
 31
0.0
  0
LINE
  8
L-ZISSEN
  6
CONTINUOUS
 62
     7
 10
407.5
 20
69.5
 30
0.0
 11
428.0
 21
74.992958
 31
0.0
  0
LINE
  8
L-ZISSEN
  6
CONTINUOUS
 62
     7
 10
382.5
 20
69.5
 30
0.0
 11
362.0
 21
74.992958
 31
0.0
  0
LINE
  8
L-ZISSEN
  6
CONTINUOUS
 62
     7
 10
362.0
 20
74.992958
 30
0.0
 11
428.0
 21
74.992958
 31
0.0
  0
LINE
  8
L-ZISSEN
  6
CONTINUOUS
 62
     7
 10
558.0
 20
166.0
 30
0.0
 11
558.0
 21
74.992958
 31
0.0
  0
LINE
  8
L-ZISSEN
  6
CONTINUOUS
 62
     7
 10
492.0
 20
166.0
 30
0.0
 11
492.0
 21
74.992958
 31
0.0
  0
LINE
  8
L-ZISSEN
  6
CONTINUOUS
 62
     7
 10
492.0
 20
74.992958
 30
0.0
 11
558.0
 21
74.992958
 31
0.0
  0
LINE
  8
L-ZISSEN
  6
CONTINUOUS
 62
     7
 10
512.5
 20
69.5
 30
0.0
 11
492.0
 21
74.992958
 31
0.0
  0
LINE
  8
L-ZISSEN
  6
CONTINUOUS
 62
     7
 10
537.5
 20
69.5
 30
0.0
 11
512.5
 21
69.5
 31
0.0
  0
LINE
  8
L-ZISSEN
  6
CONTINUOUS
 62
     7
 10
537.5
 20
69.5
 30
0.0
 11
558.0
 21
74.992958
 31
0.0
  0
LINE
  8
L-ZISSEN
  6
CONTINUOUS
 62
     7
 10
405.0
 20
164.5
 30
0.0
 11
385.0
 21
164.5
 31
0.0
  0
LINE
  8
L-ZISSEN
  6
CONTINUOUS
 62
     7
 10
385.0
 20
164.5
 30
0.0
 11
385.0
 21
82.5
 31
0.0
  0
LINE
  8
L-ZISSEN
  6
CONTINUOUS
 62
     7
 10
405.0
 20
164.5
 30
0.0
 11
405.0
 21
82.5
 31
0.0
  0
LINE
  8
L-ZISSEN
  6
CONTINUOUS
 62
     7
 10
478.0
 20
164.5
 30
0.0
 11
492.0
 21
164.5
 31
0.0
  0
LINE
  8
L-ZISSEN
  6
CONTINUOUS
 62
     7
 10
405.0
 20
82.5
 30
0.0
 11
385.0
 21
82.5
 31
0.0
  0
LINE
  8
L-ZISSEN
  6
CONTINUOUS
 62
     7
 10
478.0
 20
82.5
 30
0.0
 11
492.0
 21
82.5
 31
0.0
  0
LINE
  8
L-ZISSEN
  6
CONTINUOUS
 62
     7
 10
478.0
 20
164.5
 30
0.0
 11
478.0
 21
82.5
 31
0.0
  0
LINE
  8
L-ZISSEN
  6
CONTINUOUS
 62
     7
 10
732.0
 20
164.5
 30
0.0
 11
757.0
 21
164.5
 31
0.0
  0
LINE
  8
L-ZISSEN
  6
CONTINUOUS
 62
     7
 10
802.5
 20
69.5
 30
0.0
 11
823.0
 21
74.992958
 31
0.0
  0
LINE
  8
L-ZISSEN
  6
CONTINUOUS
 62
     7
 10
802.5
 20
69.5
 30
0.0
 11
777.5
 21
69.5
 31
0.0
  0
LINE
  8
L-ZISSEN
  6
CONTINUOUS
 62
     7
 10
777.5
 20
69.5
 30
0.0
 11
757.0
 21
74.992958
 31
0.0
  0
LINE
  8
L-ZISSEN
  6
CONTINUOUS
 62
     7
 10
757.0
 20
74.992958
 30
0.0
 11
823.0
 21
74.992958
 31
0.0
  0
LINE
  8
L-ZISSEN
  6
CONTINUOUS
 62
     7
 10
757.0
 20
166.0
 30
0.0
 11
757.0
 21
72.5
 31
0.0
  0
LINE
  8
L-ZISSEN
  6
CONTINUOUS
 62
     7
 10
823.0
 20
166.0
 30
0.0
 11
823.0
 21
74.992958
 31
0.0
  0
LINE
  8
L-ZISSEN
  6
CONTINUOUS
 62
     7
 10
627.0
 20
74.992958
 30
0.0
 11
650.0
 21
74.992958
 31
0.0
  0
LINE
  8
L-ZISSEN
  6
CONTINUOUS
 62
     7
 10
647.5
 20
69.5
 30
0.0
 11
627.0
 21
74.992958
 31
0.0
  0
LINE
  8
L-ZISSEN
  6
CONTINUOUS
 62
     7
 10
672.5
 20
69.5
 30
0.0
 11
693.0
 21
74.992958
 31
0.0
  0
LINE
  8
L-ZISSEN
  6
CONTINUOUS
 62
     7
 10
693.0
 20
166.0
 30
0.0
 11
693.0
 21
74.992958
 31
0.0
  0
LINE
  8
L-ZISSEN
  6
CONTINUOUS
 62
     7
 10
627.0
 20
166.0
 30
0.0
 11
627.0
 21
74.992958
 31
0.0
  0
LINE
  8
L-ZISSEN
  6
CONTINUOUS
 62
     7
 10
698.8
 20
182.0
 30
0.0
 11
698.8
 21
178.0
 31
0.0
  0
LINE
  8
L-ZISSEN
  6
CONTINUOUS
 62
     7
 10
621.2
 20
182.0
 30
0.0
 11
621.2
 21
178.0
 31
0.0
  0
LINE
  8
L-ZISSEN
  6
CONTINUOUS
 62
     7
 10
672.5
 20
69.5
 30
0.0
 11
647.5
 21
69.5
 31
0.0
  0
LINE
  8
L-ZISSEN
  6
CONTINUOUS
 62
     7
 10
618.0
 20
178.0
 30
0.0
 11
702.0
 21
178.0
 31
0.0
  0
LINE
  8
L-ZISSEN
  6
CONTINUOUS
 62
     7
 10
618.0
 20
166.0
 30
0.0
 11
702.0
 21
166.0
 31
0.0
  0
LINE
  8
L-ZISSEN
  6
CONTINUOUS
 62
     7
 10
702.0
 20
178.0
 30
0.0
 11
702.0
 21
166.0
 31
0.0
  0
LINE
  8
L-ZISSEN
  6
CONTINUOUS
 62
     7
 10
618.0
 20
178.0
 30
0.0
 11
618.0
 21
166.0
 31
0.0
  0
LINE
  8
L-ZISSEN
  6
CONTINUOUS
 62
     7
 10
691.0
 20
182.0
 30
0.0
 11
691.0
 21
178.0
 31
0.0
  0
LINE
  8
L-ZISSEN
  6
CONTINUOUS
 62
     7
 10
697.0
 20
182.0
 30
0.0
 11
697.0
 21
178.0
 31
0.0
  0
LINE
  8
L-ZISSEN
  6
CONTINUOUS
 62
     7
 10
657.0
 20
182.0
 30
0.0
 11
657.0
 21
178.0
 31
0.0
  0
LINE
  8
L-ZISSEN
  6
CONTINUOUS
 62
     7
 10
663.0
 20
182.0
 30
0.0
 11
663.0
 21
178.0
 31
0.0
  0
LINE
  8
L-ZISSEN
  6
CONTINUOUS
 62
     7
 10
629.0
 20
182.0
 30
0.0
 11
629.0
 21
178.0
 31
0.0
  0
LINE
  8
L-ZISSEN
  6
CONTINUOUS
 62
     7
 10
623.0
 20
182.0
 30
0.0
 11
623.0
 21
178.0
 31
0.0
  0
LINE
  8
L-ZISSEN
  6
CONTINUOUS
 62
     7
 10
740.0
 20
166.0
 30
0.0
 11
840.0
 21
166.0
 31
0.0
  0
LINE
  8
L-ZISSEN
  6
CONTINUOUS
 62
     7
 10
740.0
 20
178.0
 30
0.0
 11
840.0
 21
178.0
 31
0.0
  0
LINE
  8
L-ZISSEN
  6
CONTINUOUS
 62
     7
 10
740.0
 20
178.0
 30
0.0
 11
740.0
 21
166.0
 31
0.0
  0
LINE
  8
L-ZISSEN
  6
CONTINUOUS
 62
     7
 10
840.0
 20
178.0
 30
0.0
 11
840.0
 21
166.0
 31
0.0
  0
LINE
  8
L-ZISSEN
  6
CONTINUOUS
 62
     7
 10
751.2
 20
182.0
 30
0.0
 11
751.2
 21
178.0
 31
0.0
  0
LINE
  8
L-ZISSEN
  6
CONTINUOUS
 62
     7
 10
828.8
 20
182.0
 30
0.0
 11
828.8
 21
178.0
 31
0.0
  0
LINE
  8
L-ZISSEN
  6
CONTINUOUS
 62
     7
 10
743.0
 20
182.0
 30
0.0
 11
743.0
 21
178.0
 31
0.0
  0
LINE
  8
L-ZISSEN
  6
CONTINUOUS
 62
     7
 10
749.0
 20
182.0
 30
0.0
 11
749.0
 21
178.0
 31
0.0
  0
LINE
  8
L-ZISSEN
  6
CONTINUOUS
 62
     7
 10
767.0
 20
182.0
 30
0.0
 11
767.0
 21
178.0
 31
0.0
  0
LINE
  8
L-ZISSEN
  6
CONTINUOUS
 62
     7
 10
761.0
 20
182.0
 30
0.0
 11
761.0
 21
178.0
 31
0.0
  0
LINE
  8
L-ZISSEN
  6
CONTINUOUS
 62
     7
 10
819.0
 20
182.0
 30
0.0
 11
819.0
 21
178.0
 31
0.0
  0
LINE
  8
L-ZISSEN
  6
CONTINUOUS
 62
     7
 10
813.0
 20
182.0
 30
0.0
 11
813.0
 21
178.0
 31
0.0
  0
LINE
  8
L-ZISSEN
  6
CONTINUOUS
 62
     7
 10
831.0
 20
182.0
 30
0.0
 11
831.0
 21
178.0
 31
0.0
  0
LINE
  8
L-ZISSEN
  6
CONTINUOUS
 62
     7
 10
837.0
 20
182.0
 30
0.0
 11
837.0
 21
178.0
 31
0.0
  0
LINE
  8
L-TYUSIN
  6
CENTER
 62
     1
 10
330.0
 20
260.0
 30
0.0
 11
845.0
 21
260.0
 31
0.0
  0
LINE
  8
L-ZISSEN
  6
CONTINUOUS
 62
     7
 10
732.0
 20
164.5
 30
0.0
 11
732.0
 21
149.5
 31
0.0
  0
LINE
  8
L-ZISSEN
  6
CONTINUOUS
 62
     7
 10
670.0
 20
72.5
 30
0.0
 11
650.0
 21
72.5
 31
0.0
  0
LINE
  8
L-ZISSEN
  6
CONTINUOUS
 62
     7
 10
650.0
 20
72.5
 30
0.0
 11
650.0
 21
164.5
 31
0.0
  0
LINE
  8
L-ZISSEN
  6
CONTINUOUS
 62
     7
 10
650.0
 20
164.5
 30
0.0
 11
670.0
 21
164.5
 31
0.0
  0
LINE
  8
L-ZISSEN
  6
CONTINUOUS
 62
     7
 10
670.0
 20
164.5
 30
0.0
 11
670.0
 21
72.5
 31
0.0
  0
LINE
  8
L-ZISSEN
  6
CONTINUOUS
 62
     7
 10
670.0
 20
74.992958
 30
0.0
 11
693.0
 21
74.992958
 31
0.0
  0
LINE
  8
L-ZISSEN
  6
CONTINUOUS
 62
     7
 10
650.0
 20
149.5
 30
0.0
 11
670.0
 21
149.5
 31
0.0
  0
LINE
  8
L-ZISSEN
  6
CONTINUOUS
 62
     7
 10
670.0
 20
98.5
 30
0.0
 11
650.0
 21
98.5
 31
0.0
  0
LINE
  8
L-ZISSEN
  6
CONTINUOUS
 62
     7
 10
664.0
 20
149.5
 30
0.0
 11
664.0
 21
98.5
 31
0.0
  0
LINE
  8
L-ZISSEN
  6
CONTINUOUS
 62
     7
 10
656.0
 20
149.5
 30
0.0
 11
656.0
 21
98.5
 31
0.0
  0
LINE
  8
L-ZISSEN
  6
CONTINUOUS
 62
     7
 10
732.0
 20
72.5
 30
0.0
 11
757.0
 21
72.5
 31
0.0
  0
LINE
  8
L-ZISSEN
  6
CONTINUOUS
 62
     7
 10
732.0
 20
98.5
 30
0.0
 11
746.0
 21
98.5
 31
0.0
  0
LINE
  8
L-ZISSEN
  6
CONTINUOUS
 62
     7
 10
732.0
 20
149.5
 30
0.0
 11
746.0
 21
149.5
 31
0.0
  0
LINE
  8
L-ZISSEN
  6
CONTINUOUS
 62
     7
 10
746.0
 20
149.5
 30
0.0
 11
746.0
 21
98.5
 31
0.0
  0
LINE
  8
L-ZISSEN
  6
CONTINUOUS
 62
     7
 10
732.0
 20
98.5
 30
0.0
 11
732.0
 21
72.5
 31
0.0
  0
LINE
  8
L-ZISSEN
  6
CONTINUOUS
 62
     7
 10
739.0
 20
98.5
 30
0.0
 11
739.0
 21
149.5
 31
0.0
  0
LINE
  8
L-ZISSEN
  6
CONTINUOUS
 62
     7
 10
672.124356
 20
63.5
 30
0.0
 11
647.875644
 21
63.5
 31
0.0
  0
LINE
  8
L-ZISSEN
  6
CONTINUOUS
 62
     7
 10
668.0
 20
57.5
 30
0.0
 11
668.0
 21
63.5
 31
0.0
  0
LINE
  8
L-ZISSEN
  6
CONTINUOUS
 62
     7
 10
652.0
 20
57.5
 30
0.0
 11
652.0
 21
63.5
 31
0.0
  0
LINE
  8
L-ZISSEN
  6
CONTINUOUS
 62
     7
 10
668.0
 20
57.5
 30
0.0
 11
652.0
 21
57.5
 31
0.0
  0
LINE
  8
L-ZISSEN
  6
CONTINUOUS
 62
     7
 10
672.124356
 20
63.5
 30
0.0
 11
672.124356
 21
69.5
 31
0.0
  0
LINE
  8
L-ZISSEN
  6
CONTINUOUS
 62
     7
 10
647.875644
 20
63.5
 30
0.0
 11
647.875644
 21
69.5
 31
0.0
  0
LINE
  8
L-ZISSEN
  6
CONTINUOUS
 62
     7
 10
798.0
 20
57.5
 30
0.0
 11
782.0
 21
57.5
 31
0.0
  0
LINE
  8
L-ZISSEN
  6
CONTINUOUS
 62
     7
 10
782.0
 20
57.5
 30
0.0
 11
782.0
 21
63.5
 31
0.0
  0
LINE
  8
L-ZISSEN
  6
CONTINUOUS
 62
     7
 10
798.0
 20
57.5
 30
0.0
 11
798.0
 21
63.5
 31
0.0
  0
LINE
  8
L-ZISSEN
  6
CONTINUOUS
 62
     7
 10
800.5
 20
63.5
 30
0.0
 11
800.5
 21
69.5
 31
0.0
  0
LINE
  8
L-ZISSEN
  6
CONTINUOUS
 62
     7
 10
800.5
 20
63.5
 30
0.0
 11
779.5
 21
63.5
 31
0.0
  0
LINE
  8
L-ZISSEN
  6
CONTINUOUS
 62
     7
 10
779.5
 20
63.5
 30
0.0
 11
779.5
 21
69.5
 31
0.0
  0
TEXT
  8
L-ZISSEN
  6
CONTINUOUS
 62
     7
 10
615.0
 20
230.0
 30
0.0
 40
4.5
  1
MODEL No. : NOL-5**XLS
  0
TEXT
  8
L-ZISSEN
  6
CONTINUOUS
 62
     7
 10
615.0
 20
240.0
 30
0.0
 40
4.5
  1
METAL BOWL WITH GLASS LEVEL GAUGE
  0
TEXT
  8
L-ZISSEN
  6
CONTINUOUS
 62
     7
 10
355.0
 20
230.0
 30
0.0
 40
4.5
  1
MODEL No. : NOL-5**XL
  0
TEXT
  8
L-ZISSEN
  6
CONTINUOUS
 62
     7
 10
355.0
 20
240.0
 30
0.0
 40
4.5
  1
METAL BOWL WITH LEVEL GAUGE
  0
TEXT
  8
L-ZISSEN
  6
CONTINUOUS
 62
     7
 10
136.0
 20
423.0
 30
0.0
 40
4.5
  1
06
  0
TEXT
  8
L-ZISSEN
  6
CONTINUOUS
 62
     7
 10
136.0
 20
417.0
 30
0.0
 40
4.5
  1
10
  0
CIRCLE
  8
L-ZISSEN
  6
CONTINUOUS
 62
     7
 10
115.0
 20
340.0
 30
0.0
 40
17.5
  0
CIRCLE
  8
L-ZISSEN
  6
CONTINUOUS
 62
     7
 10
115.0
 20
340.0
 30
0.0
 40
12.75
  0
LINE
  8
L-ZISSEN
  6
CONTINUOUS
 62
     7
 10
149.0
 20
372.0
 30
0.0
 11
142.202941
 21
372.0
 31
0.0
  0
ARC
  8
L-ZISSEN
  6
CONTINUOUS
 62
     7
 10
149.0
 20
366.0
 30
0.0
 40
6.0
 50
0.0
 51
90.0
  0
CIRCLE
  8
L-ZISSEN
  6
CONTINUOUS
 62
     7
 10
149.0
 20
366.0
 30
0.0
 40
5.25
  0
ARC
  8
L-ZISSEN
  6
CONTINUOUS
 62
     7
 10
81.0
 20
366.0
 30
0.0
 40
6.0
 50
90.0
 51
180.0
  0
LINE
  8
L-ZISSEN
  6
CONTINUOUS
 62
     7
 10
81.0
 20
372.0
 30
0.0
 11
87.797059
 21
372.0
 31
0.0
  0
CIRCLE
  8
L-ZISSEN
  6
CONTINUOUS
 62
     7
 10
81.0
 20
366.0
 30
0.0
 40
5.25
  0
ARC
  8
L-ZISSEN
  6
CONTINUOUS
 62
     7
 10
115.0
 20
384.0
 30
0.0
 40
6.0
 50
0.0
 51
180.0
  0
LINE
  8
L-ZISSEN
  6
CONTINUOUS
 62
     7
 10
109.0
 20
384.0
 30
0.0
 11
107.450326
 21
381.315886
 31
0.0
  0
LINE
  8
L-ZISSEN
  6
CONTINUOUS
 62
     7
 10
121.0
 20
384.0
 30
0.0
 11
122.549674
 21
381.315886
 31
0.0
  0
ARC
  8
L-ZISSEN
  6
CONTINUOUS
 62
     7
 10
115.0
 20
384.0
 30
0.0
 40
5.25
 50
306.802981
 51
233.197019
  0
ARC
  8
L-ZISSEN
  6
CONTINUOUS
 62
     7
 10
115.0
 20
340.0
 30
0.0
 40
42.0
 50
100.35544
 51
130.367594
  0
ARC
  8
L-ZISSEN
  6
CONTINUOUS
 62
     7
 10
115.0
 20
340.0
 30
0.0
 40
42.0
 50
49.632406
 51
79.64456
  0
ARC
  8
L-ZISSEN
  6
CONTINUOUS
 62
     7
 10
115.0
 20
340.0
 30
0.0
 40
42.0
 50
280.35544
 51
310.367594
  0
ARC
  8
L-ZISSEN
  6
CONTINUOUS
 62
     7
 10
115.0
 20
340.0
 30
0.0
 40
42.0
 50
229.632406
 51
259.64456
  0
ARC
  8
L-ZISSEN
  6
CONTINUOUS
 62
     7
 10
115.0
 20
296.0
 30
0.0
 40
5.25
 50
126.802981
 51
53.197019
  0
LINE
  8
L-ZISSEN
  6
CONTINUOUS
 62
     7
 10
121.0
 20
296.0
 30
0.0
 11
122.549674
 21
298.684114
 31
0.0
  0
LINE
  8
L-ZISSEN
  6
CONTINUOUS
 62
     7
 10
109.0
 20
296.0
 30
0.0
 11
107.450326
 21
298.684114
 31
0.0
  0
ARC
  8
L-ZISSEN
  6
CONTINUOUS
 62
     7
 10
115.0
 20
296.0
 30
0.0
 40
6.0
 50
180.0
 51
0.0
  0
LINE
  8
L-TYUSIN
  6
CENTER
 62
     1
 10
59.0
 20
340.0
 30
0.0
 11
171.0
 21
340.0
 31
0.0
  0
LINE
  8
L-TYUSIN
  6
CENTER
 62
     1
 10
115.0
 20
392.0
 30
0.0
 11
115.0
 21
288.0
 31
0.0
  0
CIRCLE
  8
L-ZISSEN
  6
CONTINUOUS
 62
     7
 10
81.0
 20
314.0
 30
0.0
 40
5.25
  0
LINE
  8
L-ZISSEN
  6
CONTINUOUS
 62
     7
 10
81.0
 20
308.0
 30
0.0
 11
87.797059
 21
308.0
 31
0.0
  0
ARC
  8
L-ZISSEN
  6
CONTINUOUS
 62
     7
 10
81.0
 20
314.0
 30
0.0
 40
6.0
 50
180.0
 51
270.0
  0
CIRCLE
  8
L-ZISSEN
  6
CONTINUOUS
 62
     7
 10
149.0
 20
314.0
 30
0.0
 40
5.25
  0
ARC
  8
L-ZISSEN
  6
CONTINUOUS
 62
     7
 10
149.0
 20
314.0
 30
0.0
 40
6.0
 50
270.0
 51
0.0
  0
LINE
  8
L-ZISSEN
  6
CONTINUOUS
 62
     7
 10
149.0
 20
308.0
 30
0.0
 11
142.202941
 21
308.0
 31
0.0
  0
LINE
  8
L-ZISSEN
  6
CONTINUOUS
 62
     7
 10
64.0
 20
361.0
 30
0.0
 11
64.0
 21
319.0
 31
0.0
  0
LINE
  8
L-ZISSEN
  6
CONTINUOUS
 62
     7
 10
155.0
 20
366.0
 30
0.0
 11
155.384615
 21
361.0
 31
0.0
  0
LINE
  8
L-ZISSEN
  6
CONTINUOUS
 62
     7
 10
155.0
 20
314.0
 30
0.0
 11
155.384615
 21
319.0
 31
0.0
  0
LINE
  8
L-ZISSEN
  6
CONTINUOUS
 62
     7
 10
75.0
 20
366.0
 30
0.0
 11
74.615385
 21
361.0
 31
0.0
  0
LINE
  8
L-ZISSEN
  6
CONTINUOUS
 62
     7
 10
75.0
 20
314.0
 30
0.0
 11
74.615385
 21
319.0
 31
0.0
  0
LINE
  8
L-ZISSEN
  6
CONTINUOUS
 62
     7
 10
64.0
 20
319.0
 30
0.0
 11
79.399219
 21
319.0
 31
0.0
  0
LINE
  8
L-ZISSEN
  6
CONTINUOUS
 62
     7
 10
82.600781
 20
319.0
 30
0.0
 11
94.0
 21
319.0
 31
0.0
  0
LINE
  8
L-ZISSEN
  6
CONTINUOUS
 62
     7
 10
82.600781
 20
361.0
 30
0.0
 11
94.0
 21
361.0
 31
0.0
  0
LINE
  8
L-ZISSEN
  6
CONTINUOUS
 62
     7
 10
64.0
 20
361.0
 30
0.0
 11
79.399219
 21
361.0
 31
0.0
  0
LINE
  8
L-ZISSEN
  6
CONTINUOUS
 62
     7
 10
94.0
 20
319.0
 30
0.0
 11
102.660254
 21
324.0
 31
0.0
  0
LINE
  8
L-ZISSEN
  6
CONTINUOUS
 62
     7
 10
94.0
 20
361.0
 30
0.0
 11
99.203337
 21
357.995852
 31
0.0
  0
LINE
  8
L-ZISSEN
  6
CONTINUOUS
 62
     7
 10
166.0
 20
361.0
 30
0.0
 11
150.600781
 21
361.0
 31
0.0
  0
LINE
  8
L-ZISSEN
  6
CONTINUOUS
 62
     7
 10
147.399219
 20
361.0
 30
0.0
 11
134.970488
 21
361.0
 31
0.0
  0
LINE
  8
L-ZISSEN
  6
CONTINUOUS
 62
     7
 10
147.399219
 20
319.0
 30
0.0
 11
134.970488
 21
319.0
 31
0.0
  0
LINE
  8
L-ZISSEN
  6
CONTINUOUS
 62
     7
 10
166.0
 20
319.0
 30
0.0
 11
150.600781
 21
319.0
 31
0.0
  0
LINE
  8
L-ZISSEN
  6
CONTINUOUS
 62
     7
 10
166.0
 20
361.0
 30
0.0
 11
166.0
 21
319.0
 31
0.0
  0
ARC
  8
L-ZISSEN
  6
CONTINUOUS
 62
     7
 10
129.142136
 20
354.142136
 30
0.0
 40
9.0
 50
0.0
 51
135.0
  0
LINE
  8
L-ZISSEN
  6
CONTINUOUS
 62
     7
 10
138.142136
 20
354.142136
 30
0.0
 11
138.142136
 21
325.857843
 31
0.0
  0
LINE
  8
L-ZISSEN
  6
CONTINUOUS
 62
     7
 10
122.778175
 20
360.506097
 30
0.0
 11
119.248532
 21
356.976454
 31
0.0
  0
ARC
  8
L-ZISSEN
  6
CONTINUOUS
 62
     7
 10
129.142136
 20
325.857864
 30
0.0
 40
9.0
 50
225.0
 51
0.0
  0
LINE
  8
L-ZISSEN
  6
CONTINUOUS
 62
     7
 10
122.778175
 20
319.493903
 30
0.0
 11
119.248532
 21
323.023546
 31
0.0
  0
ARC
  8
L-ZISSEN
  6
CONTINUOUS
 62
     7
 10
129.142136
 20
325.857864
 30
0.0
 40
3.5
 50
175.787038
 51
94.212962
  0
ARC
  8
L-ZISSEN
  6
CONTINUOUS
 62
     7
 10
115.0
 20
368.0
 30
0.0
 40
10.0
 50
128.255844
 51
180.0
  0
POLYLINE
  8
L-ZISSEN
  6
CONTINUOUS
 62
     7
 66
     1
 10
0.0
 20
0.0
 30
0.0
  0
VERTEX
  8
L-ZISSEN
  6
CONTINUOUS
 62
     7
 10
124.0
 20
368.0
 30
0.0
 42
-0.093065
  0
VERTEX
  8
L-ZISSEN
  6
CONTINUOUS
 62
     7
 10
123.306703
 20
364.307458
 30
0.0
 42
-0.096076
  0
VERTEX
  8
L-ZISSEN
  6
CONTINUOUS
 62
     7
 10
121.363961
 20
361.227614
 30
0.0
 42
-0.100664
 70
     2
 50
226.780821
  0
VERTEX
  8
L-ZISSEN
  6
CONTINUOUS
 62
     7
 10
118.416657
 20
359.142021
 30
0.0
 42
-0.104168
  0
VERTEX
  8
L-ZISSEN
  6
CONTINUOUS
 62
     7
 10
115.0
 20
358.4224
 30
0.0
 42
-0.104168
  0
VERTEX
  8
L-ZISSEN
  6
CONTINUOUS
 62
     7
 10
111.583343
 20
359.142021
 30
0.0
 42
-0.100664
  0
VERTEX
  8
L-ZISSEN
  6
CONTINUOUS
 62
     7
 10
108.636039
 20
361.227614
 30
0.0
 42
-0.096076
 70
     2
 50
133.219179
  0
VERTEX
  8
L-ZISSEN
  6
CONTINUOUS
 62
     7
 10
106.693297
 20
364.307458
 30
0.0
 42
-0.093065
  0
VERTEX
  8
L-ZISSEN
  6
CONTINUOUS
 62
     7
 10
106.0
 20
368.0
 30
0.0
 42
-0.093065
  0
SEQEND
  8
L-ZISSEN
  6
CONTINUOUS
 62
     7
  0
POLYLINE
  8
L-ZISSEN
  6
CONTINUOUS
 62
     7
 66
     1
 10
0.0
 20
0.0
 30
0.0
  0
VERTEX
  8
L-ZISSEN
  6
CONTINUOUS
 62
     7
 10
121.056778
 20
376.383533
 30
0.0
 42
-0.012076
  0
VERTEX
  8
L-ZISSEN
  6
CONTINUOUS
 62
     7
 10
121.363961
 20
376.072062
 30
0.0
 42
-0.096076
 70
     2
 50
313.219179
  0
VERTEX
  8
L-ZISSEN
  6
CONTINUOUS
 62
     7
 10
123.482264
 20
372.713901
 30
0.0
 42
-0.110798
  0
VERTEX
  8
L-ZISSEN
  6
CONTINUOUS
 62
     7
 10
124.0
 20
369.299677
 30
0.0
 42
-0.093065
  0
VERTEX
  8
L-ZISSEN
  6
CONTINUOUS
 62
     7
 10
123.306703
 20
365.607135
 30
0.0
 42
-0.096076
  0
VERTEX
  8
L-ZISSEN
  6
CONTINUOUS
 62
     7
 10
121.363961
 20
362.527291
 30
0.0
 42
-0.100664
 70
     2
 50
226.780821
  0
VERTEX
  8
L-ZISSEN
  6
CONTINUOUS
 62
     7
 10
118.416657
 20
360.441697
 30
0.0
 42
-0.104168
  0
VERTEX
  8
L-ZISSEN
  6
CONTINUOUS
 62
     7
 10
115.0
 20
359.722077
 30
0.0
 42
-0.104168
  0
VERTEX
  8
L-ZISSEN
  6
CONTINUOUS
 62
     7
 10
111.583343
 20
360.441697
 30
0.0
 42
-0.100664
  0
VERTEX
  8
L-ZISSEN
  6
CONTINUOUS
 62
     7
 10
108.636039
 20
362.527291
 30
0.0
 42
-0.096076
 70
     2
 50
133.219179
  0
VERTEX
  8
L-ZISSEN
  6
CONTINUOUS
 62
     7
 10
106.693297
 20
365.607135
 30
0.0
 42
-0.093065
  0
VERTEX
  8
L-ZISSEN
  6
CONTINUOUS
 62
     7
 10
106.0
 20
369.299677
 30
0.0
 42
-0.093065
  0
VERTEX
  8
L-ZISSEN
  6
CONTINUOUS
 62
     7
 10
106.693297
 20
372.992218
 30
0.0
 42
-0.096076
  0
VERTEX
  8
L-ZISSEN
  6
CONTINUOUS
 62
     7
 10
108.636039
 20
376.072062
 30
0.0
 42
-0.014888
 70
     2
 50
46.780821
  0
VERTEX
  8
L-ZISSEN
  6
CONTINUOUS
 62
     7
 10
109.01687
 20
376.453891
 30
0.0
 42
-0.104168
  0
SEQEND
  8
L-ZISSEN
  6
CONTINUOUS
 62
     7
  0
POLYLINE
  8
L-ZISSEN
  6
CONTINUOUS
 62
     7
 66
     1
 10
0.0
 20
0.0
 30
0.0
 70
     1
  0
VERTEX
  8
L-ZISSEN
  6
CONTINUOUS
 62
     7
 10
115.0
 20
380.663094
 30
0.0
 42
-0.104168
  0
VERTEX
  8
L-ZISSEN
  6
CONTINUOUS
 62
     7
 10
117.467586
 20
380.143368
 30
0.0
 42
-0.100664
  0
VERTEX
  8
L-ZISSEN
  6
CONTINUOUS
 62
     7
 10
119.596194
 20
378.637106
 30
0.0
 42
-0.096076
 70
     2
 50
313.219179
  0
VERTEX
  8
L-ZISSEN
  6
CONTINUOUS
 62
     7
 10
121.126079
 20
376.211767
 30
0.0
 42
-0.110798
  0
VERTEX
  8
L-ZISSEN
  6
CONTINUOUS
 62
     7
 10
121.5
 20
373.745938
 30
0.0
 42
-0.093065
  0
VERTEX
  8
L-ZISSEN
  6
CONTINUOUS
 62
     7
 10
120.999286
 20
371.079103
 30
0.0
 42
-0.096076
  0
VERTEX
  8
L-ZISSEN
  6
CONTINUOUS
 62
     7
 10
119.596194
 20
368.854771
 30
0.0
 42
-0.100664
 70
     2
 50
226.780821
  0
VERTEX
  8
L-ZISSEN
  6
CONTINUOUS
 62
     7
 10
117.467586
 20
367.348509
 30
0.0
 42
-0.104168
  0
VERTEX
  8
L-ZISSEN
  6
CONTINUOUS
 62
     7
 10
115.0
 20
366.828783
 30
0.0
 42
-0.104168
  0
VERTEX
  8
L-ZISSEN
  6
CONTINUOUS
 62
     7
 10
112.532414
 20
367.348509
 30
0.0
 42
-0.100664
  0
VERTEX
  8
L-ZISSEN
  6
CONTINUOUS
 62
     7
 10
110.403806
 20
368.854771
 30
0.0
 42
-0.096076
 70
     2
 50
133.219179
  0
VERTEX
  8
L-ZISSEN
  6
CONTINUOUS
 62
     7
 10
109.000714
 20
371.079103
 30
0.0
 42
-0.093065
  0
VERTEX
  8
L-ZISSEN
  6
CONTINUOUS
 62
     7
 10
108.5
 20
373.745938
 30
0.0
 42
-0.093065
  0
VERTEX
  8
L-ZISSEN
  6
CONTINUOUS
 62
     7
 10
109.000714
 20
376.412774
 30
0.0
 42
-0.096076
  0
VERTEX
  8
L-ZISSEN
  6
CONTINUOUS
 62
     7
 10
110.403806
 20
378.637106
 30
0.0
 42
-0.100664
 70
     2
 50
46.780821
  0
VERTEX
  8
L-ZISSEN
  6
CONTINUOUS
 62
     7
 10
112.532414
 20
380.143368
 30
0.0
 42
-0.104168
  0
SEQEND
  8
L-ZISSEN
  6
CONTINUOUS
 62
     7
  0
POLYLINE
  8
L-ZISSEN
  6
CONTINUOUS
 62
     7
 66
     1
 10
0.0
 20
0.0
 30
0.0
  0
VERTEX
  8
L-ZISSEN
  6
CONTINUOUS
 62
     7
 10
121.056778
 20
303.616467
 30
0.0
 42
0.012076
 50
90.0
  0
VERTEX
  8
L-ZISSEN
  6
CONTINUOUS
 62
     7
 10
121.363961
 20
303.927938
 30
0.0
 42
0.096076
 70
     2
 50
46.780821
  0
VERTEX
  8
L-ZISSEN
  6
CONTINUOUS
 62
     7
 10
123.482264
 20
307.286099
 30
0.0
 42
0.110798
 50
46.780821
  0
VERTEX
  8
L-ZISSEN
  6
CONTINUOUS
 62
     7
 10
124.0
 20
310.700323
 30
0.0
 42
0.093065
 50
90.0
  0
VERTEX
  8
L-ZISSEN
  6
CONTINUOUS
 62
     7
 10
123.306703
 20
314.392865
 30
0.0
 42
0.096076
 50
90.0
  0
VERTEX
  8
L-ZISSEN
  6
CONTINUOUS
 62
     7
 10
121.363961
 20
317.472709
 30
0.0
 42
0.100664
 70
     2
 50
133.219179
  0
VERTEX
  8
L-ZISSEN
  6
CONTINUOUS
 62
     7
 10
118.416657
 20
319.558303
 30
0.0
 42
0.104168
 50
133.219179
  0
VERTEX
  8
L-ZISSEN
  6
CONTINUOUS
 62
     7
 10
115.0
 20
320.277923
 30
0.0
 42
0.104168
 50
90.0
  0
VERTEX
  8
L-ZISSEN
  6
CONTINUOUS
 62
     7
 10
111.583343
 20
319.558303
 30
0.0
 42
0.100664
 50
90.0
  0
VERTEX
  8
L-ZISSEN
  6
CONTINUOUS
 62
     7
 10
108.636039
 20
317.472709
 30
0.0
 42
0.096076
 70
     2
 50
226.780821
  0
VERTEX
  8
L-ZISSEN
  6
CONTINUOUS
 62
     7
 10
106.693297
 20
314.392865
 30
0.0
 42
0.093065
 50
226.780821
  0
VERTEX
  8
L-ZISSEN
  6
CONTINUOUS
 62
     7
 10
106.0
 20
310.700323
 30
0.0
 42
0.093065
 50
90.0
  0
VERTEX
  8
L-ZISSEN
  6
CONTINUOUS
 62
     7
 10
106.693297
 20
307.007782
 30
0.0
 42
0.096076
 50
90.0
  0
VERTEX
  8
L-ZISSEN
  6
CONTINUOUS
 62
     7
 10
108.636039
 20
303.927938
 30
0.0
 42
0.014888
 70
     2
 50
313.219179
  0
VERTEX
  8
L-ZISSEN
  6
CONTINUOUS
 62
     7
 10
109.01687
 20
303.546109
 30
0.0
 42
0.104168
 50
313.219179
  0
SEQEND
  8
L-ZISSEN
  6
CONTINUOUS
 62
     7
  0
ARC
  8
L-ZISSEN
  6
CONTINUOUS
 62
     7
 10
115.0
 20
312.0
 30
0.0
 40
10.0
 50
308.843122
 51
0.0
  0
POLYLINE
  8
L-ZISSEN
  6
CONTINUOUS
 62
     7
 66
     1
 10
0.0
 20
0.0
 30
0.0
  0
VERTEX
  8
L-ZISSEN
  6
CONTINUOUS
 62
     7
 10
124.0
 20
312.0
 30
0.0
 42
0.093065
 50
90.0
  0
VERTEX
  8
L-ZISSEN
  6
CONTINUOUS
 62
     7
 10
123.306703
 20
315.692542
 30
0.0
 42
0.096076
 50
90.0
  0
VERTEX
  8
L-ZISSEN
  6
CONTINUOUS
 62
     7
 10
121.363961
 20
318.772386
 30
0.0
 42
0.100664
 70
     2
 50
133.219179
  0
VERTEX
  8
L-ZISSEN
  6
CONTINUOUS
 62
     7
 10
118.416657
 20
320.857979
 30
0.0
 42
0.104168
 50
133.219179
  0
VERTEX
  8
L-ZISSEN
  6
CONTINUOUS
 62
     7
 10
115.0
 20
321.5776
 30
0.0
 42
0.104168
 50
90.0
  0
VERTEX
  8
L-ZISSEN
  6
CONTINUOUS
 62
     7
 10
111.583343
 20
320.857979
 30
0.0
 42
0.100664
 50
90.0
  0
VERTEX
  8
L-ZISSEN
  6
CONTINUOUS
 62
     7
 10
108.636039
 20
318.772386
 30
0.0
 42
0.096076
 70
     2
 50
226.780821
  0
VERTEX
  8
L-ZISSEN
  6
CONTINUOUS
 62
     7
 10
106.693297
 20
315.692542
 30
0.0
 42
0.093065
 50
226.780821
  0
VERTEX
  8
L-ZISSEN
  6
CONTINUOUS
 62
     7
 10
106.0
 20
312.0
 30
0.0
 42
0.093065
 50
90.0
  0
SEQEND
  8
L-ZISSEN
  6
CONTINUOUS
 62
     7
  0
POLYLINE
  8
L-ZISSEN
  6
CONTINUOUS
 62
     7
 66
     1
 10
0.0
 20
0.0
 30
0.0
 70
     1
  0
VERTEX
  8
L-ZISSEN
  6
CONTINUOUS
 62
     7
 10
115.0
 20
299.336906
 30
0.0
 42
0.104168
 50
90.0
  0
VERTEX
  8
L-ZISSEN
  6
CONTINUOUS
 62
     7
 10
117.467586
 20
299.856632
 30
0.0
 42
0.100664
 50
90.0
  0
VERTEX
  8
L-ZISSEN
  6
CONTINUOUS
 62
     7
 10
119.596194
 20
301.362894
 30
0.0
 42
0.096076
 70
     2
 50
46.780821
  0
VERTEX
  8
L-ZISSEN
  6
CONTINUOUS
 62
     7
 10
121.126079
 20
303.788233
 30
0.0
 42
0.110798
 50
46.780821
  0
VERTEX
  8
L-ZISSEN
  6
CONTINUOUS
 62
     7
 10
121.5
 20
306.254062
 30
0.0
 42
0.093065
 50
90.0
  0
VERTEX
  8
L-ZISSEN
  6
CONTINUOUS
 62
     7
 10
120.999286
 20
308.920897
 30
0.0
 42
0.096076
 50
90.0
  0
VERTEX
  8
L-ZISSEN
  6
CONTINUOUS
 62
     7
 10
119.596194
 20
311.145229
 30
0.0
 42
0.100664
 70
     2
 50
133.219179
  0
VERTEX
  8
L-ZISSEN
  6
CONTINUOUS
 62
     7
 10
117.467586
 20
312.651491
 30
0.0
 42
0.104168
 50
133.219179
  0
VERTEX
  8
L-ZISSEN
  6
CONTINUOUS
 62
     7
 10
115.0
 20
313.171217
 30
0.0
 42
0.104168
 50
90.0
  0
VERTEX
  8
L-ZISSEN
  6
CONTINUOUS
 62
     7
 10
112.532414
 20
312.651491
 30
0.0
 42
0.100664
 50
90.0
  0
VERTEX
  8
L-ZISSEN
  6
CONTINUOUS
 62
     7
 10
110.403806
 20
311.145229
 30
0.0
 42
0.096076
 70
     2
 50
226.780821
  0
VERTEX
  8
L-ZISSEN
  6
CONTINUOUS
 62
     7
 10
109.000714
 20
308.920897
 30
0.0
 42
0.093065
 50
226.780821
  0
VERTEX
  8
L-ZISSEN
  6
CONTINUOUS
 62
     7
 10
108.5
 20
306.254062
 30
0.0
 42
0.093065
 50
90.0
  0
VERTEX
  8
L-ZISSEN
  6
CONTINUOUS
 62
     7
 10
109.000714
 20
303.587226
 30
0.0
 42
0.096076
 50
90.0
  0
VERTEX
  8
L-ZISSEN
  6
CONTINUOUS
 62
     7
 10
110.403806
 20
301.362894
 30
0.0
 42
0.100664
 70
     2
 50
313.219179
  0
VERTEX
  8
L-ZISSEN
  6
CONTINUOUS
 62
     7
 10
112.532414
 20
299.856632
 30
0.0
 42
0.104168
 50
313.219179
  0
SEQEND
  8
L-ZISSEN
  6
CONTINUOUS
 62
     7
  0
LINE
  8
L-ZISSEN
  6
CONTINUOUS
 62
     7
 10
125.0
 20
312.0
 30
0.0
 11
125.0
 21
317.867701
 31
0.0
  0
LINE
  8
L-ZISSEN
  6
CONTINUOUS
 62
     7
 10
105.0
 20
324.0
 30
0.0
 11
105.0
 21
312.0
 31
0.0
  0
ARC
  8
L-ZISSEN
  6
CONTINUOUS
 62
     7
 10
115.0
 20
312.0
 30
0.0
 40
10.0
 50
180.0
 51
231.744156
  0
LINE
  8
L-ZISSEN
  6
CONTINUOUS
 62
     7
 10
122.778175
 20
319.493903
 30
0.0
 11
119.248532
 21
323.023546
 31
0.0
  0
ARC
  8
L-ZISSEN
  6
CONTINUOUS
 62
     7
 10
115.0
 20
368.0
 30
0.0
 40
10.0
 50
0.0
 51
51.156878
  0
LINE
  8
L-ZISSEN
  6
CONTINUOUS
 62
     7
 10
105.0
 20
361.127074
 30
0.0
 11
105.0
 21
368.0
 31
0.0
  0
LINE
  8
L-ZISSEN
  6
CONTINUOUS
 62
     7
 10
64.0
 20
227.0
 30
0.0
 11
64.0
 21
185.0
 31
0.0
  0
LINE
  8
L-TYUSIN
  6
CENTER
 62
     1
 10
59.0
 20
206.0
 30
0.0
 11
171.0
 21
206.0
 31
0.0
  0
LINE
  8
L-ZISSEN
  6
CONTINUOUS
 62
     7
 10
166.0
 20
227.0
 30
0.0
 11
166.0
 21
185.0
 31
0.0
  0
LINE
  8
L-ZISSEN
  6
CONTINUOUS
 62
     7
 10
157.0
 20
182.0
 30
0.0
 11
73.0
 21
182.0
 31
0.0
  0
LINE
  8
L-ZISSEN
  6
CONTINUOUS
 62
     7
 10
73.0
 20
191.0
 30
0.0
 11
157.0
 21
191.0
 31
0.0
  0
LINE
  8
L-ZISSEN
  6
CONTINUOUS
 62
     7
 10
73.0
 20
191.0
 30
0.0
 11
73.0
 21
182.0
 31
0.0
  0
LINE
  8
L-ZISSEN
  6
CONTINUOUS
 62
     7
 10
157.0
 20
191.0
 30
0.0
 11
157.0
 21
182.0
 31
0.0
  0
LINE
  8
L-ZISSEN
  6
CONTINUOUS
 62
     7
 10
166.0
 20
227.0
 30
0.0
 11
64.0
 21
227.0
 31
0.0
  0
LINE
  8
L-ZISSEN
  6
CONTINUOUS
 62
     7
 10
166.0
 20
185.0
 30
0.0
 11
157.0
 21
185.0
 31
0.0
  0
LINE
  8
L-ZISSEN
  6
CONTINUOUS
 62
     7
 10
73.0
 20
185.0
 30
0.0
 11
64.0
 21
185.0
 31
0.0
  0
LINE
  8
L-ZISSEN
  6
CONTINUOUS
 62
     7
 10
99.0
 20
227.0
 30
0.0
 11
99.0
 21
231.3
 31
0.0
  0
LINE
  8
L-ZISSEN
  6
CONTINUOUS
 62
     7
 10
131.0
 20
227.0
 30
0.0
 11
131.0
 21
231.3
 31
0.0
  0
POLYLINE
  8
L-ZISSEN
  6
CONTINUOUS
 62
     7
 66
     1
 10
0.0
 20
0.0
 30
0.0
  0
VERTEX
  8
L-ZISSEN
  6
CONTINUOUS
 62
     7
 10
106.052131
 20
208.887921
 30
0.0
 42
0.078851
 70
     2
 50
220.679217
  0
VERTEX
  8
L-ZISSEN
  6
CONTINUOUS
 62
     7
 10
104.221638
 20
206.249024
 30
0.0
 42
0.112744
 50
220.679217
  0
VERTEX
  8
L-ZISSEN
  6
CONTINUOUS
 62
     7
 10
103.365393
 20
202.5
 30
0.0
 42
0.112744
  0
SEQEND
  8
L-ZISSEN
  6
CONTINUOUS
 62
     7
  0
POLYLINE
  8
L-ZISSEN
  6
CONTINUOUS
 62
     7
 66
     1
 10
0.0
 20
0.0
 30
0.0
  0
VERTEX
  8
L-ZISSEN
  6
CONTINUOUS
 62
     7
 10
105.4224
 20
205.973307
 30
0.0
 42
0.104168
  0
VERTEX
  8
L-ZISSEN
  6
CONTINUOUS
 62
     7
 10
106.142021
 20
202.556649
 30
0.0
 42
0.100664
  0
VERTEX
  8
L-ZISSEN
  6
CONTINUOUS
 62
     7
 10
108.227614
 20
199.609346
 30
0.0
 42
0.096076
 70
     2
 50
316.780821
  0
VERTEX
  8
L-ZISSEN
  6
CONTINUOUS
 62
     7
 10
111.585776
 20
197.491043
 30
0.0
 42
0.110798
 50
316.780821
  0
VERTEX
  8
L-ZISSEN
  6
CONTINUOUS
 62
     7
 10
115.0
 20
196.973307
 30
0.0
 42
0.093065
  0
VERTEX
  8
L-ZISSEN
  6
CONTINUOUS
 62
     7
 10
118.692542
 20
197.666604
 30
0.0
 42
0.096076
  0
VERTEX
  8
L-ZISSEN
  6
CONTINUOUS
 62
     7
 10
121.772386
 20
199.609346
 30
0.0
 42
0.100664
 70
     2
 50
43.219179
  0
VERTEX
  8
L-ZISSEN
  6
CONTINUOUS
 62
     7
 10
123.857979
 20
202.556649
 30
0.0
 42
0.104168
 50
43.219179
  0
VERTEX
  8
L-ZISSEN
  6
CONTINUOUS
 62
     7
 10
124.5776
 20
205.973307
 30
0.0
 42
0.104168
  0
SEQEND
  8
L-ZISSEN
  6
CONTINUOUS
 62
     7
  0
LINE
  8
L-ZISSEN
  6
CONTINUOUS
 62
     7
 10
121.917156
 20
218.286836
 30
0.0
 11
124.5776
 21
205.973307
 31
0.0
  0
LINE
  8
L-ZISSEN
  6
CONTINUOUS
 62
     7
 10
108.082844
 20
218.286836
 30
0.0
 11
105.4224
 21
205.973285
 31
0.0
  0
LINE
  8
L-ZISSEN
  6
CONTINUOUS
 62
     7
 10
124.5776
 20
205.973307
 30
0.0
 11
124.5776
 21
202.5
 31
0.0
  0
LINE
  8
L-ZISSEN
  6
CONTINUOUS
 62
     7
 10
105.4224
 20
205.973307
 30
0.0
 11
105.4224
 21
202.5
 31
0.0
  0
LINE
  8
L-ZISSEN
  6
CONTINUOUS
 62
     7
 10
126.634607
 20
202.5
 30
0.0
 11
126.634607
 21
191.0
 31
0.0
  0
LINE
  8
L-ZISSEN
  6
CONTINUOUS
 62
     7
 10
103.365393
 20
202.5
 30
0.0
 11
103.365393
 21
191.0
 31
0.0
  0
POLYLINE
  8
L-ZISSEN
  6
CONTINUOUS
 62
     7
 66
     1
 10
0.0
 20
0.0
 30
0.0
 70
     1
  0
VERTEX
  8
L-ZISSEN
  6
CONTINUOUS
 62
     7
 10
108.082844
 20
218.286836
 30
0.0
 42
0.104168
  0
VERTEX
  8
L-ZISSEN
  6
CONTINUOUS
 62
     7
 10
108.602571
 20
215.81925
 30
0.0
 42
0.100664
  0
VERTEX
  8
L-ZISSEN
  6
CONTINUOUS
 62
     7
 10
110.108832
 20
213.690642
 30
0.0
 42
0.096076
 70
     2
 50
316.780821
  0
VERTEX
  8
L-ZISSEN
  6
CONTINUOUS
 62
     7
 10
112.534171
 20
212.160757
 30
0.0
 42
0.110798
 50
316.780821
  0
VERTEX
  8
L-ZISSEN
  6
CONTINUOUS
 62
     7
 10
115.0
 20
211.786836
 30
0.0
 42
0.093065
  0
VERTEX
  8
L-ZISSEN
  6
CONTINUOUS
 62
     7
 10
117.666836
 20
212.287551
 30
0.0
 42
0.096076
  0
VERTEX
  8
L-ZISSEN
  6
CONTINUOUS
 62
     7
 10
119.891168
 20
213.690642
 30
0.0
 42
0.100664
 70
     2
 50
43.219179
  0
VERTEX
  8
L-ZISSEN
  6
CONTINUOUS
 62
     7
 10
121.397429
 20
215.81925
 30
0.0
 42
0.104168
 50
43.219179
  0
VERTEX
  8
L-ZISSEN
  6
CONTINUOUS
 62
     7
 10
121.917156
 20
218.286836
 30
0.0
 42
0.104168
  0
VERTEX
  8
L-ZISSEN
  6
CONTINUOUS
 62
     7
 10
121.397429
 20
220.754422
 30
0.0
 42
0.100664
  0
VERTEX
  8
L-ZISSEN
  6
CONTINUOUS
 62
     7
 10
119.891168
 20
222.88303
 30
0.0
 42
0.096076
 70
     2
 50
136.780821
  0
VERTEX
  8
L-ZISSEN
  6
CONTINUOUS
 62
     7
 10
117.666836
 20
224.286122
 30
0.0
 42
0.093065
 50
136.780821
  0
VERTEX
  8
L-ZISSEN
  6
CONTINUOUS
 62
     7
 10
115.0
 20
224.786836
 30
0.0
 42
0.093065
  0
VERTEX
  8
L-ZISSEN
  6
CONTINUOUS
 62
     7
 10
112.333164
 20
224.286122
 30
0.0
 42
0.096076
  0
VERTEX
  8
L-ZISSEN
  6
CONTINUOUS
 62
     7
 10
110.108832
 20
222.88303
 30
0.0
 42
0.100664
 70
     2
 50
223.219179
  0
VERTEX
  8
L-ZISSEN
  6
CONTINUOUS
 62
     7
 10
108.602571
 20
220.754422
 30
0.0
 42
0.104168
 50
223.219179
  0
SEQEND
  8
L-ZISSEN
  6
CONTINUOUS
 62
     7
  0
ARC
  8
L-ZISSEN
  6
CONTINUOUS
 62
     7
 10
115.0
 20
256.25
 30
0.0
 40
12.75
 50
360.0
 51
180.0
  0
LINE
  8
L-ZISSEN
  6
CONTINUOUS
 62
     7
 10
127.75
 20
256.25
 30
0.0
 11
127.75
 21
244.8
 31
0.0
  0
LINE
  8
L-ZISSEN
  6
CONTINUOUS
 62
     7
 10
102.25
 20
256.25
 30
0.0
 11
102.25
 21
244.8
 31
0.0
  0
LINE
  8
L-ZISSEN
  6
CONTINUOUS
 62
     7
 10
132.5
 20
231.3
 30
0.0
 11
97.5
 21
231.3
 31
0.0
  0
LINE
  8
L-ZISSEN
  6
CONTINUOUS
 62
     7
 10
132.5
 20
244.8
 30
0.0
 11
97.5
 21
244.8
 31
0.0
  0
LINE
  8
L-ZISSEN
  6
CONTINUOUS
 62
     7
 10
97.5
 20
231.3
 30
0.0
 11
97.5
 21
244.8
 31
0.0
  0
LINE
  8
L-ZISSEN
  6
CONTINUOUS
 62
     7
 10
132.5
 20
231.3
 30
0.0
 11
132.5
 21
244.8
 31
0.0
  0
LINE
  8
L-ZISSEN
  6
CONTINUOUS
 62
     7
 10
262.5
 20
231.3
 30
0.0
 11
227.5
 21
231.3
 31
0.0
  0
LINE
  8
L-ZISSEN
  6
CONTINUOUS
 62
     7
 10
232.25
 20
256.25
 30
0.0
 11
232.25
 21
244.8
 31
0.0
  0
LINE
  8
L-ZISSEN
  6
CONTINUOUS
 62
     7
 10
257.75
 20
256.25
 30
0.0
 11
257.75
 21
244.8
 31
0.0
  0
ARC
  8
L-ZISSEN
  6
CONTINUOUS
 62
     7
 10
245.0
 20
256.25
 30
0.0
 40
12.75
 50
360.0
 51
180.0
  0
LINE
  8
L-ZISSEN
  6
CONTINUOUS
 62
     7
 10
261.0
 20
227.0
 30
0.0
 11
261.0
 21
231.3
 31
0.0
  0
LINE
  8
L-ZISSEN
  6
CONTINUOUS
 62
     7
 10
229.0
 20
227.0
 30
0.0
 11
229.0
 21
231.3
 31
0.0
  0
LINE
  8
L-ZISSEN
  6
CONTINUOUS
 62
     7
 10
266.0
 20
185.0
 30
0.0
 11
224.0
 21
185.0
 31
0.0
  0
LINE
  8
L-ZISSEN
  6
CONTINUOUS
 62
     7
 10
268.142136
 20
227.0
 30
0.0
 11
221.857864
 21
227.0
 31
0.0
  0
LINE
  8
L-ZISSEN
  6
CONTINUOUS
 62
     7
 10
195.0
 20
191.0
 30
0.0
 11
224.0
 21
191.0
 31
0.0
  0
LINE
  8
L-ZISSEN
  6
CONTINUOUS
 62
     7
 10
295.0
 20
182.0
 30
0.0
 11
195.0
 21
182.0
 31
0.0
  0
LINE
  8
L-TYUSIN
  6
CENTER
 62
     1
 10
219.0
 20
206.0
 30
0.0
 11
271.0
 21
206.0
 31
0.0
  0
LINE
  8
L-ZISSEN
  6
CONTINUOUS
 62
     7
 10
224.0
 20
185.0
 30
0.0
 11
224.0
 21
218.124356
 31
0.0
  0
LINE
  8
L-ZISSEN
  6
CONTINUOUS
 62
     7
 10
266.0
 20
185.0
 30
0.0
 11
266.0
 21
218.124356
 31
0.0
  0
LINE
  8
L-ZISSEN
  6
CONTINUOUS
 62
     7
 10
266.0
 20
191.0
 30
0.0
 11
295.0
 21
191.0
 31
0.0
  0
LINE
  8
L-ZISSEN
  6
CONTINUOUS
 62
     7
 10
295.0
 20
191.0
 30
0.0
 11
295.0
 21
182.0
 31
0.0
  0
LINE
  8
L-ZISSEN
  6
CONTINUOUS
 62
     7
 10
195.0
 20
191.0
 30
0.0
 11
195.0
 21
182.0
 31
0.0
  0
ARC
  8
L-ZISSEN
  6
CONTINUOUS
 62
     7
 10
245.0
 20
206.0
 30
0.0
 40
21.0
 50
60.0
 51
120.0
  0
LINE
  8
L-ZISSEN
  6
CONTINUOUS
 62
     7
 10
234.5
 20
224.186533
 30
0.0
 11
224.0
 21
218.124356
 31
0.0
  0
LINE
  8
L-ZISSEN
  6
CONTINUOUS
 62
     7
 10
255.5
 20
224.186533
 30
0.0
 11
266.0
 21
218.124356
 31
0.0
  0
LINE
  8
L-ZISSEN
  6
CONTINUOUS
 62
     7
 10
221.857864
 20
227.0
 30
0.0
 11
221.857864
 21
196.4
 31
0.0
  0
LINE
  8
L-ZISSEN
  6
CONTINUOUS
 62
     7
 10
268.142136
 20
227.0
 30
0.0
 11
268.142136
 21
196.4
 31
0.0
  0
LINE
  8
L-ZISSEN
  6
CONTINUOUS
 62
     7
 10
125.0
 20
368.0
 30
0.0
 11
125.0
 21
362.132299
 31
0.0
  0
ARC
  8
L-ZISSEN
  6
CONTINUOUS
 62
     7
 10
101.360033
 20
354.627074
 30
0.0
 40
4.0
 50
20.073877
 51
122.62742
  0
ARC
  8
L-ZISSEN
  6
CONTINUOUS
 62
     7
 10
101.360033
 20
354.627074
 30
0.0
 40
6.5
 50
90.0
 51
133.564346
  0
LINE
  8
L-ZISSEN
  6
CONTINUOUS
 62
     7
 10
107.911277
 20
356.0
 30
0.0
 11
105.117036
 21
356.0
 31
0.0
  0
LINE
  8
L-ZISSEN
  6
CONTINUOUS
 62
     7
 10
107.911277
 20
324.0
 30
0.0
 11
102.660254
 21
324.0
 31
0.0
  0
LINE
  8
L-ZISSEN
  6
CONTINUOUS
 62
     7
 10
268.142136
 20
204.16853
 30
0.0
 11
283.0
 21
198.76071
 31
0.0
  0
LINE
  8
L-ZISSEN
  6
CONTINUOUS
 62
     7
 10
268.142136
 20
213.451165
 30
0.0
 11
272.36432
 21
220.509967
 31
0.0
  0
LINE
  8
L-ZISSEN
  6
CONTINUOUS
 62
     7
 10
284.580324
 20
216.063705
 30
0.0
 11
272.36432
 21
220.509967
 31
0.0
  0
LINE
  8
L-ZISSEN
  6
CONTINUOUS
 62
     7
 10
281.183617
 20
199.421819
 30
0.0
 11
282.483294
 21
202.992651
 31
0.0
  0
LINE
  8
L-ZISSEN
  6
CONTINUOUS
 62
     7
 10
282.483294
 20
202.992651
 30
0.0
 11
284.580324
 21
216.063705
 31
0.0
  0
LINE
  8
L-ZISSEN
  6
CONTINUOUS
 62
     7
 10
283.0
 20
198.76071
 30
0.0
 11
283.0
 21
191.0
 31
0.0
  0
LINE
  8
L-ZISSEN
  6
CONTINUOUS
 62
     7
 10
221.857864
 20
213.451165
 30
0.0
 11
217.63568
 21
220.509967
 31
0.0
  0
LINE
  8
L-ZISSEN
  6
CONTINUOUS
 62
     7
 10
207.516706
 20
202.992651
 30
0.0
 11
205.419676
 21
216.063705
 31
0.0
  0
LINE
  8
L-ZISSEN
  6
CONTINUOUS
 62
     7
 10
208.816383
 20
199.421819
 30
0.0
 11
207.516706
 21
202.992651
 31
0.0
  0
LINE
  8
L-ZISSEN
  6
CONTINUOUS
 62
     7
 10
205.419676
 20
216.063705
 30
0.0
 11
217.63568
 21
220.509967
 31
0.0
  0
LINE
  8
L-ZISSEN
  6
CONTINUOUS
 62
     7
 10
221.857864
 20
204.16853
 30
0.0
 11
207.0
 21
198.76071
 31
0.0
  0
LINE
  8
L-ZISSEN
  6
CONTINUOUS
 62
     7
 10
207.0
 20
198.76071
 30
0.0
 11
207.0
 21
191.0
 31
0.0
  0
LINE
  8
L-ZISSEN
  6
CONTINUOUS
 62
     7
 10
86.25
 20
196.4
 30
0.0
 11
86.25
 21
191.0
 31
0.0
  0
LINE
  8
L-ZISSEN
  6
CONTINUOUS
 62
     7
 10
75.75
 20
196.4
 30
0.0
 11
75.75
 21
191.0
 31
0.0
  0
LINE
  8
L-ZISSEN
  6
CONTINUOUS
 62
     7
 10
262.5
 20
244.8
 30
0.0
 11
227.5
 21
244.8
 31
0.0
  0
LINE
  8
L-ZISSEN
  6
CONTINUOUS
 62
     7
 10
262.5
 20
231.3
 30
0.0
 11
262.5
 21
244.8
 31
0.0
  0
LINE
  8
L-ZISSEN
  6
CONTINUOUS
 62
     7
 10
227.5
 20
231.3
 30
0.0
 11
227.5
 21
244.8
 31
0.0
  0
LINE
  8
L-ZISSEN
 10
75.75
 20
196.4
 30
0.0
 11
86.25
 21
196.4
 31
0.0
  0
LINE
  8
L-ZISSEN
  6
CONTINUOUS
 62
     7
 10
120.25
 20
196.4
 30
0.0
 11
120.25
 21
191.0
 31
0.0
  0
LINE
  8
L-ZISSEN
 10
109.75
 20
196.4
 30
0.0
 11
120.25
 21
196.4
 31
0.0
  0
LINE
  8
L-ZISSEN
  6
CONTINUOUS
 62
     7
 10
109.75
 20
196.4
 30
0.0
 11
109.75
 21
191.0
 31
0.0
  0
LINE
  8
L-ZISSEN
 10
143.75
 20
196.4
 30
0.0
 11
154.25
 21
196.4
 31
0.0
  0
LINE
  8
L-ZISSEN
  6
CONTINUOUS
 62
     7
 10
143.75
 20
196.4
 30
0.0
 11
143.75
 21
191.0
 31
0.0
  0
LINE
  8
L-ZISSEN
  6
CONTINUOUS
 62
     7
 10
154.25
 20
196.4
 30
0.0
 11
154.25
 21
191.0
 31
0.0
  0
POLYLINE
  8
L-ZISSEN
  6
CONTINUOUS
 62
     7
 66
     1
 10
0.0
 20
0.0
 30
0.0
  0
VERTEX
  8
L-ZISSEN
  6
CONTINUOUS
 62
     7
 10
103.365393
 20
202.5
 30
0.0
 42
0.112744
  0
VERTEX
  8
L-ZISSEN
  6
CONTINUOUS
 62
     7
 10
104.221638
 20
198.750976
 30
0.0
 42
0.103298
  0
VERTEX
  8
L-ZISSEN
  6
CONTINUOUS
 62
     7
 10
106.773091
 20
195.428932
 30
0.0
 42
0.06945
 70
     2
 50
319.320783
  0
VERTEX
  8
L-ZISSEN
  6
CONTINUOUS
 62
     7
 10
109.75
 20
193.515322
 30
0.0
 42
0.102683
 50
319.320783
  0
SEQEND
  8
L-ZISSEN
  6
CONTINUOUS
 62
     7
  0
POLYLINE
  8
L-ZISSEN
  6
CONTINUOUS
 62
     7
 66
     1
 10
0.0
 20
0.0
 30
0.0
  0
VERTEX
  8
L-ZISSEN
  6
CONTINUOUS
 62
     7
 10
105.4224
 20
202.5
 30
0.0
 42
0.104168
  0
VERTEX
  8
L-ZISSEN
  6
CONTINUOUS
 62
     7
 10
106.142021
 20
199.083343
 30
0.0
 42
0.100664
  0
VERTEX
  8
L-ZISSEN
  6
CONTINUOUS
 62
     7
 10
108.227614
 20
196.136039
 30
0.0
 42
0.046364
 70
     2
 50
316.780821
  0
VERTEX
  8
L-ZISSEN
  6
CONTINUOUS
 62
     7
 10
109.75
 20
194.950463
 30
0.0
 42
0.110798
 50
316.780821
  0
SEQEND
  8
L-ZISSEN
  6
CONTINUOUS
 62
     7
  0
POLYLINE
  8
L-ZISSEN
  6
CONTINUOUS
 62
     7
 66
     1
 10
0.0
 20
0.0
 30
0.0
  0
VERTEX
  8
L-ZISSEN
  6
CONTINUOUS
 62
     7
 10
120.25
 20
194.969405
 30
0.0
 42
0.050269
  0
VERTEX
  8
L-ZISSEN
  6
CONTINUOUS
 62
     7
 10
121.772386
 20
196.136039
 30
0.0
 42
0.100664
 70
     2
 50
43.219179
  0
VERTEX
  8
L-ZISSEN
  6
CONTINUOUS
 62
     7
 10
123.857979
 20
199.083343
 30
0.0
 42
0.104168
 50
43.219179
  0
VERTEX
  8
L-ZISSEN
  6
CONTINUOUS
 62
     7
 10
124.5776
 20
202.5
 30
0.0
 42
0.104168
  0
SEQEND
  8
L-ZISSEN
  6
CONTINUOUS
 62
     7
  0
POLYLINE
  8
L-ZISSEN
  6
CONTINUOUS
 62
     7
 66
     1
 10
0.0
 20
0.0
 30
0.0
  0
VERTEX
  8
L-ZISSEN
  6
CONTINUOUS
 62
     7
 10
120.25
 20
193.566055
 30
0.0
 42
0.075558
  0
VERTEX
  8
L-ZISSEN
  6
CONTINUOUS
 62
     7
 10
123.226909
 20
195.428932
 30
0.0
 42
0.103298
 70
     2
 50
40.679217
  0
VERTEX
  8
L-ZISSEN
  6
CONTINUOUS
 62
     7
 10
125.778362
 20
198.750976
 30
0.0
 42
0.112744
 50
40.679217
  0
VERTEX
  8
L-ZISSEN
  6
CONTINUOUS
 62
     7
 10
126.634607
 20
202.5
 30
0.0
 42
0.112744
  0
VERTEX
  8
L-ZISSEN
  6
CONTINUOUS
 62
     7
 10
125.778362
 20
206.249024
 30
0.0
 42
0.078851
  0
VERTEX
  8
L-ZISSEN
  6
CONTINUOUS
 62
     7
 10
123.947873
 20
208.887916
 30
0.0
 42
0.09225
 70
     2
 50
139.320783
  0
SEQEND
  8
L-ZISSEN
  6
CONTINUOUS
 62
     7
  0
LINE
  8
L-ZISSEN
 10
101.360033
 20
361.127074
 30
0.0
 11
105.0
 21
361.127074
 31
0.0
  0
LINE
  8
L-ZISSEN
  6
CONTINUOUS
 62
     7
 10
195.75
 20
196.4
 30
0.0
 11
195.75
 21
191.0
 31
0.0
  0
LINE
  8
L-ZISSEN
 10
195.75
 20
196.4
 30
0.0
 11
206.25
 21
196.4
 31
0.0
  0
LINE
  8
L-ZISSEN
  6
CONTINUOUS
 62
     7
 10
206.25
 20
196.4
 30
0.0
 11
206.25
 21
191.0
 31
0.0
  0
LINE
  8
L-ZISSEN
 10
213.75
 20
196.4
 30
0.0
 11
224.0
 21
196.4
 31
0.0
  0
LINE
  8
L-ZISSEN
  6
CONTINUOUS
 62
     7
 10
213.75
 20
196.4
 30
0.0
 11
213.75
 21
191.0
 31
0.0
  0
LINE
  8
L-ZISSEN
 10
294.25
 20
196.4
 30
0.0
 11
283.75
 21
196.4
 31
0.0
  0
LINE
  8
L-ZISSEN
  6
CONTINUOUS
 62
     7
 10
294.25
 20
196.4
 30
0.0
 11
294.25
 21
191.0
 31
0.0
  0
LINE
  8
L-ZISSEN
  6
CONTINUOUS
 62
     7
 10
283.75
 20
196.4
 30
0.0
 11
283.75
 21
191.0
 31
0.0
  0
LINE
  8
L-ZISSEN
 10
276.25
 20
196.4
 30
0.0
 11
266.0
 21
196.4
 31
0.0
  0
LINE
  8
L-ZISSEN
  6
CONTINUOUS
 62
     7
 10
276.25
 20
196.4
 30
0.0
 11
276.25
 21
191.0
 31
0.0
  0
CIRCLE
  8
L-ZISSEN
 10
245.0
 20
206.0
 30
0.0
 40
12.0585
  0
SOLID
  8
L-ZISSEN
 10
116.669651
 20
207.150381
 30
0.0
 11
116.206303
 21
207.629707
 31
0.0
 12
115.0
 22
206.0
 32
0.0
 13
115.0
 23
206.0
 33
0.0
  0
LINE
  8
L-ZISSEN
 10
116.437977
 20
207.390044
 30
0.0
 11
145.0
 21
235.0
 31
0.0
  0
LINE
  8
L-ZISSEN
 10
145.0
 20
235.0
 30
0.0
 11
147.0
 21
235.0
 31
0.0
  0
TEXT
  8
L-ZISSEN
 10
149.0
 20
232.75
 30
0.0
 40
4.5
  1
P.P
  0
SOLID
  8
L-ZISSEN
 10
246.558349
 20
207.297173
 30
0.0
 11
246.053409
 21
207.732466
 31
0.0
 12
245.0
 22
206.0
 32
0.0
 13
245.0
 23
206.0
 33
0.0
  0
LINE
  8
L-ZISSEN
 10
246.305879
 20
207.51482
 30
0.0
 11
270.0
 21
235.0
 31
0.0
  0
LINE
  8
L-ZISSEN
 10
270.0
 20
235.0
 30
0.0
 11
272.0
 21
235.0
 31
0.0
  0
TEXT
  8
L-ZISSEN
 10
274.0
 20
232.75
 30
0.0
 40
4.5
  1
P.P
  0
SOLID
  8
L-ZISSEN
 10
396.68955
 20
207.120951
 30
0.0
 11
396.234671
 21
207.608322
 31
0.0
 12
395.0
 22
206.0
 32
0.0
 13
395.0
 23
206.0
 33
0.0
  0
LINE
  8
L-ZISSEN
 10
396.462111
 20
207.364637
 30
0.0
 11
410.0
 21
220.0
 31
0.0
  0
LINE
  8
L-ZISSEN
 10
410.0
 20
220.0
 30
0.0
 11
412.0
 21
220.0
 31
0.0
  0
TEXT
  8
L-ZISSEN
 10
414.0
 20
217.75
 30
0.0
 40
4.5
  1
P.P
  0
SOLID
  8
L-ZISSEN
 10
526.68955
 20
207.120951
 30
0.0
 11
526.234671
 21
207.608322
 31
0.0
 12
525.0
 22
206.0
 32
0.0
 13
525.0
 23
206.0
 33
0.0
  0
LINE
  8
L-ZISSEN
 10
526.462111
 20
207.364637
 30
0.0
 11
540.0
 21
220.0
 31
0.0
  0
LINE
  8
L-ZISSEN
 10
540.0
 20
220.0
 30
0.0
 11
542.0
 21
220.0
 31
0.0
  0
TEXT
  8
L-ZISSEN
 10
544.0
 20
217.75
 30
0.0
 40
4.5
  1
P.P
  0
SOLID
  8
L-ZISSEN
 10
661.68955
 20
207.120951
 30
0.0
 11
661.234671
 21
207.608322
 31
0.0
 12
660.0
 22
206.0
 32
0.0
 13
660.0
 23
206.0
 33
0.0
  0
LINE
  8
L-ZISSEN
 10
661.462111
 20
207.364637
 30
0.0
 11
675.0
 21
220.0
 31
0.0
  0
LINE
  8
L-ZISSEN
 10
675.0
 20
220.0
 30
0.0
 11
677.0
 21
220.0
 31
0.0
  0
TEXT
  8
L-ZISSEN
 10
679.0
 20
217.75
 30
0.0
 40
4.5
  1
P.P
  0
SOLID
  8
L-ZISSEN
 10
791.68955
 20
207.120951
 30
0.0
 11
791.234671
 21
207.608322
 31
0.0
 12
790.0
 22
206.0
 32
0.0
 13
790.0
 23
206.0
 33
0.0
  0
LINE
  8
L-ZISSEN
 10
791.462111
 20
207.364637
 30
0.0
 11
805.0
 21
220.0
 31
0.0
  0
LINE
  8
L-ZISSEN
 10
805.0
 20
220.0
 30
0.0
 11
807.0
 21
220.0
 31
0.0
  0
TEXT
  8
L-ZISSEN
 10
809.0
 20
217.75
 30
0.0
 40
4.5
  1
P.P
  0
SOLID
  8
L-ZISSEN
 10
661.68955
 20
447.120951
 30
0.0
 11
661.234671
 21
447.608322
 31
0.0
 12
660.0
 22
446.0
 32
0.0
 13
660.0
 23
446.0
 33
0.0
  0
LINE
  8
L-ZISSEN
 10
661.462111
 20
447.364637
 30
0.0
 11
675.0
 21
460.0
 31
0.0
  0
LINE
  8
L-ZISSEN
 10
675.0
 20
460.0
 30
0.0
 11
677.0
 21
460.0
 31
0.0
  0
TEXT
  8
L-ZISSEN
 10
679.0
 20
457.75
 30
0.0
 40
4.5
  1
P.P
  0
SOLID
  8
L-ZISSEN
 10
771.68955
 20
447.120951
 30
0.0
 11
771.234671
 21
447.608322
 31
0.0
 12
770.0
 22
446.0
 32
0.0
 13
770.0
 23
446.0
 33
0.0
  0
LINE
  8
L-ZISSEN
 10
771.462111
 20
447.364637
 30
0.0
 11
785.0
 21
460.0
 31
0.0
  0
LINE
  8
L-ZISSEN
 10
785.0
 20
460.0
 30
0.0
 11
787.0
 21
460.0
 31
0.0
  0
TEXT
  8
L-ZISSEN
 10
789.0
 20
457.75
 30
0.0
 40
4.5
  1
P.P
  0
LINE
  8
L-ZISSEN
 10
578.0
 20
274.0
 30
0.0
 11
578.0
 21
360.0
 31
0.0
  0
LINE
  8
L-ZISSEN
 10
484.5
 20
274.0
 30
0.0
 11
578.0
 21
274.0
 31
0.0
  0
LINE
  8
L-ZISSEN
 10
578.0
 20
360.0
 30
0.0
 11
568.621778
 21
360.0
 31
0.0
  0
LINE
  8
L-ZISSEN
 10
454.0
 20
360.0
 30
0.0
 11
346.0
 21
360.0
 31
0.0
  0
LINE
  8
L-ZISSEN
 10
451.0
 20
274.0
 30
0.0
 11
454.0
 21
274.0
 31
0.0
  0
LINE
  8
L-ZISSEN
 10
454.0
 20
360.0
 30
0.0
 11
454.0
 21
274.0
 31
0.0
  0
LINE
  8
L-ZISSEN
 10
451.4
 20
360.0
 30
0.0
 11
451.4
 21
274.0
 31
0.0
  0
LINE
  8
L-ZISSEN
 10
349.0
 20
274.0
 30
0.0
 11
346.0
 21
274.0
 31
0.0
  0
LINE
  8
L-ZISSEN
 10
346.0
 20
360.0
 30
0.0
 11
346.0
 21
274.0
 31
0.0
  0
LINE
  8
L-ZISSEN
 10
348.6
 20
360.0
 30
0.0
 11
348.6
 21
274.0
 31
0.0
  0
ARC
  8
L-ZISSEN
 10
484.5
 20
295.0
 30
0.0
 40
21.0
 50
90.0
 51
270.0
  0
LINE
  8
L-ZISSEN
 10
484.5
 20
316.0
 30
0.0
 11
556.832014
 21
316.0
 31
0.0
  0
LINE
  8
L-ZISSEN
 10
568.621778
 20
360.0
 30
0.0
 11
556.832014
 21
316.0
 31
0.0
  0
LINE
  8
L-TYUSIN
  6
CENTER
 62
     1
 10
412.0
 20
350.0
 30
0.0
 11
443.0
 21
350.0
 31
0.0
  0
LINE
  8
L-TYUSIN
  6
CENTER
 62
     1
 10
420.0
 20
358.0
 30
0.0
 11
420.0
 21
342.0
 31
0.0
  0
LINE
  8
L-TYUSIN
  6
CENTER
 62
     1
 10
435.0
 20
358.0
 30
0.0
 11
435.0
 21
342.0
 31
0.0
  0
ARC
  8
L-ZISSEN
 10
420.0
 20
350.0
 30
0.0
 40
3.4
 50
90.0
 51
270.0
  0
ARC
  8
L-ZISSEN
 10
435.0
 20
350.0
 30
0.0
 40
3.4
 50
270.0
 51
90.0
  0
LINE
  8
L-ZISSEN
 10
435.0
 20
353.4
 30
0.0
 11
420.0
 21
353.4
 31
0.0
  0
LINE
  8
L-ZISSEN
 10
435.0
 20
346.6
 30
0.0
 11
420.0
 21
346.6
 31
0.0
  0
LINE
  8
L-ZISSEN
 10
365.0
 20
346.6
 30
0.0
 11
380.0
 21
346.6
 31
0.0
  0
LINE
  8
L-ZISSEN
 10
365.0
 20
353.4
 30
0.0
 11
380.0
 21
353.4
 31
0.0
  0
ARC
  8
L-ZISSEN
 10
365.0
 20
350.0
 30
0.0
 40
3.4
 50
90.0
 51
270.0
  0
ARC
  8
L-ZISSEN
 10
380.0
 20
350.0
 30
0.0
 40
3.4
 50
270.0
 51
90.0
  0
LINE
  8
L-TYUSIN
  6
CENTER
 62
     1
 10
365.0
 20
358.0
 30
0.0
 11
365.0
 21
342.0
 31
0.0
  0
LINE
  8
L-TYUSIN
  6
CENTER
 62
     1
 10
380.0
 20
358.0
 30
0.0
 11
380.0
 21
342.0
 31
0.0
  0
LINE
  8
L-TYUSIN
  6
CENTER
 62
     1
 10
388.0
 20
350.0
 30
0.0
 11
357.0
 21
350.0
 31
0.0
  0
LINE
  8
L-TYUSIN
  6
CENTER
 62
     1
 10
570.0
 20
350.0
 30
0.0
 11
583.0
 21
350.0
 31
0.0
  0
SOLID
  8
L-ZISSEN
 10
501.19257
 20
296.639783
 30
0.0
 11
500.596285
 21
296.937926
 31
0.0
 12
500.0
 22
295.0
 32
0.0
 13
500.0
 23
295.0
 33
0.0
  0
LINE
  8
L-ZISSEN
 10
500.894427
 20
296.788854
 30
0.0
 11
515.0
 21
325.0
 31
0.0
  0
LINE
  8
L-ZISSEN
 10
515.0
 20
325.0
 30
0.0
 11
517.0
 21
325.0
 31
0.0
  0
TEXT
  8
L-ZISSEN
 10
519.0
 20
322.75
 30
0.0
 40
4.5
  1
P.P
  0
SOLID
  8
L-ZISSEN
 10
401.649916
 20
296.178511
 30
0.0
 11
401.178511
 21
296.649916
 31
0.0
 12
400.0
 22
295.0
 32
0.0
 13
400.0
 23
295.0
 33
0.0
  0
LINE
  8
L-ZISSEN
 10
401.414214
 20
296.414214
 30
0.0
 11
415.0
 21
310.0
 31
0.0
  0
LINE
  8
L-ZISSEN
 10
415.0
 20
310.0
 30
0.0
 11
417.0
 21
310.0
 31
0.0
  0
TEXT
  8
L-ZISSEN
 10
419.0
 20
307.75
 30
0.0
 40
4.5
  1
P.P
  0
LINE
  8
L-ZISSEN
 10
454.0
 20
488.0
 30
0.0
 11
454.0
 21
373.5
 31
0.0
  0
LINE
  8
L-ZISSEN
 10
451.4
 20
485.4
 30
0.0
 11
451.4
 21
373.5
 31
0.0
  0
LINE
  8
L-ZISSEN
 10
348.6
 20
485.4
 30
0.0
 11
348.6
 21
373.5
 31
0.0
  0
LINE
  8
L-ZISSEN
 10
346.0
 20
488.0
 30
0.0
 11
346.0
 21
373.5
 31
0.0
  0
LINE
  8
L-ZISSEN
 10
454.0
 20
488.0
 30
0.0
 11
346.0
 21
488.0
 31
0.0
  0
LINE
  8
L-ZISSEN
 10
451.4
 20
485.4
 30
0.0
 11
348.6
 21
485.4
 31
0.0
  0
LINE
  8
L-ZISSEN
 10
454.0
 20
373.5
 30
0.0
 11
451.4
 21
373.5
 31
0.0
  0
LINE
  8
L-ZISSEN
 10
348.6
 20
373.5
 30
0.0
 11
346.0
 21
373.5
 31
0.0
  0
LINE
  8
L-ZISSEN
 10
454.0
 20
466.832014
 30
0.0
 11
451.4
 21
466.832014
 31
0.0
  0
LINE
  8
L-ZISSEN
 10
454.0
 20
478.621778
 30
0.0
 11
451.4
 21
478.621778
 31
0.0
  0
LINE
  8
L-ZISSEN
 10
346.0
 20
478.621778
 30
0.0
 11
348.6
 21
478.621778
 31
0.0
  0
LINE
  8
L-ZISSEN
 10
346.0
 20
466.832014
 30
0.0
 11
348.6
 21
466.832014
 31
0.0
  0
LINE
  8
L-TYUSIN
  6
CENTER
 62
     1
 10
365.0
 20
493.0
 30
0.0
 11
365.0
 21
480.4
 31
0.0
  0
LINE
  8
L-TYUSIN
  6
CENTER
 62
     1
 10
380.0
 20
493.0
 30
0.0
 11
380.0
 21
480.4
 31
0.0
  0
LINE
  8
L-TYUSIN
  6
CENTER
 62
     1
 10
420.0
 20
493.0
 30
0.0
 11
420.0
 21
480.4
 31
0.0
  0
LINE
  8
L-TYUSIN
  6
CENTER
 62
     1
 10
435.0
 20
493.0
 30
0.0
 11
435.0
 21
480.4
 31
0.0
  0
SOLID
  8
L-ZISSEN
 10
401.649916
 20
411.178511
 30
0.0
 11
401.178511
 21
411.649916
 31
0.0
 12
400.0
 22
410.0
 32
0.0
 13
400.0
 23
410.0
 33
0.0
  0
LINE
  8
L-ZISSEN
 10
401.414214
 20
411.414214
 30
0.0
 11
410.0
 21
420.0
 31
0.0
  0
LINE
  8
L-ZISSEN
 10
410.0
 20
420.0
 30
0.0
 11
412.0
 21
420.0
 31
0.0
  0
TEXT
  8
L-ZISSEN
 10
414.0
 20
417.75
 30
0.0
 40
4.5
  1
P.P
  0
SOLID
  8
L-ZISSEN
 10
62.255466
 20
204.966699
 30
0.0
 11
62.68489
 21
204.456758
 31
0.0
 12
64.0
 22
206.0
 32
0.0
 13
64.0
 23
206.0
 33
0.0
  0
LINE
  8
L-ZISSEN
 10
62.470178
 20
204.711729
 30
0.0
 11
45.0
 21
190.0
 31
0.0
  0
LINE
  8
L-ZISSEN
 10
45.0
 20
190.0
 30
0.0
 11
43.0
 21
190.0
 31
0.0
  0
TEXT
  8
L-ZISSEN
 10
35.0
 20
187.75
 30
0.0
 40
4.5
  1
IN
  0
TEXT
  8
L-ZISSEN
 10
25.0
 20
180.0
 30
0.0
 40
4.5
  1
Rc 3/4
  0
TEXT
  8
L-ZISSEN
 10
25.0
 20
170.0
 30
0.0
 40
4.5
  1
Rc 1
  0
LINE
  8
L-ZISSEN
  6
CONTINUOUS
 62
     7
 10
403.0
 20
64.5
 30
0.0
 11
403.0
 21
60.5
 31
0.0
  0
LINE
  8
L-ZISSEN
  6
CONTINUOUS
 62
     7
 10
387.0
 20
64.5
 30
0.0
 11
387.0
 21
60.5
 31
0.0
  0
LINE
  8
L-ZISSEN
  6
CONTINUOUS
 62
     7
 10
383.0
 20
60.5
 30
0.0
 11
383.0
 21
54.5
 31
0.0
  0
LINE
  8
L-ZISSEN
  6
CONTINUOUS
 62
     7
 10
407.0
 20
60.5
 30
0.0
 11
407.0
 21
54.5
 31
0.0
  0
LINE
  8
L-ZISSEN
  6
CONTINUOUS
 62
     7
 10
407.0
 20
64.5
 30
0.0
 11
383.0
 21
64.5
 31
0.0
  0
LINE
  8
L-ZISSEN
  6
CONTINUOUS
 62
     7
 10
383.0
 20
60.5
 30
0.0
 11
407.0
 21
60.5
 31
0.0
  0
LINE
  8
L-ZISSEN
  6
CONTINUOUS
 62
     7
 10
386.75
 20
51.5
 30
0.0
 11
403.25
 21
51.5
 31
0.0
  0
LINE
  8
L-ZISSEN
  6
CONTINUOUS
 62
     7
 10
383.0
 20
54.5
 30
0.0
 11
407.0
 21
54.5
 31
0.0
  0
LINE
  8
L-ZISSEN
  6
CONTINUOUS
 62
     7
 10
386.75
 20
51.5
 30
0.0
 11
383.75
 21
54.5
 31
0.0
  0
LINE
  8
L-ZISSEN
  6
CONTINUOUS
 62
     7
 10
403.25
 20
51.5
 30
0.0
 11
406.25
 21
54.5
 31
0.0
  0
LINE
  8
L-ZISSEN
  6
CONTINUOUS
 62
     7
 10
390.75
 20
50.5
 30
0.0
 11
399.25
 21
50.5
 31
0.0
  0
LINE
  8
L-ZISSEN
  6
CONTINUOUS
 62
     7
 10
390.75
 20
50.5
 30
0.0
 11
390.75
 21
51.5
 31
0.0
  0
LINE
  8
L-ZISSEN
  6
CONTINUOUS
 62
     7
 10
399.25
 20
50.5
 30
0.0
 11
399.25
 21
51.5
 31
0.0
  0
LINE
  8
L-ZISSEN
  6
CONTINUOUS
 62
     7
 10
407.0
 20
69.5
 30
0.0
 11
407.0
 21
64.5
 31
0.0
  0
LINE
  8
L-ZISSEN
  6
CONTINUOUS
 62
     7
 10
383.0
 20
69.5
 30
0.0
 11
383.0
 21
64.5
 31
0.0
  0
LINE
  8
L-ZISSEN
  6
CONTINUOUS
 62
     7
 10
529.25
 20
50.5
 30
0.0
 11
529.25
 21
51.5
 31
0.0
  0
LINE
  8
L-ZISSEN
  6
CONTINUOUS
 62
     7
 10
520.75
 20
50.5
 30
0.0
 11
520.75
 21
51.5
 31
0.0
  0
LINE
  8
L-ZISSEN
  6
CONTINUOUS
 62
     7
 10
520.75
 20
50.5
 30
0.0
 11
529.25
 21
50.5
 31
0.0
  0
LINE
  8
L-ZISSEN
  6
CONTINUOUS
 62
     7
 10
533.25
 20
51.5
 30
0.0
 11
536.25
 21
54.5
 31
0.0
  0
LINE
  8
L-ZISSEN
  6
CONTINUOUS
 62
     7
 10
516.75
 20
51.5
 30
0.0
 11
513.75
 21
54.5
 31
0.0
  0
LINE
  8
L-ZISSEN
  6
CONTINUOUS
 62
     7
 10
513.0
 20
54.5
 30
0.0
 11
537.0
 21
54.5
 31
0.0
  0
LINE
  8
L-ZISSEN
  6
CONTINUOUS
 62
     7
 10
516.75
 20
51.5
 30
0.0
 11
533.25
 21
51.5
 31
0.0
  0
LINE
  8
L-ZISSEN
  6
CONTINUOUS
 62
     7
 10
513.0
 20
60.5
 30
0.0
 11
537.0
 21
60.5
 31
0.0
  0
LINE
  8
L-ZISSEN
  6
CONTINUOUS
 62
     7
 10
537.0
 20
64.5
 30
0.0
 11
513.0
 21
64.5
 31
0.0
  0
LINE
  8
L-ZISSEN
  6
CONTINUOUS
 62
     7
 10
537.0
 20
60.5
 30
0.0
 11
537.0
 21
54.5
 31
0.0
  0
LINE
  8
L-ZISSEN
  6
CONTINUOUS
 62
     7
 10
513.0
 20
60.5
 30
0.0
 11
513.0
 21
54.5
 31
0.0
  0
LINE
  8
L-ZISSEN
  6
CONTINUOUS
 62
     7
 10
517.0
 20
64.5
 30
0.0
 11
517.0
 21
60.5
 31
0.0
  0
LINE
  8
L-ZISSEN
  6
CONTINUOUS
 62
     7
 10
533.0
 20
64.5
 30
0.0
 11
533.0
 21
60.5
 31
0.0
  0
LINE
  8
L-ZISSEN
  6
CONTINUOUS
 62
     7
 10
537.0
 20
69.5
 30
0.0
 11
537.0
 21
64.5
 31
0.0
  0
LINE
  8
L-ZISSEN
  6
CONTINUOUS
 62
     7
 10
513.0
 20
69.5
 30
0.0
 11
513.0
 21
64.5
 31
0.0
  0
LINE
  8
L-ZISSEN
  6
CONTINUOUS
 62
     7
 10
655.136
 20
57.5
 30
0.0
 11
655.136
 21
52.0
 31
0.0
  0
LINE
  8
L-ZISSEN
  6
CONTINUOUS
 62
     7
 10
664.864
 20
57.5
 30
0.0
 11
664.864
 21
52.0
 31
0.0
  0
LINE
  8
L-ZISSEN
  6
CONTINUOUS
 62
     7
 10
655.75
 20
16.5
 30
0.0
 11
655.75
 21
26.744682
 31
0.0
  0
LINE
  8
L-ZISSEN
  6
CONTINUOUS
 62
     7
 10
664.25
 20
16.5
 30
0.0
 11
664.25
 21
26.744682
 31
0.0
  0
LINE
  8
L-ZISSEN
  6
CONTINUOUS
 62
     7
 10
664.25
 20
16.5
 30
0.0
 11
655.75
 21
16.5
 31
0.0
  0
LINE
  8
L-ZISSEN
  6
CONTINUOUS
 62
     7
 10
660.0
 20
41.386751
 30
0.0
 11
657.5
 21
39.943376
 31
0.0
  0
LINE
  8
L-ZISSEN
  6
CONTINUOUS
 62
     7
 10
657.5
 20
39.943376
 30
0.0
 11
657.5
 21
37.056624
 31
0.0
  0
LINE
  8
L-ZISSEN
  6
CONTINUOUS
 62
     7
 10
660.0
 20
35.613249
 30
0.0
 11
657.5
 21
37.056624
 31
0.0
  0
LINE
  8
L-ZISSEN
  6
CONTINUOUS
 62
     7
 10
660.0
 20
41.386751
 30
0.0
 11
662.5
 21
39.943376
 31
0.0
  0
LINE
  8
L-ZISSEN
  6
CONTINUOUS
 62
     7
 10
662.5
 20
39.943376
 30
0.0
 11
662.5
 21
37.056624
 31
0.0
  0
LINE
  8
L-ZISSEN
  6
CONTINUOUS
 62
     7
 10
660.0
 20
35.613249
 30
0.0
 11
662.5
 21
37.056624
 31
0.0
  0
LINE
  8
L-ZISSEN
  6
CONTINUOUS
 62
     7
 10
654.0
 20
49.465856
 30
0.0
 11
654.0
 21
52.0
 31
0.0
  0
LINE
  8
L-ZISSEN
  6
CONTINUOUS
 62
     7
 10
666.0
 20
49.465856
 30
0.0
 11
666.0
 21
52.0
 31
0.0
  0
LINE
  8
L-ZISSEN
  6
CONTINUOUS
 62
     7
 10
654.0
 20
52.0
 30
0.0
 11
666.0
 21
52.0
 31
0.0
  0
CIRCLE
  8
L-ZISSEN
  6
CONTINUOUS
 62
     7
 10
660.0
 20
38.5
 30
0.0
 40
12.5
  0
LINE
  8
L-ZISSEN
  6
CONTINUOUS
 62
     7
 10
784.0
 20
52.0
 30
0.0
 11
796.0
 21
52.0
 31
0.0
  0
LINE
  8
L-ZISSEN
  6
CONTINUOUS
 62
     7
 10
794.864
 20
57.5
 30
0.0
 11
794.864
 21
52.0
 31
0.0
  0
LINE
  8
L-ZISSEN
  6
CONTINUOUS
 62
     7
 10
785.136
 20
57.5
 30
0.0
 11
785.136
 21
52.0
 31
0.0
  0
LINE
  8
L-ZISSEN
  6
CONTINUOUS
 62
     7
 10
791.25
 20
16.5
 30
0.0
 11
782.75
 21
16.5
 31
0.0
  0
LINE
  8
L-ZISSEN
  6
CONTINUOUS
 62
     7
 10
760.0
 20
41.386751
 30
0.0
 11
760.0
 21
35.613249
 31
0.0
  0
LINE
  8
L-ZISSEN
  6
CONTINUOUS
 62
     7
 10
762.5
 20
26.0
 30
0.0
 11
762.5
 21
51.0
 31
0.0
  0
LINE
  8
L-ZISSEN
  6
CONTINUOUS
 62
     7
 10
766.0
 20
51.0
 30
0.0
 11
766.0
 21
26.0
 31
0.0
  0
LINE
  8
L-ZISSEN
  6
CONTINUOUS
 62
     7
 10
772.0
 20
46.582904
 30
0.0
 11
777.0
 21
46.582904
 31
0.0
  0
LINE
  8
L-ZISSEN
  6
CONTINUOUS
 62
     7
 10
772.0
 20
30.417096
 30
0.0
 11
777.0
 21
30.417096
 31
0.0
  0
LINE
  8
L-ZISSEN
  6
CONTINUOUS
 62
     7
 10
766.0
 20
40.75
 30
0.0
 11
772.0
 21
40.75
 31
0.0
  0
LINE
  8
L-ZISSEN
  6
CONTINUOUS
 62
     7
 10
766.0
 20
36.25
 30
0.0
 11
772.0
 21
36.25
 31
0.0
  0
LINE
  8
L-ZISSEN
  6
CONTINUOUS
 62
     7
 10
762.5
 20
51.0
 30
0.0
 11
766.0
 21
51.0
 31
0.0
  0
LINE
  8
L-ZISSEN
  6
CONTINUOUS
 62
     7
 10
762.5
 20
26.0
 30
0.0
 11
766.0
 21
26.0
 31
0.0
  0
LINE
  8
L-ZISSEN
  6
CONTINUOUS
 62
     7
 10
760.0
 20
41.386751
 30
0.0
 11
762.5
 21
41.386751
 31
0.0
  0
LINE
  8
L-ZISSEN
  6
CONTINUOUS
 62
     7
 10
760.0
 20
35.613249
 30
0.0
 11
762.5
 21
35.613249
 31
0.0
  0
LINE
  8
L-ZISSEN
  6
CONTINUOUS
 62
     7
 10
784.0
 20
44.5
 30
0.0
 11
784.0
 21
52.0
 31
0.0
  0
LINE
  8
L-ZISSEN
  6
CONTINUOUS
 62
     7
 10
796.0
 20
32.5
 30
0.0
 11
796.0
 21
52.0
 31
0.0
  0
LINE
  8
L-ZISSEN
  6
CONTINUOUS
 62
     7
 10
784.0
 20
44.5
 30
0.0
 11
777.0
 21
44.5
 31
0.0
  0
LINE
  8
L-ZISSEN
  6
CONTINUOUS
 62
     7
 10
796.0
 20
32.5
 30
0.0
 11
777.0
 21
32.5
 31
0.0
  0
LINE
  8
L-ZISSEN
  6
CONTINUOUS
 62
     7
 10
791.25
 20
16.5
 30
0.0
 11
791.25
 21
32.5
 31
0.0
  0
LINE
  8
L-ZISSEN
  6
CONTINUOUS
 62
     7
 10
782.75
 20
16.5
 30
0.0
 11
782.75
 21
32.5
 31
0.0
  0
LINE
  8
L-ZISSEN
  6
CONTINUOUS
 62
     7
 10
777.0
 20
46.582904
 30
0.0
 11
777.0
 21
30.417096
 31
0.0
  0
LINE
  8
L-ZISSEN
  6
CONTINUOUS
 62
     7
 10
772.0
 20
46.582904
 30
0.0
 11
772.0
 21
30.417096
 31
0.0
  0
TEXT
  8
L-ZISSEN
 10
145.0
 20
420.0
 30
0.0
 40
4.5
  1
(GS)
  0
LINE
  8
L-ZISSEN
 10
111.5
 20
52.0
 30
0.0
 11
111.5
 21
43.0
 31
0.0
  0
LINE
  8
L-ZISSEN
 10
118.5
 20
43.0
 30
0.0
 11
111.5
 21
43.0
 31
0.0
  0
LINE
  8
L-ZISSEN
 10
118.5
 20
52.0
 30
0.0
 11
118.5
 21
43.0
 31
0.0
  0
LINE
  8
L-ZISSEN
 10
241.5
 20
52.0
 30
0.0
 11
241.5
 21
43.0
 31
0.0
  0
LINE
  8
L-ZISSEN
 10
248.5
 20
43.0
 30
0.0
 11
241.5
 21
43.0
 31
0.0
  0
LINE
  8
L-ZISSEN
 10
248.5
 20
52.0
 30
0.0
 11
248.5
 21
43.0
 31
0.0
  0
LINE
  8
L-ZISSEN
 10
398.5
 20
50.5
 30
0.0
 11
398.5
 21
41.5
 31
0.0
  0
LINE
  8
L-ZISSEN
 10
391.5
 20
50.5
 30
0.0
 11
391.5
 21
41.5
 31
0.0
  0
LINE
  8
L-ZISSEN
 10
398.5
 20
41.5
 30
0.0
 11
391.5
 21
41.5
 31
0.0
  0
LINE
  8
L-ZISSEN
 10
521.5
 20
50.5
 30
0.0
 11
521.5
 21
41.5
 31
0.0
  0
LINE
  8
L-ZISSEN
 10
528.5
 20
41.5
 30
0.0
 11
521.5
 21
41.5
 31
0.0
  0
LINE
  8
L-ZISSEN
 10
528.5
 20
50.5
 30
0.0
 11
528.5
 21
41.5
 31
0.0
  0
LINE
  8
L-ZISSEN
 10
663.5
 20
291.2
 30
0.0
 11
663.5
 21
282.2
 31
0.0
  0
LINE
  8
L-ZISSEN
 10
663.5
 20
282.2
 30
0.0
 11
656.5
 21
282.2
 31
0.0
  0
LINE
  8
L-ZISSEN
 10
656.5
 20
291.2
 30
0.0
 11
656.5
 21
282.2
 31
0.0
  0
LINE
  8
L-ZISSEN
 10
766.5
 20
291.2
 30
0.0
 11
766.5
 21
282.2
 31
0.0
  0
LINE
  8
L-ZISSEN
 10
773.5
 20
282.2
 30
0.0
 11
766.5
 21
282.2
 31
0.0
  0
LINE
  8
L-ZISSEN
 10
773.5
 20
291.2
 30
0.0
 11
773.5
 21
282.2
 31
0.0
  0
ENDSEC
  0
EOF
