  0
SECTION
  2
HEADER
  9
$ACADVER
  1
AC1012
  9
$DWGCODEPAGE
  3
dos932
  9
$INSBASE
 10
0.0
 20
0.0
 30
0.0
  9
$EXTMIN
 10
-0.019921817478803
 20
1.747614689132547
 30
-0.0000000349181948
  9
$EXTMAX
 10
326.4339248575388
 20
247.3760990995752
 30
0.0000000814935746
  9
$LIMMIN
 10
0.0
 20
0.0
  9
$LIMMAX
 10
12.0
 20
9.0
  9
$ORTHOMODE
 70
     1
  9
$REGENMODE
 70
     1
  9
$FILLMODE
 70
     1
  9
$QTEXTMODE
 70
     0
  9
$MIRRTEXT
 70
     1
  9
$DRAGMODE
 70
     2
  9
$LTSCALE
 40
10.0
  9
$OSMODE
 70
    37
  9
$ATTMODE
 70
     1
  9
$TEXTSIZE
 40
0.2
  9
$TRACEWID
 40
0.05
  9
$TEXTSTYLE
  7
STANDARD
  9
$CLAYER
  8
0
  9
$CELTYPE
  6
BYLAYER
  9
$CECOLOR
 62
   256
  9
$CELTSCALE
 40
1.0
  9
$DELOBJ
 70
     1
  9
$DISPSILH
 70
     0
  9
$DIMSCALE
 40
1.0
  9
$DIMASZ
 40
0.18
  9
$DIMEXO
 40
0.0625
  9
$DIMDLI
 40
0.38
  9
$DIMRND
 40
0.0
  9
$DIMDLE
 40
0.0
  9
$DIMEXE
 40
0.18
  9
$DIMTP
 40
0.0
  9
$DIMTM
 40
0.0
  9
$DIMTXT
 40
0.18
  9
$DIMCEN
 40
0.09
  9
$DIMTSZ
 40
0.0
  9
$DIMTOL
 70
     0
  9
$DIMLIM
 70
     0
  9
$DIMTIH
 70
     1
  9
$DIMTOH
 70
     1
  9
$DIMSE1
 70
     0
  9
$DIMSE2
 70
     0
  9
$DIMTAD
 70
     0
  9
$DIMZIN
 70
     0
  9
$DIMBLK
  1

  9
$DIMASO
 70
     1
  9
$DIMSHO
 70
     0
  9
$DIMPOST
  1

  9
$DIMAPOST
  1

  9
$DIMALT
 70
     0
  9
$DIMALTD
 70
     2
  9
$DIMALTF
 40
25.4
  9
$DIMLFAC
 40
1.0
  9
$DIMTOFL
 70
     0
  9
$DIMTVP
 40
0.0
  9
$DIMTIX
 70
     0
  9
$DIMSOXD
 70
     0
  9
$DIMSAH
 70
     0
  9
$DIMBLK1
  1

  9
$DIMBLK2
  1

  9
$DIMSTYLE
  2
STANDARD
  9
$DIMCLRD
 70
     0
  9
$DIMCLRE
 70
     0
  9
$DIMCLRT
 70
     0
  9
$DIMTFAC
 40
1.0
  9
$DIMGAP
 40
0.09
  9
$DIMJUST
 70
     0
  9
$DIMSD1
 70
     0
  9
$DIMSD2
 70
     0
  9
$DIMTOLJ
 70
     1
  9
$DIMTZIN
 70
     0
  9
$DIMALTZ
 70
     0
  9
$DIMALTTZ
 70
     0
  9
$DIMFIT
 70
     3
  9
$DIMUPT
 70
     0
  9
$DIMUNIT
 70
     2
  9
$DIMDEC
 70
     4
  9
$DIMTDEC
 70
     4
  9
$DIMALTU
 70
     2
  9
$DIMALTTD
 70
     2
  9
$DIMTXSTY
  7
STANDARD
  9
$DIMAUNIT
 70
     0
  9
$LUNITS
 70
     2
  9
$LUPREC
 70
     4
  9
$SKETCHINC
 40
0.1
  9
$FILLETRAD
 40
0.0
  9
$AUNITS
 70
     0
  9
$AUPREC
 70
     0
  9
$MENU
  1
acad
  9
$ELEVATION
 40
0.0
  9
$PELEVATION
 40
0.0
  9
$THICKNESS
 40
0.0
  9
$LIMCHECK
 70
     0
  9
$BLIPMODE
 70
     0
  9
$CHAMFERA
 40
0.0
  9
$CHAMFERB
 40
0.0
  9
$CHAMFERC
 40
0.0
  9
$CHAMFERD
 40
0.0
  9
$SKPOLY
 70
     0
  9
$TDCREATE
 40
2448751.590578703
  9
$TDUPDATE
 40
2453138.405495023
  9
$TDINDWG
 40
0.0329896991
  9
$TDUSRTIMER
 40
0.0329891204
  9
$USRTIMER
 70
     1
  9
$ANGBASE
 50
0.0
  9
$ANGDIR
 70
     0
  9
$PDMODE
 70
     0
  9
$PDSIZE
 40
0.0
  9
$PLINEWID
 40
0.0
  9
$COORDS
 70
     2
  9
$SPLFRAME
 70
     0
  9
$SPLINETYPE
 70
     6
  9
$SPLINESEGS
 70
     8
  9
$ATTDIA
 70
     0
  9
$ATTREQ
 70
     1
  9
$HANDLING
 70
-16383
  9
$HANDSEED
  5
5BA
  9
$SURFTAB1
 70
     6
  9
$SURFTAB2
 70
     6
  9
$SURFTYPE
 70
     6
  9
$SURFU
 70
     6
  9
$SURFV
 70
     6
  9
$UCSNAME
  2

  9
$UCSORG
 10
0.0
 20
0.0
 30
0.0
  9
$UCSXDIR
 10
1.0
 20
0.0
 30
0.0
  9
$UCSYDIR
 10
0.0
 20
1.0
 30
0.0
  9
$PUCSNAME
  2

  9
$PUCSORG
 10
0.0
 20
0.0
 30
0.0
  9
$PUCSXDIR
 10
1.0
 20
0.0
 30
0.0
  9
$PUCSYDIR
 10
0.0
 20
1.0
 30
0.0
  9
$USERI1
 70
     0
  9
$USERI2
 70
     0
  9
$USERI3
 70
     0
  9
$USERI4
 70
     0
  9
$USERI5
 70
     0
  9
$USERR1
 40
0.0
  9
$USERR2
 40
0.0
  9
$USERR3
 40
0.0
  9
$USERR4
 40
0.0
  9
$USERR5
 40
0.0
  9
$WORLDVIEW
 70
     1
  9
$SHADEDGE
 70
     3
  9
$SHADEDIF
 70
    70
  9
$TILEMODE
 70
     1
  9
$MAXACTVP
 70
    48
  9
$PINSBASE
 10
0.0
 20
0.0
 30
0.0
  9
$PLIMCHECK
 70
     0
  9
$PEXTMIN
 10
1.000000000000000E+20
 20
1.000000000000000E+20
 30
1.000000000000000E+20
  9
$PEXTMAX
 10
-1.000000000000000E+20
 20
-1.000000000000000E+20
 30
-1.000000000000000E+20
  9
$PLIMMIN
 10
0.0
 20
0.0
  9
$PLIMMAX
 10
12.0
 20
9.0
  9
$UNITMODE
 70
     0
  9
$VISRETAIN
 70
     1
  9
$PLINEGEN
 70
     0
  9
$PSLTSCALE
 70
     1
  9
$TREEDEPTH
 70
  3020
  9
$PICKSTYLE
 70
     1
  9
$CMLSTYLE
  2
STANDARD
  9
$CMLJUST
 70
     0
  9
$CMLSCALE
 40
1.0
  9
$SAVEIMAGES
 70
     1
  0
ENDSEC
  0
SECTION
  2
CLASSES
  0
CLASS
  1
ACDBDICTIONARYWDFLT
  2
AcDbDictionaryWithDefault
  3
AutoCAD 2000
 90
    32768
280
     0
281
     0
  0
CLASS
  1
ACDBPLACEHOLDER
  2
AcDbPlaceHolder
  3
AutoCAD 2000
 90
    32768
280
     0
281
     0
  0
CLASS
  1
LAYOUT
  2
AcDbLayout
  3
AutoCAD 2000
 90
    32768
280
     0
281
     0
  0
CLASS
  1
LONG_TRANSACTION
  2
AcDbLongTransaction
  3
AutoCAD 2000
 90
    32768
280
     0
281
     0
  0
CLASS
  1
LWPOLYLINE
  2
AcDbPolyline
  3
AutoCAD 2000
 90
    32768
280
     0
281
     1
  0
CLASS
  1
HATCH
  2
AcDbHatch
  3
AutoCAD 2000
 90
    32768
280
     0
281
     1
  0
CLASS
  1
XRECORD
  2
AcDbXrecord
  3
AutoCAD 2000
 90
    32768
280
     0
281
     0
  0
CLASS
  1
LONG_TRANSACTION
  2
AcDbLongTransaction
  3
AutoCAD 2000
 90
    32768
280
     0
281
     0
  0
CLASS
  1
LWPOLYLINE
  2
AcDbPolyline
  3
AutoCAD 2000
 90
    32768
280
     0
281
     1
  0
CLASS
  1
HATCH
  2
AcDbHatch
  3
AutoCAD 2000
 90
    32768
280
     0
281
     1
  0
CLASS
  1
XRECORD
  2
AcDbXrecord
  3
AutoCAD 2000
 90
    32768
280
     0
281
     0
  0
ENDSEC
  0
SECTION
  2
TABLES
  0
TABLE
  2
VPORT
  5
8
330
0
100
AcDbSymbolTable
 70
     4
  0
VPORT
  5
58F
330
8
100
AcDbSymbolTableRecord
100
AcDbViewportTableRecord
  2
*ACTIVE
 70
     0
 10
0.0
 20
0.0
 11
1.0
 21
1.0
 12
163.20700152003
 22
124.5618568943538
 13
0.0
 23
0.0
 14
1.0
 24
1.0
 15
0.0
 25
0.0
 16
0.0
 26
0.0
 36
1.0
 17
0.0
 27
0.0
 37
0.0
 40
248.4957429833272
 41
1.84990253411306
 42
50.0
 43
0.0
 44
0.0
 50
0.0
 51
0.0
 71
     0
 72
   100
 73
     1
 74
     1
 75
     0
 76
     0
 77
     0
 78
     0
  0
ENDTAB
  0
TABLE
  2
LTYPE
  5
5
330
0
100
AcDbSymbolTable
 70
     2
  0
LTYPE
  5
13
330
5
100
AcDbSymbolTableRecord
100
AcDbLinetypeTableRecord
  2
BYBLOCK
 70
     0
  3

 72
    65
 73
     0
 40
0.0
  0
LTYPE
  5
14
330
5
100
AcDbSymbolTableRecord
100
AcDbLinetypeTableRecord
  2
BYLAYER
 70
     0
  3

 72
    65
 73
     0
 40
0.0
  0
LTYPE
  5
15
330
5
100
AcDbSymbolTableRecord
100
AcDbLinetypeTableRecord
  2
CONTINUOUS
 70
     0
  3
実線
 72
    65
 73
     0
 40
0.0
  0
LTYPE
  5
25
330
5
100
AcDbSymbolTableRecord
100
AcDbLinetypeTableRecord
  2
CENTER
 70
     0
  3
____ _ ____ _ ____ _ ____ _ ____ _ ____ _ ____
 72
    65
 73
     4
 40
2.0
 49
1.25
 74
     0
 49
-0.25
 74
     0
 49
0.25
 74
     0
 49
-0.25
 74
     0
  0
ENDTAB
  0
TABLE
  2
LAYER
  5
2
330
0
100
AcDbSymbolTable
 70
     3
  0
LAYER
  5
10
330
2
100
AcDbSymbolTableRecord
100
AcDbLayerTableRecord
  2
0
 70
     0
 62
     7
  6
CONTINUOUS
  0
LAYER
  5
2B
330
2
100
AcDbSymbolTableRecord
100
AcDbLayerTableRecord
  2
PV
 70
     0
 62
     7
  6
CONTINUOUS
  0
LAYER
  5
221
330
2
100
AcDbSymbolTableRecord
100
AcDbLayerTableRecord
  2
L-ZISSEN
 70
     0
 62
     7
  6
CONTINUOUS
  0
ENDTAB
  0
TABLE
  2
STYLE
  5
3
330
0
100
AcDbSymbolTable
 70
     2
  0
STYLE
  5
11
330
3
100
AcDbSymbolTableRecord
100
AcDbTextStyleTableRecord
  2
STANDARD
 70
     0
 40
0.0
 41
1.0
 50
0.0
 71
     0
 42
0.2
  3
txt
  4

  0
STYLE
  5
2C
330
3
100
AcDbSymbolTableRecord
100
AcDbTextStyleTableRecord
  2
FONT1
 70
     0
 40
0.0
 41
1.0
 50
0.0
 71
     0
 42
0.2
  3
MONOTXT
  4

  0
ENDTAB
  0
TABLE
  2
VIEW
  5
6
330
0
100
AcDbSymbolTable
 70
     0
  0
ENDTAB
  0
TABLE
  2
UCS
  5
7
330
0
100
AcDbSymbolTable
 70
     0
  0
ENDTAB
  0
TABLE
  2
APPID
  5
9
330
0
100
AcDbSymbolTable
 70
     1
  0
APPID
  5
12
330
9
100
AcDbSymbolTableRecord
100
AcDbRegAppTableRecord
  2
ACAD
 70
     0
  0
ENDTAB
  0
TABLE
  2
DIMSTYLE
  5
A
330
0
100
AcDbSymbolTable
 70
     1
  0
DIMSTYLE
105
1C3
330
A
100
AcDbSymbolTableRecord
100
AcDbDimStyleTableRecord
  2
STANDARD
 70
     0
  3

  4

  5

  6

  7

 40
1.0
 41
0.18
 42
0.0625
 43
0.38
 44
0.18
 45
0.0
 46
0.0
 47
0.0
 48
0.0
140
0.18
141
0.09
142
0.0
143
25.4
144
1.0
145
0.0
146
1.0
147
0.09
 71
     0
 72
     0
 73
     1
 74
     1
 75
     0
 76
     0
 77
     0
 78
     0
170
     0
171
     2
172
     0
173
     0
174
     0
175
     0
176
     0
177
     0
178
     0
270
     2
271
     4
272
     4
273
     2
274
     2
340
11
275
     0
280
     0
281
     0
282
     0
283
     1
284
     0
285
     0
286
     0
287
     3
288
     0
  0
ENDTAB
  0
TABLE
  2
BLOCK_RECORD
  5
1
330
0
100
AcDbSymbolTable
 70
     0
  0
BLOCK_RECORD
  5
1E
102
{ACAD_XDICTIONARY
360
463
102
}
330
1
100
AcDbSymbolTableRecord
100
AcDbBlockTableRecord
  2
*MODEL_SPACE
  0
BLOCK_RECORD
  5
1A
102
{ACAD_XDICTIONARY
360
465
102
}
330
1
100
AcDbSymbolTableRecord
100
AcDbBlockTableRecord
  2
*PAPER_SPACE
  0
ENDTAB
  0
ENDSEC
  0
SECTION
  2
BLOCKS
  0
BLOCK
  5
1F
330
1E
100
AcDbEntity
  8
0
100
AcDbBlockBegin
  2
*MODEL_SPACE
 70
     0
 10
0.0
 20
0.0
 30
0.0
  3
*MODEL_SPACE
  1

  0
ENDBLK
  5
20
330
1E
100
AcDbEntity
  8
0
100
AcDbBlockEnd
  0
BLOCK
  5
1B
330
1A
100
AcDbEntity
 67
     1
  8
0
100
AcDbBlockBegin
  2
*PAPER_SPACE
 70
     0
 10
0.0
 20
0.0
 30
0.0
  3
*PAPER_SPACE
  1

  0
ENDBLK
  5
1C
330
1A
100
AcDbEntity
 67
     1
  8
0
100
AcDbBlockEnd
  0
ENDSEC
  0
SECTION
  2
ENTITIES
  0
LINE
  5
31
330
1E
100
AcDbEntity
  8
PV
 62
     7
100
AcDbLine
 10
103.8569999999999
 20
107.0
 30
0.0
 11
78.8454
 21
107.0
 31
0.0
  0
LINE
  5
32
330
1E
100
AcDbEntity
  8
PV
 62
     7
100
AcDbLine
 10
103.8569999999999
 20
113.0
 30
0.0
 11
75.38129999999999
 21
113.0
 31
0.0
  0
LINE
  5
33
330
1E
100
AcDbEntity
  8
PV
  6
CENTER
 62
     1
100
AcDbLine
 10
88.366
 20
35.0
 30
0.0
 11
141.866
 21
35.0
 31
0.0
  0
LINE
  5
34
330
1E
100
AcDbEntity
  8
PV
  6
CENTER
 62
     1
100
AcDbLine
 10
0.0
 20
70.0
 30
0.0
 11
320.0
 21
70.0
 31
0.0
  0
TEXT
  5
35
330
1E
100
AcDbEntity
  8
PV
 62
     7
100
AcDbText
 10
0.85134
 20
59.5146
 30
0.0
 40
4.5
  1
NOZZLE-CHIP : MODEL No.
 41
0.9275933
  7
FONT1
100
AcDbText
  0
LINE
  5
36
330
1E
100
AcDbEntity
  8
PV
 62
     7
100
AcDbLine
 10
39.2496
 20
42.0
 30
0.0
 11
58.866
 21
42.0
 31
0.0
  0
LINE
  5
37
330
1E
100
AcDbEntity
  8
PV
 62
     7
100
AcDbLine
 10
39.2496
 20
28.0
 30
0.0
 11
58.866
 21
28.0
 31
0.0
  0
LINE
  5
38
330
1E
100
AcDbEntity
  8
PV
  6
CENTER
 62
     1
100
AcDbLine
 10
7.36601
 20
35.0
 30
0.0
 11
60.866
 21
35.0
 31
0.0
  0
LINE
  5
39
330
1E
100
AcDbEntity
  8
PV
 62
     7
100
AcDbLine
 10
9.866010000000001
 20
32.5
 30
0.0
 11
26.6602
 21
28.0
 31
0.0
  0
LINE
  5
3A
330
1E
100
AcDbEntity
  8
PV
 62
     7
100
AcDbLine
 10
26.6602
 20
28.0
 30
0.0
 11
34.866
 21
28.0
 31
0.0
  0
LINE
  5
3B
330
1E
100
AcDbEntity
  8
PV
 62
     7
100
AcDbLine
 10
34.866
 20
42.0
 30
0.0
 11
34.866
 21
28.0
 31
0.0
  0
LINE
  5
3C
330
1E
100
AcDbEntity
  8
PV
 62
     7
100
AcDbLine
 10
9.866010000000001
 20
37.5
 30
0.0
 11
26.6602
 21
42.0
 31
0.0
  0
LINE
  5
3D
330
1E
100
AcDbEntity
  8
PV
 62
     7
100
AcDbLine
 10
9.866010000000001
 20
37.5
 30
0.0
 11
9.866010000000001
 21
32.5
 31
0.0
  0
LINE
  5
3E
330
1E
100
AcDbEntity
  8
PV
 62
     7
100
AcDbLine
 10
26.6602
 20
42.0
 30
0.0
 11
34.866
 21
42.0
 31
0.0
  0
LINE
  5
3F
330
1E
100
AcDbEntity
  8
PV
 62
     7
100
AcDbLine
 10
39.2496
 20
28.0
 30
0.0
 11
39.2496
 21
42.0
 31
0.0
  0
LINE
  5
40
330
1E
100
AcDbEntity
  8
PV
 62
     7
100
AcDbLine
 10
58.866
 20
28.0
 30
0.0
 11
58.866
 21
42.0
 31
0.0
  0
LINE
  5
41
330
1E
100
AcDbEntity
  8
PV
 62
     7
100
AcDbLine
 10
90.866
 20
37.5
 30
0.0
 11
90.866
 21
32.5
 31
0.0
  0
LINE
  5
42
330
1E
100
AcDbEntity
  8
PV
 62
     7
100
AcDbLine
 10
73.0719
 20
113.0
 30
0.0
 11
58.866
 21
113.0
 31
0.0
  0
LINE
  5
43
330
1E
100
AcDbEntity
  8
PV
 62
     7
100
AcDbLine
 10
76.536
 20
107.0
 30
0.0
 11
58.866
 21
107.0
 31
0.0
  0
LINE
  5
44
330
1E
100
AcDbEntity
  8
PV
 62
     7
100
AcDbLine
 10
73.0719
 20
117.0
 30
0.0
 11
81.15479999999999
 21
103.0
 31
0.0
  0
LINE
  5
45
330
1E
100
AcDbEntity
  8
PV
 62
     7
100
AcDbLine
 10
70.7625
 20
117.0
 30
0.0
 11
78.8454
 21
103.0
 31
0.0
  0
LINE
  5
46
330
1E
100
AcDbEntity
  8
PV
 62
     7
100
AcDbLine
 10
103.8569999999999
 20
104.0
 30
0.0
 11
103.8569999999999
 21
116.0
 31
0.0
  0
LINE
  5
47
330
1E
100
AcDbEntity
  8
PV
  6
CENTER
 62
     1
100
AcDbLine
 10
169.366
 20
35.0
 30
0.0
 11
222.866
 21
35.0
 31
0.0
  0
LINE
  5
48
330
1E
100
AcDbEntity
  8
PV
 62
     7
100
AcDbLine
 10
139.866
 20
28.0
 30
0.0
 11
139.866
 21
42.0
 31
0.0
  0
LINE
  5
49
330
1E
100
AcDbEntity
  8
PV
 62
     7
100
AcDbLine
 10
95.36599999999999
 20
28.0
 30
0.0
 11
115.866
 21
28.0
 31
0.0
  0
LINE
  5
4A
330
1E
100
AcDbEntity
  8
PV
 62
     7
100
AcDbLine
 10
115.866
 20
42.0
 30
0.0
 11
115.866
 21
28.0
 31
0.0
  0
LINE
  5
4B
330
1E
100
AcDbEntity
  8
PV
 62
     7
100
AcDbLine
 10
120.25
 20
28.0
 30
0.0
 11
139.866
 21
28.0
 31
0.0
  0
LINE
  5
4C
330
1E
100
AcDbEntity
  8
PV
 62
     7
100
AcDbLine
 10
120.25
 20
28.0
 30
0.0
 11
120.25
 21
42.0
 31
0.0
  0
LINE
  5
4D
330
1E
100
AcDbEntity
  8
PV
 62
     7
100
AcDbLine
 10
95.36599999999999
 20
42.0
 30
0.0
 11
115.866
 21
42.0
 31
0.0
  0
LINE
  5
4E
330
1E
100
AcDbEntity
  8
PV
 62
     7
100
AcDbLine
 10
120.25
 20
42.0
 30
0.0
 11
139.866
 21
42.0
 31
0.0
  0
LINE
  5
4F
330
1E
100
AcDbEntity
  8
PV
 62
     7
100
AcDbLine
 10
171.866
 20
41.5
 30
0.0
 11
171.866
 21
28.5
 31
0.0
  0
LINE
  5
50
330
1E
100
AcDbEntity
  8
PV
 62
     7
100
AcDbLine
 10
183.866
 20
28.5
 30
0.0
 11
171.866
 21
28.5
 31
0.0
  0
LINE
  5
51
330
1E
100
AcDbEntity
  8
PV
 62
     7
100
AcDbLine
 10
183.866
 20
28.0
 30
0.0
 11
196.866
 21
28.0
 31
0.0
  0
LINE
  5
52
330
1E
100
AcDbEntity
  8
PV
 62
     7
100
AcDbLine
 10
183.866
 20
42.0
 30
0.0
 11
183.866
 21
28.0
 31
0.0
  0
LINE
  5
53
330
1E
100
AcDbEntity
  8
PV
 62
     7
100
AcDbLine
 10
201.25
 20
28.0
 30
0.0
 11
201.25
 21
42.0
 31
0.0
  0
LINE
  5
54
330
1E
100
AcDbEntity
  8
PV
 62
     7
100
AcDbLine
 10
196.866
 20
42.0
 30
0.0
 11
196.866
 21
28.0
 31
0.0
  0
LINE
  5
55
330
1E
100
AcDbEntity
  8
PV
 62
     7
100
AcDbLine
 10
183.866
 20
42.0
 30
0.0
 11
196.866
 21
42.0
 31
0.0
  0
LINE
  5
56
330
1E
100
AcDbEntity
  8
PV
 62
     7
100
AcDbLine
 10
183.866
 20
41.5
 30
0.0
 11
171.866
 21
41.5
 31
0.0
  0
LINE
  5
57
330
1E
100
AcDbEntity
  8
PV
 62
     7
100
AcDbLine
 10
262.8659999999999
 20
46.0
 30
0.0
 11
251.866
 21
46.0
 31
0.0
  0
LINE
  5
58
330
1E
100
AcDbEntity
  8
PV
 62
     7
100
AcDbLine
 10
262.8659999999999
 20
24.0
 30
0.0
 11
251.866
 21
24.0
 31
0.0
  0
LINE
  5
59
330
1E
100
AcDbEntity
  8
PV
  6
CENTER
 62
     1
100
AcDbLine
 10
249.366
 20
35.0
 30
0.0
 11
305.8659999999999
 21
35.0
 31
0.0
  0
LINE
  5
5A
330
1E
100
AcDbEntity
  8
PV
 62
     7
100
AcDbLine
 10
251.866
 20
24.0
 30
0.0
 11
251.866
 21
46.0
 31
0.0
  0
LINE
  5
5B
330
1E
100
AcDbEntity
  8
PV
 62
     7
100
AcDbLine
 10
220.866
 20
28.0
 30
0.0
 11
220.866
 21
42.0
 31
0.0
  0
LINE
  5
5C
330
1E
100
AcDbEntity
  8
PV
 62
     7
100
AcDbLine
 10
201.25
 20
28.0
 30
0.0
 11
220.866
 21
28.0
 31
0.0
  0
LINE
  5
5D
330
1E
100
AcDbEntity
  8
PV
 62
     7
100
AcDbLine
 10
201.25
 20
42.0
 30
0.0
 11
220.866
 21
42.0
 31
0.0
  0
LINE
  5
5E
330
1E
100
AcDbEntity
  8
PV
 62
     7
100
AcDbLine
 10
300.8659999999999
 20
28.0
 30
0.0
 11
300.8659999999999
 21
42.0
 31
0.0
  0
LINE
  5
5F
330
1E
100
AcDbEntity
  8
PV
 62
     7
100
AcDbLine
 10
281.25
 20
28.0
 30
0.0
 11
300.8659999999999
 21
28.0
 31
0.0
  0
LINE
  5
60
330
1E
100
AcDbEntity
  8
PV
 62
     7
100
AcDbLine
 10
266.866
 20
28.0
 30
0.0
 11
276.866
 21
28.0
 31
0.0
  0
LINE
  5
61
330
1E
100
AcDbEntity
  8
PV
 62
     7
100
AcDbLine
 10
262.8659999999999
 20
24.0
 30
0.0
 11
266.866
 21
28.0
 31
0.0
  0
LINE
  5
62
330
1E
100
AcDbEntity
  8
PV
 62
     7
100
AcDbLine
 10
276.866
 20
42.0
 30
0.0
 11
276.866
 21
28.0
 31
0.0
  0
LINE
  5
63
330
1E
100
AcDbEntity
  8
PV
 62
     7
100
AcDbLine
 10
281.25
 20
28.0
 30
0.0
 11
281.25
 21
42.0
 31
0.0
  0
LINE
  5
64
330
1E
100
AcDbEntity
  8
PV
 62
     7
100
AcDbLine
 10
281.25
 20
42.0
 30
0.0
 11
300.8659999999999
 21
42.0
 31
0.0
  0
LINE
  5
65
330
1E
100
AcDbEntity
  8
PV
 62
     7
100
AcDbLine
 10
266.866
 20
42.0
 30
0.0
 11
276.866
 21
42.0
 31
0.0
  0
LINE
  5
66
330
1E
100
AcDbEntity
  8
PV
 62
     7
100
AcDbLine
 10
262.8659999999999
 20
46.0
 30
0.0
 11
266.866
 21
42.0
 31
0.0
  0
TEXT
  5
67
330
1E
100
AcDbEntity
  8
PV
 62
     7
100
AcDbText
 10
165.5196
 20
159.461
 30
0.0
 40
4.5
  1
O.D.%%c6 TUBE
 41
0.8789089
  7
FONT1
100
AcDbText
  0
LINE
  5
68
330
1E
100
AcDbEntity
  8
PV
 62
     7
100
AcDbLine
 10
143.9379999999999
 20
128.1539999999999
 30
0.0
 11
143.9379999999999
 21
124.543
 31
0.0
  0
LINE
  5
69
330
1E
100
AcDbEntity
  8
PV
 62
     7
100
AcDbLine
 10
129.7609999999999
 20
128.1539999999999
 30
0.0
 11
129.7609999999999
 21
124.543
 31
0.0
  0
LINE
  5
6A
330
1E
100
AcDbEntity
  8
PV
  6
CENTER
 62
     1
100
AcDbLine
 10
136.8489999999999
 20
141.9869999999999
 30
0.0
 11
136.8489999999999
 21
109.876
 31
0.0
  0
LINE
  5
6B
330
1E
100
AcDbEntity
  8
PV
 62
     7
100
AcDbLine
 10
110.857
 20
87.0
 30
0.0
 11
163.3569999999999
 21
87.0
 31
0.0
  0
LINE
  5
6C
330
1E
100
AcDbEntity
  8
PV
 62
     7
100
AcDbLine
 10
165.357
 20
85.0
 30
0.0
 11
110.857
 21
85.0
 31
0.0
  0
LINE
  5
6D
330
1E
100
AcDbEntity
  8
PV
 62
     7
100
AcDbLine
 10
162.3569999999999
 20
122.5
 30
0.0
 11
126.9859999999999
 21
122.5
 31
0.0
  0
LINE
  5
6E
330
1E
100
AcDbEntity
  8
PV
 62
     7
100
AcDbLine
 10
162.3569999999999
 20
97.5
 30
0.0
 11
126.9859999999999
 21
97.5
 31
0.0
  0
LINE
  5
6F
330
1E
100
AcDbEntity
  8
PV
 62
     7
100
AcDbLine
 10
110.857
 20
87.0
 30
0.0
 11
110.857
 21
85.0
 31
0.0
  0
LINE
  5
70
330
1E
100
AcDbEntity
  8
PV
  6
CENTER
 62
     1
100
AcDbLine
 10
116.857
 20
89.0
 30
0.0
 11
116.857
 21
83.0
 31
0.0
  0
LINE
  5
71
330
1E
100
AcDbEntity
  8
PV
 62
     7
100
AcDbLine
 10
129.7609999999999
 20
124.543
 30
0.0
 11
143.9379999999999
 21
124.543
 31
0.0
  0
LINE
  5
72
330
1E
100
AcDbEntity
  8
PV
 62
     7
100
AcDbLine
 10
103.8569999999999
 20
104.0
 30
0.0
 11
112.857
 21
104.0
 31
0.0
  0
LINE
  5
73
330
1E
100
AcDbEntity
  8
PV
 62
     7
100
AcDbLine
 10
112.857
 20
105.4999999999999
 30
0.0
 11
114.473
 21
105.4999999999999
 31
0.0
  0
LINE
  5
74
330
1E
100
AcDbEntity
  8
PV
 62
     7
100
AcDbLine
 10
121.357
 20
100.75
 30
0.0
 11
126.9859999999999
 21
97.5
 31
0.0
  0
LINE
  5
75
330
1E
100
AcDbEntity
  8
PV
 62
     7
100
AcDbLine
 10
103.8569999999999
 20
116.0
 30
0.0
 11
112.857
 21
116.0
 31
0.0
  0
LINE
  5
76
330
1E
100
AcDbEntity
  8
PV
 62
     7
100
AcDbLine
 10
112.857
 20
114.5
 30
0.0
 11
114.473
 21
114.5
 31
0.0
  0
LINE
  5
77
330
1E
100
AcDbEntity
  8
PV
 62
     7
100
AcDbLine
 10
112.857
 20
104.0
 30
0.0
 11
112.857
 21
116.0
 31
0.0
  0
LINE
  5
78
330
1E
100
AcDbEntity
  8
PV
 62
     7
100
AcDbLine
 10
121.357
 20
100.75
 30
0.0
 11
121.357
 21
119.25
 31
0.0
  0
LINE
  5
79
330
1E
100
AcDbEntity
  8
PV
 62
     7
100
AcDbLine
 10
121.357
 20
119.25
 30
0.0
 11
126.9859999999999
 21
122.5
 31
0.0
  0
LINE
  5
7A
330
1E
100
AcDbEntity
  8
PV
 62
     7
100
AcDbLine
 10
165.357
 20
120.95
 30
0.0
 11
165.357
 21
85.0
 31
0.0
  0
LINE
  5
7B
330
1E
100
AcDbEntity
  8
PV
 62
     7
100
AcDbLine
 10
163.3569999999999
 20
87.0
 30
0.0
 11
163.3569999999999
 21
121.5
 31
0.0
  0
LINE
  5
7C
330
1E
100
AcDbEntity
  8
PV
 62
     7
100
AcDbLine
 10
172.357
 20
102.0
 30
0.0
 11
170.8569999999999
 21
100.5
 31
0.0
  0
LINE
  5
7D
330
1E
100
AcDbEntity
  8
PV
 62
     7
100
AcDbLine
 10
163.3569999999999
 20
98.50000000000001
 30
0.0
 11
162.3569999999999
 21
97.5
 31
0.0
  0
LINE
  5
7E
330
1E
100
AcDbEntity
  8
PV
 62
     7
100
AcDbLine
 10
170.8569999999999
 20
100.5
 30
0.0
 11
165.357
 21
100.5
 31
0.0
  0
LINE
  5
7F
330
1E
100
AcDbEntity
  8
PV
 62
     7
100
AcDbLine
 10
170.8569999999999
 20
119.5
 30
0.0
 11
172.357
 21
118.0
 31
0.0
  0
LINE
  5
80
330
1E
100
AcDbEntity
  8
PV
 62
     7
100
AcDbLine
 10
165.357
 20
120.95
 30
0.0
 11
163.3569999999999
 21
120.95
 31
0.0
  0
LINE
  5
81
330
1E
100
AcDbEntity
  8
PV
 62
     7
100
AcDbLine
 10
162.3569999999999
 20
122.5
 30
0.0
 11
163.3569999999999
 21
121.5
 31
0.0
  0
LINE
  5
82
330
1E
100
AcDbEntity
  8
PV
 62
     7
100
AcDbLine
 10
170.8569999999999
 20
119.5
 30
0.0
 11
165.357
 21
119.5
 31
0.0
  0
LINE
  5
83
330
1E
100
AcDbEntity
  8
PV
 62
     7
100
AcDbLine
 10
172.357
 20
102.0
 30
0.0
 11
172.357
 21
118.0
 31
0.0
  0
TEXT
  5
84
330
1E
100
AcDbEntity
  8
PV
 62
     7
100
AcDbText
 10
205.7465999999999
 20
124.2769999999999
 30
0.0
 40
4.5
  1
O.D.%%c4 TUBE
 41
0.8789089
  7
FONT1
100
AcDbText
  0
LINE
  5
85
330
1E
100
AcDbEntity
  8
PV
  6
CENTER
 62
     1
100
AcDbLine
 10
140.3489999999999
 20
145.4869999999999
 30
0.0
 11
161.284
 21
145.4869999999999
 31
0.0
  0
ARC
  5
86
330
1E
100
AcDbEntity
  8
PV
 62
     7
100
AcDbCircle
 10
136.8489999999999
 20
145.4869999999999
 30
0.0
 40
6.5
100
AcDbArc
 50
90.0
 51
180.0
  0
LINE
  5
87
330
1E
100
AcDbEntity
  8
PV
 62
     7
100
AcDbLine
 10
130.3489999999999
 20
145.4869999999999
 30
0.0
 11
130.3489999999999
 21
128.1539999999999
 31
0.0
  0
LINE
  5
88
330
1E
100
AcDbEntity
  8
PV
 62
     7
100
AcDbLine
 10
143.9379999999999
 20
128.1539999999999
 30
0.0
 11
129.7609999999999
 21
128.1539999999999
 31
0.0
  0
LINE
  5
89
330
1E
100
AcDbEntity
  8
PV
 62
     7
100
AcDbLine
 10
157.072
 20
139.709
 30
0.0
 11
157.072
 21
151.2649999999999
 31
0.0
  0
ARC
  5
8A
330
1E
100
AcDbEntity
  8
PV
  6
CENTER
 62
     1
100
AcDbCircle
 10
140.3489999999999
 20
141.9869999999999
 30
0.0
 40
3.5
100
AcDbArc
 50
90.0
 51
180.0
  0
LINE
  5
8B
330
1E
100
AcDbEntity
  8
PV
 62
     7
100
AcDbLine
 10
143.3489999999999
 20
138.9869999999999
 30
0.0
 11
153.822
 21
138.9869999999999
 31
0.0
  0
LINE
  5
8C
330
1E
100
AcDbEntity
  8
PV
 62
     7
100
AcDbLine
 10
143.3489999999999
 20
138.9869999999999
 30
0.0
 11
143.3489999999999
 21
128.1539999999999
 31
0.0
  0
LINE
  5
8D
330
1E
100
AcDbEntity
  8
PV
 62
     7
100
AcDbLine
 10
155.9879999999999
 20
151.2649999999999
 30
0.0
 11
155.9879999999999
 21
139.709
 31
0.0
  0
LINE
  5
8E
330
1E
100
AcDbEntity
  8
PV
 62
     7
100
AcDbLine
 10
157.072
 20
139.709
 30
0.0
 11
155.9879999999999
 21
139.709
 31
0.0
  0
LINE
  5
8F
330
1E
100
AcDbEntity
  8
PV
 62
     7
100
AcDbLine
 10
153.822
 20
138.9869999999999
 30
0.0
 11
153.822
 21
151.987
 31
0.0
  0
LINE
  5
90
330
1E
100
AcDbEntity
  8
PV
 62
     7
100
AcDbLine
 10
153.822
 20
140.432
 30
0.0
 11
155.9879999999999
 21
140.432
 31
0.0
  0
LINE
  5
91
330
1E
100
AcDbEntity
  8
PV
 62
     7
100
AcDbLine
 10
136.8489999999999
 20
151.987
 30
0.0
 11
153.822
 21
151.987
 31
0.0
  0
LINE
  5
92
330
1E
100
AcDbEntity
  8
PV
 62
     7
100
AcDbLine
 10
157.072
 20
151.2649999999999
 30
0.0
 11
155.9879999999999
 21
151.2649999999999
 31
0.0
  0
LINE
  5
93
330
1E
100
AcDbEntity
  8
PV
 62
     7
100
AcDbLine
 10
153.822
 20
150.543
 30
0.0
 11
155.9879999999999
 21
150.543
 31
0.0
  0
LINE
  5
94
330
1E
100
AcDbEntity
  8
PV
  6
CENTER
 62
     1
100
AcDbLine
 10
286.8489999999999
 20
80.0
 30
0.0
 11
286.8489999999999
 21
157.111
 31
0.0
  0
LINE
  5
95
330
1E
100
AcDbEntity
  8
PV
 62
     7
100
AcDbLine
 10
297.105
 20
108.763
 30
0.0
 11
306.849
 21
87.0
 31
0.0
  0
LINE
  5
96
330
1E
100
AcDbEntity
  8
PV
 62
     7
100
AcDbLine
 10
276.594
 20
108.763
 30
0.0
 11
266.8489999999999
 21
87.0
 31
0.0
  0
LINE
  5
97
330
1E
100
AcDbEntity
  8
PV
 62
     7
100
AcDbLine
 10
286.8489999999999
 20
85.0
 30
0.0
 11
306.849
 21
85.0
 31
0.0
  0
LINE
  5
98
330
1E
100
AcDbEntity
  8
PV
 62
     7
100
AcDbLine
 10
266.8489999999999
 20
85.0
 30
0.0
 11
306.849
 21
85.0
 31
0.0
  0
LINE
  5
99
330
1E
100
AcDbEntity
  8
PV
 62
     7
100
AcDbLine
 10
266.8489999999999
 20
85.0
 30
0.0
 11
266.8489999999999
 21
87.0
 31
0.0
  0
LINE
  5
9A
330
1E
100
AcDbEntity
  8
PV
 62
     7
100
AcDbLine
 10
306.849
 20
85.0
 30
0.0
 11
306.849
 21
87.0
 31
0.0
  0
LINE
  5
9B
330
1E
100
AcDbEntity
  8
PV
 62
     7
100
AcDbLine
 10
286.8489999999999
 20
120.5
 30
0.0
 11
291.8489999999999
 21
120.5
 31
0.0
  0
LINE
  5
9C
330
1E
100
AcDbEntity
  8
PV
 62
     7
100
AcDbLine
 10
298.618
 20
105.384
 30
0.0
 11
301.283
 21
110.0
 31
0.0
  0
LINE
  5
9D
330
1E
100
AcDbEntity
  8
PV
 62
     7
100
AcDbLine
 10
301.283
 20
110.0
 30
0.0
 11
294.0659999999999
 21
122.5
 31
0.0
  0
LINE
  5
9E
330
1E
100
AcDbEntity
  8
PV
 62
     7
100
AcDbLine
 10
294.0659999999999
 20
122.5
 30
0.0
 11
279.632
 21
122.5
 31
0.0
  0
ARC
  5
9F
330
1E
100
AcDbEntity
  8
PV
 62
     7
100
AcDbCircle
 10
286.8489999999999
 20
110.0
 30
0.0
 40
11.5
100
AcDbArc
 50
344.47
 51
195.5299999999999
  0
LINE
  5
A0
330
1E
100
AcDbEntity
  8
PV
 62
     7
100
AcDbLine
 10
281.3649999999999
 20
119.5
 30
0.0
 11
275.8799999999999
 21
110.0
 31
0.0
  0
LINE
  5
A1
330
1E
100
AcDbEntity
  8
PV
 62
     7
100
AcDbLine
 10
275.8799999999999
 20
110.0
 30
0.0
 11
281.3649999999999
 21
100.5
 31
0.0
  0
LINE
  5
A2
330
1E
100
AcDbEntity
  8
PV
 62
     7
100
AcDbLine
 10
281.3649999999999
 20
100.5
 30
0.0
 11
292.3339999999999
 21
100.5
 31
0.0
  0
LINE
  5
A3
330
1E
100
AcDbEntity
  8
PV
 62
     7
100
AcDbLine
 10
292.3339999999999
 20
100.5
 30
0.0
 11
297.819
 21
110.0
 31
0.0
  0
LINE
  5
A4
330
1E
100
AcDbEntity
  8
PV
 62
     7
100
AcDbLine
 10
297.819
 20
110.0
 30
0.0
 11
292.3339999999999
 21
119.5
 31
0.0
  0
LINE
  5
A5
330
1E
100
AcDbEntity
  8
PV
 62
     7
100
AcDbLine
 10
292.3339999999999
 20
119.5
 30
0.0
 11
281.3649999999999
 21
119.5
 31
0.0
  0
CIRCLE
  5
A6
330
1E
100
AcDbEntity
  8
PV
 62
     7
100
AcDbCircle
 10
286.8489999999999
 20
110.0
 30
0.0
 40
9.5
  0
LINE
  5
A7
330
1E
100
AcDbEntity
  8
PV
  6
CENTER
 62
     1
100
AcDbLine
 10
267.416
 20
110.0
 30
0.0
 11
306.283
 21
110.0
 31
0.0
  0
LINE
  5
AF
330
1E
100
AcDbEntity
  8
PV
 62
     7
100
AcDbLine
 10
279.632
 20
122.5
 30
0.0
 11
272.4159999999999
 21
110.0
 31
0.0
  0
LINE
  5
B0
330
1E
100
AcDbEntity
  8
PV
 62
     7
100
AcDbLine
 10
272.4159999999999
 20
110.0
 30
0.0
 11
275.081
 21
105.384
 31
0.0
  0
LINE
  5
B1
330
1E
100
AcDbEntity
  8
PV
 62
     7
100
AcDbLine
 10
281.849
 20
120.5
 30
0.0
 11
281.4019999999999
 21
119.5
 31
0.0
  0
LINE
  5
B2
330
1E
100
AcDbEntity
  8
PV
 62
     7
100
AcDbLine
 10
286.8489999999999
 20
120.5
 30
0.0
 11
281.849
 21
120.5
 31
0.0
  0
LINE
  5
B3
330
1E
100
AcDbEntity
  8
PV
 62
     7
100
AcDbLine
 10
291.8489999999999
 20
120.5
 30
0.0
 11
292.297
 21
119.5
 31
0.0
  0
LINE
  5
B4
330
1E
100
AcDbEntity
  8
PV
  6
CENTER
 62
     1
100
AcDbLine
 10
202.3570000000002
 20
210.0
 30
0.0
 11
4.866010000000001
 21
210.0
 31
0.0
  0
LINE
  5
B5
330
1E
100
AcDbEntity
  8
PV
 62
     7
100
AcDbLine
 10
103.8569999999999
 20
213.0
 30
0.0
 11
75.38129999999999
 21
213.0
 31
0.0
  0
LINE
  5
B6
330
1E
100
AcDbEntity
  8
PV
 62
     7
100
AcDbLine
 10
70.7625
 20
217.0
 30
0.0
 11
78.8454
 21
203.0
 31
0.0
  0
LINE
  5
B7
330
1E
100
AcDbEntity
  8
PV
 62
     7
100
AcDbLine
 10
73.0719
 20
217.0
 30
0.0
 11
81.15479999999999
 21
203.0
 31
0.0
  0
LINE
  5
B8
330
1E
100
AcDbEntity
  8
PV
 62
     7
100
AcDbLine
 10
73.0719
 20
213.0
 30
0.0
 11
58.866
 21
213.0
 31
0.0
  0
LINE
  5
B9
330
1E
100
AcDbEntity
  8
PV
 62
     7
100
AcDbLine
 10
76.536
 20
207.0
 30
0.0
 11
58.866
 21
207.0
 31
0.0
  0
LINE
  5
BA
330
1E
100
AcDbEntity
  8
PV
 62
     7
100
AcDbLine
 10
103.8569999999999
 20
207.0
 30
0.0
 11
78.8454
 21
207.0
 31
0.0
  0
LINE
  5
BB
330
1E
100
AcDbEntity
  8
PV
 62
     7
100
AcDbLine
 10
103.8569999999999
 20
203.072
 30
0.0
 11
103.8569999999999
 21
216.928
 31
0.0
  0
LINE
  5
BC
330
1E
100
AcDbEntity
  8
PV
 62
     7
100
AcDbLine
 10
165.357
 20
230.0
 30
0.0
 11
115.857
 21
230.0
 31
0.0
  0
LINE
  5
BD
330
1E
100
AcDbEntity
  8
PV
 62
     7
100
AcDbLine
 10
162.3569999999999
 20
224.434
 30
0.0
 11
130.336
 21
224.434
 31
0.0
  0
LINE
  5
BE
330
1E
100
AcDbEntity
  8
PV
 62
     7
100
AcDbLine
 10
162.3569999999999
 20
217.217
 30
0.0
 11
126.8569999999999
 21
217.217
 31
0.0
  0
LINE
  5
BF
330
1E
100
AcDbEntity
  8
PV
 62
     7
100
AcDbLine
 10
165.357
 20
190.0
 30
0.0
 11
115.857
 21
190.0
 31
0.0
  0
LINE
  5
C0
330
1E
100
AcDbEntity
  8
PV
 62
     7
100
AcDbLine
 10
162.3569999999999
 20
202.7829999999999
 30
0.0
 11
126.8569999999999
 21
202.7829999999999
 31
0.0
  0
LINE
  5
C1
330
1E
100
AcDbEntity
  8
PV
 62
     7
100
AcDbLine
 10
162.3569999999999
 20
195.566
 30
0.0
 11
130.336
 21
195.566
 31
0.0
  0
CIRCLE
  5
C2
330
1E
100
AcDbEntity
  8
PV
 62
     7
100
AcDbCircle
 10
116.857
 20
222.5
 30
0.0
 40
2.25
  0
LINE
  5
C3
330
1E
100
AcDbEntity
  8
PV
  6
CENTER
 62
     1
100
AcDbLine
 10
116.857
 20
218.25
 30
0.0
 11
116.857
 21
226.75
 31
0.0
  0
LINE
  5
C4
330
1E
100
AcDbEntity
  8
PV
 62
     7
100
AcDbLine
 10
121.357
 20
219.2499999999999
 30
0.0
 11
130.336
 21
224.434
 31
0.0
  0
LINE
  5
C5
330
1E
100
AcDbEntity
  8
PV
 62
     7
100
AcDbLine
 10
110.857
 20
225.0
 30
0.0
 11
110.857
 21
216.928
 31
0.0
  0
ARC
  5
C6
330
1E
100
AcDbEntity
  8
PV
 62
     7
100
AcDbCircle
 10
136.8489999999999
 20
210.0
 30
0.0
 40
6.5
100
AcDbArc
 50
90.0
 51
270.0
  0
LINE
  5
C7
330
1E
100
AcDbEntity
  8
PV
 62
     7
100
AcDbLine
 10
138.591
 20
203.5
 30
0.0
 11
136.8489999999999
 21
202.4939999999999
 31
0.0
  0
LINE
  5
C8
330
1E
100
AcDbEntity
  8
PV
 62
     7
100
AcDbLine
 10
136.8489999999999
 20
202.4939999999999
 30
0.0
 11
130.3489999999999
 21
206.247
 31
0.0
  0
LINE
  5
C9
330
1E
100
AcDbEntity
  8
PV
 62
     7
100
AcDbLine
 10
130.3489999999999
 20
206.247
 30
0.0
 11
130.3489999999999
 21
213.7529999999999
 31
0.0
  0
LINE
  5
CA
330
1E
100
AcDbEntity
  8
PV
 62
     7
100
AcDbLine
 10
130.3489999999999
 20
213.7529999999999
 30
0.0
 11
136.8489999999999
 21
217.506
 31
0.0
  0
LINE
  5
CB
330
1E
100
AcDbEntity
  8
PV
 62
     7
100
AcDbLine
 10
136.8489999999999
 20
217.506
 30
0.0
 11
138.591
 21
216.5
 31
0.0
  0
LINE
  5
CC
330
1E
100
AcDbEntity
  8
PV
 62
     7
100
AcDbLine
 10
121.357
 20
200.7499999999999
 30
0.0
 11
121.357
 21
219.2499999999999
 31
0.0
  0
CIRCLE
  5
CD
330
1E
100
AcDbEntity
  8
PV
 62
     7
100
AcDbCircle
 10
116.857
 20
197.5
 30
0.0
 40
2.25
  0
LINE
  5
CE
330
1E
100
AcDbEntity
  8
PV
  6
CENTER
 62
     1
100
AcDbLine
 10
121.107
 20
197.5
 30
0.0
 11
112.607
 21
197.5
 31
0.0
  0
LINE
  5
CF
330
1E
100
AcDbEntity
  8
PV
  6
CENTER
 62
     1
100
AcDbLine
 10
116.857
 20
193.25
 30
0.0
 11
116.857
 21
201.75
 31
0.0
  0
LINE
  5
D0
330
1E
100
AcDbEntity
  8
PV
 62
     7
100
AcDbLine
 10
110.857
 20
203.072
 30
0.0
 11
110.857
 21
195.0
 31
0.0
  0
LINE
  5
D1
330
1E
100
AcDbEntity
  8
PV
 62
     7
100
AcDbLine
 10
110.857
 20
195.0
 30
0.0
 11
115.857
 21
190.0
 31
0.0
  0
LINE
  5
D2
330
1E
100
AcDbEntity
  8
PV
 62
     7
100
AcDbLine
 10
103.8569999999999
 20
203.072
 30
0.0
 11
112.857
 21
203.072
 31
0.0
  0
LINE
  5
D3
330
1E
100
AcDbEntity
  8
PV
 62
     7
100
AcDbLine
 10
121.357
 20
200.7499999999999
 30
0.0
 11
130.336
 21
195.566
 31
0.0
  0
LINE
  5
D4
330
1E
100
AcDbEntity
  8
PV
 62
     7
100
AcDbLine
 10
114.473
 20
204.226
 30
0.0
 11
114.473
 21
215.7739999999999
 31
0.0
  0
LINE
  5
D5
330
1E
100
AcDbEntity
  8
PV
 62
     7
100
AcDbLine
 10
117.473
 20
204.226
 30
0.0
 11
117.473
 21
215.7739999999999
 31
0.0
  0
LINE
  5
D6
330
1E
100
AcDbEntity
  8
PV
 62
     7
100
AcDbLine
 10
112.857
 20
203.072
 30
0.0
 11
112.857
 21
216.928
 31
0.0
  0
LINE
  5
D7
330
1E
100
AcDbEntity
  8
PV
 62
     7
100
AcDbLine
 10
112.857
 20
206.536
 30
0.0
 11
103.8569999999999
 21
206.536
 31
0.0
  0
LINE
  5
D8
330
1E
100
AcDbEntity
  8
PV
 62
     7
100
AcDbLine
 10
116.9729999999999
 20
204.226
 30
0.0
 11
117.0989999999999
 21
204.226
 31
0.0
  0
LINE
  5
D9
330
1E
100
AcDbEntity
  8
PV
 62
     7
100
AcDbLine
 10
112.857
 20
205.5
 30
0.0
 11
114.473
 21
205.5
 31
0.0
  0
LINE
  5
DA
330
1E
100
AcDbEntity
  8
PV
 62
     7
100
AcDbLine
 10
114.9729999999999
 20
204.226
 30
0.0
 11
114.8479999999999
 21
204.226
 31
0.0
  0
LINE
  5
DB
330
1E
100
AcDbEntity
  8
PV
 62
     7
100
AcDbLine
 10
114.473
 20
204.226
 30
0.0
 11
117.473
 21
204.226
 31
0.0
  0
LINE
  5
DC
330
1E
100
AcDbEntity
  8
PV
 62
     7
100
AcDbLine
 10
114.473
 20
207.113
 30
0.0
 11
117.473
 21
207.113
 31
0.0
  0
LINE
  5
DD
330
1E
100
AcDbEntity
  8
PV
 62
     7
100
AcDbLine
 10
112.857
 20
213.464
 30
0.0
 11
103.8569999999999
 21
213.464
 31
0.0
  0
LINE
  5
DE
330
1E
100
AcDbEntity
  8
PV
 62
     7
100
AcDbLine
 10
103.8569999999999
 20
216.928
 30
0.0
 11
112.857
 21
216.928
 31
0.0
  0
LINE
  5
DF
330
1E
100
AcDbEntity
  8
PV
 62
     7
100
AcDbLine
 10
116.9729999999999
 20
215.7739999999999
 30
0.0
 11
117.0989999999999
 21
215.7739999999999
 31
0.0
  0
LINE
  5
E0
330
1E
100
AcDbEntity
  8
PV
 62
     7
100
AcDbLine
 10
114.9729999999999
 20
215.7739999999999
 30
0.0
 11
114.8479999999999
 21
215.7739999999999
 31
0.0
  0
LINE
  5
E1
330
1E
100
AcDbEntity
  8
PV
 62
     7
100
AcDbLine
 10
114.473
 20
215.7739999999999
 30
0.0
 11
117.473
 21
215.7739999999999
 31
0.0
  0
LINE
  5
E2
330
1E
100
AcDbEntity
  8
PV
 62
     7
100
AcDbLine
 10
112.857
 20
214.5
 30
0.0
 11
114.473
 21
214.5
 31
0.0
  0
LINE
  5
E3
330
1E
100
AcDbEntity
  8
PV
 62
     7
100
AcDbLine
 10
114.473
 20
212.887
 30
0.0
 11
117.473
 21
212.887
 31
0.0
  0
LINE
  5
E4
330
1E
100
AcDbEntity
  8
PV
  6
CENTER
 62
     1
100
AcDbLine
 10
136.8489999999999
 20
219.815
 30
0.0
 11
136.8489999999999
 21
200.185
 31
0.0
  0
LINE
  5
E5
330
1E
100
AcDbEntity
  8
PV
 62
     7
100
AcDbLine
 10
136.8489999999999
 20
203.5
 30
0.0
 11
153.822
 21
203.5
 31
0.0
  0
LINE
  5
E6
330
1E
100
AcDbEntity
  8
PV
 62
     7
100
AcDbLine
 10
136.8489999999999
 20
216.5
 30
0.0
 11
153.822
 21
216.5
 31
0.0
  0
LINE
  5
E7
330
1E
100
AcDbEntity
  8
PV
 62
     7
100
AcDbLine
 10
155.9879999999999
 20
215.7779999999999
 30
0.0
 11
155.9879999999999
 21
204.2219999999999
 31
0.0
  0
LINE
  5
E8
330
1E
100
AcDbEntity
  8
PV
 62
     7
100
AcDbLine
 10
157.072
 20
204.2219999999999
 30
0.0
 11
157.072
 21
215.7779999999999
 31
0.0
  0
LINE
  5
E9
330
1E
100
AcDbEntity
  8
PV
 62
     7
100
AcDbLine
 10
153.822
 20
203.5
 30
0.0
 11
153.822
 21
216.5
 31
0.0
  0
LINE
  5
EA
330
1E
100
AcDbEntity
  8
PV
 62
     7
100
AcDbLine
 10
157.072
 20
204.2219999999999
 30
0.0
 11
155.9879999999999
 21
204.2219999999999
 31
0.0
  0
LINE
  5
EB
330
1E
100
AcDbEntity
  8
PV
 62
     7
100
AcDbLine
 10
153.822
 20
204.9439999999999
 30
0.0
 11
155.9879999999999
 21
204.9439999999999
 31
0.0
  0
LINE
  5
EC
330
1E
100
AcDbEntity
  8
PV
 62
     7
100
AcDbLine
 10
157.072
 20
215.7779999999999
 30
0.0
 11
155.9879999999999
 21
215.7779999999999
 31
0.0
  0
LINE
  5
ED
330
1E
100
AcDbEntity
  8
PV
 62
     7
100
AcDbLine
 10
153.822
 20
215.056
 30
0.0
 11
155.9879999999999
 21
215.056
 31
0.0
  0
LINE
  5
EE
330
1E
100
AcDbEntity
  8
PV
  6
CENTER
 62
     1
100
AcDbLine
 10
121.107
 20
222.5
 30
0.0
 11
112.607
 21
222.5
 31
0.0
  0
LINE
  5
EF
330
1E
100
AcDbEntity
  8
PV
 62
     7
100
AcDbLine
 10
115.857
 20
230.0
 30
0.0
 11
110.857
 21
225.0
 31
0.0
  0
LINE
  5
F0
330
1E
100
AcDbEntity
  8
PV
 62
     7
100
AcDbLine
 10
170.907
 20
220.9499999999999
 30
0.0
 11
170.907
 21
199.05
 31
0.0
  0
LINE
  5
F1
330
1E
100
AcDbEntity
  8
PV
 62
     7
100
AcDbLine
 10
162.3569999999999
 20
195.566
 30
0.0
 11
162.3569999999999
 21
224.434
 31
0.0
  0
LINE
  5
F2
330
1E
100
AcDbEntity
  8
PV
 62
     7
100
AcDbLine
 10
165.357
 20
230.0
 30
0.0
 11
165.357
 21
190.0
 31
0.0
  0
LINE
  5
F3
330
1E
100
AcDbEntity
  8
PV
 62
     7
100
AcDbLine
 10
163.3569999999999
 20
190.0
 30
0.0
 11
163.3569999999999
 21
230.0
 31
0.0
  0
LINE
  5
F4
330
1E
100
AcDbEntity
  8
PV
 62
     7
100
AcDbLine
 10
172.357
 20
219.5
 30
0.0
 11
172.357
 21
200.4999999999999
 31
0.0
  0
LINE
  5
F5
330
1E
100
AcDbEntity
  8
PV
 62
     7
100
AcDbLine
 10
162.3569999999999
 20
195.566
 30
0.0
 11
163.3569999999999
 21
197.0159999999999
 31
0.0
  0
LINE
  5
F6
330
1E
100
AcDbEntity
  8
PV
 62
     7
100
AcDbLine
 10
170.907
 20
199.05
 30
0.0
 11
165.357
 21
199.05
 31
0.0
  0
LINE
  5
F7
330
1E
100
AcDbEntity
  8
PV
 62
     7
100
AcDbLine
 10
163.3569999999999
 20
205.0
 30
0.0
 11
165.357
 21
205.0
 31
0.0
  0
LINE
  5
F8
330
1E
100
AcDbEntity
  8
PV
 62
     7
100
AcDbLine
 10
170.907
 20
204.515
 30
0.0
 11
165.357
 21
204.515
 31
0.0
  0
LINE
  5
F9
330
1E
100
AcDbEntity
  8
PV
 62
     7
100
AcDbLine
 10
163.3569999999999
 20
215.0
 30
0.0
 11
165.357
 21
215.0
 31
0.0
  0
LINE
  5
FA
330
1E
100
AcDbEntity
  8
PV
 62
     7
100
AcDbLine
 10
170.907
 20
215.485
 30
0.0
 11
165.357
 21
215.485
 31
0.0
  0
LINE
  5
109
330
1E
100
AcDbEntity
  8
PV
 62
     7
100
AcDbLine
 10
162.3569999999999
 20
224.434
 30
0.0
 11
163.3569999999999
 21
222.984
 31
0.0
  0
LINE
  5
10A
330
1E
100
AcDbEntity
  8
PV
 62
     7
100
AcDbLine
 10
170.907
 20
220.9499999999999
 30
0.0
 11
165.357
 21
220.9499999999999
 31
0.0
  0
TEXT
  5
10B
330
1E
100
AcDbEntity
  8
PV
 62
     7
100
AcDbText
 10
0.9750549999999998
 20
242.8609999999999
 30
0.0
 40
4.5
  1
MODEL No. : N01-200-B***
 41
0.9097777999999999
  7
FONT1
100
AcDbText
  0
LINE
  5
118
330
1E
100
AcDbEntity
  8
PV
 62
     7
100
AcDbLine
 10
170.907
 20
119.45
 30
0.0
 11
170.907
 21
100.55
 31
0.0
  0
LINE
  5
119
330
1E
100
AcDbEntity
  8
PV
 62
     7
100
AcDbLine
 10
170.907
 20
110.0
 30
0.0
 11
165.357
 21
110.0
 31
0.0
  0
LINE
  5
11A
330
1E
100
AcDbEntity
  8
PV
 62
     7
100
AcDbLine
 10
136.8489999999999
 20
128.1539999999999
 30
0.0
 11
136.8489999999999
 21
124.543
 31
0.0
  0
LINE
  5
11B
330
1E
100
AcDbEntity
  8
PV
 62
     7
100
AcDbLine
 10
103.8569999999999
 20
110.0
 30
0.0
 11
112.857
 21
110.0
 31
0.0
  0
LINE
  5
11C
330
1E
100
AcDbEntity
  8
PV
 62
     7
100
AcDbLine
 10
126.8569999999999
 20
122.425
 30
0.0
 11
126.8569999999999
 21
97.57460000000001
 31
0.0
  0
LINE
  5
11D
330
1E
100
AcDbEntity
  8
PV
 62
     7
100
AcDbLine
 10
126.8569999999999
 20
110.0
 30
0.0
 11
163.3569999999999
 21
110.0
 31
0.0
  0
LINE
  5
11E
330
1E
100
AcDbEntity
  8
PV
 62
     7
100
AcDbLine
 10
114.473
 20
104.2259999999999
 30
0.0
 11
114.473
 21
115.7739999999999
 31
0.0
  0
LINE
  5
11F
330
1E
100
AcDbEntity
  8
PV
 62
     7
100
AcDbLine
 10
117.473
 20
104.2259999999999
 30
0.0
 11
117.473
 21
115.7739999999999
 31
0.0
  0
LINE
  5
120
330
1E
100
AcDbEntity
  8
PV
 62
     7
100
AcDbLine
 10
114.473
 20
104.2259999999999
 30
0.0
 11
117.473
 21
104.2259999999999
 31
0.0
  0
LINE
  5
121
330
1E
100
AcDbEntity
  8
PV
 62
     7
100
AcDbLine
 10
114.9729999999999
 20
104.2259999999999
 30
0.0
 11
114.8479999999999
 21
104.2259999999999
 31
0.0
  0
LINE
  5
122
330
1E
100
AcDbEntity
  8
PV
 62
     7
100
AcDbLine
 10
116.9729999999999
 20
104.2259999999999
 30
0.0
 11
117.0989999999999
 21
104.2259999999999
 31
0.0
  0
LINE
  5
123
330
1E
100
AcDbEntity
  8
PV
 62
     7
100
AcDbLine
 10
114.473
 20
112.887
 30
0.0
 11
117.473
 21
112.887
 31
0.0
  0
LINE
  5
124
330
1E
100
AcDbEntity
  8
PV
 62
     7
100
AcDbLine
 10
114.473
 20
107.1129999999999
 30
0.0
 11
117.473
 21
107.1129999999999
 31
0.0
  0
LINE
  5
125
330
1E
100
AcDbEntity
  8
PV
 62
     7
100
AcDbLine
 10
114.473
 20
115.7739999999999
 30
0.0
 11
117.473
 21
115.7739999999999
 31
0.0
  0
LINE
  5
126
330
1E
100
AcDbEntity
  8
PV
 62
     7
100
AcDbLine
 10
114.9729999999999
 20
115.7739999999999
 30
0.0
 11
114.8479999999999
 21
115.7739999999999
 31
0.0
  0
LINE
  5
127
330
1E
100
AcDbEntity
  8
PV
 62
     7
100
AcDbLine
 10
116.9729999999999
 20
115.7739999999999
 30
0.0
 11
117.0989999999999
 21
115.7739999999999
 31
0.0
  0
LINE
  5
128
330
1E
100
AcDbEntity
  8
PV
 62
     7
100
AcDbLine
 10
39.1629
 20
39.99779999999999
 30
0.0
 11
34.866
 21
39.99779999999999
 31
0.0
  0
LINE
  5
129
330
1E
100
AcDbEntity
  8
PV
 62
     7
100
AcDbLine
 10
39.1629
 20
30.0022
 30
0.0
 11
34.866
 21
30.0022
 31
0.0
  0
LINE
  5
12A
330
1E
100
AcDbEntity
  8
PV
 62
     7
100
AcDbLine
 10
120.1629999999999
 20
39.99779999999999
 30
0.0
 11
115.866
 21
39.99779999999999
 31
0.0
  0
LINE
  5
12B
330
1E
100
AcDbEntity
  8
PV
 62
     7
100
AcDbLine
 10
120.1629999999999
 20
30.0022
 30
0.0
 11
115.866
 21
30.0022
 31
0.0
  0
LINE
  5
12C
330
1E
100
AcDbEntity
  8
PV
 62
     7
100
AcDbLine
 10
201.163
 20
39.99779999999999
 30
0.0
 11
196.866
 21
39.99779999999999
 31
0.0
  0
LINE
  5
12D
330
1E
100
AcDbEntity
  8
PV
 62
     7
100
AcDbLine
 10
201.163
 20
30.0022
 30
0.0
 11
196.866
 21
30.0022
 31
0.0
  0
LINE
  5
12E
330
1E
100
AcDbEntity
  8
PV
 62
     7
100
AcDbLine
 10
281.163
 20
39.99779999999999
 30
0.0
 11
276.866
 21
39.99779999999999
 31
0.0
  0
LINE
  5
12F
330
1E
100
AcDbEntity
  8
PV
 62
     7
100
AcDbLine
 10
281.163
 20
30.0022
 30
0.0
 11
276.866
 21
30.0022
 31
0.0
  0
TEXT
  5
130
330
1E
100
AcDbEntity
  8
PV
 62
     7
100
AcDbText
 10
165.5197
 20
165.995
 30
0.0
 40
4.5
  1
AIR IN
 41
0.8888889
  7
FONT1
100
AcDbText
  0
TEXT
  5
131
330
1E
100
AcDbEntity
  8
PV
 62
     7
100
AcDbText
 10
205.7466999999999
 20
130.8109999999999
 30
0.0
 40
4.5
  1
OIL IN
 41
0.8888889
  7
FONT1
100
AcDbText
  0
LINE
  5
132
330
1E
100
AcDbEntity
  8
PV
 62
     7
100
AcDbLine
 10
58.866
 20
113.0
 30
0.0
 11
58.866
 21
107.0
 31
0.0
  0
LINE
  5
133
330
1E
100
AcDbEntity
  8
PV
 62
     7
100
AcDbLine
 10
58.866
 20
213.0
 30
0.0
 11
58.866
 21
207.0
 31
0.0
  0
LINE
  5
134
330
1E
100
AcDbEntity
  8
PV
 62
     7
100
AcDbLine
 10
34.866
 20
117.0
 30
0.0
 11
34.866
 21
103.0
 31
0.0
  0
LINE
  5
135
330
1E
100
AcDbEntity
  8
PV
 62
     7
100
AcDbLine
 10
9.866010000000001
 20
112.5
 30
0.0
 11
26.6602
 21
117.0
 31
0.0
  0
LINE
  5
136
330
1E
100
AcDbEntity
  8
PV
 62
     7
100
AcDbLine
 10
39.2496
 20
103.0
 30
0.0
 11
58.866
 21
103.0
 31
0.0
  0
LINE
  5
137
330
1E
100
AcDbEntity
  8
PV
 62
     7
100
AcDbLine
 10
9.866010000000001
 20
107.4999999999999
 30
0.0
 11
26.6602
 21
103.0
 31
0.0
  0
LINE
  5
138
330
1E
100
AcDbEntity
  8
PV
 62
     7
100
AcDbLine
 10
9.866010000000001
 20
112.5
 30
0.0
 11
9.866010000000001
 21
107.4999999999999
 31
0.0
  0
LINE
  5
139
330
1E
100
AcDbEntity
  8
PV
 62
     7
100
AcDbLine
 10
39.2496
 20
103.0
 30
0.0
 11
39.2496
 21
117.0
 31
0.0
  0
LINE
  5
13A
330
1E
100
AcDbEntity
  8
PV
 62
     7
100
AcDbLine
 10
26.6602
 20
103.0
 30
0.0
 11
34.866
 21
103.0
 31
0.0
  0
LINE
  5
13B
330
1E
100
AcDbEntity
  8
PV
 62
     7
100
AcDbLine
 10
39.2496
 20
105.0019999999999
 30
0.0
 11
34.866
 21
105.0019999999999
 31
0.0
  0
LINE
  5
13C
330
1E
100
AcDbEntity
  8
PV
 62
     7
100
AcDbLine
 10
39.2496
 20
114.998
 30
0.0
 11
34.866
 21
114.998
 31
0.0
  0
LINE
  5
13D
330
1E
100
AcDbEntity
  8
PV
 62
     7
100
AcDbLine
 10
58.866
 20
103.0
 30
0.0
 11
58.866
 21
117.0
 31
0.0
  0
LINE
  5
13E
330
1E
100
AcDbEntity
  8
PV
 62
     7
100
AcDbLine
 10
39.2496
 20
117.0
 30
0.0
 11
58.866
 21
117.0
 31
0.0
  0
LINE
  5
13F
330
1E
100
AcDbEntity
  8
PV
 62
     7
100
AcDbLine
 10
26.6602
 20
117.0
 30
0.0
 11
34.866
 21
117.0
 31
0.0
  0
LINE
  5
140
330
1E
100
AcDbEntity
  8
PV
 62
     7
100
AcDbLine
 10
58.866
 20
203.0
 30
0.0
 11
58.866
 21
217.0
 31
0.0
  0
LINE
  5
141
330
1E
100
AcDbEntity
  8
PV
 62
     7
100
AcDbLine
 10
39.2496
 20
203.0
 30
0.0
 11
39.2496
 21
217.0
 31
0.0
  0
LINE
  5
142
330
1E
100
AcDbEntity
  8
PV
 62
     7
100
AcDbLine
 10
9.866010000000001
 20
207.5
 30
0.0
 11
26.6602
 21
203.0
 31
0.0
  0
LINE
  5
143
330
1E
100
AcDbEntity
  8
PV
 62
     7
100
AcDbLine
 10
34.866
 20
217.0
 30
0.0
 11
34.866
 21
203.0
 31
0.0
  0
LINE
  5
144
330
1E
100
AcDbEntity
  8
PV
 62
     7
100
AcDbLine
 10
26.6602
 20
203.0
 30
0.0
 11
34.866
 21
203.0
 31
0.0
  0
LINE
  5
145
330
1E
100
AcDbEntity
  8
PV
 62
     7
100
AcDbLine
 10
39.2496
 20
203.0
 30
0.0
 11
58.866
 21
203.0
 31
0.0
  0
LINE
  5
146
330
1E
100
AcDbEntity
  8
PV
 62
     7
100
AcDbLine
 10
39.2496
 20
205.0019999999999
 30
0.0
 11
34.866
 21
205.0019999999999
 31
0.0
  0
LINE
  5
147
330
1E
100
AcDbEntity
  8
PV
 62
     7
100
AcDbLine
 10
26.6602
 20
217.0
 30
0.0
 11
34.866
 21
217.0
 31
0.0
  0
LINE
  5
148
330
1E
100
AcDbEntity
  8
PV
 62
     7
100
AcDbLine
 10
9.866010000000001
 20
212.5
 30
0.0
 11
26.6602
 21
217.0
 31
0.0
  0
LINE
  5
149
330
1E
100
AcDbEntity
  8
PV
 62
     7
100
AcDbLine
 10
9.866010000000001
 20
212.5
 30
0.0
 11
9.866010000000001
 21
207.5
 31
0.0
  0
LINE
  5
14A
330
1E
100
AcDbEntity
  8
PV
 62
     7
100
AcDbLine
 10
39.2496
 20
217.0
 30
0.0
 11
58.866
 21
217.0
 31
0.0
  0
LINE
  5
14B
330
1E
100
AcDbEntity
  8
PV
 62
     7
100
AcDbLine
 10
39.2496
 20
214.9979999999999
 30
0.0
 11
34.866
 21
214.9979999999999
 31
0.0
  0
LINE
  5
14C
330
1E
100
AcDbEntity
  8
PV
 62
     7
100
AcDbLine
 10
58.866
 20
213.0
 30
0.0
 11
58.866
 21
207.0
 31
0.0
  0
LINE
  5
14D
330
1E
100
AcDbEntity
  8
PV
 62
     7
100
AcDbLine
 10
117.473
 20
215.0479999999999
 30
0.0
 11
121.357
 21
215.0479999999999
 31
0.0
  0
LINE
  5
14E
330
1E
100
AcDbEntity
  8
PV
 62
     7
100
AcDbLine
 10
117.473
 20
204.952
 30
0.0
 11
121.357
 21
204.952
 31
0.0
  0
LINE
  5
14F
330
1E
100
AcDbEntity
  8
PV
 62
     7
100
AcDbLine
 10
117.473
 20
115.0479999999999
 30
0.0
 11
121.357
 21
115.0479999999999
 31
0.0
  0
LINE
  5
150
330
1E
100
AcDbEntity
  8
PV
 62
     7
100
AcDbLine
 10
117.473
 20
104.952
 30
0.0
 11
121.357
 21
104.952
 31
0.0
  0
LINE
  5
151
330
1E
100
AcDbEntity
  8
PV
 62
     7
100
AcDbLine
 10
126.8569999999999
 20
197.5749999999999
 30
0.0
 11
126.8569999999999
 21
222.425
 31
0.0
  0
TEXT
  5
152
330
1E
100
AcDbEntity
  8
PV
 62
     7
100
AcDbText
 10
82.5778
 20
182.9649999999999
 30
0.0
 40
4.5
  1
P.P
 41
0.7780000000000001
  7
FONT1
 72
     2
 11
91.9138
 21
182.9649999999999
 31
0.0
100
AcDbText
  0
LINE
  5
153
330
1E
100
AcDbEntity
  8
PV
 62
     7
100
AcDbLine
 10
73.85550000000001
 20
184.037
 30
0.0
 11
79.7325
 21
184.037
 31
0.0
  0
LINE
  5
154
330
1E
100
AcDbEntity
  8
PV
 62
     7
100
AcDbLine
 10
60.36599999999999
 20
207.4019999999999
 30
0.0
 11
73.85550000000001
 21
184.037
 31
0.0
  0
POLYLINE
  5
155
330
1E
100
AcDbEntity
  8
PV
 62
     7
100
AcDb2dPolyline
 66
     1
 10
0.0
 20
0.0
 30
0.0
  0
VERTEX
  5
592
330
155
100
AcDbEntity
  8
PV
 62
     7
100
AcDbVertex
100
AcDb2dVertex
 10
60.799
 20
207.6519999999999
 30
0.0
  0
VERTEX
  5
593
330
155
100
AcDbEntity
  8
PV
 62
     7
100
AcDbVertex
100
AcDb2dVertex
 10
59.933
 20
207.152
 30
0.0
  0
VERTEX
  5
594
330
155
100
AcDbEntity
  8
PV
 62
     7
100
AcDbVertex
100
AcDb2dVertex
 10
58.866
 20
210.0
 30
0.0
  0
VERTEX
  5
595
330
155
100
AcDbEntity
  8
PV
 62
     7
100
AcDbVertex
100
AcDb2dVertex
 10
60.799
 20
207.6519999999999
 30
0.0
  0
SEQEND
  5
596
330
155
100
AcDbEntity
  8
PV
 62
     7
  0
LINE
  5
15B
330
1E
100
AcDbEntity
  8
PV
 62
     7
100
AcDbLine
 10
60.36599999999999
 20
112.5979999999999
 30
0.0
 11
73.85550000000001
 21
135.9629999999999
 31
0.0
  0
POLYLINE
  5
15C
330
1E
100
AcDbEntity
  8
PV
 62
     7
100
AcDb2dPolyline
 66
     1
 10
0.0
 20
0.0
 30
0.0
  0
VERTEX
  5
597
330
15C
100
AcDbEntity
  8
PV
 62
     7
100
AcDbVertex
100
AcDb2dVertex
 10
60.799
 20
112.348
 30
0.0
  0
VERTEX
  5
598
330
15C
100
AcDbEntity
  8
PV
 62
     7
100
AcDbVertex
100
AcDb2dVertex
 10
59.933
 20
112.8479999999999
 30
0.0
  0
VERTEX
  5
599
330
15C
100
AcDbEntity
  8
PV
 62
     7
100
AcDbVertex
100
AcDb2dVertex
 10
58.866
 20
110.0
 30
0.0
  0
VERTEX
  5
59A
330
15C
100
AcDbEntity
  8
PV
 62
     7
100
AcDbVertex
100
AcDb2dVertex
 10
60.799
 20
112.348
 30
0.0
  0
SEQEND
  5
59B
330
15C
100
AcDbEntity
  8
PV
 62
     7
  0
LINE
  5
162
330
1E
100
AcDbEntity
  8
PV
 62
     7
100
AcDbLine
 10
73.85550000000001
 20
135.9629999999999
 30
0.0
 11
79.7325
 21
135.9629999999999
 31
0.0
  0
TEXT
  5
163
330
1E
100
AcDbEntity
  8
PV
 62
     7
100
AcDbText
 10
82.5778
 20
133.961
 30
0.0
 40
4.5
  1
P.P
 41
0.7780000000000001
  7
FONT1
 72
     2
 11
91.9138
 21
133.961
 31
0.0
100
AcDbText
  0
POLYLINE
  5
164
330
1E
100
AcDbEntity
  8
PV
 62
     7
100
AcDb2dPolyline
 66
     1
 10
0.0
 20
0.0
 30
0.0
  0
VERTEX
  5
59C
330
164
100
AcDbEntity
  8
PV
 62
     7
100
AcDbVertex
100
AcDb2dVertex
 10
60.799
 20
37.3481
 30
0.0
  0
VERTEX
  5
59D
330
164
100
AcDbEntity
  8
PV
 62
     7
100
AcDbVertex
100
AcDb2dVertex
 10
59.933
 20
37.8481
 30
0.0
  0
VERTEX
  5
59E
330
164
100
AcDbEntity
  8
PV
 62
     7
100
AcDbVertex
100
AcDb2dVertex
 10
58.866
 20
35.0
 30
0.0
  0
VERTEX
  5
59F
330
164
100
AcDbEntity
  8
PV
 62
     7
100
AcDbVertex
100
AcDb2dVertex
 10
60.799
 20
37.3481
 30
0.0
  0
SEQEND
  5
5A0
330
164
100
AcDbEntity
  8
PV
 62
     7
  0
LINE
  5
16A
330
1E
100
AcDbEntity
  8
PV
 62
     7
100
AcDbLine
 10
60.36599999999999
 20
37.5981
 30
0.0
 11
66.35550000000001
 21
47.97209999999999
 31
0.0
  0
LINE
  5
16B
330
1E
100
AcDbEntity
  8
PV
 62
     7
100
AcDbLine
 10
66.35550000000001
 20
47.97209999999999
 30
0.0
 11
72.2325
 21
47.97209999999999
 31
0.0
  0
TEXT
  5
16C
330
1E
100
AcDbEntity
  8
PV
 62
     7
100
AcDbText
 10
75.0778
 20
45.9703
 30
0.0
 40
4.5
  1
P.P
 41
0.7780000000000001
  7
FONT1
 72
     2
 11
84.4138
 21
45.9703
 31
0.0
100
AcDbText
  0
LINE
  5
16D
330
1E
100
AcDbEntity
  8
PV
 62
     7
100
AcDbLine
 10
141.366
 20
37.5981
 30
0.0
 11
147.3549999999999
 21
47.97209999999999
 31
0.0
  0
POLYLINE
  5
16E
330
1E
100
AcDbEntity
  8
PV
 62
     7
100
AcDb2dPolyline
 66
     1
 10
0.0
 20
0.0
 30
0.0
  0
VERTEX
  5
5A1
330
16E
100
AcDbEntity
  8
PV
 62
     7
100
AcDbVertex
100
AcDb2dVertex
 10
141.799
 20
37.3481
 30
0.0
  0
VERTEX
  5
5A2
330
16E
100
AcDbEntity
  8
PV
 62
     7
100
AcDbVertex
100
AcDb2dVertex
 10
140.9329999999999
 20
37.8481
 30
0.0
  0
VERTEX
  5
5A3
330
16E
100
AcDbEntity
  8
PV
 62
     7
100
AcDbVertex
100
AcDb2dVertex
 10
139.866
 20
35.0
 30
0.0
  0
VERTEX
  5
5A4
330
16E
100
AcDbEntity
  8
PV
 62
     7
100
AcDbVertex
100
AcDb2dVertex
 10
141.799
 20
37.3481
 30
0.0
  0
SEQEND
  5
5A5
330
16E
100
AcDbEntity
  8
PV
 62
     7
  0
LINE
  5
174
330
1E
100
AcDbEntity
  8
PV
 62
     7
100
AcDbLine
 10
147.3549999999999
 20
47.97209999999999
 30
0.0
 11
153.232
 21
47.97209999999999
 31
0.0
  0
TEXT
  5
175
330
1E
100
AcDbEntity
  8
PV
 62
     7
100
AcDbText
 10
156.0779999999999
 20
45.9703
 30
0.0
 40
4.5
  1
P.P
 41
0.7780000000000001
  7
FONT1
 72
     2
 11
165.4139999999999
 21
45.9703
 31
0.0
100
AcDbText
  0
POLYLINE
  5
176
330
1E
100
AcDbEntity
  8
PV
 62
     7
100
AcDb2dPolyline
 66
     1
 10
0.0
 20
0.0
 30
0.0
  0
VERTEX
  5
5A6
330
176
100
AcDbEntity
  8
PV
 62
     7
100
AcDbVertex
100
AcDb2dVertex
 10
222.799
 20
37.3481
 30
0.0
  0
VERTEX
  5
5A7
330
176
100
AcDbEntity
  8
PV
 62
     7
100
AcDbVertex
100
AcDb2dVertex
 10
221.9329999999999
 20
37.8481
 30
0.0
  0
VERTEX
  5
5A8
330
176
100
AcDbEntity
  8
PV
 62
     7
100
AcDbVertex
100
AcDb2dVertex
 10
220.866
 20
35.0
 30
0.0
  0
VERTEX
  5
5A9
330
176
100
AcDbEntity
  8
PV
 62
     7
100
AcDbVertex
100
AcDb2dVertex
 10
222.799
 20
37.3481
 30
0.0
  0
SEQEND
  5
5AA
330
176
100
AcDbEntity
  8
PV
 62
     7
  0
LINE
  5
17C
330
1E
100
AcDbEntity
  8
PV
 62
     7
100
AcDbLine
 10
222.366
 20
37.5981
 30
0.0
 11
228.3549999999999
 21
47.97209999999999
 31
0.0
  0
LINE
  5
17D
330
1E
100
AcDbEntity
  8
PV
 62
     7
100
AcDbLine
 10
228.3549999999999
 20
47.97209999999999
 30
0.0
 11
234.2319999999999
 21
47.97209999999999
 31
0.0
  0
TEXT
  5
17E
330
1E
100
AcDbEntity
  8
PV
 62
     7
100
AcDbText
 10
237.0779999999999
 20
45.9703
 30
0.0
 40
4.5
  1
P.P
 41
0.7780000000000001
  7
FONT1
 72
     2
 11
246.4139999999999
 21
45.9703
 31
0.0
100
AcDbText
  0
POLYLINE
  5
17F
330
1E
100
AcDbEntity
  8
PV
 62
     7
100
AcDb2dPolyline
 66
     1
 10
0.0
 20
0.0
 30
0.0
  0
VERTEX
  5
5AB
330
17F
100
AcDbEntity
  8
PV
 62
     7
100
AcDbVertex
100
AcDb2dVertex
 10
302.7989999999999
 20
37.3481
 30
0.0
  0
VERTEX
  5
5AC
330
17F
100
AcDbEntity
  8
PV
 62
     7
100
AcDbVertex
100
AcDb2dVertex
 10
301.933
 20
37.8481
 30
0.0
  0
VERTEX
  5
5AD
330
17F
100
AcDbEntity
  8
PV
 62
     7
100
AcDbVertex
100
AcDb2dVertex
 10
300.8659999999999
 20
35.0
 30
0.0
  0
VERTEX
  5
5AE
330
17F
100
AcDbEntity
  8
PV
 62
     7
100
AcDbVertex
100
AcDb2dVertex
 10
302.7989999999999
 20
37.3481
 30
0.0
  0
SEQEND
  5
5AF
330
17F
100
AcDbEntity
  8
PV
 62
     7
  0
LINE
  5
185
330
1E
100
AcDbEntity
  8
PV
 62
     7
100
AcDbLine
 10
302.366
 20
37.5981
 30
0.0
 11
308.355
 21
47.97209999999999
 31
0.0
  0
LINE
  5
186
330
1E
100
AcDbEntity
  8
PV
 62
     7
100
AcDbLine
 10
308.355
 20
47.97209999999999
 30
0.0
 11
314.232
 21
47.97209999999999
 31
0.0
  0
TEXT
  5
187
330
1E
100
AcDbEntity
  8
PV
 62
     7
100
AcDbText
 10
317.0779999999999
 20
45.9703
 30
0.0
 40
4.5
  1
P.P
 41
0.7780000000000001
  7
FONT1
 72
     2
 11
326.4139999999999
 21
45.9703
 31
0.0
100
AcDbText
  0
LINE
  5
188
330
1E
100
AcDbEntity
  8
PV
 62
     7
100
AcDbLine
 10
26.6602
 20
42.0
 30
0.0
 11
26.6602
 21
28.0
 31
0.0
  0
LINE
  5
189
330
1E
100
AcDbEntity
  8
PV
 62
     7
100
AcDbLine
 10
95.36599999999999
 20
42.0
 30
0.0
 11
95.36599999999999
 21
28.0
 31
0.0
  0
LINE
  5
18A
330
1E
100
AcDbEntity
  8
PV
 62
     7
100
AcDbLine
 10
262.8659999999999
 20
46.0
 30
0.0
 11
262.8659999999999
 21
24.0
 31
0.0
  0
LINE
  5
18B
330
1E
100
AcDbEntity
  8
PV
 62
     7
100
AcDbLine
 10
266.866
 20
42.0
 30
0.0
 11
266.866
 21
28.0
 31
0.0
  0
LINE
  5
18C
330
1E
100
AcDbEntity
  8
PV
 62
     7
100
AcDbLine
 10
26.6602
 20
103.0
 30
0.0
 11
26.6602
 21
117.0
 31
0.0
  0
LINE
  5
18D
330
1E
100
AcDbEntity
  8
PV
 62
     7
100
AcDbLine
 10
26.6602
 20
203.0
 30
0.0
 11
26.6602
 21
217.0
 31
0.0
  0
TEXT
  5
18E
330
1E
100
AcDbEntity
  8
PV
 62
     7
100
AcDbText
 10
7.011899999999999
 20
14.57869999999999
 30
0.0
 40
4.5
  1
STRAIGHT TYPE
 41
0.97436
  7
FONT1
100
AcDbText
  0
TEXT
  5
18F
330
1E
100
AcDbEntity
  8
PV
 62
     7
100
AcDbText
 10
21.4908
 20
4.876909999999999
 30
0.0
 40
4.5
  1
21547- *
 41
0.9583332999999999
  7
FONT1
100
AcDbText
  0
TEXT
  5
190
330
1E
100
AcDbEntity
  8
PV
 62
     7
100
AcDbText
 10
48.1957
 20
7.69311
 30
0.0
 40
4.5
  1
1
 41
0.6666667
  7
FONT1
100
AcDbText
  0
TEXT
  5
191
330
1E
100
AcDbEntity
  8
PV
 62
     7
100
AcDbText
 10
47.41369999999999
 20
2.441399999999999
 30
0.0
 40
4.5
  1
A
  7
FONT1
100
AcDbText
  0
TEXT
  5
192
330
1E
100
AcDbEntity
  8
PV
 62
     7
100
AcDbText
 10
91.0097
 20
14.57869999999999
 30
0.0
 40
4.5
  1
45 TYPE
  7
FONT1
100
AcDbText
  0
TEXT
  5
193
330
1E
100
AcDbEntity
  8
PV
 62
     7
100
AcDbText
 10
99.68850000000001
 20
4.876909999999999
 30
0.0
 40
4.5
  1
21547- *
 41
0.9583332999999999
  7
FONT1
100
AcDbText
  0
TEXT
  5
194
330
1E
100
AcDbEntity
  8
PV
 62
     7
100
AcDbText
 10
125.157
 20
7.8117
 30
0.0
 40
4.5
  1
2
  7
FONT1
100
AcDbText
  0
TEXT
  5
195
330
1E
100
AcDbEntity
  8
PV
 62
     7
100
AcDbText
 10
125.255
 20
1.969149999999999
 30
0.0
 40
4.5
  1
B
  7
FONT1
100
AcDbText
  0
TEXT
  5
196
330
1E
100
AcDbEntity
  8
PV
 62
     7
100
AcDbText
 10
180.8114999999999
 20
4.876909999999999
 30
0.0
 40
4.5
  1
21547- *
 41
0.9583332999999999
  7
FONT1
100
AcDbText
  0
TEXT
  5
197
330
1E
100
AcDbEntity
  8
PV
 62
     7
100
AcDbText
 10
171.7957
 20
14.57869999999999
 30
0.0
 40
4.5
  1
90 TYPE
 41
0.9761910999999999
  7
FONT1
100
AcDbText
  0
TEXT
  5
198
330
1E
100
AcDbEntity
  8
PV
 62
     7
100
AcDbText
 10
206.3489999999999
 20
7.812199999999999
 30
0.0
 40
4.5
  1
3
  7
FONT1
100
AcDbText
  0
TEXT
  5
199
330
1E
100
AcDbEntity
  8
PV
 62
     7
100
AcDbText
 10
206.3089999999999
 20
2.11317
 30
0.0
 40
4.5
  1
C
  7
FONT1
100
AcDbText
  0
TEXT
  5
19A
330
1E
100
AcDbEntity
  8
PV
 62
     7
100
AcDbText
 10
259.7654999999999
 20
4.876909999999999
 30
0.0
 40
4.5
  1
21547- *
 41
0.9583332999999999
  7
FONT1
100
AcDbText
  0
TEXT
  5
19B
330
1E
100
AcDbEntity
  8
PV
 62
     7
100
AcDbText
 10
251.5264999999999
 20
14.57869999999999
 30
0.0
 40
4.5
  1
135 TYPE
 41
0.9583332999999999
  7
FONT1
100
AcDbText
  0
TEXT
  5
19C
330
1E
100
AcDbEntity
  8
PV
 62
     7
100
AcDbText
 10
285.423
 20
7.65322
 30
0.0
 40
4.5
  1
4
  7
FONT1
100
AcDbText
  0
TEXT
  5
19D
330
1E
100
AcDbEntity
  8
PV
 62
     7
100
AcDbText
 10
285.511
 20
1.75014
 30
0.0
 40
4.5
  1
D
  7
FONT1
100
AcDbText
  0
LINE
  5
19E
330
1E
100
AcDbEntity
  8
PV
  6
CENTER
 62
     1
100
AcDbLine
 10
202.3569999999998
 20
110.0
 30
0.0
 11
4.866009999999988
 21
110.0
 31
0.0
  0
CIRCLE
  5
19F
330
1E
100
AcDbEntity
  8
PV
 62
     7
100
AcDbCircle
 10
286.8489999999999
 20
145.6109999999999
 30
0.0
 40
3.61111
  0
LINE
  5
1A0
330
1E
100
AcDbEntity
  8
PV
  6
CENTER
 62
     1
100
AcDbLine
 10
295.71
 20
145.6109999999999
 30
0.0
 11
278.697
 21
145.6109999999999
 31
0.0
  0
LINE
  5
1A1
330
1E
100
AcDbEntity
  8
PV
 62
     7
100
AcDbLine
 10
291.6449999999999
 20
122.5
 30
0.0
 11
282.053
 21
122.5
 31
0.0
  0
LINE
  5
1A2
330
1E
100
AcDbEntity
  8
PV
 62
     7
100
AcDbLine
 10
293.9379999999999
 20
128.278
 30
0.0
 11
279.7609999999999
 21
128.278
 31
0.0
  0
LINE
  5
1A3
330
1E
100
AcDbEntity
  8
PV
 62
     7
100
AcDbLine
 10
279.7609999999999
 20
124.6669999999999
 30
0.0
 11
293.9379999999999
 21
124.6669999999999
 31
0.0
  0
CIRCLE
  5
1A4
330
1E
100
AcDbEntity
  8
PV
 62
     7
100
AcDbCircle
 10
286.8489999999999
 20
145.6109999999999
 30
0.0
 40
6.5
  0
LINE
  5
1A5
330
1E
100
AcDbEntity
  8
PV
 62
     7
100
AcDbLine
 10
280.349
 20
145.6109999999999
 30
0.0
 11
280.349
 21
128.278
 31
0.0
  0
LINE
  5
1A6
330
1E
100
AcDbEntity
  8
PV
 62
     7
100
AcDbLine
 10
279.7609999999999
 20
128.278
 30
0.0
 11
279.7609999999999
 21
124.6669999999999
 31
0.0
  0
LINE
  5
1A7
330
1E
100
AcDbEntity
  8
PV
 62
     7
100
AcDbLine
 10
283.305
 20
128.278
 30
0.0
 11
283.305
 21
124.6669999999999
 31
0.0
  0
LINE
  5
1A8
330
1E
100
AcDbEntity
  8
PV
 62
     7
100
AcDbLine
 10
293.3489999999999
 20
145.6109999999999
 30
0.0
 11
293.3489999999999
 21
128.278
 31
0.0
  0
LINE
  5
1A9
330
1E
100
AcDbEntity
  8
PV
 62
     7
100
AcDbLine
 10
290.394
 20
128.278
 30
0.0
 11
290.394
 21
124.6669999999999
 31
0.0
  0
LINE
  5
1AA
330
1E
100
AcDbEntity
  8
PV
 62
     7
100
AcDbLine
 10
293.9379999999999
 20
128.278
 30
0.0
 11
293.9379999999999
 21
124.6669999999999
 31
0.0
  0
LINE
  5
1AB
330
1E
100
AcDbEntity
  8
PV
 62
     7
100
AcDbLine
 10
131.84
 20
124.543
 30
0.0
 11
131.84
 21
122.5
 31
0.0
  0
LINE
  5
1AC
330
1E
100
AcDbEntity
  8
PV
 62
     7
100
AcDbLine
 10
141.859
 20
124.543
 30
0.0
 11
141.859
 21
122.5
 31
0.0
  0
LINE
  5
1AD
330
1E
100
AcDbEntity
  8
PV
 62
     7
100
AcDbLine
 10
170.907
 20
220.9499999999999
 30
0.0
 11
172.357
 21
219.4999999999999
 31
0.0
  0
LINE
  5
1AE
330
1E
100
AcDbEntity
  8
PV
 62
     7
100
AcDbLine
 10
170.907
 20
199.05
 30
0.0
 11
172.357
 21
200.4999999999999
 31
0.0
  0
LINE
  5
1AF
330
1E
100
AcDbEntity
  8
PV
 62
     7
100
AcDbLine
 10
281.9859999999999
 20
124.6669999999999
 30
0.0
 11
281.9859999999999
 21
122.5
 31
0.0
  0
LINE
  5
1B0
330
1E
100
AcDbEntity
  8
PV
 62
     7
100
AcDbLine
 10
291.713
 20
124.6669999999999
 30
0.0
 11
291.713
 21
122.5
 31
0.0
  0
LINE
  5
1B1
330
1E
100
AcDbEntity
  8
PV
 62
     7
100
AcDbLine
 10
90.866
 20
37.5
 30
0.0
 11
95.36599999999999
 21
42.0
 31
0.0
  0
LINE
  5
1B2
330
1E
100
AcDbEntity
  8
PV
 62
     7
100
AcDbLine
 10
90.866
 20
32.5
 30
0.0
 11
95.36599999999999
 21
28.0
 31
0.0
  0
LINE
  5
1B3
330
1E
100
AcDbEntity
  8
PV
 62
     7
100
AcDbLine
 10
198.8569999999999
 20
112.5979999999999
 30
0.0
 11
204.8469999999999
 21
122.9719999999999
 31
0.0
  0
POLYLINE
  5
1B4
330
1E
100
AcDbEntity
  8
PV
 62
     7
100
AcDb2dPolyline
 66
     1
 10
0.0
 20
0.0
 30
0.0
  0
VERTEX
  5
5B0
330
1B4
100
AcDbEntity
  8
PV
 62
     7
100
AcDbVertex
100
AcDb2dVertex
 10
199.2899999999998
 20
112.3479999999998
 30
0.0
  0
VERTEX
  5
5B1
330
1B4
100
AcDbEntity
  8
PV
 62
     7
100
AcDbVertex
100
AcDb2dVertex
 10
198.4239999999999
 20
112.8479999999999
 30
0.0
  0
VERTEX
  5
5B2
330
1B4
100
AcDbEntity
  8
PV
 62
     7
100
AcDbVertex
100
AcDb2dVertex
 10
197.3569999999999
 20
109.9999999999998
 30
0.0
  0
VERTEX
  5
5B3
330
1B4
100
AcDbEntity
  8
PV
 62
     7
100
AcDbVertex
100
AcDb2dVertex
 10
199.2899999999998
 20
112.3479999999998
 30
0.0
  0
SEQEND
  5
5B4
330
1B4
100
AcDbEntity
  8
PV
 62
     7
  0
POLYLINE
  5
1BA
330
1E
100
AcDbEntity
  8
PV
 62
     7
100
AcDb2dPolyline
 66
     1
 10
0.0
 20
0.0
 30
0.0
  0
VERTEX
  5
5B5
330
1BA
100
AcDbEntity
  8
PV
 62
     7
100
AcDbVertex
100
AcDb2dVertex
 10
159.0049999999999
 20
147.835
 30
0.0
  0
VERTEX
  5
5B6
330
1BA
100
AcDbEntity
  8
PV
 62
     7
100
AcDbVertex
100
AcDb2dVertex
 10
158.139
 20
148.335
 30
0.0
  0
VERTEX
  5
5B7
330
1BA
100
AcDbEntity
  8
PV
 62
     7
100
AcDbVertex
100
AcDb2dVertex
 10
157.072
 20
145.4869999999999
 30
0.0
  0
VERTEX
  5
5B8
330
1BA
100
AcDbEntity
  8
PV
 62
     7
100
AcDbVertex
100
AcDb2dVertex
 10
159.0049999999999
 20
147.835
 30
0.0
  0
SEQEND
  5
5B9
330
1BA
100
AcDbEntity
  8
PV
 62
     7
  0
LINE
  5
1C0
330
1E
100
AcDbEntity
  8
PV
 62
     7
100
AcDbLine
 10
158.572
 20
148.085
 30
0.0
 11
164.561
 21
158.459
 31
0.0
  0
LINE
  5
1C1
330
1E
100
AcDbEntity
  8
PV
 62
     7
100
AcDbLine
 10
164.561
 20
158.459
 30
0.0
 11
209.561
 21
158.459
 31
0.0
  0
LINE
  5
1C2
330
1E
100
AcDbEntity
  8
PV
 62
     7
100
AcDbLine
 10
204.8469999999999
 20
122.9719999999999
 30
0.0
 11
249.8469999999999
 21
122.9719999999999
 31
0.0
  0
LINE
  5
43B
330
1E
100
AcDbEntity
  8
PV
 62
     7
100
AcDbLine
 10
183.3569999999998
 20
207.6905989232415
 30
0.0
 11
174.357
 21
207.6905989232415
 31
0.0
  0
LINE
  5
43C
330
1E
100
AcDbEntity
  8
PV
 62
     7
100
AcDbLine
 10
183.3569999999999
 20
205.3811978464828
 30
0.0
 11
174.357
 21
205.3811978464829
 31
0.0
  0
LINE
  5
43D
330
1E
100
AcDbEntity
  8
PV
 62
     7
100
AcDbLine
 10
183.3569999999998
 20
212.3094010767583
 30
0.0
 11
174.357
 21
212.3094010767583
 31
0.0
  0
LINE
  5
43E
330
1E
100
AcDbEntity
  8
PV
 62
     7
100
AcDbLine
 10
183.3569999999998
 20
214.618802153517
 30
0.0
 11
174.357
 21
214.618802153517
 31
0.0
  0
LINE
  5
43F
330
1E
100
AcDbEntity
  8
PV
 62
     7
100
AcDbLine
 10
174.357
 20
205.3811978464829
 30
0.0
 11
174.357
 21
214.618802153517
 31
0.0
  0
LINE
  5
440
330
1E
100
AcDbEntity
  8
PV
 62
     7
100
AcDbLine
 10
172.357
 20
213.9999999999996
 30
0.0
 11
174.3570000000001
 21
213.9999999999996
 31
0.0
  0
LINE
  5
441
330
1E
100
AcDbEntity
  8
PV
 62
     7
100
AcDbLine
 10
172.3570000000003
 20
205.9999999999996
 30
0.0
 11
174.357
 21
205.9999999999996
 31
0.0
  0
LINE
  5
442
330
1E
100
AcDbEntity
  8
PV
 62
     7
100
AcDbLine
 10
183.3569999999998
 20
205.9999999999994
 30
0.0
 11
196.2736666666668
 21
205.9999999999996
 31
0.0
  0
LINE
  5
443
330
1E
100
AcDbEntity
  8
PV
 62
     7
100
AcDbLine
 10
183.3569999999998
 20
213.9999999999994
 30
0.0
 11
196.2736666666668
 21
213.9999999999993
 31
0.0
  0
LINE
  5
444
330
1E
100
AcDbEntity
  8
PV
 62
     7
100
AcDbLine
 10
183.3569999999999
 20
205.3811978464828
 30
0.0
 11
183.3569999999998
 21
214.618802153517
 31
0.0
  0
LINE
  5
445
330
1E
100
AcDbEntity
  8
PV
 62
     7
100
AcDbLine
 10
197.3570000000002
 20
214.8999999999999
 30
0.0
 11
197.3570000000002
 21
205.0999999999999
 31
0.0
  0
LINE
  5
446
330
1E
100
AcDbEntity
  8
PV
 62
     7
100
AcDbLine
 10
196.2736666666667
 20
214.8999999999999
 30
0.0
 11
196.2736666666667
 21
205.0999999999999
 31
0.0
  0
LINE
  5
447
330
1E
100
AcDbEntity
  8
PV
 62
     7
100
AcDbLine
 10
197.3570000000002
 20
205.0999999999999
 30
0.0
 11
196.2736666666667
 21
205.0999999999999
 31
0.0
  0
LINE
  5
448
330
1E
100
AcDbEntity
  8
PV
 62
     7
100
AcDbLine
 10
197.3570000000002
 20
214.8999999999999
 30
0.0
 11
196.2736666666667
 21
214.8999999999999
 31
0.0
  0
LINE
  5
449
330
1E
100
AcDbEntity
  8
L-ZISSEN
100
AcDbLine
 10
172.3569999999996
 20
113.9999999999996
 30
0.0
 11
196.2736666666664
 21
113.9999999999994
 31
0.0
  0
LINE
  5
44A
330
1E
100
AcDbEntity
  8
L-ZISSEN
100
AcDbLine
 10
172.357
 20
105.9999999999995
 30
0.0
 11
196.2736666666664
 21
105.9999999999995
 31
0.0
  0
LINE
  5
44C
330
1E
100
AcDbEntity
  8
L-ZISSEN
100
AcDbLine
 10
174.3569999999996
 20
105.9999999999995
 30
0.0
 11
174.3569999999996
 21
113.9999999999996
 31
0.0
  0
LINE
  5
44D
330
1E
100
AcDbEntity
  8
L-ZISSEN
100
AcDbLine
 10
197.3569999999999
 20
114.1237358788292
 30
0.0
 11
197.3569999999999
 21
105.8762641211705
 31
0.0
  0
LINE
  5
44E
330
1E
100
AcDbEntity
  8
L-ZISSEN
  6
CONTINUOUS
 62
     7
100
AcDbLine
 10
196.2736666666664
 20
114.1237358788292
 30
0.0
 11
196.2736666666664
 21
105.8762641211705
 31
0.0
  0
LINE
  5
450
330
1E
100
AcDbEntity
  8
L-ZISSEN
  6
CONTINUOUS
 62
     7
100
AcDbLine
 10
197.3569999999999
 20
105.8762641211705
 30
0.0
 11
196.2736666666664
 21
105.8762641211705
 31
0.0
  0
LINE
  5
451
330
1E
100
AcDbEntity
  8
L-ZISSEN
  6
CONTINUOUS
 62
     7
100
AcDbLine
 10
197.3569999999999
 20
114.1237358788292
 30
0.0
 11
196.2736666666664
 21
114.1237358788292
 31
0.0
  0
LINE
  5
45B
330
1E
100
AcDbEntity
  8
PV
100
AcDbLine
 10
289.2161361036775
 20
113.8999999999998
 30
0.0
 11
284.4818638963226
 21
113.8999999999998
 31
0.0
  0
LINE
  5
45C
330
1E
100
AcDbEntity
  8
PV
100
AcDbLine
 10
289.2161361036774
 20
106.1
 30
0.0
 11
284.4818638963222
 21
106.1
 31
0.0
  0
CIRCLE
  5
45D
330
1E
100
AcDbEntity
  8
PV
100
AcDbCircle
 10
286.8489999999999
 20
110.0
 30
0.0
 40
2.0
  0
ARC
  5
45E
330
1E
100
AcDbEntity
  8
PV
100
AcDbCircle
 10
286.2179620134529
 20
109.9999999999998
 30
0.0
 40
4.268962013452831
100
AcDbArc
 50
113.9963982246669
 51
246.003601775333
  0
ARC
  5
45F
330
1E
100
AcDbEntity
  8
PV
100
AcDbCircle
 10
287.4800379865476
 20
110.0
 30
0.0
 40
4.26896201345258
100
AcDbArc
 50
293.99639822466
 51
66.00360177533996
  0
ENDSEC
  0
SECTION
  2
OBJECTS
  0
DICTIONARY
  5
C
330
0
100
AcDbDictionary
  3
ACAD_GROUP
350
D
  3
ACAD_LAYOUT
350
19
  3
ACAD_MLINESTYLE
350
16
  3
ACAD_PLOTSETTINGS
350
18
1001
ACAD
1000
TREAT_AS_HARD
1070
     0
  0
DICTIONARY
  5
463
330
1E
100
AcDbDictionary
  3
ACAD_LAYOUTSELFREF
350
591
1001
ACAD
1000
TREAT_AS_HARD
1070
     1
  0
DICTIONARY
  5
465
330
1A
100
AcDbDictionary
  3
ACAD_LAYOUTSELFREF
350
590
1001
ACAD
1000
TREAT_AS_HARD
1070
     1
  0
DICTIONARY
  5
D
102
{ACAD_REACTORS
330
C
102
}
330
C
100
AcDbDictionary
1001
ACAD
1000
TREAT_AS_HARD
1070
     0
  0
DICTIONARY
  5
19
102
{ACAD_REACTORS
330
C
102
}
330
C
100
AcDbDictionary
1001
ACAD
1000
TREAT_AS_HARD
1070
     0
  0
DICTIONARY
  5
16
102
{ACAD_REACTORS
330
C
102
}
330
C
100
AcDbDictionary
  3
STANDARD
350
17
1001
ACAD
1000
TREAT_AS_HARD
1070
     0
  0
DICTIONARY
  5
18
102
{ACAD_REACTORS
330
C
102
}
330
C
100
AcDbDictionary
1001
ACAD
1000
TREAT_AS_HARD
1070
     0
  0
XRECORD
  5
591
102
{ACAD_REACTORS
330
463
102
}
330
463
100
AcDbXrecord
340
1E
  0
XRECORD
  5
590
102
{ACAD_REACTORS
330
465
102
}
330
465
100
AcDbXrecord
340
1A
  0
MLINESTYLE
  5
17
102
{ACAD_REACTORS
330
16
102
}
330
16
100
AcDbMlineStyle
  2
STANDARD
 70
     0
  3

 62
   256
 51
90.0
 52
90.0
 71
     2
 49
0.5
 62
   256
  6
BYLAYER
 49
-0.5
 62
   256
  6
BYLAYER
  0
ENDSEC
  0
EOF
