  0
SECTION
  2
HEADER
  9
$ACADVER
  1
AC1012
  9
$DWGCODEPAGE
  3
dos932
  9
$INSBASE
 10
208.5784576704672
 20
166.7999999999998
 30
0.0
  9
$EXTMIN
 10
29.2456317290239
 20
51.7619083861398
 30
-0.0015258207003583
  9
$EXTMAX
 10
362.8878220196313
 20
339.5079053208517
 30
0.0000000349246037
  9
$LIMMIN
 10
0.0
 20
0.0
  9
$LIMMAX
 10
594.0
 20
420.0
  9
$ORTHOMODE
 70
     1
  9
$REGENMODE
 70
     1
  9
$FILLMODE
 70
     1
  9
$QTEXTMODE
 70
     0
  9
$MIRRTEXT
 70
     1
  9
$DRAGMODE
 70
     2
  9
$LTSCALE
 40
1.0
  9
$OSMODE
 70
    37
  9
$ATTMODE
 70
     1
  9
$TEXTSIZE
 40
4.5
  9
$TRACEWID
 40
0.05
  9
$TEXTSTYLE
  7
STANDARD
  9
$CLAYER
  8
L-ZISSEN
  9
$CELTYPE
  6
BYLAYER
  9
$CECOLOR
 62
   256
  9
$CELTSCALE
 40
1.0
  9
$DELOBJ
 70
     1
  9
$DISPSILH
 70
     0
  9
$DIMSCALE
 40
1.0
  9
$DIMASZ
 40
2.0
  9
$DIMEXO
 40
2.0
  9
$DIMDLI
 40
0.38
  9
$DIMRND
 40
0.0
  9
$DIMDLE
 40
1.0
  9
$DIMEXE
 40
2.0
  9
$DIMTP
 40
0.0
  9
$DIMTM
 40
0.0
  9
$DIMTXT
 40
4.5
  9
$DIMCEN
 40
0.09
  9
$DIMTSZ
 40
0.0
  9
$DIMTOL
 70
     0
  9
$DIMLIM
 70
     0
  9
$DIMTIH
 70
     0
  9
$DIMTOH
 70
     0
  9
$DIMSE1
 70
     0
  9
$DIMSE2
 70
     0
  9
$DIMTAD
 70
     1
  9
$DIMZIN
 70
     0
  9
$DIMBLK
  1

  9
$DIMASO
 70
     0
  9
$DIMSHO
 70
     0
  9
$DIMPOST
  1

  9
$DIMAPOST
  1

  9
$DIMALT
 70
     0
  9
$DIMALTD
 70
     2
  9
$DIMALTF
 40
25.4
  9
$DIMLFAC
 40
1.0
  9
$DIMTOFL
 70
     1
  9
$DIMTVP
 40
0.0
  9
$DIMTIX
 70
     1
  9
$DIMSOXD
 70
     0
  9
$DIMSAH
 70
     0
  9
$DIMBLK1
  1

  9
$DIMBLK2
  1

  9
$DIMSTYLE
  2
STANDARD
  9
$DIMCLRD
 70
     0
  9
$DIMCLRE
 70
     0
  9
$DIMCLRT
 70
     0
  9
$DIMTFAC
 40
1.0
  9
$DIMGAP
 40
0.09
  9
$DIMJUST
 70
     0
  9
$DIMSD1
 70
     0
  9
$DIMSD2
 70
     0
  9
$DIMTOLJ
 70
     1
  9
$DIMTZIN
 70
     0
  9
$DIMALTZ
 70
     0
  9
$DIMALTTZ
 70
     0
  9
$DIMFIT
 70
     5
  9
$DIMUPT
 70
     0
  9
$DIMUNIT
 70
     2
  9
$DIMDEC
 70
     4
  9
$DIMTDEC
 70
     4
  9
$DIMALTU
 70
     2
  9
$DIMALTTD
 70
     2
  9
$DIMTXSTY
  7
STANDARD
  9
$DIMAUNIT
 70
     0
  9
$LUNITS
 70
     2
  9
$LUPREC
 70
     4
  9
$SKETCHINC
 40
0.1
  9
$FILLETRAD
 40
0.0
  9
$AUNITS
 70
     0
  9
$AUPREC
 70
     0
  9
$MENU
  1
acad
  9
$ELEVATION
 40
0.0
  9
$PELEVATION
 40
0.0
  9
$THICKNESS
 40
0.0
  9
$LIMCHECK
 70
     0
  9
$BLIPMODE
 70
     0
  9
$CHAMFERA
 40
0.0
  9
$CHAMFERB
 40
0.0
  9
$CHAMFERC
 40
0.0
  9
$CHAMFERD
 40
0.0
  9
$SKPOLY
 70
     0
  9
$TDCREATE
 40
2449009.031852893
  9
$TDUPDATE
 40
2453242.721757754
  9
$TDINDWG
 40
0.0114619213
  9
$TDUSRTIMER
 40
0.0114619213
  9
$USRTIMER
 70
     1
  9
$ANGBASE
 50
0.0
  9
$ANGDIR
 70
     0
  9
$PDMODE
 70
     0
  9
$PDSIZE
 40
0.0
  9
$PLINEWID
 40
0.0
  9
$COORDS
 70
     0
  9
$SPLFRAME
 70
     0
  9
$SPLINETYPE
 70
     6
  9
$SPLINESEGS
 70
     8
  9
$ATTDIA
 70
     0
  9
$ATTREQ
 70
     1
  9
$HANDLING
 70
-16383
  9
$HANDSEED
  5
9A
  9
$SURFTAB1
 70
     6
  9
$SURFTAB2
 70
     6
  9
$SURFTYPE
 70
     6
  9
$SURFU
 70
     6
  9
$SURFV
 70
     6
  9
$UCSNAME
  2

  9
$UCSORG
 10
0.0
 20
0.0
 30
0.0
  9
$UCSXDIR
 10
1.0
 20
0.0
 30
0.0
  9
$UCSYDIR
 10
0.0
 20
1.0
 30
0.0
  9
$PUCSNAME
  2

  9
$PUCSORG
 10
0.0
 20
0.0
 30
0.0
  9
$PUCSXDIR
 10
1.0
 20
0.0
 30
0.0
  9
$PUCSYDIR
 10
0.0
 20
1.0
 30
0.0
  9
$USERI1
 70
     0
  9
$USERI2
 70
     0
  9
$USERI3
 70
     0
  9
$USERI4
 70
     0
  9
$USERI5
 70
     0
  9
$USERR1
 40
0.0
  9
$USERR2
 40
0.0
  9
$USERR3
 40
0.0
  9
$USERR4
 40
0.0
  9
$USERR5
 40
0.0
  9
$WORLDVIEW
 70
     1
  9
$SHADEDGE
 70
     3
  9
$SHADEDIF
 70
    70
  9
$TILEMODE
 70
     1
  9
$MAXACTVP
 70
    64
  9
$PINSBASE
 10
0.0
 20
0.0
 30
0.0
  9
$PLIMCHECK
 70
     0
  9
$PEXTMIN
 10
1.000000000000000E+20
 20
1.000000000000000E+20
 30
1.000000000000000E+20
  9
$PEXTMAX
 10
-1.000000000000000E+20
 20
-1.000000000000000E+20
 30
-1.000000000000000E+20
  9
$PLIMMIN
 10
0.0
 20
0.0
  9
$PLIMMAX
 10
12.0
 20
9.0
  9
$UNITMODE
 70
     0
  9
$VISRETAIN
 70
     1
  9
$PLINEGEN
 70
     0
  9
$PSLTSCALE
 70
     0
  9
$TREEDEPTH
 70
  3020
  9
$PICKSTYLE
 70
     1
  9
$CMLSTYLE
  2
STANDARD
  9
$CMLJUST
 70
     0
  9
$CMLSCALE
 40
1.0
  9
$SAVEIMAGES
 70
     1
  0
ENDSEC
  0
SECTION
  2
CLASSES
  0
CLASS
  1
ACDBDICTIONARYWDFLT
  2
AcDbDictionaryWithDefault
  3
AutoCAD 2000
 90
    32768
280
     0
281
     0
  0
CLASS
  1
ACDBPLACEHOLDER
  2
AcDbPlaceHolder
  3
AutoCAD 2000
 90
    32768
280
     0
281
     0
  0
CLASS
  1
LAYOUT
  2
AcDbLayout
  3
AutoCAD 2000
 90
    32768
280
     0
281
     0
  0
CLASS
  1
LONG_TRANSACTION
  2
AcDbLongTransaction
  3
AutoCAD 2000
 90
    32768
280
     0
281
     0
  0
CLASS
  1
LWPOLYLINE
  2
AcDbPolyline
  3
AutoCAD 2000
 90
    32768
280
     0
281
     1
  0
CLASS
  1
HATCH
  2
AcDbHatch
  3
AutoCAD 2000
 90
    32768
280
     0
281
     1
  0
CLASS
  1
XRECORD
  2
AcDbXrecord
  3
AutoCAD 2000
 90
    32768
280
     0
281
     0
  0
ENDSEC
  0
SECTION
  2
TABLES
  0
TABLE
  2
VPORT
  5
8
330
0
100
AcDbSymbolTable
 70
     3
  0
VPORT
  5
95
330
8
100
AcDbSymbolTableRecord
100
AcDbViewportTableRecord
  2
*ACTIVE
 70
     0
 10
0.0
 20
0.0
 11
1.0
 21
1.0
 12
196.0667268743275
 22
195.6349068534957
 13
0.0
 23
0.0
 14
5.0
 24
5.0
 15
0.0
 25
0.0
 16
0.0
 26
0.0
 36
1.0
 17
0.0
 27
0.0
 37
0.0
 40
291.1048996226657
 41
1.84990253411306
 42
50.0
 43
0.0
 44
0.0
 50
0.0
 51
0.0
 71
     0
 72
   100
 73
     1
 74
     0
 75
     0
 76
     0
 77
     0
 78
     0
  0
ENDTAB
  0
TABLE
  2
LTYPE
  5
5
330
0
100
AcDbSymbolTable
 70
     2
  0
LTYPE
  5
13
330
5
100
AcDbSymbolTableRecord
100
AcDbLinetypeTableRecord
  2
BYBLOCK
 70
     0
  3

 72
    65
 73
     0
 40
0.0
  0
LTYPE
  5
14
330
5
100
AcDbSymbolTableRecord
100
AcDbLinetypeTableRecord
  2
BYLAYER
 70
     0
  3

 72
    65
 73
     0
 40
0.0
  0
LTYPE
  5
15
330
5
100
AcDbSymbolTableRecord
100
AcDbLinetypeTableRecord
  2
CONTINUOUS
 70
     0
  3
Solid line
 72
    65
 73
     0
 40
0.0
  0
LTYPE
  5
22
330
5
100
AcDbSymbolTableRecord
100
AcDbLinetypeTableRecord
  2
CENTER
 70
     0
  3
____ _ ____ _ ____ _ ____ _ 
 72
    65
 73
     4
 40
15.0
 49
10.0
 74
     0
 49
-2.0
 74
     0
 49
1.0
 74
     0
 49
-2.0
 74
     0
  0
ENDTAB
  0
TABLE
  2
LAYER
  5
2
330
0
100
AcDbSymbolTable
 70
     3
  0
LAYER
  5
10
330
2
100
AcDbSymbolTableRecord
100
AcDbLayerTableRecord
  2
0
 70
     0
 62
     7
  6
CONTINUOUS
  0
LAYER
  5
25
330
2
100
AcDbSymbolTableRecord
100
AcDbLayerTableRecord
  2
L-ZISSEN
 70
     0
 62
     7
  6
CONTINUOUS
  0
LAYER
  5
26
330
2
100
AcDbSymbolTableRecord
100
AcDbLayerTableRecord
  2
L-TYUSIN
 70
     0
 62
     1
  6
CENTER
  0
ENDTAB
  0
TABLE
  2
STYLE
  5
3
330
0
100
AcDbSymbolTable
 70
     1
  0
STYLE
  5
11
330
3
100
AcDbSymbolTableRecord
100
AcDbTextStyleTableRecord
  2
STANDARD
 70
     0
 40
0.0
 41
1.0
 50
0.0
 71
     0
 42
4.5
  3
TXT
  4

  0
ENDTAB
  0
TABLE
  2
VIEW
  5
6
330
0
100
AcDbSymbolTable
 70
     0
  0
ENDTAB
  0
TABLE
  2
UCS
  5
7
330
0
100
AcDbSymbolTable
 70
     0
  0
ENDTAB
  0
TABLE
  2
APPID
  5
9
330
0
100
AcDbSymbolTable
 70
     1
  0
APPID
  5
12
330
9
100
AcDbSymbolTableRecord
100
AcDbRegAppTableRecord
  2
ACAD
 70
     0
  0
ENDTAB
  0
TABLE
  2
DIMSTYLE
  5
A
330
0
100
AcDbSymbolTable
 70
     1
  0
DIMSTYLE
105
93
330
A
100
AcDbSymbolTableRecord
100
AcDbDimStyleTableRecord
  2
STANDARD
 70
     0
  3

  4

  5

  6

  7

 40
1.0
 41
0.18
 42
0.0625
 43
0.38
 44
0.18
 45
0.0
 46
0.0
 47
0.0
 48
0.0
140
0.18
141
0.09
142
0.0
143
25.4
144
1.0
145
0.0
146
1.0
147
0.09
 71
     0
 72
     0
 73
     1
 74
     1
 75
     0
 76
     0
 77
     0
 78
     0
170
     0
171
     2
172
     0
173
     0
174
     0
175
     0
176
     0
177
     0
178
     0
270
     2
271
     4
272
     4
273
     2
274
     2
340
11
275
     0
280
     0
281
     0
282
     0
283
     1
284
     0
285
     0
286
     0
287
     3
288
     0
  0
ENDTAB
  0
TABLE
  2
BLOCK_RECORD
  5
1
330
0
100
AcDbSymbolTable
 70
     0
  0
BLOCK_RECORD
  5
1E
102
{ACAD_XDICTIONARY
360
98
102
}
330
1
100
AcDbSymbolTableRecord
100
AcDbBlockTableRecord
  2
*MODEL_SPACE
  0
BLOCK_RECORD
  5
1A
102
{ACAD_XDICTIONARY
360
96
102
}
330
1
100
AcDbSymbolTableRecord
100
AcDbBlockTableRecord
  2
*PAPER_SPACE
  0
ENDTAB
  0
ENDSEC
  0
SECTION
  2
BLOCKS
  0
BLOCK
  5
29
330
1E
100
AcDbEntity
  8
0
100
AcDbBlockBegin
  2
*MODEL_SPACE
 70
     0
 10
0.0
 20
0.0
 30
0.0
  3
*MODEL_SPACE
  1

  0
ENDBLK
  5
2A
330
1E
100
AcDbEntity
  8
0
100
AcDbBlockEnd
  0
BLOCK
  5
27
330
1A
100
AcDbEntity
 67
     1
  8
0
100
AcDbBlockBegin
  2
*PAPER_SPACE
 70
     0
 10
0.0
 20
0.0
 30
0.0
  3
*PAPER_SPACE
  1

  0
ENDBLK
  5
28
330
1A
100
AcDbEntity
 67
     1
  8
0
100
AcDbBlockEnd
  0
ENDSEC
  0
SECTION
  2
ENTITIES
  0
LINE
  5
2B
330
1E
100
AcDbEntity
  8
L-ZISSEN
100
AcDbLine
 10
290.5784576704673
 20
216.7999999999997
 30
0.0
 11
208.5784576704673
 21
216.7999999999998
 31
0.0
  0
CIRCLE
  5
2C
330
1E
100
AcDbEntity
  8
L-ZISSEN
100
AcDbCircle
 10
218.5784576704673
 20
206.7999999999997
 30
0.0
 40
4.5
  0
LINE
  5
2D
330
1E
100
AcDbEntity
  8
L-TYUSIN
100
AcDbLine
 10
362.8868527367334
 20
191.7999999999997
 30
0.0
 11
261.0665414214758
 21
191.7999999999997
 31
0.0
  0
LINE
  5
2E
330
1E
100
AcDbEntity
  8
L-ZISSEN
100
AcDbLine
 10
208.5784576704672
 20
141.7999999999997
 30
0.0
 11
290.5784576704673
 21
141.7999999999997
 31
0.0
  0
LINE
  5
2F
330
1E
100
AcDbEntity
  8
L-ZISSEN
100
AcDbLine
 10
208.5784576704673
 20
216.7999999999998
 30
0.0
 11
208.5784576704672
 21
141.7999999999997
 31
0.0
  0
LINE
  5
30
330
1E
100
AcDbEntity
  8
L-ZISSEN
100
AcDbLine
 10
191.5784576704673
 20
141.7999999999997
 30
0.0
 11
191.5784576704673
 21
191.7999999999997
 31
0.0
  0
LINE
  5
31
330
1E
100
AcDbEntity
  8
L-ZISSEN
100
AcDbLine
 10
191.5784576704672
 20
91.79999999999978
 30
0.0
 11
290.5784576704673
 21
91.79999999999978
 31
0.0
  0
LINE
  5
32
330
1E
100
AcDbEntity
  8
L-TYUSIN
100
AcDbLine
 10
61.0784576704673
 20
134.9803579197533
 30
0.0
 11
61.0784576704673
 21
231.4999999999996
 31
0.0
  0
LINE
  5
33
330
1E
100
AcDbEntity
  8
L-ZISSEN
100
AcDbLine
 10
81.07845767046731
 20
216.7999999999997
 30
0.0
 11
41.0784576704673
 21
216.7999999999997
 31
0.0
  0
LINE
  5
34
330
1E
100
AcDbEntity
  8
L-ZISSEN
100
AcDbLine
 10
41.0784576704673
 20
216.7999999999997
 30
0.0
 11
41.0784576704673
 21
141.7999999999997
 31
0.0
  0
LINE
  5
35
330
1E
100
AcDbEntity
  8
L-ZISSEN
100
AcDbLine
 10
81.07845767046731
 20
141.7999999999997
 30
0.0
 11
81.07845767046731
 21
216.7999999999997
 31
0.0
  0
LINE
  5
36
330
1E
100
AcDbEntity
  8
L-ZISSEN
100
AcDbLine
 10
81.07845767046731
 20
141.7999999999997
 30
0.0
 11
41.0784576704673
 21
141.7999999999997
 31
0.0
  0
LINE
  5
37
330
1E
100
AcDbEntity
  8
L-TYUSIN
100
AcDbLine
 10
29.25881559022086
 20
166.7999999999998
 30
0.0
 11
92.89809975071372
 21
166.7999999999997
 31
0.0
  0
LINE
  5
38
330
1E
100
AcDbEntity
  8
L-TYUSIN
100
AcDbLine
 10
175.5758442783567
 20
166.7999999999998
 30
0.0
 11
238.8784576704671
 21
166.7999999999997
 31
0.0
  0
LINE
  5
39
330
1E
100
AcDbEntity
  8
L-ZISSEN
100
AcDbLine
 10
208.5784576704672
 20
141.7999999999997
 30
0.0
 11
191.5784576704673
 21
141.7999999999997
 31
0.0
  0
LINE
  5
3A
330
1E
100
AcDbEntity
  8
L-ZISSEN
100
AcDbLine
 10
290.5784576704673
 20
141.7999999999997
 30
0.0
 11
290.5784576704673
 21
216.7999999999997
 31
0.0
  0
LINE
  5
3B
330
1E
100
AcDbEntity
  8
L-ZISSEN
100
AcDbLine
 10
321.5784576704673
 20
176.7999999999997
 30
0.0
 11
290.5784576704673
 21
176.7999999999997
 31
0.0
  0
LINE
  5
3C
330
1E
100
AcDbEntity
  8
L-ZISSEN
100
AcDbLine
 10
290.5784576704673
 20
206.7999999999997
 30
0.0
 11
321.5784576704673
 21
206.7999999999997
 31
0.0
  0
LINE
  5
3D
330
1E
100
AcDbEntity
  8
L-ZISSEN
100
AcDbLine
 10
321.5784576704673
 20
206.7999999999997
 30
0.0
 11
321.5784576704673
 21
176.7999999999997
 31
0.0
  0
LINE
  5
3E
330
1E
100
AcDbEntity
  8
L-ZISSEN
100
AcDbLine
 10
321.5784576704673
 20
206.7999999999997
 30
0.0
 11
326.5784576704672
 21
201.7999999999997
 31
0.0
  0
LINE
  5
3F
330
1E
100
AcDbEntity
  8
L-ZISSEN
100
AcDbLine
 10
321.5784576704673
 20
176.7999999999997
 30
0.0
 11
326.5784576704672
 21
181.7999999999997
 31
0.0
  0
LINE
  5
40
330
1E
100
AcDbEntity
  8
L-ZISSEN
100
AcDbLine
 10
331.5784576704672
 20
187.2999999999997
 30
0.0
 11
352.0784576704672
 21
187.2999999999997
 31
0.0
  0
LINE
  5
41
330
1E
100
AcDbEntity
  8
L-ZISSEN
100
AcDbLine
 10
331.5784576704672
 20
196.2999999999997
 30
0.0
 11
352.0784576704672
 21
196.2999999999997
 31
0.0
  0
LINE
  5
42
330
1E
100
AcDbEntity
  8
L-ZISSEN
100
AcDbLine
 10
352.0784576704672
 20
187.2999999999997
 30
0.0
 11
352.0784576704672
 21
196.2999999999997
 31
0.0
  0
LINE
  5
43
330
1E
100
AcDbEntity
  8
L-ZISSEN
100
AcDbLine
 10
331.5784576704672
 20
199.3055534994648
 30
0.0
 11
331.5784576704672
 21
184.2944465005346
 31
0.0
  0
LINE
  5
44
330
1E
100
AcDbEntity
  8
L-ZISSEN
100
AcDbLine
 10
331.5784576704672
 20
195.5527767497323
 30
0.0
 11
326.5784576704672
 21
195.5527767497323
 31
0.0
  0
LINE
  5
45
330
1E
100
AcDbEntity
  8
L-ZISSEN
100
AcDbLine
 10
331.5784576704672
 20
184.2944465005346
 30
0.0
 11
326.5784576704672
 21
184.2944465005346
 31
0.0
  0
CIRCLE
  5
46
330
1E
100
AcDbEntity
  8
L-ZISSEN
100
AcDbCircle
 10
278.5784576704672
 20
156.7999999999997
 30
0.0
 40
4.5
  0
LINE
  5
47
330
1E
100
AcDbEntity
  8
L-ZISSEN
100
AcDbLine
 10
331.5784576704672
 20
188.0472232502671
 30
0.0
 11
326.5784576704672
 21
188.0472232502671
 31
0.0
  0
LINE
  5
48
330
1E
100
AcDbEntity
  8
L-ZISSEN
100
AcDbLine
 10
326.5784576704672
 20
201.7999999999997
 30
0.0
 11
326.5784576704672
 21
181.7999999999997
 31
0.0
  0
LINE
  5
49
330
1E
100
AcDbEntity
  8
L-ZISSEN
100
AcDbLine
 10
191.5784576704672
 20
266.7999999999997
 30
0.0
 11
290.5784576704673
 21
266.7999999999997
 31
0.0
  0
LINE
  5
4A
330
1E
100
AcDbEntity
  8
L-TYUSIN
100
AcDbLine
 10
175.5758442783567
 20
286.7999999999998
 30
0.0
 11
362.3263881812225
 21
286.7999999999997
 31
0.0
  0
CIRCLE
  5
4B
330
1E
100
AcDbEntity
  8
L-ZISSEN
100
AcDbCircle
 10
236.5784576704673
 20
286.7999999999998
 30
0.0
 40
10.47749999999999
  0
LINE
  5
4C
330
1E
100
AcDbEntity
  8
L-ZISSEN
100
AcDbLine
 10
208.5784576704673
 20
266.7999999999997
 30
0.0
 11
208.5784576704673
 21
306.7999999999997
 31
0.0
  0
LINE
  5
4D
330
1E
100
AcDbEntity
  8
L-ZISSEN
100
AcDbLine
 10
290.5784576704673
 20
306.7999999999997
 30
0.0
 11
191.5784576704672
 21
306.7999999999997
 31
0.0
  0
CIRCLE
  5
4E
330
1E
100
AcDbEntity
  8
L-ZISSEN
100
AcDbCircle
 10
276.5784576704673
 20
286.7999999999998
 30
0.0
 40
6.5785
  0
LINE
  5
4F
330
1E
100
AcDbEntity
  8
L-ZISSEN
100
AcDbLine
 10
290.5784576704673
 20
266.7999999999997
 30
0.0
 11
290.5784576704673
 21
306.7999999999997
 31
0.0
  0
LINE
  5
50
330
1E
100
AcDbEntity
  8
L-ZISSEN
100
AcDbLine
 10
290.5784576704673
 20
301.7999999999997
 30
0.0
 11
321.5784576704673
 21
301.7999999999997
 31
0.0
  0
LINE
  5
51
330
1E
100
AcDbEntity
  8
L-ZISSEN
100
AcDbLine
 10
321.5784576704673
 20
271.7999999999997
 30
0.0
 11
290.5784576704673
 21
271.7999999999997
 31
0.0
  0
LINE
  5
52
330
1E
100
AcDbEntity
  8
L-ZISSEN
100
AcDbLine
 10
321.5784576704673
 20
301.7999999999997
 30
0.0
 11
321.5784576704673
 21
271.7999999999997
 31
0.0
  0
LINE
  5
53
330
1E
100
AcDbEntity
  8
L-ZISSEN
100
AcDbLine
 10
326.5784576704672
 20
280.2999999999997
 30
0.0
 11
331.5784576704672
 21
280.2999999999997
 31
0.0
  0
LINE
  5
54
330
1E
100
AcDbEntity
  8
L-ZISSEN
100
AcDbLine
 10
331.5784576704672
 20
282.2999999999997
 30
0.0
 11
352.0784576704672
 21
282.2999999999997
 31
0.0
  0
LINE
  5
55
330
1E
100
AcDbEntity
  8
L-ZISSEN
100
AcDbLine
 10
331.5784576704672
 20
291.2999999999997
 30
0.0
 11
352.0784576704672
 21
291.2999999999997
 31
0.0
  0
LINE
  5
56
330
1E
100
AcDbEntity
  8
L-ZISSEN
100
AcDbLine
 10
326.5784576704672
 20
293.2999999999997
 30
0.0
 11
331.5784576704672
 21
293.2999999999997
 31
0.0
  0
LINE
  5
57
330
1E
100
AcDbEntity
  8
L-ZISSEN
100
AcDbLine
 10
326.5784576704672
 20
296.7999999999997
 30
0.0
 11
326.5784576704672
 21
276.7999999999997
 31
0.0
  0
LINE
  5
58
330
1E
100
AcDbEntity
  8
L-ZISSEN
100
AcDbLine
 10
326.5784576704672
 20
286.7999999999997
 30
0.0
 11
331.5784576704672
 21
286.7999999999997
 31
0.0
  0
LINE
  5
59
330
1E
100
AcDbEntity
  8
L-ZISSEN
100
AcDbLine
 10
352.0784576704674
 20
282.2999999999997
 30
0.0
 11
352.0784576704674
 21
291.2999999999997
 31
0.0
  0
LINE
  5
5A
330
1E
100
AcDbEntity
  8
L-ZISSEN
100
AcDbLine
 10
191.5784576704672
 20
266.7999999999997
 30
0.0
 11
191.5784576704672
 21
306.7999999999997
 31
0.0
  0
LINE
  5
5B
330
1E
100
AcDbEntity
  8
L-ZISSEN
100
AcDbLine
 10
321.5784576704673
 20
271.7999999999997
 30
0.0
 11
326.5784576704672
 21
276.7999999999997
 31
0.0
  0
LINE
  5
5C
330
1E
100
AcDbEntity
  8
L-ZISSEN
100
AcDbLine
 10
321.5784576704673
 20
301.7999999999997
 30
0.0
 11
326.5784576704672
 21
296.7999999999997
 31
0.0
  0
LINE
  5
5D
330
1E
100
AcDbEntity
  8
L-ZISSEN
100
AcDbLine
 10
331.5784576704672
 20
293.2999999999997
 30
0.0
 11
331.5784576704672
 21
280.2999999999997
 31
0.0
  0
LINE
  5
5E
330
1E
100
AcDbEntity
  8
L-ZISSEN
100
AcDbLine
 10
326.5784576704672
 20
199.3055534994648
 30
0.0
 11
331.5784576704672
 21
199.3055534994648
 31
0.0
  0
LINE
  5
5F
330
1E
100
AcDbEntity
  8
L-ZISSEN
100
AcDbLine
 10
290.5784576704673
 20
51.79999999999978
 30
0.0
 11
191.5784576704672
 21
51.79999999999984
 31
0.0
  0
LINE
  5
60
330
1E
100
AcDbEntity
  8
L-ZISSEN
100
AcDbLine
 10
208.5784576704673
 20
91.79999999999978
 30
0.0
 11
208.5784576704673
 21
51.79999999999978
 31
0.0
  0
LINE
  5
61
330
1E
100
AcDbEntity
  8
L-TYUSIN
100
AcDbLine
 10
175.5758442783567
 20
71.79999999999975
 30
0.0
 11
362.3263881812225
 21
71.79999999999984
 31
0.0
  0
LINE
  5
62
330
1E
100
AcDbEntity
  8
L-ZISSEN
100
AcDbLine
 10
191.5784576704672
 20
91.79999999999978
 30
0.0
 11
191.5784576704672
 21
51.79999999999984
 31
0.0
  0
CIRCLE
  5
63
330
1E
100
AcDbEntity
  8
L-ZISSEN
100
AcDbCircle
 10
256.5784576704672
 20
71.79999999999978
 30
0.0
 40
10.47749999999999
  0
LINE
  5
64
330
1E
100
AcDbEntity
  8
L-ZISSEN
100
AcDbLine
 10
290.5784576704673
 20
91.79999999999978
 30
0.0
 11
290.5784576704673
 21
51.79999999999978
 31
0.0
  0
LINE
  5
65
330
1E
100
AcDbEntity
  8
L-ZISSEN
100
AcDbLine
 10
321.5784576704673
 20
86.79999999999983
 30
0.0
 11
290.5784576704673
 21
86.79999999999983
 31
0.0
  0
LINE
  5
66
330
1E
100
AcDbEntity
  8
L-ZISSEN
100
AcDbLine
 10
290.5784576704673
 20
56.79999999999984
 30
0.0
 11
321.5784576704673
 21
56.79999999999984
 31
0.0
  0
LINE
  5
67
330
1E
100
AcDbEntity
  8
L-ZISSEN
100
AcDbLine
 10
321.5784576704673
 20
86.79999999999983
 30
0.0
 11
326.5784576704672
 21
81.79999999999983
 31
0.0
  0
LINE
  5
68
330
1E
100
AcDbEntity
  8
L-ZISSEN
100
AcDbLine
 10
321.5784576704673
 20
56.79999999999984
 30
0.0
 11
321.5784576704673
 21
86.79999999999983
 31
0.0
  0
LINE
  5
69
330
1E
100
AcDbEntity
  8
L-ZISSEN
100
AcDbLine
 10
326.5784576704672
 20
61.79999999999984
 30
0.0
 11
326.5784576704672
 21
81.79999999999983
 31
0.0
  0
LINE
  5
6A
330
1E
100
AcDbEntity
  8
L-ZISSEN
100
AcDbLine
 10
326.5784576704672
 20
78.29999999999984
 30
0.0
 11
331.5784576704672
 21
78.29999999999984
 31
0.0
  0
LINE
  5
6B
330
1E
100
AcDbEntity
  8
L-ZISSEN
100
AcDbLine
 10
331.5784576704672
 20
65.29999999999984
 30
0.0
 11
331.5784576704672
 21
78.29999999999984
 31
0.0
  0
LINE
  5
6C
330
1E
100
AcDbEntity
  8
L-ZISSEN
100
AcDbLine
 10
326.5784576704672
 20
65.29999999999984
 30
0.0
 11
331.5784576704672
 21
65.29999999999984
 31
0.0
  0
LINE
  5
6D
330
1E
100
AcDbEntity
  8
L-ZISSEN
100
AcDbLine
 10
321.5784576704673
 20
56.79999999999984
 30
0.0
 11
326.5784576704672
 21
61.79999999999984
 31
0.0
  0
LINE
  5
6E
330
1E
100
AcDbEntity
  8
L-ZISSEN
100
AcDbLine
 10
331.5784576704672
 20
67.29999999999984
 30
0.0
 11
352.0784576704672
 21
67.29999999999984
 31
0.0
  0
LINE
  5
6F
330
1E
100
AcDbEntity
  8
L-ZISSEN
100
AcDbLine
 10
331.5784576704672
 20
76.29999999999984
 30
0.0
 11
352.0784576704672
 21
76.29999999999984
 31
0.0
  0
LINE
  5
70
330
1E
100
AcDbEntity
  8
L-ZISSEN
100
AcDbLine
 10
352.0784576704674
 20
76.29999999999984
 30
0.0
 11
352.0784576704674
 21
67.29999999999984
 31
0.0
  0
TEXT
  5
71
330
1E
100
AcDbEntity
  8
L-ZISSEN
100
AcDbText
 10
30.0
 20
335.0
 30
0.0
 40
4.5
  1
MODEL No. :
100
AcDbText
  0
TEXT
  5
73
330
1E
100
AcDbEntity
  8
L-ZISSEN
100
AcDbText
 10
77.8410495444958
 20
333.8620187412416
 30
0.0
 40
4.5
  1
CUV-404A
100
AcDbText
  0
TEXT
  5
74
330
1E
100
AcDbEntity
  8
L-ZISSEN
100
AcDbText
 10
223.9060846358383
 20
295.140639432072
 30
0.0
 40
4.5
  1
C
100
AcDbText
  0
TEXT
  5
75
330
1E
100
AcDbEntity
  8
L-ZISSEN
100
AcDbText
 10
267.6875689732236
 20
295.8851093435709
 30
0.0
 40
4.5
  1
P
100
AcDbText
  0
TEXT
  5
76
330
1E
100
AcDbEntity
  8
L-ZISSEN
100
AcDbText
 10
236.7162509244411
 20
75.10369803188742
 30
0.0
 40
4.5
  1
V
100
AcDbText
  0
LINE
  5
77
330
1E
100
AcDbEntity
  8
L-TYUSIN
100
AcDbLine
 10
218.5784576704673
 20
260.7573028051766
 30
0.0
 11
218.5784576704673
 21
311.0426681545334
 31
0.0
  0
LINE
  5
78
330
1E
100
AcDbEntity
  8
L-TYUSIN
100
AcDbLine
 10
278.5784576704672
 20
260.7573028051766
 30
0.0
 11
278.5784576704672
 21
311.0426681545334
 31
0.0
  0
LINE
  5
79
330
1E
100
AcDbEntity
  8
L-ZISSEN
100
AcDbLine
 10
208.5784576704672
 20
191.7999999999997
 30
0.0
 11
191.5784576704673
 21
191.7999999999997
 31
0.0
  0
LINE
  5
7A
330
1E
100
AcDbEntity
  8
L-ZISSEN
100
AcDbLine
 10
81.07845767046729
 20
191.7999999999997
 30
0.0
 11
41.07845767046729
 21
191.7999999999997
 31
0.0
  0
CIRCLE
  5
7B
330
1E
100
AcDbEntity
  8
L-ZISSEN
100
AcDbCircle
 10
61.0784576704673
 20
166.7999999999998
 30
0.0
 40
6.5785
  0
LINE
  5
7C
330
1E
100
AcDbEntity
  8
L-ZISSEN
100
AcDbLine
 10
185.2784576704673
 20
191.0499999999998
 30
0.0
 11
191.5784576704673
 21
191.0499999999998
 31
0.0
  0
LINE
  5
7D
330
1E
100
AcDbEntity
  8
L-ZISSEN
100
AcDbLine
 10
185.2784576704673
 20
182.5499999999998
 30
0.0
 11
185.2784576704673
 21
191.0499999999997
 31
0.0
  0
LINE
  5
7E
330
1E
100
AcDbEntity
  8
L-ZISSEN
100
AcDbLine
 10
185.2784576704673
 20
182.5499999999998
 30
0.0
 11
191.5784576704673
 21
182.5499999999998
 31
0.0
  0
LINE
  5
7F
330
1E
100
AcDbEntity
  8
L-ZISSEN
100
AcDbLine
 10
185.2784576704673
 20
151.0499999999997
 30
0.0
 11
191.5784576704673
 21
151.0499999999997
 31
0.0
  0
LINE
  5
80
330
1E
100
AcDbEntity
  8
L-ZISSEN
100
AcDbLine
 10
185.2784576704673
 20
151.0499999999997
 30
0.0
 11
185.2784576704673
 21
142.5499999999998
 31
0.0
  0
LINE
  5
81
330
1E
100
AcDbEntity
  8
L-ZISSEN
100
AcDbLine
 10
185.2784576704673
 20
142.5499999999997
 30
0.0
 11
191.5784576704673
 21
142.5499999999997
 31
0.0
  0
CIRCLE
  5
82
330
1E
100
AcDbEntity
  8
L-ZISSEN
100
AcDbCircle
 10
76.0784576704673
 20
186.7999999999997
 30
0.0
 40
4.25
  0
CIRCLE
  5
83
330
1E
100
AcDbEntity
  8
L-ZISSEN
100
AcDbCircle
 10
46.0784576704673
 20
186.7999999999997
 30
0.0
 40
4.25
  0
CIRCLE
  5
84
330
1E
100
AcDbEntity
  8
L-ZISSEN
100
AcDbCircle
 10
46.0784576704673
 20
146.7999999999999
 30
0.0
 40
4.25
  0
CIRCLE
  5
85
330
1E
100
AcDbEntity
  8
L-ZISSEN
100
AcDbCircle
 10
76.0784576704673
 20
146.7999999999999
 30
0.0
 40
4.25
  0
LINE
  5
86
330
1E
100
AcDbEntity
  8
L-ZISSEN
100
AcDbLine
 10
185.2784576704673
 20
82.54999999999975
 30
0.0
 11
191.5784576704673
 21
82.54999999999975
 31
0.0
  0
LINE
  5
87
330
1E
100
AcDbEntity
  8
L-ZISSEN
100
AcDbLine
 10
185.2784576704673
 20
91.04999999999975
 30
0.0
 11
185.2784576704673
 21
82.54999999999979
 31
0.0
  0
LINE
  5
88
330
1E
100
AcDbEntity
  8
L-ZISSEN
100
AcDbLine
 10
185.2784576704673
 20
91.04999999999975
 30
0.0
 11
191.5784576704673
 21
91.04999999999975
 31
0.0
  0
LINE
  5
89
330
1E
100
AcDbEntity
  8
L-ZISSEN
100
AcDbLine
 10
185.2784576704673
 20
52.5499999999998
 30
0.0
 11
191.5784576704673
 21
52.5499999999998
 31
0.0
  0
LINE
  5
8A
330
1E
100
AcDbEntity
  8
L-ZISSEN
100
AcDbLine
 10
185.2784576704673
 20
52.5499999999998
 30
0.0
 11
185.2784576704673
 21
61.04999999999977
 31
0.0
  0
LINE
  5
8B
330
1E
100
AcDbEntity
  8
L-ZISSEN
100
AcDbLine
 10
185.2784576704673
 20
61.04999999999979
 30
0.0
 11
191.5784576704673
 21
61.04999999999979
 31
0.0
  0
LINE
  5
8C
330
1E
100
AcDbEntity
  8
L-ZISSEN
100
AcDbLine
 10
185.2784576704674
 20
306.0499999999997
 30
0.0
 11
191.5784576704673
 21
306.0499999999997
 31
0.0
  0
LINE
  5
8D
330
1E
100
AcDbEntity
  8
L-ZISSEN
100
AcDbLine
 10
185.2784576704673
 20
306.0499999999997
 30
0.0
 11
185.2784576704673
 21
297.5499999999998
 31
0.0
  0
LINE
  5
8E
330
1E
100
AcDbEntity
  8
L-ZISSEN
100
AcDbLine
 10
185.2784576704674
 20
297.5499999999997
 30
0.0
 11
191.5784576704673
 21
297.5499999999997
 31
0.0
  0
LINE
  5
8F
330
1E
100
AcDbEntity
  8
L-ZISSEN
100
AcDbLine
 10
185.2784576704674
 20
276.0499999999997
 30
0.0
 11
191.5784576704673
 21
276.0499999999997
 31
0.0
  0
LINE
  5
90
330
1E
100
AcDbEntity
  8
L-ZISSEN
100
AcDbLine
 10
185.2784576704673
 20
267.5499999999997
 30
0.0
 11
185.2784576704673
 21
276.0499999999997
 31
0.0
  0
LINE
  5
91
330
1E
100
AcDbEntity
  8
L-ZISSEN
100
AcDbLine
 10
185.2784576704674
 20
267.5499999999997
 30
0.0
 11
191.5784576704673
 21
267.5499999999997
 31
0.0
  0
TEXT
  5
92
330
1E
100
AcDbEntity
  8
L-ZISSEN
100
AcDbText
 10
68.87783028077812
 20
173.108187620612
 30
0.0
 40
4.5
  1
S.P
100
AcDbText
  0
ENDSEC
  0
SECTION
  2
OBJECTS
  0
DICTIONARY
  5
C
330
0
100
AcDbDictionary
  3
ACAD_GROUP
350
D
  3
ACAD_LAYOUT
350
19
  3
ACAD_MLINESTYLE
350
16
  3
ACAD_PLOTSETTINGS
350
18
1001
ACAD
1000
TREAT_AS_HARD
1070
     0
  0
DICTIONARY
  5
98
330
1E
100
AcDbDictionary
  3
ACAD_LAYOUTSELFREF
350
99
  0
DICTIONARY
  5
96
330
1A
100
AcDbDictionary
  3
ACAD_LAYOUTSELFREF
350
97
  0
DICTIONARY
  5
D
102
{ACAD_REACTORS
330
C
102
}
330
C
100
AcDbDictionary
1001
ACAD
1000
TREAT_AS_HARD
1070
     0
  0
DICTIONARY
  5
19
102
{ACAD_REACTORS
330
C
102
}
330
C
100
AcDbDictionary
1001
ACAD
1000
TREAT_AS_HARD
1070
     0
  0
DICTIONARY
  5
16
102
{ACAD_REACTORS
330
C
102
}
330
C
100
AcDbDictionary
  3
STANDARD
350
17
1001
ACAD
1000
TREAT_AS_HARD
1070
     0
  0
DICTIONARY
  5
18
102
{ACAD_REACTORS
330
C
102
}
330
C
100
AcDbDictionary
1001
ACAD
1000
TREAT_AS_HARD
1070
     0
  0
XRECORD
  5
99
102
{ACAD_REACTORS
330
98
102
}
330
98
100
AcDbXrecord
340
1E
  0
XRECORD
  5
97
102
{ACAD_REACTORS
330
96
102
}
330
96
100
AcDbXrecord
340
1A
  0
MLINESTYLE
  5
17
102
{ACAD_REACTORS
330
16
102
}
330
16
100
AcDbMlineStyle
  2
STANDARD
 70
     0
  3

 62
   256
 51
90.0
 52
90.0
 71
     2
 49
0.5
 62
   256
  6
BYLAYER
 49
-0.5
 62
   256
  6
BYLAYER
  0
ENDSEC
  0
EOF
