  0
SECTION
  2
HEADER
  9
$ACADVER
  1
AC1006
  9
$INSBASE
 10
0.0
 20
0.0
 30
0.0
  9
$EXTMIN
 10
0.0
 20
0.0
  9
$EXTMAX
 10
468.0
 20
297.0
  9
$LIMMIN
 10
0.0
 20
0.0
  9
$LIMMAX
 10
420.0
 20
297.0
  9
$ORTHOMODE
 70
     0
  9
$REGENMODE
 70
     1
  9
$FILLMODE
 70
     1
  9
$QTEXTMODE
 70
     0
  9
$MIRRTEXT
 70
     1
  9
$DRAGMODE
 70
     2
  9
$LTSCALE
 40
1.0
  9
$OSMODE
 70
     0
  9
$ATTMODE
 70
     1
  9
$TEXTSIZE
 40
4.5
  9
$TRACEWID
 40
0.05
  9
$TEXTSTYLE
  7
STANDARD
  9
$CLAYER
  8
L-ZISSEN
  9
$CELTYPE
  6
BYLAYER
  9
$CECOLOR
 62
   256
  9
$DIMSCALE
 40
1.0
  9
$DIMASZ
 40
2.0
  9
$DIMEXO
 40
1.0
  9
$DIMDLI
 40
0.38
  9
$DIMRND
 40
0.0
  9
$DIMDLE
 40
1.0
  9
$DIMEXE
 40
1.0
  9
$DIMTP
 40
0.0
  9
$DIMTM
 40
0.0
  9
$DIMTXT
 40
4.5
  9
$DIMCEN
 40
0.09
  9
$DIMTSZ
 40
0.0
  9
$DIMTOL
 70
     0
  9
$DIMLIM
 70
     0
  9
$DIMTIH
 70
     0
  9
$DIMTOH
 70
     0
  9
$DIMSE1
 70
     0
  9
$DIMSE2
 70
     0
  9
$DIMTAD
 70
     1
  9
$DIMZIN
 70
     0
  9
$DIMBLK
  1

  9
$DIMASO
 70
     0
  9
$DIMSHO
 70
     0
  9
$DIMPOST
  1

  9
$DIMAPOST
  1

  9
$DIMALT
 70
     0
  9
$DIMALTD
 70
     2
  9
$DIMALTF
 40
25.4
  9
$DIMLFAC
 40
1.0
  9
$DIMTOFL
 70
     1
  9
$DIMTVP
 40
0.0
  9
$DIMTIX
 70
     0
  9
$DIMSOXD
 70
     0
  9
$DIMSAH
 70
     0
  9
$DIMBLK1
  1

  9
$DIMBLK2
  1

  9
$LUNITS
 70
     2
  9
$LUPREC
 70
     4
  9
$AXISMODE
 70
     0
  9
$AXISUNIT
 10
0.0
 20
0.0
  9
$SKETCHINC
 40
0.1
  9
$FILLETRAD
 40
0.0
  9
$AUNITS
 70
     0
  9
$AUPREC
 70
     0
  9
$MENU
  1
acad
  9
$ELEVATION
 40
0.0
  9
$THICKNESS
 40
0.0
  9
$LIMCHECK
 70
     0
  9
$BLIPMODE
 70
     1
  9
$CHAMFERA
 40
0.0
  9
$CHAMFERB
 40
0.0
  9
$SKPOLY
 70
     0
  9
$TDCREATE
 40
2449053.4087708332
  9
$TDUPDATE
 40
2449053.4087708332
  9
$TDINDWG
 40
0.0000000000
  9
$TDUSRTIMER
 40
0.0000000000
  9
$USRTIMER
 70
     1
  9
$ANGBASE
 50
0.0
  9
$ANGDIR
 70
     0
  9
$PDMODE
 70
     0
  9
$PDSIZE
 40
0.0
  9
$PLINEWID
 40
0.0
  9
$COORDS
 70
     2
  9
$SPLFRAME
 70
     0
  9
$SPLINETYPE
 70
     6
  9
$SPLINESEGS
 70
     8
  9
$ATTDIA
 70
     0
  9
$ATTREQ
 70
     1
  9
$HANDLING
 70
     0
  9
$HANDSEED
  5
0
  9
$SURFTAB1
 70
     6
  9
$SURFTAB2
 70
     6
  9
$SURFTYPE
 70
     6
  9
$SURFU
 70
     6
  9
$SURFV
 70
     6
  9
$FLATLAND
 70
     0
  9
$UCSNAME
  2

  9
$UCSORG
 10
0.0
 20
0.0
 30
0.0
  9
$UCSXDIR
 10
1.0
 20
0.0
 30
0.0
  9
$UCSYDIR
 10
0.0
 20
1.0
 30
0.0
  9
$USERI1
 70
     0
  9
$USERI2
 70
     0
  9
$USERI3
 70
     0
  9
$USERI4
 70
     0
  9
$USERI5
 70
     0
  9
$USERR1
 40
0.0
  9
$USERR2
 40
0.0
  9
$USERR3
 40
0.0
  9
$USERR4
 40
0.0
  9
$USERR5
 40
0.0
  9
$WORLDVIEW
 70
     1
  0
ENDSEC
  0
SECTION
  2
TABLES
  0
TABLE
  2
VPORT
 70
     2
  0
VPORT
  2
*ACTIVE
 70
     0
 10
0.0
 20
0.0
 11
1.0
 21
1.0
 12
238.227989
 22
153.824519
 13
0.0
 23
0.0
 14
5.0
 24
5.0
 15
0.0
 25
0.0
 16
0.0
 26
0.0
 36
1.0
 17
0.0
 27
0.0
 37
0.0
 40
307.649038
 41
1.5487
 42
50.0
 43
0.0
 44
0.0
 50
0.0
 51
0.0
 71
     0
 72
   100
 73
     1
 74
     0
 75
     0
 76
     0
 77
     0
 78
     0
  0
ENDTAB
  0
TABLE
  2
LTYPE
 70
     2
  0
LTYPE
  2
CONTINUOUS
 70
    64
  3
Solid line
 72
    65
 73
     0
 40
0.0
  0
LTYPE
  2
CENTER
 70
    64
  3
____ _ ____ _ ____ _ ____ _ 
 72
    65
 73
     4
 40
60.0
 49
45.0
 49
-5.0
 49
5.0
 49
-5.0
  0
ENDTAB
  0
TABLE
  2
LAYER
 70
     3
  0
LAYER
  2
0
 70
     0
 62
     7
  6
CONTINUOUS
  0
LAYER
  2
L-ZISSEN
 70
    64
 62
     7
  6
CONTINUOUS
  0
LAYER
  2
L-TYUSIN
 70
    64
 62
     1
  6
CENTER
  0
ENDTAB
  0
TABLE
  2
STYLE
 70
     1
  0
STYLE
  2
STANDARD
 70
    64
 40
0.0
 41
1.0
 50
0.0
 71
     0
 42
4.5
  3
TXT
  4

  0
ENDTAB
  0
TABLE
  2
VIEW
 70
     0
  0
ENDTAB
  0
TABLE
  2
UCS
 70
     0
  0
ENDTAB
  0
TABLE
  2
DWGMGR
 70
     0
  0
ENDTAB
  0
ENDSEC
  0
SECTION
  2
BLOCKS
  0
ENDSEC
  0
SECTION
  2
ENTITIES
  0
LINE
  8
L-TYUSIN
 10
120.0
 20
100.0
 30
0.0
 11
285.5
 21
100.0
 31
0.0
  0
LINE
  8
L-TYUSIN
 10
347.0
 20
100.0
 30
0.0
 11
423.0
 21
100.0
 31
0.0
  0
LINE
  8
L-TYUSIN
 10
60.0
 20
140.0
 30
0.0
 11
60.0
 21
60.0
 31
0.0
  0
LINE
  8
L-TYUSIN
 10
22.0
 20
100.0
 30
0.0
 11
98.0
 21
100.0
 31
0.0
  0
LINE
  8
L-ZISSEN
 10
125.0
 20
130.25
 30
0.0
 11
125.0
 21
69.75
 31
0.0
  0
LINE
  8
L-ZISSEN
 10
269.5
 20
131.5
 30
0.0
 11
269.5
 21
68.5
 31
0.0
  0
LINE
  8
L-ZISSEN
 10
125.0
 20
130.25
 30
0.0
 11
269.5
 21
130.25
 31
0.0
  0
LINE
  8
L-ZISSEN
 10
125.0
 20
69.75
 30
0.0
 11
269.5
 21
69.75
 31
0.0
  0
CIRCLE
  8
L-ZISSEN
 10
60.0
 20
100.0
 30
0.0
 40
30.25
  0
LINE
  8
L-ZISSEN
 10
371.952273
 20
131.5
 30
0.0
 11
353.5
 21
113.047727
 31
0.0
  0
LINE
  8
L-ZISSEN
 10
353.5
 20
113.047727
 30
0.0
 11
353.5
 21
86.952273
 31
0.0
  0
LINE
  8
L-ZISSEN
 10
353.5
 20
86.952273
 30
0.0
 11
371.952273
 21
68.5
 31
0.0
  0
LINE
  8
L-ZISSEN
 10
371.952273
 20
68.5
 30
0.0
 11
398.047727
 21
68.5
 31
0.0
  0
LINE
  8
L-ZISSEN
 10
398.047727
 20
68.5
 30
0.0
 11
416.5
 21
86.952273
 31
0.0
  0
LINE
  8
L-ZISSEN
 10
416.5
 20
86.952273
 30
0.0
 11
416.5
 21
113.047727
 31
0.0
  0
LINE
  8
L-ZISSEN
 10
416.5
 20
113.047727
 30
0.0
 11
398.047727
 21
131.5
 31
0.0
  0
LINE
  8
L-ZISSEN
 10
398.047727
 20
131.5
 30
0.0
 11
371.952273
 21
131.5
 31
0.0
  0
LINE
  8
L-ZISSEN
 10
28.5
 20
86.952273
 30
0.0
 11
46.952273
 21
68.5
 31
0.0
  0
LINE
  8
L-ZISSEN
 10
46.952273
 20
131.5
 30
0.0
 11
28.5
 21
113.047727
 31
0.0
  0
LINE
  8
L-ZISSEN
 10
28.5
 20
113.047727
 30
0.0
 11
28.5
 21
86.952273
 31
0.0
  0
LINE
  8
L-ZISSEN
 10
73.047727
 20
131.5
 30
0.0
 11
65.0
 21
131.5
 31
0.0
  0
LINE
  8
L-ZISSEN
 10
91.5
 20
113.047727
 30
0.0
 11
73.047727
 21
131.5
 31
0.0
  0
LINE
  8
L-ZISSEN
 10
91.5
 20
86.952273
 30
0.0
 11
91.5
 21
113.047727
 31
0.0
  0
LINE
  8
L-ZISSEN
 10
73.047727
 20
68.5
 30
0.0
 11
91.5
 21
86.952273
 31
0.0
  0
LINE
  8
L-ZISSEN
 10
46.952273
 20
68.5
 30
0.0
 11
55.0
 21
68.5
 31
0.0
  0
LINE
  8
L-ZISSEN
 10
280.5
 20
131.5
 30
0.0
 11
269.5
 21
131.5
 31
0.0
  0
LINE
  8
L-ZISSEN
 10
280.5
 20
68.5
 30
0.0
 11
269.5
 21
68.5
 31
0.0
  0
LINE
  8
L-ZISSEN
 10
280.5
 20
131.5
 30
0.0
 11
280.5
 21
68.5
 31
0.0
  0
CIRCLE
  8
L-ZISSEN
 10
385.0
 20
100.0
 30
0.0
 40
19.476
  0
LINE
  8
L-ZISSEN
 10
261.5
 20
136.75
 30
0.0
 11
251.5
 21
136.75
 31
0.0
  0
LINE
  8
L-ZISSEN
 10
261.5
 20
130.25
 30
0.0
 11
261.5
 21
136.75
 31
0.0
  0
LINE
  8
L-ZISSEN
 10
251.5
 20
130.25
 30
0.0
 11
251.5
 21
136.75
 31
0.0
  0
LINE
  8
L-ZISSEN
 10
251.5
 20
69.75
 30
0.0
 11
251.5
 21
63.25
 31
0.0
  0
LINE
  8
L-ZISSEN
 10
261.5
 20
69.75
 30
0.0
 11
261.5
 21
63.25
 31
0.0
  0
LINE
  8
L-ZISSEN
 10
261.5
 20
63.25
 30
0.0
 11
251.5
 21
63.25
 31
0.0
  0
LINE
  8
L-ZISSEN
 10
143.0
 20
63.25
 30
0.0
 11
133.0
 21
63.25
 31
0.0
  0
LINE
  8
L-ZISSEN
 10
143.0
 20
69.75
 30
0.0
 11
143.0
 21
63.25
 31
0.0
  0
LINE
  8
L-ZISSEN
 10
133.0
 20
69.75
 30
0.0
 11
133.0
 21
63.25
 31
0.0
  0
LINE
  8
L-ZISSEN
 10
133.0
 20
130.25
 30
0.0
 11
133.0
 21
136.75
 31
0.0
  0
LINE
  8
L-ZISSEN
 10
143.0
 20
130.25
 30
0.0
 11
143.0
 21
136.75
 31
0.0
  0
LINE
  8
L-ZISSEN
 10
143.0
 20
136.75
 30
0.0
 11
133.0
 21
136.75
 31
0.0
  0
LINE
  8
L-ZISSEN
 10
65.0
 20
136.75
 30
0.0
 11
55.0
 21
136.75
 31
0.0
  0
LINE
  8
L-ZISSEN
 10
65.0
 20
129.833915
 30
0.0
 11
65.0
 21
136.75
 31
0.0
  0
LINE
  8
L-ZISSEN
 10
55.0
 20
129.833915
 30
0.0
 11
55.0
 21
136.75
 31
0.0
  0
LINE
  8
L-ZISSEN
 10
55.0
 20
70.166085
 30
0.0
 11
55.0
 21
63.25
 31
0.0
  0
LINE
  8
L-ZISSEN
 10
65.0
 20
70.166085
 30
0.0
 11
65.0
 21
63.25
 31
0.0
  0
LINE
  8
L-ZISSEN
 10
65.0
 20
63.25
 30
0.0
 11
55.0
 21
63.25
 31
0.0
  0
LINE
  8
L-ZISSEN
 10
65.0
 20
68.5
 30
0.0
 11
73.047727
 21
68.5
 31
0.0
  0
LINE
  8
L-ZISSEN
 10
55.0
 20
131.5
 30
0.0
 11
46.952273
 21
131.5
 31
0.0
  0
LINE
  8
L-ZISSEN
 10
390.0
 20
63.25
 30
0.0
 11
380.0
 21
63.25
 31
0.0
  0
LINE
  8
L-ZISSEN
 10
390.0
 20
68.5
 30
0.0
 11
390.0
 21
63.25
 31
0.0
  0
LINE
  8
L-ZISSEN
 10
380.0
 20
68.5
 30
0.0
 11
380.0
 21
63.25
 31
0.0
  0
LINE
  8
L-ZISSEN
 10
380.0
 20
131.5
 30
0.0
 11
380.0
 21
136.75
 31
0.0
  0
LINE
  8
L-ZISSEN
 10
390.0
 20
131.5
 30
0.0
 11
390.0
 21
136.75
 31
0.0
  0
LINE
  8
L-ZISSEN
 10
390.0
 20
136.75
 30
0.0
 11
380.0
 21
136.75
 31
0.0
  0
LINE
  8
L-TYUSIN
 10
385.0
 20
140.0
 30
0.0
 11
385.0
 21
60.0
 31
0.0
  0
LINE
  8
L-ZISSEN
 10
280.5
 20
231.5
 30
0.0
 11
280.5
 21
168.5
 31
0.0
  0
LINE
  8
L-ZISSEN
 10
280.5
 20
168.5
 30
0.0
 11
269.5
 21
168.5
 31
0.0
  0
LINE
  8
L-ZISSEN
 10
280.5
 20
231.5
 30
0.0
 11
269.5
 21
231.5
 31
0.0
  0
LINE
  8
L-ZISSEN
 10
125.0
 20
169.75
 30
0.0
 11
269.5
 21
169.75
 31
0.0
  0
LINE
  8
L-ZISSEN
 10
125.0
 20
230.25
 30
0.0
 11
269.5
 21
230.25
 31
0.0
  0
LINE
  8
L-ZISSEN
 10
269.5
 20
231.5
 30
0.0
 11
269.5
 21
168.5
 31
0.0
  0
LINE
  8
L-ZISSEN
 10
125.0
 20
230.25
 30
0.0
 11
125.0
 21
169.75
 31
0.0
  0
LINE
  8
L-TYUSIN
 10
120.0
 20
200.0
 30
0.0
 11
285.5
 21
200.0
 31
0.0
  0
CIRCLE
  8
L-ZISSEN
 10
138.0
 20
200.0
 30
0.0
 40
5.0
  0
CIRCLE
  8
L-ZISSEN
 10
256.5
 20
200.0
 30
0.0
 40
5.0
  0
TEXT
  8
L-ZISSEN
 10
20.0
 20
255.0
 30
0.0
 40
4.5
  1
MODEL No. : MFF-312
  0
TEXT
  8
L-ZISSEN
 10
68.0
 20
245.0
 30
0.0
 40
4.5
  1
MFF-314
  0
SOLID
  8
L-ZISSEN
 10
282.129707
 20
101.206303
 30
0.0
 11
281.650381
 21
101.669651
 31
0.0
 12
280.5
 22
100.0
 32
0.0
 13
280.5
 23
100.0
 33
0.0
  0
LINE
  8
L-ZISSEN
 10
281.890044
 20
101.437977
 30
0.0
 11
295.0
 21
115.0
 31
0.0
  0
LINE
  8
L-ZISSEN
 10
295.0
 20
115.0
 30
0.0
 11
297.0
 21
115.0
 31
0.0
  0
TEXT
  8
L-ZISSEN
 10
299.0
 20
112.75
 30
0.0
 40
4.5
  1
Rc 1-1/4
  0
TEXT
  8
L-ZISSEN
 10
299.0
 20
102.75
 30
0.0
 40
4.5
  1
Rc 1-1/2
  0
ENDSEC
  0
EOF
