  0
SECTION
  2
HEADER
  9
$ACADVER
  1
AC1009
  9
$INSBASE
 10
0.0
 20
0.0
 30
0.0
  9
$EXTMIN
 10
-33.50000000000108
 20
-28.567340925724391
 30
0.0
  9
$EXTMAX
 10
148.00000154282691
 20
179.4999999999998
 30
0.0
  9
$LIMMIN
 10
0.0
 20
0.0
  9
$LIMMAX
 10
12.0
 20
9.0
  9
$ORTHOMODE
 70
     1
  9
$REGENMODE
 70
     1
  9
$FILLMODE
 70
     1
  9
$QTEXTMODE
 70
     0
  9
$MIRRTEXT
 70
     1
  9
$DRAGMODE
 70
     2
  9
$LTSCALE
 40
1.0
  9
$OSMODE
 70
   167
  9
$ATTMODE
 70
     1
  9
$TEXTSIZE
 40
4.5
  9
$TRACEWID
 40
0.05
  9
$TEXTSTYLE
  7
STANDARD
  9
$CLAYER
  8
L-ZISSEN
  9
$CELTYPE
  6
BYLAYER
  9
$CECOLOR
 62
   256
  9
$DIMSCALE
 40
1.0
  9
$DIMASZ
 40
2.0
  9
$DIMEXO
 40
1.0
  9
$DIMDLI
 40
0.38
  9
$DIMRND
 40
0.0
  9
$DIMDLE
 40
0.0
  9
$DIMEXE
 40
1.0
  9
$DIMTP
 40
0.0
  9
$DIMTM
 40
0.0
  9
$DIMTXT
 40
4.5
  9
$DIMCEN
 40
0.09
  9
$DIMTSZ
 40
0.0
  9
$DIMTOL
 70
     0
  9
$DIMLIM
 70
     0
  9
$DIMTIH
 70
     0
  9
$DIMTOH
 70
     0
  9
$DIMSE1
 70
     0
  9
$DIMSE2
 70
     0
  9
$DIMTAD
 70
     1
  9
$DIMZIN
 70
     0
  9
$DIMBLK
  1

  9
$DIMASO
 70
     1
  9
$DIMSHO
 70
     0
  9
$DIMPOST
  1

  9
$DIMAPOST
  1

  9
$DIMALT
 70
     0
  9
$DIMALTD
 70
     2
  9
$DIMALTF
 40
25.399999999999999
  9
$DIMLFAC
 40
1.0
  9
$DIMTOFL
 70
     1
  9
$DIMTVP
 40
0.0
  9
$DIMTIX
 70
     0
  9
$DIMSOXD
 70
     0
  9
$DIMSAH
 70
     0
  9
$DIMBLK1
  1

  9
$DIMBLK2
  1

  9
$DIMSTYLE
  2
STANDARD
  9
$DIMCLRD
 70
     0
  9
$DIMCLRE
 70
     0
  9
$DIMCLRT
 70
     0
  9
$DIMTFAC
 40
1.0
  9
$DIMGAP
 40
0.09
  9
$LUNITS
 70
     2
  9
$LUPREC
 70
     4
  9
$SKETCHINC
 40
0.1
  9
$FILLETRAD
 40
0.0
  9
$AUNITS
 70
     0
  9
$AUPREC
 70
     0
  9
$MENU
  1
acad
  9
$ELEVATION
 40
0.0
  9
$PELEVATION
 40
0.0
  9
$THICKNESS
 40
0.0
  9
$LIMCHECK
 70
     0
  9
$BLIPMODE
 70
     0
  9
$CHAMFERA
 40
0.0
  9
$CHAMFERB
 40
0.0
  9
$SKPOLY
 70
     0
  9
$TDCREATE
 40
2449237.6812190972
  9
$TDUPDATE
 40
2452339.4347111108
  9
$TDINDWG
 40
0.0216105324
  9
$TDUSRTIMER
 40
0.0216105324
  9
$USRTIMER
 70
     1
  9
$ANGBASE
 50
0.0
  9
$ANGDIR
 70
     0
  9
$PDMODE
 70
     0
  9
$PDSIZE
 40
0.0
  9
$PLINEWID
 40
0.0
  9
$COORDS
 70
     2
  9
$SPLFRAME
 70
     0
  9
$SPLINETYPE
 70
     6
  9
$SPLINESEGS
 70
     8
  9
$ATTDIA
 70
     0
  9
$ATTREQ
 70
     1
  9
$HANDLING
 70
-16383
  9
$HANDSEED
  5
14B
  9
$SURFTAB1
 70
     6
  9
$SURFTAB2
 70
     6
  9
$SURFTYPE
 70
     6
  9
$SURFU
 70
     6
  9
$SURFV
 70
     6
  9
$UCSNAME
  2

  9
$UCSORG
 10
0.0
 20
0.0
 30
0.0
  9
$UCSXDIR
 10
1.0
 20
0.0
 30
0.0
  9
$UCSYDIR
 10
0.0
 20
1.0
 30
0.0
  9
$PUCSNAME
  2

  9
$PUCSORG
 10
0.0
 20
0.0
 30
0.0
  9
$PUCSXDIR
 10
1.0
 20
0.0
 30
0.0
  9
$PUCSYDIR
 10
0.0
 20
1.0
 30
0.0
  9
$USERI1
 70
     0
  9
$USERI2
 70
     0
  9
$USERI3
 70
     0
  9
$USERI4
 70
     0
  9
$USERI5
 70
     0
  9
$USERR1
 40
0.0
  9
$USERR2
 40
0.0
  9
$USERR3
 40
0.0
  9
$USERR4
 40
0.0
  9
$USERR5
 40
0.0
  9
$WORLDVIEW
 70
     1
  9
$SHADEDGE
 70
     3
  9
$SHADEDIF
 70
    70
  9
$TILEMODE
 70
     1
  9
$MAXACTVP
 70
    48
  9
$PLIMCHECK
 70
     0
  9
$PEXTMIN
 10
1.0000000000000000E+020
 20
1.0000000000000000E+020
 30
1.0000000000000000E+020
  9
$PEXTMAX
 10
-1.0000000000000000E+020
 20
-1.0000000000000000E+020
 30
-1.0000000000000000E+020
  9
$PLIMMIN
 10
0.0
 20
0.0
  9
$PLIMMAX
 10
12.0
 20
9.0
  9
$UNITMODE
 70
     0
  9
$VISRETAIN
 70
     1
  9
$PLINEGEN
 70
     0
  9
$PSLTSCALE
 70
     0
  0
ENDSEC
  0
SECTION
  2
TABLES
  0
TABLE
  2
VPORT
 70
     2
  0
VPORT
  2
*ACTIVE
 70
     0
 10
0.0
 20
0.0
 11
1.0
 21
1.0
 12
52.213304275446227
 22
76.028582965919242
 13
0.0
 23
0.0
 14
1.0
 24
1.0
 15
0.0
 25
0.0
 16
0.0
 26
0.0
 36
1.0
 17
0.0
 27
0.0
 37
0.0
 40
261.04318402730502
 41
1.8499025341130599
 42
50.0
 43
0.0
 44
0.0
 50
0.0
 51
0.0
 71
     0
 72
   100
 73
     1
 74
     0
 75
     0
 76
     0
 77
     0
 78
     0
  0
ENDTAB
  0
TABLE
  2
LTYPE
 70
     2
  0
LTYPE
  2
CONTINUOUS
 70
     0
  3
Solid line
 72
    65
 73
     0
 40
0.0
  0
LTYPE
  2
CENTER
 70
     0
  3
____ _ ____ _ ____
 72
    65
 73
     4
 40
8.0
 49
5.0
 49
-1.0
 49
1.0
 49
-1.0
  0
ENDTAB
  0
TABLE
  2
LAYER
 70
     3
  0
LAYER
  2
0
 70
     0
 62
     7
  6
CONTINUOUS
  0
LAYER
  2
L-ZISSEN
 70
     0
 62
     7
  6
CONTINUOUS
  0
LAYER
  2
L-TYUSIN
 70
     0
 62
     1
  6
CENTER
  0
ENDTAB
  0
TABLE
  2
STYLE
 70
     1
  0
STYLE
  2
STANDARD
 70
     0
 40
0.0
 41
1.0
 50
0.0
 71
     0
 42
4.5
  3
txt
  4

  0
ENDTAB
  0
TABLE
  2
VIEW
 70
     0
  0
ENDTAB
  0
TABLE
  2
UCS
 70
     0
  0
ENDTAB
  0
TABLE
  2
APPID
 70
     1
  0
APPID
  2
ACAD
 70
     0
  0
ENDTAB
  0
TABLE
  2
DIMSTYLE
 70
     1
  0
DIMSTYLE
  2
STANDARD
 70
     0
  3

  4

  5

  6

  7

 40
1.0
 41
0.18
 42
0.0625
 43
0.38
 44
0.18
 45
0.0
 46
0.0
 47
0.0
 48
0.0
140
0.18
141
0.09
142
0.0
143
25.399999999999999
144
1.0
145
0.0
146
1.0
147
0.09
 71
     0
 72
     0
 73
     1
 74
     1
 75
     0
 76
     0
 77
     0
 78
     0
170
     0
171
     2
172
     0
173
     0
174
     0
175
     0
176
     0
177
     0
178
     0
  0
ENDTAB
  0
ENDSEC
  0
SECTION
  2
BLOCKS
  0
BLOCK
  8
0
  2
$MODEL_SPACE
 70
     0
 10
0.0
 20
0.0
 30
0.0
  3
$MODEL_SPACE
  1

  0
ENDBLK
  5
B
  8
0
  0
BLOCK
 67
     1
  8
0
  2
$PAPER_SPACE
 70
     0
 10
0.0
 20
0.0
 30
0.0
  3
$PAPER_SPACE
  1

  0
ENDBLK
  5
11
 67
     1
  8
0
  0
ENDSEC
  0
SECTION
  2
ENTITIES
  0
POLYLINE
  5
27
  8
L-ZISSEN
 66
     1
 10
0.0
 20
0.0
 30
0.0
 70
     1
  0
VERTEX
  5
13E
  8
L-ZISSEN
 10
-8.6602540378455188
 20
160.99999999999989
 30
0.0
  0
VERTEX
  5
13F
  8
L-ZISSEN
 10
-17.320508075689901
 20
145.99999999999989
 30
0.0
  0
VERTEX
  5
140
  8
L-ZISSEN
 10
-8.6602540378455295
 20
130.99999999999989
 30
0.0
  0
VERTEX
  5
141
  8
L-ZISSEN
 10
8.6602540378432362
 20
130.99999999999989
 30
0.0
  0
VERTEX
  5
142
  8
L-ZISSEN
 10
17.320508075687631
 20
145.99999999999989
 30
0.0
  0
VERTEX
  5
143
  8
L-ZISSEN
 10
8.6602540378432682
 20
160.99999999999989
 30
0.0
  0
SEQEND
  5
144
  8
L-ZISSEN
  0
POLYLINE
  5
28
  8
L-ZISSEN
 66
     1
 10
0.0
 20
0.0
 30
0.0
1001
ACAD
1000
DSTYLE
1002
{
1070
   147
1040
0.09
1070
    41
1040
2.0
1070
    42
1040
1.0
1070
    44
1040
1.0
1070
    73
1070
     0
1070
    74
1070
     0
1070
    77
1070
     0
1070
   140
1040
4.5
1070
   172
1070
     1
1070
   279
1070
     2
1002
}
  0
VERTEX
  5
145
  8
L-ZISSEN
 10
40.999999999998877
 20
24.267949192430901
 30
0.0
  0
VERTEX
  5
146
  8
L-ZISSEN
 10
54.309308268076229
 20
1.2155510585244109
 30
0.0
  0
SEQEND
  5
147
  8
L-ZISSEN
  0
POLYLINE
  5
29
  8
L-ZISSEN
 66
     1
 10
0.0
 20
0.0
 30
0.0
1001
ACAD
1000
DSTYLE
1002
{
1070
   147
1040
0.09
1070
    41
1040
2.0
1070
    42
1040
1.0
1070
    44
1040
1.0
1070
    73
1070
     0
1070
    74
1070
     0
1070
    77
1070
     0
1070
   140
1040
4.5
1070
   172
1070
     1
1070
   279
1070
     2
1002
}
  0
VERTEX
  5
148
  8
L-ZISSEN
 10
0.9999999999988668
 20
-1.732050807568877
 30
0.0
  0
VERTEX
  5
149
  8
L-ZISSEN
 10
10.731384501467801
 20
-18.587303192101398
 30
0.0
  0
SEQEND
  5
14A
  8
L-ZISSEN
  0
TEXT
  5
2A
  8
L-ZISSEN
 10
14.021249893490561
 20
-28.567340925724391
 30
0.0
 40
4.5
  1
Rc1/2
  0
SOLID
  5
2B
  8
L-ZISSEN
 10
0.7113248654040542
 20
-1.898717474235543
 30
0.0
 11
-0.0000000000011333
 21
0.0
 31
0.0
 12
1.2886751345936791
 22
-1.56538414090221
 32
0.0
 13
1.2886751345936791
 23
-1.56538414090221
 33
0.0
1001
ACAD
1000
DSTYLE
1002
{
1070
   147
1040
0.09
1070
    41
1040
2.0
1070
    42
1040
1.0
1070
    44
1040
1.0
1070
    73
1070
     0
1070
    74
1070
     0
1070
    77
1070
     0
1070
   140
1040
4.5
1070
   172
1070
     1
1070
   279
1070
     2
1002
}
  0
SOLID
  5
2C
  8
L-ZISSEN
 10
1.9468935493892301
 20
67.566318477937259
 30
0.0
 11
1.6579852025235899
 21
68.167131603256436
 31
0.0
 12
-0.0000000000011369
 22
66.999999999999901
 32
0.0
 13
-0.0000000000011369
 23
66.999999999999901
 33
0.0
  0
LINE
  5
2D
  8
L-ZISSEN
 10
17.320508075687641
 20
66.999999999999432
 30
0.0
 11
-17.320508075689901
 21
66.999999999999432
 31
0.0
  0
LINE
  5
2E
  8
L-ZISSEN
 10
16.96320343559546
 20
52.999999999999318
 30
0.0
 11
-16.96320343559767
 21
52.999999999999432
 31
0.0
  0
LINE
  5
2F
  8
L-ZISSEN
 10
14.009071561323481
 20
31.500000000001918
 30
0.0
 11
-14.00907156132558
 21
31.500000000001918
 31
0.0
  0
LINE
  5
30
  8
L-ZISSEN
 10
39.999999999998629
 20
41.999999999999432
 30
0.0
 11
-27.994763480522629
 21
41.999999999999773
 31
0.0
  0
LINE
  5
31
  8
L-ZISSEN
 10
19.514718625760221
 20
38.999999999999659
 30
0.0
 11
-19.514718625762441
 21
38.999999999999879
 31
0.0
  0
LINE
  5
32
  8
L-ZISSEN
 10
-17.320508075689901
 20
0.0
 30
0.0
 11
17.320508075687631
 21
0.0
 31
0.0
  0
LINE
  5
33
  8
L-ZISSEN
 10
23.99999999999886
 20
9.9999999999981917
 30
0.0
 11
-24.00000000000114
 21
9.9999999999998455
 31
0.0
  0
LINE
  5
34
  8
L-ZISSEN
 10
-12.18903603803664
 20
27.999999999999979
 30
0.0
 11
-12.189036038036591
 21
31.500000000002029
 31
0.0
  0
LINE
  5
35
  8
L-ZISSEN
 10
-19.514718625762491
 20
27.999999999999979
 30
0.0
 11
-19.514718625762441
 21
38.999999999999879
 31
0.0
  0
LINE
  5
36
  8
L-ZISSEN
 10
-22.627416997970379
 20
27.999999999999869
 30
0.0
 11
-22.627416997970322
 21
48.000000000000391
 31
0.0
  0
LINE
  5
37
  8
L-ZISSEN
 10
-28.00000000000114
 20
52.999999999999432
 30
0.0
 11
-28.00000000000114
 21
27.999999999999979
 31
0.0
  0
LINE
  5
38
  8
L-TYUSIN
 10
-0.0000000000011369
 20
71.999999999999545
 30
0.0
 11
-0.0000000000011369
 21
-5.0000000000002274
 31
0.0
  0
LINE
  5
3B
  8
L-ZISSEN
 10
-28.00000000000114
 20
27.999999999999979
 30
0.0
 11
-12.18903603803664
 21
27.999999999999979
 31
0.0
  0
LINE
  5
3C
  8
L-ZISSEN
 10
-17.320508075689901
 20
9.9999999999996145
 30
0.0
 11
-17.320508075689901
 21
0.0
 31
0.0
  0
LINE
  5
3D
  8
L-ZISSEN
 10
-8.6602540378453359
 20
0.0
 30
0.0
 11
-8.6602540378453341
 21
9.9999999999991882
 31
0.0
  0
LINE
  5
3E
  8
L-ZISSEN
 10
-24.00000000000114
 20
27.999999999999979
 30
0.0
 11
-24.00000000000114
 21
9.9999999999998455
 31
0.0
  0
LINE
  5
3F
  8
L-ZISSEN
 10
-25.46320343559756
 20
52.999999999999432
 30
0.0
 11
-28.00000000000114
 21
52.999999999999432
 31
0.0
  0
LINE
  5
40
  8
L-ZISSEN
 10
-15.000000000001259
 20
48.000000000000199
 30
0.0
 11
-28.00000000000113
 21
48.000000000000611
 31
0.0
  0
LINE
  5
41
  8
L-ZISSEN
 10
-8.6602540378458297
 20
66.999999999999432
 30
0.0
 11
-8.6602540378455615
 21
52.999999999999432
 31
0.0
  0
LINE
  5
42
  8
L-ZISSEN
 10
-17.320508075689901
 20
66.999999999999432
 30
0.0
 11
-17.320508075689901
 21
55.299999999999393
 31
0.0
  0
LINE
  5
43
  8
L-ZISSEN
 10
-14.00907156132558
 20
31.500000000001918
 30
0.0
 11
-14.00907156132558
 21
38.999999999999879
 31
0.0
  0
LINE
  5
44
  8
L-ZISSEN
 10
-25.46320343559767
 20
55.299999999999379
 30
0.0
 11
-16.96320343559767
 21
55.299999999999379
 31
0.0
  0
LINE
  5
45
  8
L-ZISSEN
 10
-25.46320343559767
 20
48.00000000000054
 30
0.0
 11
-25.46320343559767
 21
55.299999999999379
 31
0.0
  0
LINE
  5
46
  8
L-ZISSEN
 10
-15.000000000001259
 20
48.000000000000199
 30
0.0
 11
-15.00000000000127
 21
52.999999999999332
 31
0.0
  0
LINE
  5
47
  8
L-ZISSEN
 10
-16.963203435597929
 20
48.00000000000027
 30
0.0
 11
-16.96320343559767
 21
55.299999999999379
 31
0.0
  0
LINE
  5
48
  8
L-ZISSEN
 10
19.514718625760221
 20
27.999999999999979
 30
0.0
 11
19.514718625760221
 21
38.999999999999659
 31
0.0
  0
LINE
  5
49
  8
L-ZISSEN
 10
22.627416997968218
 20
27.999999999999869
 30
0.0
 11
22.627416997968329
 21
47.999999999999197
 31
0.0
  0
LINE
  5
4A
  8
L-ZISSEN
 10
27.99999999999887
 20
52.99999999999951
 30
0.0
 11
27.99999999999887
 21
27.999999999999979
 31
0.0
  0
LINE
  5
4B
  8
L-ZISSEN
 10
12.18903603803448
 20
27.999999999999979
 30
0.0
 11
12.189036038034599
 21
31.500000000001918
 31
0.0
  0
LINE
  5
4C
  8
L-ZISSEN
 10
39.999999999998629
 20
41.999999999999432
 30
0.0
 11
39.999999999999119
 21
10.99999999999693
 31
0.0
  0
LINE
  5
4D
  8
L-TYUSIN
 10
44.999999999998863
 20
25.999999999999758
 30
0.0
 11
18.080950766097882
 21
25.999999999999869
 31
0.0
  0
LINE
  5
4E
  8
L-ZISSEN
 10
39.999999999999119
 20
10.99999999999693
 30
0.0
 11
18.734993995194181
 21
10.99999999999795
 31
0.0
  0
LINE
  5
4F
  8
L-ZISSEN
 10
17.320508075687631
 20
9.9999999999984244
 30
0.0
 11
17.320508075687631
 21
0.0
 31
0.0
  0
LINE
  5
50
  8
L-ZISSEN
 10
8.6602540378438029
 20
0.0
 30
0.0
 11
8.6602540378435151
 21
9.9999999999983942
 31
0.0
  0
LINE
  5
51
  8
L-ZISSEN
 10
10.731384501467801
 20
-18.587303192101398
 30
0.0
 11
12.731384501467801
 21
-18.587303192101398
 31
0.0
  0
TEXT
  5
52
  8
L-ZISSEN
 10
14.731384501467801
 20
-20.837303192101398
 30
0.0
 40
4.5
  1
EXH
  0
LINE
  5
53
  8
L-ZISSEN
 10
12.189036038034599
 20
27.999999999999979
 30
0.0
 11
27.99999999999887
 21
27.999999999999979
 31
0.0
  0
LINE
  5
54
  8
L-ZISSEN
 10
18.734993995194181
 20
10.99999999999795
 30
0.0
 11
18.734993995194031
 21
27.999999999999979
 31
0.0
  0
LINE
  5
55
  8
L-ZISSEN
 10
23.99999999999886
 20
10.999999999997691
 30
0.0
 11
23.99999999999886
 21
9.9999999999981917
 31
0.0
  0
SOLID
  5
56
  8
L-ZISSEN
 10
40.711324865404073
 20
24.10128252576424
 30
0.0
 11
39.999999999998877
 21
25.99999999999978
 31
0.0
 12
41.288675134593689
 22
24.434615859097569
 32
0.0
 13
41.288675134593689
 23
24.434615859097569
 33
0.0
1001
ACAD
1000
DSTYLE
1002
{
1070
   147
1040
0.09
1070
    41
1040
2.0
1070
    42
1040
1.0
1070
    44
1040
1.0
1070
    73
1070
     0
1070
    74
1070
     0
1070
    77
1070
     0
1070
   140
1040
4.5
1070
   172
1070
     1
1070
   279
1070
     2
1002
}
  0
LINE
  5
57
  8
L-ZISSEN
 10
54.309308268076236
 20
1.2155510585244109
 30
0.0
 11
56.309308268076236
 21
1.2155510585244109
 31
0.0
  0
LINE
  5
58
  8
L-ZISSEN
 10
1.8024393759564099
 20
67.866725040596833
 30
0.0
 11
31.753190254416388
 21
82.268910277618417
 31
0.0
  0
LINE
  5
59
  8
L-ZISSEN
 10
8.6602540378430604
 20
66.999999999999432
 30
0.0
 11
8.6602540378430604
 21
52.999999999999432
 31
0.0
  0
LINE
  5
5A
  8
L-ZISSEN
 10
17.320508075687641
 20
66.999999999999432
 30
0.0
 11
17.320508075687641
 21
55.299999999999379
 31
0.0
  0
LINE
  5
5B
  8
L-ZISSEN
 10
14.009071561323481
 20
31.500000000001918
 30
0.0
 11
14.009071561323481
 21
38.999999999999879
 31
0.0
  0
LINE
  5
5C
  8
L-ZISSEN
 10
25.463203435595229
 20
55.299999999999379
 30
0.0
 11
16.963203435595229
 21
55.299999999999379
 31
0.0
  0
LINE
  5
5D
  8
L-ZISSEN
 10
27.99999999999887
 20
47.999999999999318
 30
0.0
 11
14.999999999999041
 21
47.99999999999919
 31
0.0
  0
LINE
  5
5E
  8
L-ZISSEN
 10
14.999999999999041
 20
47.99999999999919
 30
0.0
 11
14.99999999999906
 21
52.999999999999332
 31
0.0
  0
LINE
  5
5F
  8
L-ZISSEN
 10
16.963203435595489
 20
47.999999999999211
 30
0.0
 11
16.963203435595229
 21
55.299999999999379
 31
0.0
  0
LINE
  5
60
  8
L-ZISSEN
 10
25.463203435595229
 20
47.999999999999289
 30
0.0
 11
25.463203435595229
 21
55.299999999999379
 31
0.0
  0
LINE
  5
61
  8
L-ZISSEN
 10
27.99999999999887
 20
52.99999999999951
 30
0.0
 11
25.463203435595229
 21
52.999999999999318
 31
0.0
  0
TEXT
  5
62
  8
L-ZISSEN
 10
35.043055646439157
 20
72.288872543995424
 30
0.0
 40
4.5
  1
Rc3/8
  0
TEXT
  5
63
  8
L-ZISSEN
 10
34.89667957343773
 20
65.379615651487185
 30
0.0
 40
4.5
  1
Rc1/2
  0
TEXT
  5
64
  8
L-ZISSEN
 10
35.753190254416388
 20
80.018910277618403
 30
0.0
 40
4.5
  1
IN
  0
LINE
  5
65
  8
L-ZISSEN
 10
31.753190254416388
 20
82.268910277618417
 30
0.0
 11
33.753190254416388
 21
82.268910277618417
 31
0.0
  0
CIRCLE
  5
66
  8
L-ZISSEN
 10
-0.0000000000011369
 20
145.99999999999989
 30
0.0
 40
8.0
  0
LINE
  5
67
  8
L-TYUSIN
 10
-33.50000000000108
 20
145.99999999999989
 30
0.0
 11
44.999999999998863
 21
145.9999999999998
 31
0.0
  0
LINE
  5
68
  8
L-ZISSEN
 10
-22.627416997970752
 20
173.9999999999998
 30
0.0
 11
22.62741699796878
 21
173.99999999999949
 31
0.0
  0
LINE
  5
69
  8
L-ZISSEN
 10
-22.627416997971071
 20
118.0000000000002
 30
0.0
 11
22.62741699796797
 21
117.9999999999996
 31
0.0
  0
LINE
  5
6A
  8
L-TYUSIN
 10
-0.0000000000011369
 20
112.4999999999999
 30
0.0
 11
-0.0000000000011369
 21
179.4999999999998
 31
0.0
  0
LINE
  5
6B
  8
L-ZISSEN
 10
-28.000000000001251
 20
123.3725830020305
 30
0.0
 11
-28.00000000000119
 21
168.62741699796931
 31
0.0
  0
LINE
  5
6C
  8
L-ZISSEN
 10
-28.00000000000124
 20
130.99999999999989
 30
0.0
 11
-21.00000000000108
 21
130.99999999999989
 31
0.0
  0
ARC
  5
6D
  8
L-ZISSEN
 10
-0.0000000000011369
 20
145.99999999999989
 30
0.0
 40
36.0
 50
218.94244126898101
 51
231.05755873101771
  0
ARC
  5
6E
  8
L-ZISSEN
 10
-21.00000000000113
 20
124.9999999999999
 30
0.0
 40
6.0
 50
359.99999999999972
 51
90.0
  0
CIRCLE
  5
6F
  8
L-ZISSEN
 10
-21.21320343559773
 20
124.7867965644035
 30
0.0
 40
4.25
  0
LINE
  5
70
  8
L-ZISSEN
 10
-15.000000000001069
 20
118.0000000000001
 30
0.0
 11
-15.00000000000108
 21
124.9999999999999
 31
0.0
  0
LINE
  5
71
  8
L-ZISSEN
 10
-28.000000000001201
 20
160.99999999999989
 30
0.0
 11
-21.00000000000108
 21
160.99999999999989
 31
0.0
  0
ARC
  5
72
  8
L-ZISSEN
 10
-0.0000000000011369
 20
145.99999999999989
 30
0.0
 40
36.0
 50
128.94244126898161
 51
141.0575587310187
  0
LINE
  5
73
  8
L-ZISSEN
 10
-15.00000000000108
 20
166.99999999999989
 30
0.0
 11
-15.00000000000108
 21
173.99999999999969
 31
0.0
  0
ARC
  5
74
  8
L-ZISSEN
 10
-21.00000000000108
 20
166.99999999999989
 30
0.0
 40
6.0
 50
270.0
 51
0.0000000000002036
  0
CIRCLE
  5
75
  8
L-ZISSEN
 10
-21.21320343559756
 20
167.2132034355964
 30
0.0
 40
4.25
  0
LINE
  5
76
  8
L-ZISSEN
 10
27.99999999999886
 20
123.3725830020304
 30
0.0
 11
27.999999999998849
 21
168.62741699796939
 31
0.0
  0
LINE
  5
77
  8
L-ZISSEN
 10
39.999999999998842
 20
160.9999999999998
 30
0.0
 11
39.999999999998977
 21
130.9999999999998
 31
0.0
  0
LINE
  5
78
  8
L-ZISSEN
 10
39.999999999998977
 20
130.9999999999998
 30
0.0
 11
20.99999999999886
 21
130.9999999999998
 31
0.0
  0
ARC
  5
79
  8
L-ZISSEN
 10
20.99999999999886
 20
124.9999999999999
 30
0.0
 40
6.0
 50
90.0
 51
179.9999999999998
  0
CIRCLE
  5
7A
  8
L-ZISSEN
 10
21.213203435595229
 20
124.7867965644034
 30
0.0
 40
4.25
  0
LINE
  5
7B
  8
L-ZISSEN
 10
14.99999999999886
 20
117.9999999999997
 30
0.0
 11
14.99999999999886
 21
124.9999999999998
 31
0.0
  0
ARC
  5
7C
  8
L-ZISSEN
 10
-0.0000000000011369
 20
145.99999999999989
 30
0.0
 40
36.0
 50
308.94244126898047
 51
321.05755873101862
  0
LINE
  5
7D
  8
L-ZISSEN
 10
39.999999999998842
 20
160.9999999999998
 30
0.0
 11
20.99999999999886
 21
160.9999999999998
 31
0.0
  0
ARC
  5
7E
  8
L-ZISSEN
 10
-0.0000000000011369
 20
145.99999999999989
 30
0.0
 40
36.0
 50
38.942441268981412
 51
51.057558731017799
  0
LINE
  5
7F
  8
L-ZISSEN
 10
14.99999999999886
 20
166.9999999999998
 30
0.0
 11
14.99999999999886
 21
173.9999999999996
 31
0.0
  0
ARC
  5
80
  8
L-ZISSEN
 10
20.99999999999886
 20
166.99999999999989
 30
0.0
 40
6.0
 50
180.0000000000002
 51
270.0
  0
CIRCLE
  5
81
  8
L-ZISSEN
 10
21.21320343559546
 20
167.2132034355964
 30
0.0
 40
4.25
  0
LINE
  5
82
  8
L-ZISSEN
 10
144.00000154282691
 20
9.9999999999981117
 30
0.0
 11
96.000001542826908
 21
9.9999999999997602
 31
0.0
  0
LINE
  5
83
  8
L-ZISSEN
 10
136.96320497842351
 20
52.999999999999233
 30
0.0
 11
103.0367981072303
 21
52.999999999999339
 31
0.0
  0
LINE
  5
84
  8
L-ZISSEN
 10
148.00000154282679
 20
41.999999999999403
 30
0.0
 11
92.005238062305395
 21
41.999999999999687
 31
0.0
  0
ARC
  5
85
  8
L-ZISSEN
 10
120.00000154282689
 20
40.99999999999693
 30
0.0
 40
30.0
 50
240.0
 51
300.0
  0
CIRCLE
  5
86
  8
L-ZISSEN
 10
120.00000154282689
 20
25.999999999999869
 30
0.0
 40
8.0
  0
LINE
  5
87
  8
L-TYUSIN
 10
133.00000154282691
 20
25.999999999999812
 30
0.0
 11
107.00000154282679
 21
25.999999999999918
 31
0.0
  0
LINE
  5
88
  8
L-ZISSEN
 10
135.00000154282699
 20
66.999999999999346
 30
0.0
 11
105.00000154282669
 21
66.999999999999346
 31
0.0
  0
LINE
  5
89
  8
L-ZISSEN
 10
105.00000154282679
 20
-0.0000000000000817
 30
0.0
 11
135.00000154282691
 21
-0.0000000000000817
 31
0.0
  0
LINE
  5
8A
  8
L-ZISSEN
 10
92.000001542826894
 20
52.999999999999361
 30
0.0
 11
92.000001542826894
 21
27.999999999999901
 31
0.0
  0
LINE
  5
8B
  8
L-ZISSEN
 10
97.372584544857645
 20
27.99999999999979
 30
0.0
 11
97.372584544857702
 21
48.000000000000313
 31
0.0
  0
LINE
  5
8C
  8
L-ZISSEN
 10
100.4852829170655
 20
27.999999999999901
 30
0.0
 11
100.4852829170655
 21
38.999999999999801
 31
0.0
  0
LINE
  5
8D
  8
L-ZISSEN
 10
105.00000154282689
 20
41.999999999999623
 30
0.0
 11
105.00000154282679
 21
15.01923788646377
 31
0.0
  0
TEXT
  5
8E
  8
L-ZISSEN
 10
58.309308268076229
 20
-1.034448941475588
 30
0.0
 40
4.5
  1
OUT
  0
TEXT
  5
8F
  8
L-ZISSEN
 10
57.452797587097578
 20
-15.67374356760682
 30
0.0
 40
4.5
  1
Rc1/2
  0
TEXT
  5
90
  8
L-ZISSEN
 10
57.599173660098998
 20
-8.7644866750985813
 30
0.0
 40
4.5
  1
Rc3/8
  0
LINE
  5
91
  8
L-ZISSEN
 10
105.00000154282679
 20
9.9999999999995328
 30
0.0
 11
105.00000154282679
 21
-0.0000000000000817
 31
0.0
  0
LINE
  5
92
  8
L-ZISSEN
 10
92.000001542826894
 20
27.999999999999901
 30
0.0
 11
105.00000154282689
 21
27.999999999999901
 31
0.0
  0
LINE
  5
93
  8
L-ZISSEN
 10
96.000001542826908
 20
27.999999999999901
 30
0.0
 11
96.000001542826908
 21
9.9999999999997602
 31
0.0
  0
LINE
  5
94
  8
L-ZISSEN
 10
105.00000154282669
 20
48.000000000000107
 30
0.0
 11
105.00000154282669
 21
66.999999999999346
 31
0.0
  0
LINE
  5
95
  8
L-ZISSEN
 10
94.536798107230354
 20
55.299999999999301
 30
0.0
 11
103.0367981072303
 21
55.299999999999301
 31
0.0
  0
LINE
  5
96
  8
L-ZISSEN
 10
105.00000154282669
 20
48.000000000000107
 30
0.0
 11
92.000001542826894
 21
48.000000000000533
 31
0.0
  0
LINE
  5
97
  8
L-ZISSEN
 10
94.536798107230467
 20
52.999999999999339
 30
0.0
 11
92.000001542826894
 21
52.999999999999361
 31
0.0
  0
LINE
  5
98
  8
L-ZISSEN
 10
94.536798107230354
 20
48.000000000000462
 30
0.0
 11
94.536798107230354
 21
55.299999999999301
 31
0.0
  0
LINE
  5
99
  8
L-ZISSEN
 10
105.00000154282689
 20
38.99999999999978
 30
0.0
 11
100.4852829170655
 21
38.999999999999801
 31
0.0
  0
LINE
  5
9A
  8
L-ZISSEN
 10
103.03679810723
 20
48.000000000000178
 30
0.0
 11
103.0367981072303
 21
55.299999999999301
 31
0.0
  0
LINE
  5
9B
  8
L-ZISSEN
 10
148.00000154282691
 20
52.999999999999432
 30
0.0
 11
148.00000154282691
 21
27.999999999999901
 31
0.0
  0
LINE
  5
9C
  8
L-ZISSEN
 10
142.62741854079621
 20
27.99999999999979
 30
0.0
 11
142.6274185407963
 21
47.999999999999112
 31
0.0
  0
LINE
  5
9D
  8
L-ZISSEN
 10
139.51472016858821
 20
27.999999999999901
 30
0.0
 11
139.51472016858821
 21
38.999999999999567
 31
0.0
  0
LINE
  5
9E
  8
L-ZISSEN
 10
135.00000154282691
 20
41.99999999999946
 30
0.0
 11
135.00000154282691
 21
15.019237886463779
 31
0.0
  0
LINE
  5
9F
  8
L-TYUSIN
 10
120.00000154282689
 20
71.999999999999446
 30
0.0
 11
120.00000154282689
 21
-5.0000000000003091
 31
0.0
  0
LINE
  5
A0
  8
L-ZISSEN
 10
135.00000154282679
 20
27.999999999999901
 30
0.0
 11
148.00000154282691
 21
27.999999999999901
 31
0.0
  0
LINE
  5
A1
  8
L-ZISSEN
 10
135.00000154282691
 20
9.9999999999983427
 30
0.0
 11
135.00000154282691
 21
-0.0000000000000817
 31
0.0
  0
LINE
  5
A2
  8
L-ZISSEN
 10
120.00000154282679
 20
-0.0000000000000817
 30
0.0
 11
120.00000154282679
 21
9.9999999999991083
 31
0.0
  0
LINE
  5
A3
  8
L-ZISSEN
 10
144.00000154282691
 20
27.999999999999901
 30
0.0
 11
144.00000154282691
 21
9.9999999999997584
 31
0.0
  0
LINE
  5
A4
  8
L-ZISSEN
 10
148.00000154282691
 20
47.999999999999247
 30
0.0
 11
135.00000154282699
 21
47.999999999999112
 31
0.0
  0
LINE
  5
A5
  8
L-ZISSEN
 10
145.46320497842319
 20
55.299999999999301
 30
0.0
 11
136.96320497842319
 21
55.299999999999301
 31
0.0
  0
LINE
  5
A6
  8
L-ZISSEN
 10
135.00000154282699
 20
47.999999999999112
 30
0.0
 11
135.00000154282699
 21
66.999999999999346
 31
0.0
  0
LINE
  5
A7
  8
L-ZISSEN
 10
120.00000154282679
 20
66.999999999999346
 30
0.0
 11
120.00000154282711
 21
52.999999999999339
 31
0.0
  0
LINE
  5
A8
  8
L-ZISSEN
 10
139.51472016858821
 20
38.999999999999567
 30
0.0
 11
135.00000154282691
 21
38.999999999999609
 31
0.0
  0
LINE
  5
A9
  8
L-ZISSEN
 10
136.96320497842351
 20
47.999999999999133
 30
0.0
 11
136.96320497842319
 21
55.299999999999301
 31
0.0
  0
LINE
  5
AA
  8
L-ZISSEN
 10
145.46320497842319
 20
47.999999999999211
 30
0.0
 11
145.46320497842319
 21
55.299999999999301
 31
0.0
  0
LINE
  5
AB
  8
L-ZISSEN
 10
148.00000154282691
 20
52.999999999999432
 30
0.0
 11
145.46320497842319
 21
52.999999999999233
 31
0.0
  0
TEXT
  5
AC
  8
L-ZISSEN
 10
90.063240901881557
 20
155.04588618993131
 30
0.0
 40
4.5
  1
MODEL NO.
  0
TEXT
  5
AD
  8
L-ZISSEN
 10
92.305602331332295
 20
147.74423313542491
 30
0.0
 40
4.5
  1
QEV-3303Y
  0
TEXT
  5
AE
  8
L-ZISSEN
 10
92.305602331332295
 20
140.74423313542491
 30
0.0
 40
4.5
  1
QEV-3304Y
  0
ENDSEC
  0
EOF
