  0
SECTION
  2
HEADER
  9
$ACADVER
  1
AC1006
  9
$INSBASE
 10
0.0
 20
0.0
 30
0.0
  9
$EXTMIN
 10
0.0
 20
0.0
  9
$EXTMAX
 10
421.0
 20
297.0
  9
$LIMMIN
 10
0.0
 20
0.0
  9
$LIMMAX
 10
12.0
 20
9.0
  9
$ORTHOMODE
 70
     1
  9
$REGENMODE
 70
     1
  9
$FILLMODE
 70
     1
  9
$QTEXTMODE
 70
     0
  9
$MIRRTEXT
 70
     1
  9
$DRAGMODE
 70
     2
  9
$LTSCALE
 40
1.0
  9
$OSMODE
 70
     0
  9
$ATTMODE
 70
     1
  9
$TEXTSIZE
 40
0.2
  9
$TRACEWID
 40
0.05
  9
$TEXTSTYLE
  7
STANDARD
  9
$CLAYER
  8
L-ZISSEN
  9
$CELTYPE
  6
BYLAYER
  9
$CECOLOR
 62
   256
  9
$DIMSCALE
 40
1.0
  9
$DIMASZ
 40
1.5
  9
$DIMEXO
 40
1.0
  9
$DIMDLI
 40
0.38
  9
$DIMRND
 40
0.0
  9
$DIMDLE
 40
0.0
  9
$DIMEXE
 40
1.0
  9
$DIMTP
 40
0.0
  9
$DIMTM
 40
0.0
  9
$DIMTXT
 40
2.5
  9
$DIMCEN
 40
0.09
  9
$DIMTSZ
 40
0.0
  9
$DIMTOL
 70
     0
  9
$DIMLIM
 70
     0
  9
$DIMTIH
 70
     0
  9
$DIMTOH
 70
     0
  9
$DIMSE1
 70
     0
  9
$DIMSE2
 70
     0
  9
$DIMTAD
 70
     1
  9
$DIMZIN
 70
     0
  9
$DIMBLK
  1

  9
$DIMASO
 70
     1
  9
$DIMSHO
 70
     0
  9
$DIMPOST
  1

  9
$DIMAPOST
  1

  9
$DIMALT
 70
     0
  9
$DIMALTD
 70
     2
  9
$DIMALTF
 40
25.4
  9
$DIMLFAC
 40
1.0
  9
$DIMTOFL
 70
     1
  9
$DIMTVP
 40
0.0
  9
$DIMTIX
 70
     0
  9
$DIMSOXD
 70
     0
  9
$DIMSAH
 70
     0
  9
$DIMBLK1
  1

  9
$DIMBLK2
  1

  9
$LUNITS
 70
     2
  9
$LUPREC
 70
     4
  9
$AXISMODE
 70
     0
  9
$AXISUNIT
 10
0.0
 20
0.0
  9
$SKETCHINC
 40
0.1
  9
$FILLETRAD
 40
0.0
  9
$AUNITS
 70
     0
  9
$AUPREC
 70
     0
  9
$MENU
  1
acad
  9
$ELEVATION
 40
0.0
  9
$THICKNESS
 40
0.0
  9
$LIMCHECK
 70
     0
  9
$BLIPMODE
 70
     1
  9
$CHAMFERA
 40
0.0
  9
$CHAMFERB
 40
0.0
  9
$SKPOLY
 70
     0
  9
$TDCREATE
 40
2449237.6604878474
  9
$TDUPDATE
 40
2449237.6604878474
  9
$TDINDWG
 40
0.0000000000
  9
$TDUSRTIMER
 40
0.0000000000
  9
$USRTIMER
 70
     1
  9
$ANGBASE
 50
0.0
  9
$ANGDIR
 70
     0
  9
$PDMODE
 70
     0
  9
$PDSIZE
 40
0.0
  9
$PLINEWID
 40
0.0
  9
$COORDS
 70
     0
  9
$SPLFRAME
 70
     0
  9
$SPLINETYPE
 70
     6
  9
$SPLINESEGS
 70
     8
  9
$ATTDIA
 70
     0
  9
$ATTREQ
 70
     1
  9
$HANDLING
 70
     0
  9
$HANDSEED
  5
0
  9
$SURFTAB1
 70
     6
  9
$SURFTAB2
 70
     6
  9
$SURFTYPE
 70
     6
  9
$SURFU
 70
     6
  9
$SURFV
 70
     6
  9
$FLATLAND
 70
     0
  9
$UCSNAME
  2

  9
$UCSORG
 10
0.0
 20
0.0
 30
0.0
  9
$UCSXDIR
 10
1.0
 20
0.0
 30
0.0
  9
$UCSYDIR
 10
0.0
 20
1.0
 30
0.0
  9
$USERI1
 70
     0
  9
$USERI2
 70
     0
  9
$USERI3
 70
     0
  9
$USERI4
 70
     0
  9
$USERI5
 70
     0
  9
$USERR1
 40
0.0
  9
$USERR2
 40
0.0
  9
$USERR3
 40
0.0
  9
$USERR4
 40
0.0
  9
$USERR5
 40
0.0
  9
$WORLDVIEW
 70
     1
  0
ENDSEC
  0
SECTION
  2
TABLES
  0
TABLE
  2
VPORT
 70
     1
  0
VPORT
  2
*ACTIVE
 70
     0
 10
0.0
 20
0.0
 11
1.0
 21
1.0
 12
238.227989
 22
153.824519
 13
0.0
 23
0.0
 14
1.0
 24
1.0
 15
0.0
 25
0.0
 16
0.0
 26
0.0
 36
1.0
 17
0.0
 27
0.0
 37
0.0
 40
307.649038
 41
1.5487
 42
50.0
 43
0.0
 44
0.0
 50
0.0
 51
0.0
 71
     0
 72
   100
 73
     1
 74
     0
 75
     0
 76
     0
 77
     0
 78
     0
  0
ENDTAB
  0
TABLE
  2
LTYPE
 70
     2
  0
LTYPE
  2
CONTINUOUS
 70
    64
  3
Solid line
 72
    65
 73
     0
 40
0.0
  0
LTYPE
  2
CENTER
 70
    64
  3
____ _ ____ _ ____
 72
    65
 73
     4
 40
8.0
 49
5.0
 49
-1.0
 49
1.0
 49
-1.0
  0
ENDTAB
  0
TABLE
  2
LAYER
 70
     3
  0
LAYER
  2
0
 70
     0
 62
     7
  6
CONTINUOUS
  0
LAYER
  2
L-ZISSEN
 70
    64
 62
     7
  6
CONTINUOUS
  0
LAYER
  2
L-TYUSIN
 70
    64
 62
     1
  6
CENTER
  0
ENDTAB
  0
TABLE
  2
STYLE
 70
     1
  0
STYLE
  2
STANDARD
 70
    64
 40
0.0
 41
1.0
 50
0.0
 71
     0
 42
0.2
  3
txt
  4

  0
ENDTAB
  0
TABLE
  2
VIEW
 70
     0
  0
ENDTAB
  0
TABLE
  2
UCS
 70
     0
  0
ENDTAB
  0
TABLE
  2
DWGMGR
 70
     0
  0
ENDTAB
  0
ENDSEC
  0
SECTION
  2
BLOCKS
  0
ENDSEC
  0
SECTION
  2
ENTITIES
  0
TEXT
  8
L-ZISSEN
 10
176.287119
 20
15.709671
 30
0.0
 40
4.5
  1
Rc1/4
  0
TEXT
  8
L-ZISSEN
 10
176.028505
 20
21.709584
 30
0.0
 40
4.5
  1
Rc1/8
  0
TEXT
  8
L-ZISSEN
 10
175.632062
 20
28.143668
 30
0.0
 40
4.5
  1
IN
  0
LINE
  8
L-ZISSEN
 10
171.632062
 20
30.393668
 30
0.0
 11
173.632062
 21
30.393668
 31
0.0
  0
LINE
  8
L-ZISSEN
 10
159.141727
 20
48.35791
 30
0.0
 11
171.632062
 21
30.393668
 31
0.0
  0
SOLID
  8
L-ZISSEN
 10
158.868045
 20
48.167622
 30
0.0
 11
159.415408
 21
48.548198
 31
0.0
 12
158.0
 22
50.0
 32
0.0
 13
158.0
 23
50.0
 33
0.0
  0
LINE
  8
L-TYUSIN
 10
130.0
 20
78.091676
 30
0.0
 11
130.0
 21
30.999931
 31
0.0
  0
LINE
  8
L-ZISSEN
 10
61.0
 20
74.0
 30
0.0
 11
39.0
 21
74.0
 31
0.0
  0
LINE
  8
L-ZISSEN
 10
39.0
 20
74.0
 30
0.0
 11
39.0
 21
65.75
 31
0.0
  0
LINE
  8
L-ZISSEN
 10
61.0
 20
74.0
 30
0.0
 11
61.0
 21
65.75
 31
0.0
  0
LINE
  8
L-TYUSIN
 10
50.0
 20
77.0
 30
0.0
 11
50.0
 21
31.25
 31
0.0
  0
LINE
  8
L-TYUSIN
 10
31.25
 20
50.0
 30
0.0
 11
68.75
 21
50.0
 31
0.0
  0
LINE
  8
L-ZISSEN
 10
34.25
 20
65.75
 30
0.0
 11
65.75
 21
65.75
 31
0.0
  0
LINE
  8
L-ZISSEN
 10
34.25
 20
65.75
 30
0.0
 11
34.25
 21
34.25
 31
0.0
  0
LINE
  8
L-ZISSEN
 10
34.25
 20
34.25
 30
0.0
 11
65.75
 21
34.25
 31
0.0
  0
LINE
  8
L-ZISSEN
 10
65.75
 20
65.75
 30
0.0
 11
65.75
 21
34.25
 31
0.0
  0
CIRCLE
  8
L-ZISSEN
 10
50.0
 20
50.0
 30
0.0
 40
11.0
  0
CIRCLE
  8
L-ZISSEN
 10
61.5
 20
38.5
 30
0.0
 40
3.8
  0
CIRCLE
  8
L-ZISSEN
 10
38.5
 20
61.5
 30
0.0
 40
3.8
  0
TEXT
  8
L-ZISSEN
 10
32.372532
 20
118.258133
 30
0.0
 40
4.5
  1
G01-200
  0
TEXT
  8
L-ZISSEN
 10
32.85142
 20
126.444823
 30
0.0
 40
4.5
  1
G01-100
  0
TEXT
  8
L-ZISSEN
 10
29.499208
 20
134.631514
 30
0.0
 40
4.5
  1
MODEL NO.
  0
LINE
  8
L-TYUSIN
 10
130.0
 20
148.880688
 30
0.0
 11
130.0
 21
111.119312
 31
0.0
  0
LINE
  8
L-ZISSEN
 10
113.6
 20
115.0
 30
0.0
 11
108.9
 21
115.0
 31
0.0
  0
LINE
  8
L-ZISSEN
 10
113.6
 20
138.0
 30
0.0
 11
108.6
 21
138.0
 31
0.0
  0
LINE
  8
L-ZISSEN
 10
113.6
 20
145.0
 30
0.0
 11
108.6
 21
145.0
 31
0.0
  0
LINE
  8
L-ZISSEN
 10
108.6
 20
145.0
 30
0.0
 11
108.6
 21
138.0
 31
0.0
  0
LINE
  8
L-ZISSEN
 10
104.5
 20
119.0
 30
0.0
 11
113.6
 21
119.0
 31
0.0
  0
LINE
  8
L-ZISSEN
 10
104.5
 20
141.0
 30
0.0
 11
108.6
 21
141.0
 31
0.0
  0
LINE
  8
L-ZISSEN
 10
158.0
 20
39.0
 30
0.0
 11
149.5
 21
39.0
 31
0.0
  0
LINE
  8
L-ZISSEN
 10
113.6
 20
65.0
 30
0.0
 11
108.6
 21
65.0
 31
0.0
  0
LINE
  8
L-ZISSEN
 10
104.5
 20
39.0
 30
0.0
 11
108.6
 21
39.0
 31
0.0
  0
LINE
  8
L-ZISSEN
 10
104.5
 20
61.0
 30
0.0
 11
113.6
 21
61.0
 31
0.0
  0
LINE
  8
L-ZISSEN
 10
108.6
 20
42.0
 30
0.0
 11
108.6
 21
35.0
 31
0.0
  0
LINE
  8
L-ZISSEN
 10
113.6
 20
42.0
 30
0.0
 11
108.6
 21
42.0
 31
0.0
  0
LINE
  8
L-ZISSEN
 10
108.9
 20
119.0
 30
0.0
 11
108.9
 21
115.0
 31
0.0
  0
LINE
  8
L-TYUSIN
 10
101.5
 20
50.0
 30
0.0
 11
161.0
 21
50.0
 31
0.0
  0
LINE
  8
L-ZISSEN
 10
113.6
 20
35.0
 30
0.0
 11
108.6
 21
35.0
 31
0.0
  0
LINE
  8
L-ZISSEN
 10
158.0
 20
119.0
 30
0.0
 11
149.5
 21
119.0
 31
0.0
  0
LINE
  8
L-ZISSEN
 10
158.0
 20
141.0
 30
0.0
 11
149.5
 21
141.0
 31
0.0
  0
LINE
  8
L-ZISSEN
 10
158.0
 20
141.0
 30
0.0
 11
158.0
 21
119.0
 31
0.0
  0
LINE
  8
L-ZISSEN
 10
149.5
 20
114.25
 30
0.0
 11
149.5
 21
145.75
 31
0.0
  0
CIRCLE
  8
L-ZISSEN
 10
130.0
 20
130.0
 30
0.0
 40
11.0
  0
LINE
  8
L-TYUSIN
 10
101.5
 20
130.0
 30
0.0
 11
161.0
 21
130.0
 31
0.0
  0
LINE
  8
L-ZISSEN
 10
149.5
 20
145.75
 30
0.0
 11
113.6
 21
145.75
 31
0.0
  0
LINE
  8
L-ZISSEN
 10
149.5
 20
114.25
 30
0.0
 11
113.6
 21
114.25
 31
0.0
  0
LINE
  8
L-ZISSEN
 10
118.0
 20
114.25
 30
0.0
 11
118.0
 21
145.75
 31
0.0
  0
LINE
  8
L-ZISSEN
 10
113.6
 20
114.25
 30
0.0
 11
113.6
 21
145.75
 31
0.0
  0
LINE
  8
L-ZISSEN
 10
104.5
 20
119.0
 30
0.0
 11
104.5
 21
141.0
 31
0.0
  0
LINE
  8
L-ZISSEN
 10
108.6
 20
65.0
 30
0.0
 11
108.6
 21
61.0
 31
0.0
  0
LINE
  8
L-ZISSEN
 10
113.6
 20
34.25
 30
0.0
 11
149.5
 21
34.25
 31
0.0
  0
LINE
  8
L-ZISSEN
 10
158.0
 20
61.0
 30
0.0
 11
158.0
 21
39.0
 31
0.0
  0
LINE
  8
L-ZISSEN
 10
149.5
 20
34.25
 30
0.0
 11
149.5
 21
65.75
 31
0.0
  0
LINE
  8
L-ZISSEN
 10
158.0
 20
61.0
 30
0.0
 11
149.5
 21
61.0
 31
0.0
  0
LINE
  8
L-ZISSEN
 10
140.5
 20
65.75
 30
0.0
 11
140.5
 21
74.0
 31
0.0
  0
LINE
  8
L-ZISSEN
 10
118.5
 20
65.75
 30
0.0
 11
118.5
 21
74.0
 31
0.0
  0
LINE
  8
L-ZISSEN
 10
118.5
 20
74.0
 30
0.0
 11
140.5
 21
74.0
 31
0.0
  0
LINE
  8
L-ZISSEN
 10
113.6
 20
65.75
 30
0.0
 11
149.5
 21
65.75
 31
0.0
  0
LINE
  8
L-ZISSEN
 10
118.0
 20
65.75
 30
0.0
 11
118.0
 21
34.25
 31
0.0
  0
LINE
  8
L-ZISSEN
 10
113.6
 20
65.75
 30
0.0
 11
113.6
 21
34.25
 31
0.0
  0
LINE
  8
L-ZISSEN
 10
104.5
 20
39.0
 30
0.0
 11
104.5
 21
61.0
 31
0.0
  0
CIRCLE
  8
L-ZISSEN
 10
130.0
 20
130.0
 30
0.0
 40
4.283
  0
CIRCLE
  8
L-ZISSEN
 10
50.0
 20
50.0
 30
0.0
 40
4.283
  0
ENDSEC
  0
EOF
