  0
SECTION
  2
HEADER
  9
$ACADVER
  1
AC1012
  9
$DWGCODEPAGE
  3
dos932
  9
$INSBASE
 10
0.0
 20
0.0
 30
0.0
  9
$EXTMIN
 10
1207.801588527128
 20
-2868.56462894802
 30
-0.0000000000000058
  9
$EXTMAX
 10
1673.981374651924
 20
-2495.828045879581
 30
0.0000000000000104
  9
$LIMMIN
 10
0.0
 20
0.0
  9
$LIMMAX
 10
297.0
 20
210.0
  9
$ORTHOMODE
 70
     1
  9
$REGENMODE
 70
     1
  9
$FILLMODE
 70
     1
  9
$QTEXTMODE
 70
     0
  9
$MIRRTEXT
 70
     1
  9
$DRAGMODE
 70
     2
  9
$LTSCALE
 40
1.0
  9
$OSMODE
 70
    39
  9
$ATTMODE
 70
     1
  9
$TEXTSIZE
 40
5.599999999999999
  9
$TRACEWID
 40
0.05
  9
$TEXTSTYLE
  7
STANDARD
  9
$CLAYER
  8
L-ZISSEN
  9
$CELTYPE
  6
BYLAYER
  9
$CECOLOR
 62
   256
  9
$CELTSCALE
 40
1.0
  9
$DELOBJ
 70
     1
  9
$DISPSILH
 70
     0
  9
$DIMSCALE
 40
2.0
  9
$DIMASZ
 40
2.0
  9
$DIMEXO
 40
1.0
  9
$DIMDLI
 40
8.0
  9
$DIMRND
 40
0.0
  9
$DIMDLE
 40
0.0
  9
$DIMEXE
 40
0.8
  9
$DIMTP
 40
0.0
  9
$DIMTM
 40
0.0
  9
$DIMTXT
 40
2.799999999999999
  9
$DIMCEN
 40
0.0
  9
$DIMTSZ
 40
0.0
  9
$DIMTOL
 70
     0
  9
$DIMLIM
 70
     0
  9
$DIMTIH
 70
     0
  9
$DIMTOH
 70
     0
  9
$DIMSE1
 70
     0
  9
$DIMSE2
 70
     0
  9
$DIMTAD
 70
     0
  9
$DIMZIN
 70
    12
  9
$DIMBLK
  1

  9
$DIMASO
 70
     1
  9
$DIMSHO
 70
     0
  9
$DIMPOST
  1

  9
$DIMAPOST
  1

  9
$DIMALT
 70
     0
  9
$DIMALTD
 70
     2
  9
$DIMALTF
 40
25.4
  9
$DIMLFAC
 40
1.0
  9
$DIMTOFL
 70
     1
  9
$DIMTVP
 40
1.0
  9
$DIMTIX
 70
     1
  9
$DIMSOXD
 70
     0
  9
$DIMSAH
 70
     0
  9
$DIMBLK1
  1

  9
$DIMBLK2
  1

  9
$DIMSTYLE
  2
STANDARD
  9
$DIMCLRD
 70
     0
  9
$DIMCLRE
 70
     0
  9
$DIMCLRT
 70
     0
  9
$DIMTFAC
 40
1.0
  9
$DIMGAP
 40
0.8
  9
$DIMJUST
 70
     0
  9
$DIMSD1
 70
     0
  9
$DIMSD2
 70
     0
  9
$DIMTOLJ
 70
     1
  9
$DIMTZIN
 70
     0
  9
$DIMALTZ
 70
     0
  9
$DIMALTTZ
 70
     0
  9
$DIMFIT
 70
     3
  9
$DIMUPT
 70
     0
  9
$DIMUNIT
 70
     2
  9
$DIMDEC
 70
     8
  9
$DIMTDEC
 70
     8
  9
$DIMALTU
 70
     2
  9
$DIMALTTD
 70
     2
  9
$DIMTXSTY
  7
STANDARD
  9
$DIMAUNIT
 70
     0
  9
$LUNITS
 70
     2
  9
$LUPREC
 70
     4
  9
$SKETCHINC
 40
0.1
  9
$FILLETRAD
 40
1.5
  9
$AUNITS
 70
     0
  9
$AUPREC
 70
     0
  9
$MENU
  1
.
  9
$ELEVATION
 40
0.0
  9
$PELEVATION
 40
0.0
  9
$THICKNESS
 40
0.0
  9
$LIMCHECK
 70
     0
  9
$BLIPMODE
 70
     0
  9
$CHAMFERA
 40
3.0
  9
$CHAMFERB
 40
3.0
  9
$CHAMFERC
 40
0.0
  9
$CHAMFERD
 40
0.0
  9
$SKPOLY
 70
     0
  9
$TDCREATE
 40
2453354.092125822
  9
$TDUPDATE
 40
2455065.453065683
  9
$TDINDWG
 40
10.5335524537
  9
$TDUSRTIMER
 40
10.5335524537
  9
$USRTIMER
 70
     1
  9
$ANGBASE
 50
0.0
  9
$ANGDIR
 70
     0
  9
$PDMODE
 70
     0
  9
$PDSIZE
 40
0.0
  9
$PLINEWID
 40
0.0
  9
$COORDS
 70
     2
  9
$SPLFRAME
 70
     0
  9
$SPLINETYPE
 70
     6
  9
$SPLINESEGS
 70
     8
  9
$ATTDIA
 70
     0
  9
$ATTREQ
 70
     1
  9
$HANDLING
 70
-16383
  9
$HANDSEED
  5
D284
  9
$SURFTAB1
 70
     6
  9
$SURFTAB2
 70
     6
  9
$SURFTYPE
 70
     6
  9
$SURFU
 70
     6
  9
$SURFV
 70
     6
  9
$UCSNAME
  2

  9
$UCSORG
 10
0.0
 20
0.0
 30
0.0
  9
$UCSXDIR
 10
1.0
 20
0.0
 30
0.0
  9
$UCSYDIR
 10
0.0
 20
1.0
 30
0.0
  9
$PUCSNAME
  2

  9
$PUCSORG
 10
0.0
 20
0.0
 30
0.0
  9
$PUCSXDIR
 10
1.0
 20
0.0
 30
0.0
  9
$PUCSYDIR
 10
0.0
 20
1.0
 30
0.0
  9
$USERI1
 70
     0
  9
$USERI2
 70
     0
  9
$USERI3
 70
     0
  9
$USERI4
 70
     0
  9
$USERI5
 70
     0
  9
$USERR1
 40
0.0
  9
$USERR2
 40
0.0
  9
$USERR3
 40
0.0
  9
$USERR4
 40
0.0
  9
$USERR5
 40
0.0
  9
$WORLDVIEW
 70
     1
  9
$SHADEDGE
 70
     3
  9
$SHADEDIF
 70
    70
  9
$TILEMODE
 70
     1
  9
$MAXACTVP
 70
    48
  9
$PINSBASE
 10
0.0
 20
0.0
 30
0.0
  9
$PLIMCHECK
 70
     0
  9
$PEXTMIN
 10
0.0
 20
0.0
 30
0.0
  9
$PEXTMAX
 10
0.0
 20
0.0
 30
0.0
  9
$PLIMMIN
 10
0.0
 20
0.0
  9
$PLIMMAX
 10
0.0
 20
0.0
  9
$UNITMODE
 70
     0
  9
$VISRETAIN
 70
     0
  9
$PLINEGEN
 70
     0
  9
$PSLTSCALE
 70
     0
  9
$TREEDEPTH
 70
  3020
  9
$PICKSTYLE
 70
     1
  9
$CMLSTYLE
  2
STANDARD
  9
$CMLJUST
 70
     0
  9
$CMLSCALE
 40
1.0
  9
$SAVEIMAGES
 70
     1
  0
ENDSEC
  0
SECTION
  2
CLASSES
  0
CLASS
  1
ACDBDICTIONARYWDFLT
  2
AcDbDictionaryWithDefault
  3
AutoCAD 2000
 90
    32768
280
     0
281
     0
  0
CLASS
  1
ACDBPLACEHOLDER
  2
AcDbPlaceHolder
  3
AutoCAD 2000
 90
    32768
280
     0
281
     0
  0
CLASS
  1
LAYOUT
  2
AcDbLayout
  3
AutoCAD 2000
 90
    32768
280
     0
281
     0
  0
CLASS
  1
DICTIONARYVAR
  2
AcDbDictionaryVar
  3
AutoCAD 2000
 90
    32768
280
     0
281
     0
  0
CLASS
  1
TABLESTYLE
  2
AcDbTableStyle
  3
ObjectDBX Classes
 90
    34815
280
     1
281
     0
  0
CLASS
  1
ACAD_PROXY_OBJECT_WRAPPER
  2
AcDbProxyObjectWrapper
  3
AutoCAD 2000
 90
    32768
280
     0
281
     0
  0
CLASS
  1
LONG_TRANSACTION
  2
AcDbLongTransaction
  3
AutoCAD 2000
 90
    32768
280
     0
281
     0
  0
CLASS
  1
LWPOLYLINE
  2
AcDbPolyline
  3
AutoCAD 2000
 90
    32768
280
     0
281
     1
  0
CLASS
  1
HATCH
  2
AcDbHatch
  3
AutoCAD 2000
 90
    32768
280
     0
281
     1
  0
CLASS
  1
XRECORD
  2
AcDbXrecord
  3
AutoCAD 2000
 90
    32768
280
     0
281
     0
  0
CLASS
  1
LONG_TRANSACTION
  2
AcDbLongTransaction
  3
AutoCAD 2000
 90
    32768
280
     0
281
     0
  0
CLASS
  1
LWPOLYLINE
  2
AcDbPolyline
  3
AutoCAD 2000
 90
    32768
280
     0
281
     1
  0
CLASS
  1
HATCH
  2
AcDbHatch
  3
AutoCAD 2000
 90
    32768
280
     0
281
     1
  0
CLASS
  1
XRECORD
  2
AcDbXrecord
  3
AutoCAD 2000
 90
    32768
280
     0
281
     0
  0
CLASS
  1
LONG_TRANSACTION
  2
AcDbLongTransaction
  3
AutoCAD 2000
 90
    32768
280
     0
281
     0
  0
CLASS
  1
LWPOLYLINE
  2
AcDbPolyline
  3
AutoCAD 2000
 90
    32768
280
     0
281
     1
  0
CLASS
  1
HATCH
  2
AcDbHatch
  3
AutoCAD 2000
 90
    32768
280
     0
281
     1
  0
CLASS
  1
XRECORD
  2
AcDbXrecord
  3
AutoCAD 2000
 90
    32768
280
     0
281
     0
  0
CLASS
  1
LONG_TRANSACTION
  2
AcDbLongTransaction
  3
AutoCAD 2000
 90
    32768
280
     0
281
     0
  0
CLASS
  1
LWPOLYLINE
  2
AcDbPolyline
  3
AutoCAD 2000
 90
    32768
280
     0
281
     1
  0
CLASS
  1
HATCH
  2
AcDbHatch
  3
AutoCAD 2000
 90
    32768
280
     0
281
     1
  0
CLASS
  1
XRECORD
  2
AcDbXrecord
  3
AutoCAD 2000
 90
    32768
280
     0
281
     0
  0
CLASS
  1
LONG_TRANSACTION
  2
AcDbLongTransaction
  3
AutoCAD 2000
 90
    32768
280
     0
281
     0
  0
CLASS
  1
LWPOLYLINE
  2
AcDbPolyline
  3
AutoCAD 2000
 90
    32768
280
     0
281
     1
  0
CLASS
  1
HATCH
  2
AcDbHatch
  3
AutoCAD 2000
 90
    32768
280
     0
281
     1
  0
CLASS
  1
XRECORD
  2
AcDbXrecord
  3
AutoCAD 2000
 90
    32768
280
     0
281
     0
  0
CLASS
  1
LONG_TRANSACTION
  2
AcDbLongTransaction
  3
AutoCAD 2000
 90
    32768
280
     0
281
     0
  0
CLASS
  1
LWPOLYLINE
  2
AcDbPolyline
  3
AutoCAD 2000
 90
    32768
280
     0
281
     1
  0
CLASS
  1
HATCH
  2
AcDbHatch
  3
AutoCAD 2000
 90
    32768
280
     0
281
     1
  0
CLASS
  1
XRECORD
  2
AcDbXrecord
  3
AutoCAD 2000
 90
    32768
280
     0
281
     0
  0
CLASS
  1
LONG_TRANSACTION
  2
AcDbLongTransaction
  3
AutoCAD 2000
 90
    32768
280
     0
281
     0
  0
CLASS
  1
LWPOLYLINE
  2
AcDbPolyline
  3
AutoCAD 2000
 90
    32768
280
     0
281
     1
  0
CLASS
  1
HATCH
  2
AcDbHatch
  3
AutoCAD 2000
 90
    32768
280
     0
281
     1
  0
CLASS
  1
XRECORD
  2
AcDbXrecord
  3
AutoCAD 2000
 90
    32768
280
     0
281
     0
  0
CLASS
  1
LONG_TRANSACTION
  2
AcDbLongTransaction
  3
AutoCAD 2000
 90
    32768
280
     0
281
     0
  0
CLASS
  1
LWPOLYLINE
  2
AcDbPolyline
  3
AutoCAD 2000
 90
    32768
280
     0
281
     1
  0
CLASS
  1
HATCH
  2
AcDbHatch
  3
AutoCAD 2000
 90
    32768
280
     0
281
     1
  0
CLASS
  1
XRECORD
  2
AcDbXrecord
  3
AutoCAD 2000
 90
    32768
280
     0
281
     0
  0
CLASS
  1
LONG_TRANSACTION
  2
AcDbLongTransaction
  3
AutoCAD 2000
 90
    32768
280
     0
281
     0
  0
CLASS
  1
LWPOLYLINE
  2
AcDbPolyline
  3
AutoCAD 2000
 90
    32768
280
     0
281
     1
  0
CLASS
  1
HATCH
  2
AcDbHatch
  3
AutoCAD 2000
 90
    32768
280
     0
281
     1
  0
CLASS
  1
XRECORD
  2
AcDbXrecord
  3
AutoCAD 2000
 90
    32768
280
     0
281
     0
  0
CLASS
  1
LONG_TRANSACTION
  2
AcDbLongTransaction
  3
AutoCAD 2000
 90
    32768
280
     0
281
     0
  0
CLASS
  1
LWPOLYLINE
  2
AcDbPolyline
  3
AutoCAD 2000
 90
    32768
280
     0
281
     1
  0
CLASS
  1
HATCH
  2
AcDbHatch
  3
AutoCAD 2000
 90
    32768
280
     0
281
     1
  0
CLASS
  1
XRECORD
  2
AcDbXrecord
  3
AutoCAD 2000
 90
    32768
280
     0
281
     0
  0
CLASS
  1
LONG_TRANSACTION
  2
AcDbLongTransaction
  3
AutoCAD 2000
 90
    32768
280
     0
281
     0
  0
CLASS
  1
LWPOLYLINE
  2
AcDbPolyline
  3
AutoCAD 2000
 90
    32768
280
     0
281
     1
  0
CLASS
  1
HATCH
  2
AcDbHatch
  3
AutoCAD 2000
 90
    32768
280
     0
281
     1
  0
CLASS
  1
XRECORD
  2
AcDbXrecord
  3
AutoCAD 2000
 90
    32768
280
     0
281
     0
  0
ENDSEC
  0
SECTION
  2
TABLES
  0
TABLE
  2
VPORT
  5
1E
330
0
100
AcDbSymbolTable
 70
     3
  0
VPORT
  5
D273
330
1E
100
AcDbSymbolTableRecord
100
AcDbViewportTableRecord
  2
*ACTIVE
 70
     0
 10
0.0
 20
0.0
 11
1.0
 21
1.0
 12
1440.891481589526
 22
-2682.196337413801
 13
0.0
 23
0.0
 14
1.0
 24
1.0
 15
4.0
 25
4.0
 16
0.0
 26
0.0
 36
1.0
 17
0.0
 27
0.0
 37
0.0
 40
375.0931894945825
 41
1.60759493670886
 42
50.0
 43
0.0
 44
0.0
 50
0.0
 51
0.0
 71
    16
 72
   100
 73
     1
 74
     0
 75
     0
 76
     0
 77
     0
 78
     0
  0
ENDTAB
  0
TABLE
  2
LTYPE
  5
19
330
0
100
AcDbSymbolTable
 70
     3
  0
LTYPE
  5
1A
330
19
100
AcDbSymbolTableRecord
100
AcDbLinetypeTableRecord
  2
BYBLOCK
 70
     0
  3

 72
    65
 73
     0
 40
0.0
  0
LTYPE
  5
1B
330
19
100
AcDbSymbolTableRecord
100
AcDbLinetypeTableRecord
  2
BYLAYER
 70
     0
  3

 72
    65
 73
     0
 40
0.0
  0
LTYPE
  5
B
330
19
100
AcDbSymbolTableRecord
100
AcDbLinetypeTableRecord
  2
CONTINUOUS
 70
     0
  3
Solid line
 72
    65
 73
     0
 40
0.0
  0
LTYPE
  5
32
330
19
100
AcDbSymbolTableRecord
100
AcDbLinetypeTableRecord
  2
CENTER
 70
     0
  3

 72
    65
 73
     4
 40
18.0
 49
15.0
 74
     4
 75
     0
340
0
 46
1.0
 50
0.0
 44
0.0
 45
0.0
 49
-1.0
 74
     4
 75
     0
340
0
 46
1.0
 50
0.0
 44
0.0
 45
0.0
 49
1.0
 74
     4
 75
     0
340
0
 46
1.0
 50
0.0
 44
0.0
 45
0.0
 49
-1.0
 74
     4
 75
     0
340
0
 46
1.0
 50
0.0
 44
0.0
 45
0.0
  0
LTYPE
  5
A348
330
19
100
AcDbSymbolTableRecord
100
AcDbLinetypeTableRecord
  2
PHANTOM
 70
     0
  3
----- - - ----- - - ----- - - ----- - - -----
 72
    65
 73
     6
 40
22.5
 49
15.0
 74
     4
 75
     0
340
0
 46
1.0
 50
0.0
 44
0.0
 45
0.0
 49
-1.5
 74
     4
 75
     0
340
0
 46
1.0
 50
0.0
 44
0.0
 45
0.0
 49
1.5
 74
     4
 75
     0
340
0
 46
1.0
 50
0.0
 44
0.0
 45
0.0
 49
-1.5
 74
     4
 75
     0
340
0
 46
1.0
 50
0.0
 44
0.0
 45
0.0
 49
1.5
 74
     4
 75
     0
340
0
 46
1.0
 50
0.0
 44
0.0
 45
0.0
 49
-1.5
 74
     4
 75
     0
340
0
 46
1.0
 50
0.0
 44
0.0
 45
0.0
  0
ENDTAB
  0
TABLE
  2
LAYER
  5
15
102
{ACAD_XDICTIONARY
360
8E1
102
}
330
0
100
AcDbSymbolTable
 70
     5
  0
LAYER
  5
6
330
15
100
AcDbSymbolTableRecord
100
AcDbLayerTableRecord
  2
0
 70
     0
 62
     7
  6
CONTINUOUS
  0
LAYER
  5
34
330
15
100
AcDbSymbolTableRecord
100
AcDbLayerTableRecord
  2
L-ZISSEN
 70
     0
 62
     7
  6
CONTINUOUS
  0
LAYER
  5
31
330
15
100
AcDbSymbolTableRecord
100
AcDbLayerTableRecord
  2
L-TYUSIN
 70
     0
 62
     1
  6
CENTER
  0
LAYER
  5
26
330
15
100
AcDbSymbolTableRecord
100
AcDbLayerTableRecord
  2
SUNPOU
 70
     0
 62
     3
  6
CONTINUOUS
  0
LAYER
  5
A349
330
15
100
AcDbSymbolTableRecord
100
AcDbLayerTableRecord
  2
L-SOUZOU
 70
     0
 62
     2
  6
PHANTOM
  0
ENDTAB
  0
TABLE
  2
STYLE
  5
16
330
0
100
AcDbSymbolTable
 70
     1
  0
STYLE
  5
17
330
16
100
AcDbSymbolTableRecord
100
AcDbTextStyleTableRecord
  2
STANDARD
 70
     0
 40
0.0
 41
1.0
 50
0.0
 71
     0
 42
5.599999999999999
  3
txt.shx
  4

  0
ENDTAB
  0
TABLE
  2
VIEW
  5
1C
330
0
100
AcDbSymbolTable
 70
     0
  0
ENDTAB
  0
TABLE
  2
UCS
  5
1D
330
0
100
AcDbSymbolTable
 70
     0
  0
ENDTAB
  0
TABLE
  2
APPID
  5
20
330
0
100
AcDbSymbolTable
 70
     1
  0
APPID
  5
A
330
20
100
AcDbSymbolTableRecord
100
AcDbRegAppTableRecord
  2
ACAD
 70
     0
  0
ENDTAB
  0
TABLE
  2
DIMSTYLE
  5
21
330
0
100
AcDbSymbolTable
 70
     1
  0
DIMSTYLE
105
28
330
21
100
AcDbSymbolTableRecord
100
AcDbDimStyleTableRecord
  2
STANDARD
 70
     0
  3

  4

  5

  6

  7

 40
1.0
 41
0.18
 42
0.0625
 43
0.38
 44
0.18
 45
0.0
 46
0.0
 47
0.0
 48
0.0
140
0.18
141
0.09
142
0.0
143
25.4
144
1.0
145
0.0
146
1.0
147
0.09
 71
     0
 72
     0
 73
     1
 74
     1
 75
     0
 76
     0
 77
     0
 78
     0
170
     0
171
     2
172
     0
173
     0
174
     0
175
     0
176
     0
177
     0
178
     0
270
     2
271
     4
272
     4
273
     2
274
     2
340
17
275
     0
280
     0
281
     0
282
     0
283
     1
284
     0
285
     0
286
     0
287
     3
288
     0
  0
ENDTAB
  0
TABLE
  2
BLOCK_RECORD
  5
1
330
0
100
AcDbSymbolTable
 70
     0
  0
BLOCK_RECORD
  5
2
102
{ACAD_XDICTIONARY
360
3
102
}
330
1
100
AcDbSymbolTableRecord
100
AcDbBlockTableRecord
  2
*MODEL_SPACE
  0
BLOCK_RECORD
  5
F
102
{ACAD_XDICTIONARY
360
10
102
}
330
1
100
AcDbSymbolTableRecord
100
AcDbBlockTableRecord
  2
*PAPER_SPACE
  0
ENDTAB
  0
ENDSEC
  0
SECTION
  2
BLOCKS
  0
BLOCK
  5
5
330
2
100
AcDbEntity
  8
0
100
AcDbBlockBegin
  2
*MODEL_SPACE
 70
     0
 10
0.0
 20
0.0
 30
0.0
  3
*MODEL_SPACE
  1

  0
ENDBLK
  5
C
330
2
100
AcDbEntity
  8
0
100
AcDbBlockEnd
  0
BLOCK
  5
12
330
F
100
AcDbEntity
 67
     1
  8
0
100
AcDbBlockBegin
  2
*PAPER_SPACE
 70
     0
 10
0.0
 20
0.0
 30
0.0
  3
*PAPER_SPACE
  1

  0
ENDBLK
  5
13
330
F
100
AcDbEntity
 67
     1
  8
0
100
AcDbBlockEnd
  0
ENDSEC
  0
SECTION
  2
ENTITIES
  0
LINE
  5
A9BB
330
2
100
AcDbEntity
  8
L-TYUSIN
100
AcDbLine
 10
1417.723908997821
 20
-2717.915977319335
 30
0.0
 11
1417.723908997821
 21
-2864.915977319335
 31
0.0
  0
LINE
  5
A9BC
330
2
100
AcDbEntity
  8
L-ZISSEN
100
AcDbLine
 10
1436.769837569259
 20
-2775.450176104405
 30
0.0
 11
1436.769837569259
 21
-2827.719338987292
 31
0.0
  0
LINE
  5
A9BD
330
2
100
AcDbEntity
  8
L-ZISSEN
100
AcDbLine
 10
1430.387123283544
 20
-2775.450176104405
 30
0.0
 11
1430.387123283544
 21
-2827.719338987293
 31
0.0
  0
LINE
  5
A9BE
330
2
100
AcDbEntity
  8
L-ZISSEN
100
AcDbLine
 10
1404.87140899783
 20
-2775.450176104405
 30
0.0
 11
1404.87140899783
 21
-2827.719338987292
 31
0.0
  0
LINE
  5
A9BF
330
2
100
AcDbEntity
  8
L-ZISSEN
100
AcDbLine
 10
1398.488694712114
 20
-2775.450176104405
 30
0.0
 11
1398.488694712114
 21
-2827.719338987292
 31
0.0
  0
LINE
  5
A9C0
330
2
100
AcDbEntity
  8
L-ZISSEN
100
AcDbLine
 10
1439.913841728426
 20
-2836.865520141904
 30
0.0
 11
1439.913841728426
 21
-2768.915977319335
 31
0.0
  0
LINE
  5
A9C1
330
2
100
AcDbEntity
  8
L-ZISSEN
100
AcDbLine
 10
1395.095600832426
 20
-2768.915977319335
 30
0.0
 11
1395.095600832426
 21
-2836.865520141904
 31
0.0
  0
LINE
  5
A9C2
330
2
100
AcDbEntity
  8
L-ZISSEN
100
AcDbLine
 10
1286.951132278744
 20
-2775.262273519714
 30
0.0
 11
1286.951132278742
 21
-2827.719338987292
 31
0.0
  0
LINE
  5
A9C3
330
2
100
AcDbEntity
  8
L-ZISSEN
100
AcDbLine
 10
1290.524846564456
 20
-2836.865520141904
 30
0.0
 11
1290.524846564457
 21
-2785.17573104632
 31
0.0
  0
LINE
  5
A9C4
330
2
100
AcDbEntity
  8
L-ZISSEN
100
AcDbLine
 10
1280.568417993028
 20
-2775.262273519714
 30
0.0
 11
1280.568417993028
 21
-2827.719338987292
 31
0.0
  0
LINE
  5
A9C5
330
2
100
AcDbEntity
  8
L-ZISSEN
100
AcDbLine
 10
1248.669989421599
 20
-2775.262273519714
 30
0.0
 11
1248.669989421599
 21
-2827.719338987292
 31
0.0
  0
LINE
  5
A9C6
330
2
100
AcDbEntity
  8
L-ZISSEN
100
AcDbLine
 10
1255.052703707316
 20
-2775.262273519714
 30
0.0
 11
1255.052703707316
 21
-2827.719338987292
 31
0.0
  0
LINE
  5
A9C7
330
2
100
AcDbEntity
  8
L-ZISSEN
100
AcDbLine
 10
1245.096275135886
 20
-2836.865520141904
 30
0.0
 11
1245.096275135886
 21
-2768.915977319335
 31
0.0
  0
LINE
  5
A9C8
330
2
100
AcDbEntity
  8
L-TYUSIN
100
AcDbLine
 10
1267.723908997821
 20
-2717.915977319335
 30
0.0
 11
1267.723908997821
 21
-2864.915977319335
 31
0.0
  0
LINE
  5
A9C9
330
2
100
AcDbEntity
  8
L-ZISSEN
100
AcDbLine
 10
1268.723908997822
 20
-2849.857142729826
 30
0.0
 11
1268.723908997822
 21
-2859.915977319335
 31
0.0
  0
LINE
  5
A9CA
330
2
100
AcDbEntity
  8
L-ZISSEN
100
AcDbLine
 10
1267.723908997823
 20
-2849.857142729826
 30
0.0
 11
1267.723908997823
 21
-2859.915977319335
 31
0.0
  0
LINE
  5
A9CB
330
2
100
AcDbEntity
  8
L-ZISSEN
100
AcDbLine
 10
1266.723908997822
 20
-2849.857142729826
 30
0.0
 11
1266.723908997822
 21
-2859.915977319335
 31
0.0
  0
LINE
  5
A9CC
330
2
100
AcDbEntity
  8
L-ZISSEN
100
AcDbLine
 10
1265.723908997823
 20
-2849.857142729826
 30
0.0
 11
1265.723908997823
 21
-2859.915977319335
 31
0.0
  0
LINE
  5
A9CD
330
2
100
AcDbEntity
  8
L-ZISSEN
100
AcDbLine
 10
1264.723908997821
 20
-2849.857142729826
 30
0.0
 11
1264.723908997821
 21
-2859.915977319335
 31
0.0
  0
LINE
  5
A9CE
330
2
100
AcDbEntity
  8
L-ZISSEN
100
AcDbLine
 10
1273.72390899782
 20
-2850.357142729826
 30
0.0
 11
1273.72390899782
 21
-2859.615977319335
 31
0.0
  0
LINE
  5
A9CF
330
2
100
AcDbEntity
  8
L-ZISSEN
100
AcDbLine
 10
1272.723908997823
 20
-2849.857142729826
 30
0.0
 11
1272.723908997825
 21
-2859.915977319335
 31
0.0
  0
LINE
  5
A9D0
330
2
100
AcDbEntity
  8
L-ZISSEN
100
AcDbLine
 10
1271.723908997824
 20
-2849.857142729826
 30
0.0
 11
1271.723908997824
 21
-2859.915977319335
 31
0.0
  0
LINE
  5
A9D1
330
2
100
AcDbEntity
  8
L-ZISSEN
100
AcDbLine
 10
1270.72390899782
 20
-2849.857142729826
 30
0.0
 11
1270.72390899782
 21
-2859.915977319335
 31
0.0
  0
LINE
  5
A9D2
330
2
100
AcDbEntity
  8
L-ZISSEN
100
AcDbLine
 10
1269.723908997821
 20
-2849.857142729826
 30
0.0
 11
1269.723908997821
 21
-2859.915977319335
 31
0.0
  0
LINE
  5
A9D3
330
2
100
AcDbEntity
  8
L-ZISSEN
100
AcDbLine
 10
1263.72390899782
 20
-2849.857142729826
 30
0.0
 11
1263.72390899782
 21
-2859.915977319335
 31
0.0
  0
LINE
  5
A9D4
330
2
100
AcDbEntity
  8
L-ZISSEN
100
AcDbLine
 10
1262.723908997821
 20
-2849.857142729826
 30
0.0
 11
1262.723908997821
 21
-2859.915977319335
 31
0.0
  0
LINE
  5
A9D5
330
2
100
AcDbEntity
  8
L-ZISSEN
100
AcDbLine
 10
1261.723908997821
 20
-2859.615977319335
 30
0.0
 11
1261.723908997822
 21
-2850.357142729826
 31
0.0
  0
LINE
  5
A9D6
330
2
100
AcDbEntity
  8
L-ZISSEN
100
AcDbLine
 10
1273.42390899782
 20
-2859.915977319335
 30
0.0
 11
1262.023908997822
 21
-2859.915977319335
 31
0.0
  0
LINE
  5
A9D7
330
2
100
AcDbEntity
  8
L-ZISSEN
100
AcDbLine
 10
1262.023908997822
 20
-2859.915977319335
 30
0.0
 11
1261.723908997822
 21
-2859.615977319336
 31
0.0
  0
LINE
  5
A9D8
330
2
100
AcDbEntity
  8
L-ZISSEN
100
AcDbLine
 10
1273.42390899782
 20
-2859.915977319335
 30
0.0
 11
1273.72390899782
 21
-2859.615977319336
 31
0.0
  0
LINE
  5
A9D9
330
2
100
AcDbEntity
  8
L-ZISSEN
100
AcDbLine
 10
1262.223908997819
 20
-2849.857142729826
 30
0.0
 11
1270.72390899782
 21
-2849.857142729826
 31
0.0
  0
LINE
  5
A9DA
330
2
100
AcDbEntity
  8
L-ZISSEN
100
AcDbLine
 10
1274.624846564458
 20
-2844.62794973178
 30
0.0
 11
1260.806989421599
 21
-2844.62794973178
 31
0.0
  0
LINE
  5
A9DB
330
2
100
AcDbEntity
  8
L-ZISSEN
100
AcDbLine
 10
1262.889132278743
 20
-2845.539248131883
 30
0.0
 11
1273.867703707315
 21
-2845.539248131883
 31
0.0
  0
LINE
  5
A9DC
330
2
100
AcDbEntity
  8
L-ZISSEN
100
AcDbLine
 10
1272.353417993026
 20
-2845.539248131883
 30
0.0
 11
1260.996275135883
 21
-2845.539248131883
 31
0.0
  0
LINE
  5
A9DD
330
2
100
AcDbEntity
  8
L-ZISSEN
100
AcDbLine
 10
1262.5224978147
 20
-2845.645587937169
 30
0.0
 11
1272.258775135885
 21
-2845.645587937169
 31
0.0
  0
ARC
  5
A9DE
330
2
100
AcDbEntity
  8
L-ZISSEN
100
AcDbCircle
 10
1267.715917993029
 20
-2861.273821104564
 30
0.0
 40
15.62823316739393
100
AcDbArc
 50
77.5055804815364
 51
102.6763186877795
  0
ARC
  5
A9DF
330
2
100
AcDbEntity
  8
L-ZISSEN
100
AcDbCircle
 10
1267.715917993029
 20
-2832.288783341205
 30
0.0
 40
15.62823316739414
100
AcDbArc
 50
257.3236813122204
 51
282.4944195184635
  0
LINE
  5
A9E0
330
2
100
AcDbEntity
  8
L-ZISSEN
100
AcDbLine
 10
1267.715917993029
 20
-2847.917016508599
 30
0.0
 11
1272.890968962908
 21
-2847.917016508599
 31
0.0
  0
LINE
  5
A9E1
330
2
100
AcDbEntity
  8
L-ZISSEN
100
AcDbLine
 10
1262.723908997823
 20
-2847.916673930463
 30
0.0
 11
1262.723908997819
 21
-2849.857142729826
 31
0.0
  0
LINE
  5
A9E2
330
2
100
AcDbEntity
  8
L-ZISSEN
100
AcDbLine
 10
1262.223908997822
 20
-2849.357142729827
 30
0.0
 11
1262.223908997822
 21
-2847.915977319335
 31
0.0
  0
LINE
  5
A9E3
330
2
100
AcDbEntity
  8
L-ZISSEN
100
AcDbLine
 10
1262.723908997819
 20
-2849.857142729826
 30
0.0
 11
1262.223908997822
 21
-2849.357142729827
 31
0.0
  0
LINE
  5
A9E4
330
2
100
AcDbEntity
  8
L-ZISSEN
100
AcDbLine
 10
1262.223908997819
 20
-2849.857142729826
 30
0.0
 11
1261.723908997822
 21
-2850.357142729826
 31
0.0
  0
LINE
  5
A9E5
330
2
100
AcDbEntity
  8
L-ZISSEN
100
AcDbLine
 10
1262.522497814714
 20
-2847.917016508599
 30
0.0
 11
1267.715917993029
 21
-2847.917016508599
 31
0.0
  0
ARC
  5
A9E6
330
2
100
AcDbEntity
  8
L-ZISSEN
100
AcDbCircle
 10
1262.58376474053
 20
-2843.926336795109
 30
0.0
 40
3.991149986138101
100
AcDbArc
 50
245.0771192747787
 51
295.2523389966543
  0
ARC
  5
A9E7
330
2
100
AcDbEntity
  8
L-ZISSEN
100
AcDbCircle
 10
1262.58376474053
 20
-2849.636267650658
 30
0.0
 40
3.991149986138121
100
AcDbArc
 50
64.7476610033456
 51
114.9228807252212
  0
LINE
  5
A9E8
330
2
100
AcDbEntity
  8
L-ZISSEN
100
AcDbLine
 10
1260.901902109249
 20
-2846.016790298698
 30
0.0
 11
1260.901902109249
 21
-2847.545814147069
 31
0.0
  0
LINE
  5
A9E9
330
2
100
AcDbEntity
  8
L-ZISSEN
100
AcDbLine
 10
1260.996275135883
 20
-2845.539248131883
 30
0.0
 11
1260.996275135883
 21
-2844.62794973178
 31
0.0
  0
LINE
  5
A9EA
330
2
100
AcDbEntity
  8
L-ZISSEN
100
AcDbLine
 10
1261.753417993028
 20
-2845.539248131883
 30
0.0
 11
1262.889132278743
 21
-2845.539248131883
 31
0.0
  0
LINE
  5
A9EB
330
2
100
AcDbEntity
  8
L-ZISSEN
100
AcDbLine
 10
1264.286411923674
 20
-2846.026521013902
 30
0.0
 11
1264.286411923677
 21
-2847.536083431867
 31
0.0
  0
LINE
  5
A9EC
330
2
100
AcDbEntity
  8
L-ZISSEN
100
AcDbLine
 10
1265.206609673029
 20
-2845.539248131883
 30
0.0
 11
1264.338625947315
 21
-2845.539248131883
 31
0.0
  0
LINE
  5
A9ED
330
2
100
AcDbEntity
  8
L-ZISSEN
100
AcDbLine
 10
1265.4444894216
 20
-2845.645587937169
 30
0.0
 11
1265.4444894216
 21
-2845.539248131883
 31
0.0
  0
LINE
  5
A9EE
330
2
100
AcDbEntity
  8
L-ZISSEN
100
AcDbLine
 10
1269.987346564455
 20
-2845.645587937169
 30
0.0
 11
1269.987346564455
 21
-2845.539248131883
 31
0.0
  0
LINE
  5
A9EF
330
2
100
AcDbEntity
  8
L-ZISSEN
100
AcDbLine
 10
1251.861346564456
 20
-2829.233624701578
 30
0.0
 11
1248.669989421599
 21
-2827.719338987292
 31
0.0
  0
ARC
  5
A9F0
330
2
100
AcDbEntity
  8
L-ZISSEN
100
AcDbCircle
 10
1251.153417993029
 20
-2836.865520141904
 30
0.0
 40
6.057142857143116
100
AcDbArc
 50
180.0
 51
256.0937629349095
  0
LINE
  5
A9F1
330
2
100
AcDbEntity
  8
L-ZISSEN
100
AcDbLine
 10
1255.052703707316
 20
-2827.719338987292
 30
0.0
 11
1251.861346564456
 21
-2829.233624701578
 31
0.0
  0
ARC
  5
A9F2
330
2
100
AcDbEntity
  8
L-ZISSEN
100
AcDbCircle
 10
1267.810560850172
 20
-2769.588535261191
 30
0.0
 40
75.36553414422357
100
AcDbArc
 50
256.0937629349095
 51
264.6679223051352
  0
LINE
  5
A9F3
330
2
100
AcDbEntity
  8
L-ZISSEN
100
AcDbLine
 10
1283.759775135885
 20
-2829.233624701578
 30
0.0
 11
1286.951132278742
 21
-2827.719338987292
 31
0.0
  0
LINE
  5
A9F4
330
2
100
AcDbEntity
  8
L-ZISSEN
100
AcDbLine
 10
1280.568417993028
 20
-2827.719338987292
 30
0.0
 11
1283.759775135885
 21
-2829.233624701578
 31
0.0
  0
ARC
  5
A9F5
330
2
100
AcDbEntity
  8
L-ZISSEN
100
AcDbCircle
 10
1267.810560850172
 20
-2769.588535261191
 30
0.0
 40
75.36553414422328
100
AcDbArc
 50
275.3320776948647
 51
283.9062370650903
  0
LINE
  5
A9F6
330
2
100
AcDbEntity
  8
L-ZISSEN
100
AcDbLine
 10
1272.723908997824
 20
-2847.917323581757
 30
0.0
 11
1272.72390899782
 21
-2849.857142729826
 31
0.0
  0
LINE
  5
A9F7
330
2
100
AcDbEntity
  8
L-ZISSEN
100
AcDbLine
 10
1273.22390899782
 20
-2849.357142729827
 30
0.0
 11
1273.22390899782
 21
-2847.915977319335
 31
0.0
  0
LINE
  5
A9F8
330
2
100
AcDbEntity
  8
L-ZISSEN
100
AcDbLine
 10
1272.72390899782
 20
-2849.857142729826
 30
0.0
 11
1273.22390899782
 21
-2849.357142729827
 31
0.0
  0
LINE
  5
A9F9
330
2
100
AcDbEntity
  8
L-ZISSEN
100
AcDbLine
 10
1270.72390899782
 20
-2849.857142729826
 30
0.0
 11
1273.22390899782
 21
-2849.857142729826
 31
0.0
  0
LINE
  5
A9FA
330
2
100
AcDbEntity
  8
L-ZISSEN
100
AcDbLine
 10
1273.22390899782
 20
-2849.857142729826
 30
0.0
 11
1273.72390899782
 21
-2850.357142729826
 31
0.0
  0
LINE
  5
A9FB
330
2
100
AcDbEntity
  8
L-ZISSEN
100
AcDbLine
 10
1274.530203707313
 20
-2845.539248131883
 30
0.0
 11
1272.258775135885
 21
-2845.539248131883
 31
0.0
  0
ARC
  5
A9FC
330
2
100
AcDbEntity
  8
L-ZISSEN
100
AcDbCircle
 10
1272.798404524169
 20
-2843.92694006365
 30
0.0
 40
3.991149986138198
100
AcDbArc
 50
244.7408933166168
 51
295.7116451148261
  0
ARC
  5
A9FD
330
2
100
AcDbEntity
  8
L-ZISSEN
100
AcDbCircle
 10
1272.798404524169
 20
-2849.635664382118
 30
0.0
 40
3.991149986138392
100
AcDbArc
 50
64.28835488517385
 51
115.2591066833831
  0
LINE
  5
A9FE
330
2
100
AcDbEntity
  8
L-ZISSEN
100
AcDbLine
 10
1272.258775135885
 20
-2845.645587937169
 30
0.0
 11
1272.890968962915
 21
-2845.645587937169
 31
0.0
  0
LINE
  5
A9FF
330
2
100
AcDbEntity
  8
L-ZISSEN
100
AcDbLine
 10
1271.095330975342
 20
-2846.026118884532
 30
0.0
 11
1271.095330975342
 21
-2847.536485561235
 31
0.0
  0
LINE
  5
AA00
330
2
100
AcDbEntity
  8
L-ZISSEN
100
AcDbLine
 10
1270.414512027315
 20
-2845.539248131883
 30
0.0
 11
1271.282495753028
 21
-2845.539248131883
 31
0.0
  0
LINE
  5
AA01
330
2
100
AcDbEntity
  8
L-ZISSEN
100
AcDbLine
 10
1274.529933876807
 20
-2846.039682692398
 30
0.0
 11
1274.529933876807
 21
-2847.52292175337
 31
0.0
  0
LINE
  5
AA02
330
2
100
AcDbEntity
  8
L-ZISSEN
100
AcDbLine
 10
1274.530203707313
 20
-2845.539248131883
 30
0.0
 11
1274.530203707313
 21
-2844.62794973178
 31
0.0
  0
LINE
  5
AA03
330
2
100
AcDbEntity
  8
L-ZISSEN
100
AcDbLine
 10
1274.814132278743
 20
-2844.62794973178
 30
0.0
 11
1274.624846564458
 21
-2844.62794973178
 31
0.0
  0
ARC
  5
AA04
330
2
100
AcDbEntity
  8
L-ZISSEN
100
AcDbCircle
 10
1284.467703707313
 20
-2836.865520141904
 30
0.0
 40
6.057142857142703
100
AcDbArc
 50
283.9062370650903
 51
0.0
  0
LINE
  5
AA05
330
2
100
AcDbEntity
  8
L-ZISSEN
100
AcDbLine
 10
1418.731900002614
 20
-2849.857142729826
 30
0.0
 11
1418.731900002614
 21
-2859.915977319335
 31
0.0
  0
LINE
  5
AA06
330
2
100
AcDbEntity
  8
L-ZISSEN
100
AcDbLine
 10
1417.731900002615
 20
-2849.857142729826
 30
0.0
 11
1417.731900002615
 21
-2859.915977319335
 31
0.0
  0
LINE
  5
AA07
330
2
100
AcDbEntity
  8
L-ZISSEN
100
AcDbLine
 10
1416.731900002613
 20
-2849.857142729826
 30
0.0
 11
1416.731900002613
 21
-2859.915977319335
 31
0.0
  0
LINE
  5
AA08
330
2
100
AcDbEntity
  8
L-ZISSEN
100
AcDbLine
 10
1415.731900002614
 20
-2849.857142729826
 30
0.0
 11
1415.731900002614
 21
-2859.915977319335
 31
0.0
  0
LINE
  5
AA09
330
2
100
AcDbEntity
  8
L-ZISSEN
100
AcDbLine
 10
1414.731900002613
 20
-2849.857142729826
 30
0.0
 11
1414.731900002613
 21
-2859.915977319335
 31
0.0
  0
LINE
  5
AA0A
330
2
100
AcDbEntity
  8
L-ZISSEN
100
AcDbLine
 10
1413.731900002612
 20
-2849.857142729826
 30
0.0
 11
1413.731900002612
 21
-2859.915977319335
 31
0.0
  0
LINE
  5
AA0B
330
2
100
AcDbEntity
  8
L-ZISSEN
100
AcDbLine
 10
1412.731900002612
 20
-2849.857142729826
 30
0.0
 11
1412.731900002612
 21
-2859.915977319335
 31
0.0
  0
LINE
  5
AA0C
330
2
100
AcDbEntity
  8
L-ZISSEN
100
AcDbLine
 10
1411.731900002613
 20
-2859.615977319335
 30
0.0
 11
1411.731900002613
 21
-2850.357142729826
 31
0.0
  0
LINE
  5
AA0D
330
2
100
AcDbEntity
  8
L-ZISSEN
100
AcDbLine
 10
1423.731900002612
 20
-2850.357142729826
 30
0.0
 11
1423.731900002612
 21
-2859.615977319335
 31
0.0
  0
LINE
  5
AA0E
330
2
100
AcDbEntity
  8
L-ZISSEN
100
AcDbLine
 10
1422.731900002615
 20
-2849.857142729826
 30
0.0
 11
1422.731900002617
 21
-2859.915977319335
 31
0.0
  0
LINE
  5
AA0F
330
2
100
AcDbEntity
  8
L-ZISSEN
100
AcDbLine
 10
1421.731900002616
 20
-2849.857142729826
 30
0.0
 11
1421.731900002616
 21
-2859.915977319335
 31
0.0
  0
LINE
  5
AA10
330
2
100
AcDbEntity
  8
L-ZISSEN
100
AcDbLine
 10
1420.731900002612
 20
-2849.857142729826
 30
0.0
 11
1420.731900002612
 21
-2859.915977319335
 31
0.0
  0
LINE
  5
AA11
330
2
100
AcDbEntity
  8
L-ZISSEN
100
AcDbLine
 10
1419.731900002613
 20
-2849.857142729826
 30
0.0
 11
1419.731900002613
 21
-2859.915977319335
 31
0.0
  0
LINE
  5
AA12
330
2
100
AcDbEntity
  8
L-ZISSEN
100
AcDbLine
 10
1412.031900002613
 20
-2859.915977319335
 30
0.0
 11
1411.731900002613
 21
-2859.615977319336
 31
0.0
  0
LINE
  5
AA13
330
2
100
AcDbEntity
  8
L-ZISSEN
100
AcDbLine
 10
1423.431900002612
 20
-2859.915977319335
 30
0.0
 11
1423.731900002612
 21
-2859.615977319336
 31
0.0
  0
LINE
  5
AA14
330
2
100
AcDbEntity
  8
L-ZISSEN
100
AcDbLine
 10
1423.431900002612
 20
-2859.915977319335
 30
0.0
 11
1412.031900002613
 21
-2859.915977319335
 31
0.0
  0
ARC
  5
AA15
330
2
100
AcDbEntity
  8
L-ZISSEN
100
AcDbCircle
 10
1417.809886546712
 20
-2769.588535261191
 30
0.0
 40
75.36553414422333
100
AcDbArc
 50
256.0937629349095
 51
264.6679223051352
  0
ARC
  5
AA16
330
2
100
AcDbEntity
  8
L-ZISSEN
100
AcDbCircle
 10
1401.152743689569
 20
-2836.865520141904
 30
0.0
 40
6.057142857143803
100
AcDbArc
 50
180.0
 51
256.0937629349095
  0
LINE
  5
AA17
330
2
100
AcDbEntity
  8
L-ZISSEN
100
AcDbLine
 10
1404.87140899783
 20
-2827.719338987292
 30
0.0
 11
1401.680051854969
 21
-2829.233624701577
 31
0.0
  0
LINE
  5
AA18
330
2
100
AcDbEntity
  8
L-ZISSEN
100
AcDbLine
 10
1401.680051854969
 20
-2829.233624701577
 30
0.0
 11
1398.488694712114
 21
-2827.719338987292
 31
0.0
  0
ARC
  5
AA19
330
2
100
AcDbEntity
  8
L-ZISSEN
100
AcDbCircle
 10
1433.856698871283
 20
-2836.865520141904
 30
0.0
 40
6.057142857142908
100
AcDbArc
 50
283.9062370650903
 51
0.0
  0
LINE
  5
AA1A
330
2
100
AcDbEntity
  8
L-ZISSEN
100
AcDbLine
 10
1430.387123283544
 20
-2827.719338987292
 30
0.0
 11
1433.5784804264
 21
-2829.233624701577
 31
0.0
  0
LINE
  5
AA1B
330
2
100
AcDbEntity
  8
L-ZISSEN
100
AcDbLine
 10
1433.5784804264
 20
-2829.233624701577
 30
0.0
 11
1436.769837569259
 21
-2827.719338987292
 31
0.0
  0
LINE
  5
AA1C
330
2
100
AcDbEntity
  8
L-ZISSEN
100
AcDbLine
 10
1412.731900002615
 20
-2847.916673930463
 30
0.0
 11
1412.731900002611
 21
-2849.857142729826
 31
0.0
  0
LINE
  5
AA1D
330
2
100
AcDbEntity
  8
L-ZISSEN
100
AcDbLine
 10
1412.231900002613
 20
-2849.357142729827
 30
0.0
 11
1412.231900002613
 21
-2847.915977319335
 31
0.0
  0
LINE
  5
AA1E
330
2
100
AcDbEntity
  8
L-ZISSEN
100
AcDbLine
 10
1412.731900002611
 20
-2849.857142729826
 30
0.0
 11
1412.231900002613
 21
-2849.357142729827
 31
0.0
  0
LINE
  5
AA1F
330
2
100
AcDbEntity
  8
L-ZISSEN
100
AcDbLine
 10
1412.231900002611
 20
-2849.857142729826
 30
0.0
 11
1411.731900002613
 21
-2850.357142729826
 31
0.0
  0
LINE
  5
AA20
330
2
100
AcDbEntity
  8
L-ZISSEN
100
AcDbLine
 10
1422.731900002616
 20
-2847.917323581757
 30
0.0
 11
1422.731900002612
 21
-2849.857142729826
 31
0.0
  0
LINE
  5
AA21
330
2
100
AcDbEntity
  8
L-ZISSEN
100
AcDbLine
 10
1422.731900002612
 20
-2849.857142729826
 30
0.0
 11
1423.231900002611
 21
-2849.357142729827
 31
0.0
  0
LINE
  5
AA22
330
2
100
AcDbEntity
  8
L-ZISSEN
100
AcDbLine
 10
1420.731900002612
 20
-2849.857142729826
 30
0.0
 11
1423.231900002612
 21
-2849.857142729826
 31
0.0
  0
LINE
  5
AA23
330
2
100
AcDbEntity
  8
L-ZISSEN
100
AcDbLine
 10
1423.231900002612
 20
-2849.857142729826
 30
0.0
 11
1423.731900002612
 21
-2850.357142729826
 31
0.0
  0
LINE
  5
AA24
330
2
100
AcDbEntity
  8
L-ZISSEN
100
AcDbLine
 10
1423.231900002611
 20
-2849.357142729827
 30
0.0
 11
1423.231900002611
 21
-2847.915977319335
 31
0.0
  0
LINE
  5
AA25
330
2
100
AcDbEntity
  8
L-ZISSEN
100
AcDbLine
 10
1412.231900002611
 20
-2849.857142729826
 30
0.0
 11
1420.731900002612
 21
-2849.857142729826
 31
0.0
  0
LINE
  5
AA26
330
2
100
AcDbEntity
  8
L-ZISSEN
100
AcDbLine
 10
1424.537924881598
 20
-2846.039682692399
 30
0.0
 11
1424.537924881598
 21
-2847.52292175337
 31
0.0
  0
LINE
  5
AA27
330
2
100
AcDbEntity
  8
L-ZISSEN
100
AcDbLine
 10
1421.103321980133
 20
-2846.026118884532
 30
0.0
 11
1421.103321980133
 21
-2847.536485561236
 31
0.0
  0
LINE
  5
AA28
330
2
100
AcDbEntity
  8
L-ZISSEN
100
AcDbLine
 10
1414.294402928466
 20
-2846.026521013904
 30
0.0
 11
1414.294402928469
 21
-2847.536083431867
 31
0.0
  0
ARC
  5
AA29
330
2
100
AcDbEntity
  8
L-ZISSEN
100
AcDbCircle
 10
1422.806395528961
 20
-2843.926940063651
 30
0.0
 40
3.991149986138576
100
AcDbArc
 50
244.7408933166168
 51
295.7116451148261
  0
ARC
  5
AA2A
330
2
100
AcDbEntity
  8
L-ZISSEN
100
AcDbCircle
 10
1417.723908997821
 20
-2832.288783341205
 30
0.0
 40
15.62823316739414
100
AcDbArc
 50
257.3236813122204
 51
282.4944195184635
  0
LINE
  5
AA2B
330
2
100
AcDbEntity
  8
L-ZISSEN
100
AcDbLine
 10
1417.723908997821
 20
-2847.917016508599
 30
0.0
 11
1422.8989599677
 21
-2847.917016508599
 31
0.0
  0
LINE
  5
AA2C
330
2
100
AcDbEntity
  8
L-ZISSEN
100
AcDbLine
 10
1424.538194712109
 20
-2845.539248131883
 30
0.0
 11
1422.266766140678
 21
-2845.539248131883
 31
0.0
  0
LINE
  5
AA2D
330
2
100
AcDbEntity
  8
L-ZISSEN
100
AcDbLine
 10
1424.538194712109
 20
-2845.539248131883
 30
0.0
 11
1422.266766140678
 21
-2845.539248131883
 31
0.0
  0
ARC
  5
AA2E
330
2
100
AcDbEntity
  8
L-ZISSEN
100
AcDbCircle
 10
1422.806395528961
 20
-2849.635664382118
 30
0.0
 40
3.991149986138381
100
AcDbArc
 50
64.28835488517385
 51
115.2591066833831
  0
LINE
  5
AA2F
330
2
100
AcDbEntity
  8
L-ZISSEN
100
AcDbLine
 10
1419.99533756925
 20
-2845.64558793717
 30
0.0
 11
1419.99533756925
 21
-2845.539248131883
 31
0.0
  0
ARC
  5
AA30
330
2
100
AcDbEntity
  8
L-ZISSEN
100
AcDbCircle
 10
1417.723908997821
 20
-2861.273821104564
 30
0.0
 40
15.62823316739414
100
AcDbArc
 50
77.5055804815364
 51
102.6763186877795
  0
LINE
  5
AA31
330
2
100
AcDbEntity
  8
L-ZISSEN
100
AcDbLine
 10
1422.266766140678
 20
-2845.64558793717
 30
0.0
 11
1422.898959967707
 21
-2845.64558793717
 31
0.0
  0
LINE
  5
AA32
330
2
100
AcDbEntity
  8
L-ZISSEN
100
AcDbLine
 10
1424.72748042638
 20
-2844.627949731782
 30
0.0
 11
1424.538194712109
 21
-2844.62794973178
 31
0.0
  0
LINE
  5
AA33
330
2
100
AcDbEntity
  8
L-ZISSEN
100
AcDbLine
 10
1424.538194712109
 20
-2845.539248131883
 30
0.0
 11
1424.538194712109
 21
-2844.62794973178
 31
0.0
  0
LINE
  5
AA34
330
2
100
AcDbEntity
  8
L-ZISSEN
100
AcDbLine
 10
1424.538194712109
 20
-2845.539248131883
 30
0.0
 11
1424.538194712109
 21
-2844.62794973178
 31
0.0
  0
LINE
  5
AA35
330
2
100
AcDbEntity
  8
L-ZISSEN
100
AcDbLine
 10
1410.909893114044
 20
-2846.016790298699
 30
0.0
 11
1410.909893114044
 21
-2847.545814147071
 31
0.0
  0
LINE
  5
AA36
330
2
100
AcDbEntity
  8
L-ZISSEN
100
AcDbLine
 10
1410.909623283535
 20
-2845.539248131883
 30
0.0
 11
1410.909623283535
 21
-2844.62794973178
 31
0.0
  0
LINE
  5
AA37
330
2
100
AcDbEntity
  8
L-ZISSEN
100
AcDbLine
 10
1410.909623283535
 20
-2845.539248131883
 30
0.0
 11
1410.909623283535
 21
-2844.62794973178
 31
0.0
  0
ARC
  5
AA38
330
2
100
AcDbEntity
  8
L-ZISSEN
100
AcDbCircle
 10
1412.591755745322
 20
-2843.92633679511
 30
0.0
 40
3.991149986138089
100
AcDbArc
 50
245.0771192748952
 51
295.2523389966543
  0
LINE
  5
AA39
330
2
100
AcDbEntity
  8
L-ZISSEN
100
AcDbLine
 10
1412.530488819506
 20
-2847.917016508599
 30
0.0
 11
1417.723908997821
 21
-2847.917016508599
 31
0.0
  0
LINE
  5
AA3A
330
2
100
AcDbEntity
  8
L-ZISSEN
100
AcDbLine
 10
1424.538194712109
 20
-2844.62794973178
 30
0.0
 11
1410.720337569263
 21
-2844.627949731782
 31
0.0
  0
ARC
  5
AA3B
330
2
100
AcDbEntity
  8
L-ZISSEN
100
AcDbCircle
 10
1412.591755745322
 20
-2849.636267650659
 30
0.0
 40
3.991149986137005
100
AcDbArc
 50
64.7476610033456
 51
114.9228807251047
  0
LINE
  5
AA3C
330
2
100
AcDbEntity
  8
L-ZISSEN
100
AcDbLine
 10
1422.266766140678
 20
-2845.539248131883
 30
0.0
 11
1410.909623283535
 21
-2845.539248131883
 31
0.0
  0
LINE
  5
AA3D
330
2
100
AcDbEntity
  8
L-ZISSEN
100
AcDbLine
 10
1422.266766140678
 20
-2845.539248131883
 30
0.0
 11
1410.909623283535
 21
-2845.539248131883
 31
0.0
  0
LINE
  5
AA3E
330
2
100
AcDbEntity
  8
L-ZISSEN
100
AcDbLine
 10
1412.530488819492
 20
-2845.64558793717
 30
0.0
 11
1422.266766140678
 21
-2845.64558793717
 31
0.0
  0
ARC
  5
AA3F
330
2
100
AcDbEntity
  8
L-ZISSEN
100
AcDbCircle
 10
1417.19955601414
 20
-2769.588535261191
 30
0.0
 40
75.36553414422368
100
AcDbArc
 50
275.3320776948647
 51
283.9062370650903
  0
LINE
  5
AA40
330
2
100
AcDbEntity
  8
L-SOUZOU
100
AcDbLine
 10
1249.723908997821
 20
-2749.115977319334
 30
0.0
 11
1231.523908997821
 21
-2749.115977319334
 31
0.0
  0
LINE
  5
AA41
330
2
100
AcDbEntity
  8
L-SOUZOU
100
AcDbLine
 10
1249.723908997821
 20
-2750.915977319335
 30
0.0
 11
1229.723908997821
 21
-2750.915977319335
 31
0.0
  0
LINE
  5
AA42
330
2
100
AcDbEntity
  8
L-SOUZOU
100
AcDbLine
 10
1231.523908997821
 20
-2749.115977319334
 30
0.0
 11
1231.523908997821
 21
-2709.415977319335
 31
0.0
  0
LINE
  5
AA43
330
2
100
AcDbEntity
  8
L-SOUZOU
100
AcDbLine
 10
1229.723908997821
 20
-2709.415977319335
 30
0.0
 11
1231.523908997821
 21
-2709.415977319335
 31
0.0
  0
LINE
  5
AA44
330
2
100
AcDbEntity
  8
L-TYUSIN
100
AcDbLine
 10
1227.223908997821
 20
-2716.665977319335
 30
0.0
 11
1234.023908997821
 21
-2716.665977319335
 31
0.0
  0
LINE
  5
AA45
330
2
100
AcDbEntity
  8
L-SOUZOU
100
AcDbLine
 10
1229.723908997821
 20
-2750.915977319335
 30
0.0
 11
1229.723908997821
 21
-2709.415977319335
 31
0.0
  0
LINE
  5
AA46
330
2
100
AcDbEntity
  8
L-ZISSEN
100
AcDbLine
 10
1282.723908997821
 20
-2768.915977319335
 30
0.0
 11
1282.723908997821
 21
-2732.915977319334
 31
0.0
  0
LINE
  5
AA47
330
2
100
AcDbEntity
  8
L-ZISSEN
100
AcDbLine
 10
1294.223908997821
 20
-2768.915977319335
 30
0.0
 11
1294.223908997821
 21
-2750.915977319335
 31
0.0
  0
LINE
  5
AA48
330
2
100
AcDbEntity
  8
L-ZISSEN
100
AcDbLine
 10
1252.723908997821
 20
-2768.915977319335
 30
0.0
 11
1252.723908997821
 21
-2732.915977319334
 31
0.0
  0
LINE
  5
AA49
330
2
100
AcDbEntity
  8
L-ZISSEN
100
AcDbLine
 10
1241.223908997821
 20
-2768.915977319335
 30
0.0
 11
1241.223908997821
 21
-2750.915977319335
 31
0.0
  0
LINE
  5
AA4A
330
2
100
AcDbEntity
  8
L-ZISSEN
100
AcDbLine
 10
1252.723908997821
 20
-2758.615977319335
 30
0.0
 11
1282.723908997821
 21
-2758.615977319335
 31
0.0
  0
LINE
  5
AA4B
330
2
100
AcDbEntity
  8
L-ZISSEN
100
AcDbLine
 10
1241.223908997821
 20
-2768.915977319335
 30
0.0
 11
1294.223908997821
 21
-2768.915977319335
 31
0.0
  0
LINE
  5
AA4C
330
2
100
AcDbEntity
  8
L-ZISSEN
100
AcDbLine
 10
1248.669989421599
 20
-2775.262273519714
 30
0.0
 11
1255.052703707316
 21
-2775.262273519714
 31
0.0
  0
LINE
  5
AA4D
330
2
100
AcDbEntity
  8
L-ZISSEN
100
AcDbLine
 10
1290.487667098045
 20
-2768.915977319335
 30
0.0
 11
1290.487667098044
 21
-2769.52283664632
 31
0.0
  0
LINE
  5
AA4E
330
2
100
AcDbEntity
  8
L-ZISSEN
100
AcDbLine
 10
1291.965803500437
 20
-2768.915977319335
 30
0.0
 11
1291.965803500437
 21
-2769.52283664632
 31
0.0
  0
LINE
  5
AA4F
330
2
100
AcDbEntity
  8
L-ZISSEN
100
AcDbLine
 10
1292.489587916551
 20
-2789.463521785597
 30
0.0
 11
1292.510594359754
 21
-2768.915977319335
 31
0.0
  0
LINE
  5
AA50
330
2
100
AcDbEntity
  8
L-ZISSEN
100
AcDbLine
 10
1297.062094700436
 20
-2788.050845071103
 30
0.0
 11
1293.057865900437
 21
-2789.463521785597
 31
0.0
  0
LINE
  5
AA51
330
2
100
AcDbEntity
  8
L-ZISSEN
100
AcDbLine
 10
1294.149928300437
 20
-2769.15881584632
 30
0.0
 11
1294.149928300437
 21
-2784.447689446319
 31
0.0
  0
LINE
  5
AA52
330
2
100
AcDbEntity
  8
L-ZISSEN
100
AcDbLine
 10
1294.149928300437
 20
-2784.447689446319
 30
0.0
 11
1297.062094700436
 21
-2784.931791830342
 31
0.0
  0
LINE
  5
AA53
330
2
100
AcDbEntity
  8
L-ZISSEN
100
AcDbLine
 10
1293.057865900437
 20
-2789.463521785597
 30
0.0
 11
1292.489587916551
 21
-2789.463521785597
 31
0.0
  0
LINE
  5
AA54
330
2
100
AcDbEntity
  8
L-ZISSEN
100
AcDbLine
 10
1297.062094700436
 20
-2784.931791830342
 30
0.0
 11
1297.062094700436
 21
-2788.050845071103
 31
0.0
  0
LINE
  5
AA55
330
2
100
AcDbEntity
  8
L-ZISSEN
100
AcDbLine
 10
1290.524846564458
 20
-2785.17573104632
 30
0.0
 11
1290.524846564458
 21
-2798.722538430515
 31
0.0
  0
LINE
  5
AA56
330
2
100
AcDbEntity
  8
L-ZISSEN
100
AcDbLine
 10
1292.489587916551
 20
-2785.17573104632
 30
0.0
 11
1290.509720300436
 21
-2785.17573104632
 31
0.0
  0
ARC
  5
AA57
330
2
100
AcDbEntity
  8
L-ZISSEN
100
AcDbCircle
 10
1280.221386337696
 20
-2785.769902390947
 30
0.0
 40
12.28258155137619
100
AcDbArc
 50
327.020737907156
 51
2.772772323679433
  0
LINE
  5
AA58
330
2
100
AcDbEntity
  8
L-ZISSEN
100
AcDbLine
 10
1291.965803500437
 20
-2769.52283664632
 30
0.0
 11
1290.145699500436
 21
-2769.52283664632
 31
0.0
  0
LINE
  5
AA59
330
2
100
AcDbEntity
  8
L-ZISSEN
100
AcDbLine
 10
1293.057865900437
 20
-2768.915977319335
 30
0.0
 11
1293.057865900437
 21
-2769.15881584632
 31
0.0
  0
LINE
  5
AA5A
330
2
100
AcDbEntity
  8
L-ZISSEN
100
AcDbLine
 10
1293.057865900437
 20
-2769.15881584632
 30
0.0
 11
1294.149928300437
 21
-2769.15881584632
 31
0.0
  0
LINE
  5
AA5B
330
2
100
AcDbEntity
  8
L-ZISSEN
100
AcDbLine
 10
1286.951132278744
 20
-2775.262273519714
 30
0.0
 11
1280.568417993028
 21
-2775.262273519714
 31
0.0
  0
LINE
  5
AA5C
330
2
100
AcDbEntity
  8
L-ZISSEN
100
AcDbLine
 10
1288.900234354786
 20
-2769.52283664632
 30
0.0
 11
1288.900234354786
 21
-2785.17573104632
 31
0.0
  0
LINE
  5
AA5D
330
2
100
AcDbEntity
  8
L-ZISSEN
100
AcDbLine
 10
1288.900234354786
 20
-2785.17573104632
 30
0.0
 11
1292.489587916551
 21
-2785.17573104632
 31
0.0
  0
LINE
  5
AA5E
330
2
100
AcDbEntity
  8
L-ZISSEN
100
AcDbLine
 10
1291.276023242574
 20
-2769.52283664632
 30
0.0
 11
1288.900234354786
 21
-2769.52283664632
 31
0.0
  0
LINE
  5
AA5F
330
2
100
AcDbEntity
  8
L-ZISSEN
100
AcDbLine
 10
1257.723908997821
 20
-2727.915977319335
 30
0.0
 11
1277.723908997821
 21
-2727.915977319335
 31
0.0
  0
CIRCLE
  5
AA60
330
2
100
AcDbEntity
  8
L-ZISSEN
100
AcDbCircle
 10
1267.723908997822
 20
-2741.915977319336
 30
0.0
 40
7.474999999999999
  0
LINE
  5
AA62
330
2
100
AcDbEntity
  8
L-ZISSEN
100
AcDbLine
 10
1258.259623283535
 20
-2727.915977319335
 30
0.0
 11
1277.188194712107
 21
-2727.915977319335
 31
0.0
  0
LINE
  5
AA63
330
2
100
AcDbEntity
  8
L-ZISSEN
100
AcDbLine
 10
1252.723908997821
 20
-2755.415977319334
 30
0.0
 11
1282.723908997821
 21
-2755.415977319335
 31
0.0
  0
LINE
  5
AA64
330
2
100
AcDbEntity
  8
L-TYUSIN
100
AcDbLine
 10
1286.054908997821
 20
-2741.915977319336
 30
0.0
 11
1249.392908997821
 21
-2741.915977319336
 31
0.0
  0
LINE
  5
AA65
330
2
100
AcDbEntity
  8
L-ZISSEN
100
AcDbLine
 10
1241.223908997821
 20
-2750.915977319335
 30
0.0
 11
1252.723908997821
 21
-2750.915977319335
 31
0.0
  0
LINE
  5
AA66
330
2
100
AcDbEntity
  8
L-ZISSEN
100
AcDbLine
 10
1247.659623283535
 20
-2732.915977319334
 30
0.0
 11
1252.723908997821
 21
-2732.915977319334
 31
0.0
  0
LINE
  5
AA67
330
2
100
AcDbEntity
  8
L-ZISSEN
100
AcDbLine
 10
1247.659623283535
 20
-2750.915977319335
 30
0.0
 11
1247.659623283535
 21
-2732.915977319334
 31
0.0
  0
LINE
  5
AA68
330
2
100
AcDbEntity
  8
L-SOUZOU
100
AcDbLine
 10
1249.723908997821
 20
-2750.915977319335
 30
0.0
 11
1249.723908997821
 21
-2749.115977319334
 31
0.0
  0
LINE
  5
AA69
330
2
100
AcDbEntity
  8
L-ZISSEN
100
AcDbLine
 10
1252.723908997821
 20
-2732.915977319334
 30
0.0
 11
1257.723908997821
 21
-2727.915977319335
 31
0.0
  0
LINE
  5
AA6A
330
2
100
AcDbEntity
  8
L-ZISSEN
100
AcDbLine
 10
1282.723908997821
 20
-2732.915977319334
 30
0.0
 11
1277.723908997821
 21
-2727.915977319335
 31
0.0
  0
LINE
  5
AA6B
330
2
100
AcDbEntity
  8
L-ZISSEN
100
AcDbLine
 10
1287.788194712106
 20
-2732.915977319334
 30
0.0
 11
1282.723908997821
 21
-2732.915977319334
 31
0.0
  0
LINE
  5
AA6C
330
2
100
AcDbEntity
  8
L-ZISSEN
100
AcDbLine
 10
1287.788194712106
 20
-2750.915977319335
 30
0.0
 11
1287.788194712106
 21
-2732.915977319334
 31
0.0
  0
LINE
  5
AA6D
330
2
100
AcDbEntity
  8
L-ZISSEN
100
AcDbLine
 10
1294.223908997821
 20
-2750.915977319335
 30
0.0
 11
1282.723908997821
 21
-2750.915977319335
 31
0.0
  0
LINE
  5
AA6E
330
2
100
AcDbEntity
  8
L-SOUZOU
100
AcDbLine
 10
1249.723908997821
 20
-2615.415977319336
 30
0.0
 11
1229.723908997821
 21
-2615.415977319336
 31
0.0
  0
LINE
  5
AA6F
330
2
100
AcDbEntity
  8
L-SOUZOU
100
AcDbLine
 10
1249.723908997821
 20
-2668.415977319336
 30
0.0
 11
1229.723908997821
 21
-2668.415977319336
 31
0.0
  0
LINE
  5
AA70
330
2
100
AcDbEntity
  8
L-TYUSIN
100
AcDbLine
 10
1236.223908997821
 20
-2641.915977319336
 30
0.0
 11
1299.223908997821
 21
-2641.915977319336
 31
0.0
  0
LINE
  5
AA71
330
2
100
AcDbEntity
  8
L-SOUZOU
100
AcDbLine
 10
1229.723908997821
 20
-2668.415977319336
 30
0.0
 11
1229.723908997821
 21
-2615.415977319336
 31
0.0
  0
LINE
  5
AA72
330
2
100
AcDbEntity
  8
L-SOUZOU
100
AcDbLine
 10
1231.523908997821
 20
-2668.415977319336
 30
0.0
 11
1231.523908997821
 21
-2615.415977319336
 31
0.0
  0
LINE
  5
AA73
330
2
100
AcDbEntity
  8
L-ZISSEN
100
AcDbLine
 10
1291.723908997821
 20
-2629.415977319336
 30
0.0
 11
1279.473908997821
 21
-2625.915977319336
 31
0.0
  0
LINE
  5
AA74
330
2
100
AcDbEntity
  8
L-ZISSEN
100
AcDbLine
 10
1277.723908997821
 20
-2615.415977319336
 30
0.0
 11
1277.723908997821
 21
-2668.415977319336
 31
0.0
  0
LINE
  5
AA75
330
2
100
AcDbEntity
  8
L-ZISSEN
100
AcDbLine
 10
1257.723908997821
 20
-2615.415977319336
 30
0.0
 11
1257.723908997821
 21
-2668.415977319336
 31
0.0
  0
LINE
  5
AA76
330
2
100
AcDbEntity
  8
L-ZISSEN
100
AcDbLine
 10
1255.97390899782
 20
-2664.187921666437
 30
0.0
 11
1255.973908997821
 21
-2619.644032972235
 31
0.0
  0
LINE
  5
AA77
330
2
100
AcDbEntity
  8
L-ZISSEN
100
AcDbLine
 10
1279.473908997821
 20
-2664.129977319336
 30
0.0
 11
1279.473908997821
 21
-2619.701977319336
 31
0.0
  0
LINE
  5
AA78
330
2
100
AcDbEntity
  8
L-ZISSEN
100
AcDbLine
 10
1279.473908997821
 20
-2664.187921666436
 30
0.0
 11
1279.473908997821
 21
-2619.644032972235
 31
0.0
  0
LINE
  5
AA79
330
2
100
AcDbEntity
  8
L-TYUSIN
100
AcDbLine
 10
1267.723908997821
 20
-2610.415977319336
 30
0.0
 11
1267.723908997821
 21
-2673.415977319336
 31
0.0
  0
LINE
  5
AA7A
330
2
100
AcDbEntity
  8
L-ZISSEN
100
AcDbLine
 10
1294.223908997821
 20
-2621.915977319336
 30
0.0
 11
1294.223908997821
 21
-2661.915977319336
 31
0.0
  0
LINE
  5
AA7B
330
2
100
AcDbEntity
  8
L-ZISSEN
100
AcDbLine
 10
1241.223908997821
 20
-2621.915977319336
 30
0.0
 11
1241.223908997821
 21
-2661.915977319336
 31
0.0
  0
LINE
  5
AA7C
330
2
100
AcDbEntity
  8
L-SOUZOU
100
AcDbLine
 10
1241.723908997821
 20
-2628.915977319336
 30
0.0
 11
1249.723908997821
 21
-2627.415977319336
 31
0.0
  0
LINE
  5
AA7D
330
2
100
AcDbEntity
  8
L-ZISSEN
100
AcDbLine
 10
1243.723908997821
 20
-2629.415977319336
 30
0.0
 11
1255.973908997821
 21
-2625.915977319336
 31
0.0
  0
LINE
  5
AA7E
330
2
100
AcDbEntity
  8
L-ZISSEN
100
AcDbLine
 10
1252.723908997821
 20
-2668.415977319336
 30
0.0
 11
1282.723908997821
 21
-2668.415977319336
 31
0.0
  0
CIRCLE
  5
AA80
330
2
100
AcDbEntity
  8
L-ZISSEN
100
AcDbCircle
 10
1245.723908997821
 20
-2659.415977319335
 30
0.0
 40
1.75
  0
LINE
  5
AA81
330
2
100
AcDbEntity
  8
L-ZISSEN
100
AcDbLine
 10
1243.723908997821
 20
-2629.415977319336
 30
0.0
 11
1243.723908997821
 21
-2654.415977319336
 31
0.0
  0
LINE
  5
AA83
330
2
100
AcDbEntity
  8
L-SOUZOU
100
AcDbLine
 10
1241.723908997821
 20
-2654.915977319336
 30
0.0
 11
1249.723908997821
 21
-2656.415977319336
 31
0.0
  0
LINE
  5
AA84
330
2
100
AcDbEntity
  8
L-SOUZOU
100
AcDbLine
 10
1241.723908997821
 20
-2628.915977319336
 30
0.0
 11
1241.723908997821
 21
-2654.915977319336
 31
0.0
  0
LINE
  5
AA85
330
2
100
AcDbEntity
  8
L-SOUZOU
100
AcDbLine
 10
1249.723908997821
 20
-2668.415977319336
 30
0.0
 11
1249.723908997821
 21
-2656.415977319336
 31
0.0
  0
LINE
  5
AA86
330
2
100
AcDbEntity
  8
L-ZISSEN
100
AcDbLine
 10
1243.723908997821
 20
-2654.415977319336
 30
0.0
 11
1255.973908997821
 21
-2657.915977319336
 31
0.0
  0
LINE
  5
AA88
330
2
100
AcDbEntity
  8
L-ZISSEN
100
AcDbLine
 10
1291.723908997821
 20
-2629.415977319336
 30
0.0
 11
1291.723908997821
 21
-2654.415977319336
 31
0.0
  0
LINE
  5
AA8B
330
2
100
AcDbEntity
  8
L-ZISSEN
100
AcDbLine
 10
1291.723908997821
 20
-2654.415977319336
 30
0.0
 11
1279.473908997821
 21
-2657.915977319336
 31
0.0
  0
CIRCLE
  5
AA8D
330
2
100
AcDbEntity
  8
L-ZISSEN
100
AcDbCircle
 10
1289.723908997821
 20
-2659.415977319335
 30
0.0
 40
1.75
  0
LINE
  5
AA8E
330
2
100
AcDbEntity
  8
L-ZISSEN
100
AcDbLine
 10
1252.723908997821
 20
-2615.415977319336
 30
0.0
 11
1282.723908997821
 21
-2615.415977319336
 31
0.0
  0
CIRCLE
  5
AA90
330
2
100
AcDbEntity
  8
L-ZISSEN
100
AcDbCircle
 10
1245.723908997821
 20
-2624.415977319335
 30
0.0
 40
1.75
  0
LINE
  5
AA92
330
2
100
AcDbEntity
  8
L-SOUZOU
100
AcDbLine
 10
1249.723908997821
 20
-2615.415977319336
 30
0.0
 11
1249.723908997821
 21
-2627.415977319336
 31
0.0
  0
CIRCLE
  5
AA97
330
2
100
AcDbEntity
  8
L-ZISSEN
100
AcDbCircle
 10
1289.723908997821
 20
-2624.415977319335
 30
0.0
 40
1.75
  0
LINE
  5
AA99
330
2
100
AcDbEntity
  8
L-TYUSIN
100
AcDbLine
 10
1431.223908997821
 20
-2716.665977319335
 30
0.0
 11
1444.223908997821
 21
-2716.665977319335
 31
0.0
  0
ARC
  5
AA9A
330
2
100
AcDbEntity
  8
L-SOUZOU
100
AcDbCircle
 10
1438.473908997821
 20
-2716.665977319335
 30
0.0
 40
3.25
100
AcDbArc
 50
270.0
 51
90.0
  0
LINE
  5
AA9B
330
2
100
AcDbEntity
  8
L-ZISSEN
100
AcDbLine
 10
1393.495337569249
 20
-2750.915977319335
 30
0.0
 11
1441.952480426392
 21
-2750.915977319335
 31
0.0
  0
LINE
  5
AA9C
330
2
100
AcDbEntity
  8
L-ZISSEN
100
AcDbLine
 10
1391.223908997821
 20
-2768.915977319335
 30
0.0
 11
1444.223908997822
 21
-2768.915977319335
 31
0.0
  0
LINE
  5
AA9D
330
2
100
AcDbEntity
  8
L-TYUSIN
100
AcDbLine
 10
1448.009623283535
 20
-2741.915977319335
 30
0.0
 11
1387.438194712107
 21
-2741.915977319336
 31
0.0
  0
LINE
  5
AA9E
330
2
100
AcDbEntity
  8
L-ZISSEN
100
AcDbLine
 10
1391.223908997821
 20
-2727.915977319335
 30
0.0
 11
1444.223908997821
 21
-2727.915977319335
 31
0.0
  0
LINE
  5
AA9F
330
2
100
AcDbEntity
  8
L-SOUZOU
100
AcDbLine
 10
1391.223908997821
 20
-2709.415977319335
 30
0.0
 11
1444.223908997821
 21
-2709.415977319335
 31
0.0
  0
LINE
  5
AAA0
330
2
100
AcDbEntity
  8
L-SOUZOU
100
AcDbLine
 10
1444.223908997821
 20
-2750.915977319335
 30
0.0
 11
1391.223908997821
 21
-2750.915977319335
 31
0.0
  0
LINE
  5
AAA1
330
2
100
AcDbEntity
  8
L-SOUZOU
100
AcDbLine
 10
1444.223908997821
 20
-2749.115977319334
 30
0.0
 11
1391.223908997821
 21
-2749.115977319334
 31
0.0
  0
LINE
  5
AAA2
330
2
100
AcDbEntity
  8
L-ZISSEN
100
AcDbLine
 10
1396.902480426393
 20
-2768.915977319335
 30
0.0
 11
1396.902480426393
 21
-2750.915977319335
 31
0.0
  0
LINE
  5
AAA3
330
2
100
AcDbEntity
  8
L-ZISSEN
100
AcDbLine
 10
1393.873908997819
 20
-2768.915977319335
 30
0.0
 11
1393.87390899782
 21
-2750.915977319335
 31
0.0
  0
LINE
  5
AAA4
330
2
100
AcDbEntity
  8
L-ZISSEN
100
AcDbLine
 10
1438.545337569251
 20
-2768.915977319335
 30
0.0
 11
1438.545337569249
 21
-2750.915977319335
 31
0.0
  0
LINE
  5
AAA5
330
2
100
AcDbEntity
  8
L-ZISSEN
100
AcDbLine
 10
1393.223908997821
 20
-2758.615977319335
 30
0.0
 11
1393.223908997821
 21
-2755.415977319335
 31
0.0
  0
LINE
  5
AAA6
330
2
100
AcDbEntity
  8
L-ZISSEN
100
AcDbLine
 10
1398.488694712114
 20
-2775.450176104405
 30
0.0
 11
1404.87140899783
 21
-2775.450176104405
 31
0.0
  0
LINE
  5
AAA7
330
2
100
AcDbEntity
  8
L-ZISSEN
100
AcDbLine
 10
1391.223908997821
 20
-2768.915977319335
 30
0.0
 11
1391.223908997821
 21
-2758.615977319335
 31
0.0
  0
LINE
  5
AAA8
330
2
100
AcDbEntity
  8
L-ZISSEN
100
AcDbLine
 10
1391.223908997821
 20
-2758.615977319335
 30
0.0
 11
1393.223908997821
 21
-2758.615977319335
 31
0.0
  0
LINE
  5
AAA9
330
2
100
AcDbEntity
  8
L-ZISSEN
100
AcDbLine
 10
1436.769837569259
 20
-2775.450176104405
 30
0.0
 11
1430.387123283544
 21
-2775.450176104405
 31
0.0
  0
LINE
  5
AAAA
330
2
100
AcDbEntity
  8
L-ZISSEN
100
AcDbLine
 10
1424.663271367882
 20
-2786.517589113838
 30
0.0
 11
1417.723908997821
 21
-2787.97038621038
 31
0.0
  0
LINE
  5
AAAB
330
2
100
AcDbEntity
  8
L-ZISSEN
100
AcDbLine
 10
1417.723908997821
 20
-2784.85133296962
 30
0.0
 11
1424.663271367882
 21
-2783.859995488182
 31
0.0
  0
LINE
  5
AAAC
330
2
100
AcDbEntity
  8
L-ZISSEN
100
AcDbLine
 10
1417.723908997821
 20
-2784.367230585597
 30
0.0
 11
1425.368345797821
 21
-2783.275168185597
 31
0.0
  0
LINE
  5
AAAD
330
2
100
AcDbEntity
  8
L-ZISSEN
100
AcDbLine
 10
1417.723908997821
 20
-2789.463521785597
 30
0.0
 11
1425.914376997821
 21
-2787.279396985598
 31
0.0
  0
LINE
  5
AAAE
330
2
100
AcDbEntity
  8
L-ZISSEN
100
AcDbLine
 10
1423.010090239919
 20
-2792.643649493852
 30
0.0
 11
1426.642418597819
 21
-2792.643649493852
 31
0.0
  0
LINE
  5
AAAF
330
2
100
AcDbEntity
  8
L-ZISSEN
100
AcDbLine
 10
1416.99586739782
 20
-2771.262481785598
 30
0.0
 11
1416.99586739782
 21
-2777.086814585598
 31
0.0
  0
LINE
  5
AAB0
330
2
100
AcDbEntity
  8
L-ZISSEN
100
AcDbLine
 10
1416.99586739782
 20
-2771.262481785598
 30
0.0
 11
1416.99586739782
 21
-2777.086814585598
 31
0.0
  0
LINE
  5
AAB1
330
2
100
AcDbEntity
  8
L-ZISSEN
100
AcDbLine
 10
1418.45195059782
 20
-2771.262481785598
 30
0.0
 11
1418.45195059782
 21
-2777.086814585598
 31
0.0
  0
LINE
  5
AAB2
330
2
100
AcDbEntity
  8
L-ZISSEN
100
AcDbLine
 10
1418.45195059782
 20
-2771.262481785598
 30
0.0
 11
1418.45195059782
 21
-2777.086814585598
 31
0.0
  0
LINE
  5
AAB3
330
2
100
AcDbEntity
  8
L-ZISSEN
100
AcDbLine
 10
1425.914376997821
 20
-2769.078356985597
 30
0.0
 11
1425.914376997821
 21
-2787.279396985598
 31
0.0
  0
LINE
  5
AAB4
330
2
100
AcDbEntity
  8
L-ZISSEN
100
AcDbLine
 10
1425.368345797821
 20
-2769.078356985597
 30
0.0
 11
1425.368345797821
 21
-2783.275168185597
 31
0.0
  0
LINE
  5
AAB5
330
2
100
AcDbEntity
  8
L-ZISSEN
100
AcDbLine
 10
1425.914376997821
 20
-2769.078356985597
 30
0.0
 11
1425.914376997821
 21
-2782.9340226665
 31
0.0
  0
LINE
  5
AAB6
330
2
100
AcDbEntity
  8
L-ZISSEN
100
AcDbLine
 10
1426.642418597819
 20
-2792.643649493852
 30
0.0
 11
1426.642418597819
 21
-2769.078356985597
 31
0.0
  0
LINE
  5
AAB7
330
2
100
AcDbEntity
  8
L-ZISSEN
100
AcDbLine
 10
1415.903804997818
 20
-2773.4466065856
 30
0.0
 11
1412.991638597818
 21
-2773.4466065856
 31
0.0
  0
LINE
  5
AAB8
330
2
100
AcDbEntity
  8
L-ZISSEN
100
AcDbLine
 10
1415.903804997818
 20
-2773.4466065856
 30
0.0
 11
1412.991638597818
 21
-2773.4466065856
 31
0.0
  0
LINE
  5
AAB9
330
2
100
AcDbEntity
  8
L-ZISSEN
100
AcDbLine
 10
1415.903804997818
 20
-2772.7185649856
 30
0.0
 11
1412.991638597818
 21
-2772.7185649856
 31
0.0
  0
LINE
  5
AABA
330
2
100
AcDbEntity
  8
L-ZISSEN
100
AcDbLine
 10
1415.903804997818
 20
-2772.7185649856
 30
0.0
 11
1412.991638597818
 21
-2772.7185649856
 31
0.0
  0
LINE
  5
AABB
330
2
100
AcDbEntity
  8
L-ZISSEN
100
AcDbLine
 10
1426.642418597821
 20
-2769.078356985597
 30
0.0
 11
1408.805399397821
 21
-2769.078356985597
 31
0.0
  0
LINE
  5
AABC
330
2
100
AcDbEntity
  8
L-ZISSEN
100
AcDbLine
 10
1425.368345797821
 20
-2769.078356985597
 30
0.0
 11
1410.079472197821
 21
-2769.078356985597
 31
0.0
  0
LINE
  5
AABD
330
2
100
AcDbEntity
  8
L-ZISSEN
100
AcDbLine
 10
1409.533440997821
 20
-2769.078356985597
 30
0.0
 11
1425.914376997821
 21
-2769.078356985597
 31
0.0
  0
LINE
  5
AABE
330
2
100
AcDbEntity
  8
L-ZISSEN
100
AcDbLine
 10
1410.784546627758
 20
-2786.517589113838
 30
0.0
 11
1417.723908997821
 21
-2787.97038621038
 31
0.0
  0
LINE
  5
AABF
330
2
100
AcDbEntity
  8
L-ZISSEN
100
AcDbLine
 10
1417.723908997821
 20
-2784.85133296962
 30
0.0
 11
1410.784546627758
 21
-2783.859995488182
 31
0.0
  0
LINE
  5
AAC0
330
2
100
AcDbEntity
  8
L-ZISSEN
100
AcDbLine
 10
1417.723908997821
 20
-2784.367230585597
 30
0.0
 11
1410.079472197821
 21
-2783.275168185597
 31
0.0
  0
LINE
  5
AAC1
330
2
100
AcDbEntity
  8
L-ZISSEN
100
AcDbLine
 10
1417.723908997821
 20
-2789.463521785597
 30
0.0
 11
1409.533440997821
 21
-2787.279396985598
 31
0.0
  0
LINE
  5
AAC2
330
2
100
AcDbEntity
  8
L-ZISSEN
100
AcDbLine
 10
1412.991638597818
 20
-2774.174648185599
 30
0.0
 11
1411.171534597818
 21
-2773.0825857856
 31
0.0
  0
LINE
  5
AAC3
330
2
100
AcDbEntity
  8
L-ZISSEN
100
AcDbLine
 10
1412.991638597818
 20
-2773.4466065856
 30
0.0
 11
1412.991638597818
 21
-2774.174648185599
 31
0.0
  0
LINE
  5
AAC4
330
2
100
AcDbEntity
  8
L-ZISSEN
100
AcDbLine
 10
1412.991638597818
 20
-2771.990523385599
 30
0.0
 11
1411.171534597818
 21
-2773.0825857856
 31
0.0
  0
LINE
  5
AAC5
330
2
100
AcDbEntity
  8
L-ZISSEN
100
AcDbLine
 10
1412.991638597818
 20
-2772.7185649856
 30
0.0
 11
1412.991638597818
 21
-2771.990523385599
 31
0.0
  0
LINE
  5
AAC6
330
2
100
AcDbEntity
  8
L-ZISSEN
100
AcDbLine
 10
1409.533440997821
 20
-2787.279396985598
 30
0.0
 11
1410.784546627758
 21
-2786.517589113838
 31
0.0
  0
LINE
  5
AAC7
330
2
100
AcDbEntity
  8
L-ZISSEN
100
AcDbLine
 10
1412.43772775572
 20
-2792.643649493852
 30
0.0
 11
1408.805399397821
 21
-2792.643649493852
 31
0.0
  0
LINE
  5
AAC8
330
2
100
AcDbEntity
  8
L-ZISSEN
100
AcDbLine
 10
1410.784546627758
 20
-2783.37589310416
 30
0.0
 11
1410.079472197821
 21
-2783.275168185597
 31
0.0
  0
LINE
  5
AAC9
330
2
100
AcDbEntity
  8
L-ZISSEN
100
AcDbLine
 10
1410.784546627758
 20
-2783.859995488182
 30
0.0
 11
1410.079472197821
 21
-2783.275168185597
 31
0.0
  0
LINE
  5
AACA
330
2
100
AcDbEntity
  8
L-ZISSEN
100
AcDbLine
 10
1410.784546627758
 20
-2783.859995488182
 30
0.0
 11
1410.784546627758
 21
-2786.517589113838
 31
0.0
  0
LINE
  5
AACB
330
2
100
AcDbEntity
  8
L-ZISSEN
100
AcDbLine
 10
1412.43772775572
 20
-2788.11032344211
 30
0.0
 11
1412.43772775572
 21
-2792.643649493852
 31
0.0
  0
LINE
  5
AACC
330
2
100
AcDbEntity
  8
L-ZISSEN
100
AcDbLine
 10
1409.533440997821
 20
-2769.078356985597
 30
0.0
 11
1409.533440997821
 21
-2782.9340226665
 31
0.0
  0
LINE
  5
AACD
330
2
100
AcDbEntity
  8
L-ZISSEN
100
AcDbLine
 10
1409.533440997821
 20
-2769.078356985597
 30
0.0
 11
1409.533440997821
 21
-2787.279396985598
 31
0.0
  0
LINE
  5
AACE
330
2
100
AcDbEntity
  8
L-ZISSEN
100
AcDbLine
 10
1408.805399397821
 20
-2792.643649493852
 30
0.0
 11
1408.805399397821
 21
-2769.078356985597
 31
0.0
  0
LINE
  5
AACF
330
2
100
AcDbEntity
  8
L-ZISSEN
100
AcDbLine
 10
1410.079472197821
 20
-2769.078356985597
 30
0.0
 11
1410.079472197821
 21
-2783.275168185597
 31
0.0
  0
LINE
  5
AAD0
330
2
100
AcDbEntity
  8
L-ZISSEN
100
AcDbLine
 10
1418.45195059782
 20
-2771.262481785598
 30
0.0
 11
1416.99586739782
 21
-2771.262481785598
 31
0.0
  0
LINE
  5
AAD1
330
2
100
AcDbEntity
  8
L-ZISSEN
100
AcDbLine
 10
1415.903804997818
 20
-2772.7185649856
 30
0.0
 11
1415.903804997818
 21
-2773.4466065856
 31
0.0
  0
LINE
  5
AAD2
330
2
100
AcDbEntity
  8
L-ZISSEN
100
AcDbLine
 10
1419.544012997822
 20
-2773.4466065856
 30
0.0
 11
1422.456179397823
 21
-2773.4466065856
 31
0.0
  0
LINE
  5
AAD3
330
2
100
AcDbEntity
  8
L-ZISSEN
100
AcDbLine
 10
1419.544012997822
 20
-2773.4466065856
 30
0.0
 11
1422.456179397823
 21
-2773.4466065856
 31
0.0
  0
LINE
  5
AAD4
330
2
100
AcDbEntity
  8
L-ZISSEN
100
AcDbLine
 10
1419.544012997822
 20
-2772.7185649856
 30
0.0
 11
1422.456179397823
 21
-2772.7185649856
 31
0.0
  0
LINE
  5
AAD5
330
2
100
AcDbEntity
  8
L-ZISSEN
100
AcDbLine
 10
1419.544012997822
 20
-2772.7185649856
 30
0.0
 11
1422.456179397823
 21
-2772.7185649856
 31
0.0
  0
LINE
  5
AAD6
330
2
100
AcDbEntity
  8
L-ZISSEN
100
AcDbLine
 10
1419.544012997822
 20
-2772.7185649856
 30
0.0
 11
1419.544012997822
 21
-2773.4466065856
 31
0.0
  0
LINE
  5
AAD7
330
2
100
AcDbEntity
  8
L-ZISSEN
100
AcDbLine
 10
1422.456179397823
 20
-2773.4466065856
 30
0.0
 11
1422.456179397823
 21
-2774.174648185599
 31
0.0
  0
LINE
  5
AAD8
330
2
100
AcDbEntity
  8
L-ZISSEN
100
AcDbLine
 10
1422.456179397823
 20
-2772.7185649856
 30
0.0
 11
1422.456179397823
 21
-2771.990523385599
 31
0.0
  0
LINE
  5
AAD9
330
2
100
AcDbEntity
  8
L-ZISSEN
100
AcDbLine
 10
1422.456179397823
 20
-2774.174648185599
 30
0.0
 11
1424.276283397822
 21
-2773.0825857856
 31
0.0
  0
LINE
  5
AADA
330
2
100
AcDbEntity
  8
L-ZISSEN
100
AcDbLine
 10
1422.456179397823
 20
-2771.990523385599
 30
0.0
 11
1424.276283397822
 21
-2773.0825857856
 31
0.0
  0
LINE
  5
AADB
330
2
100
AcDbEntity
  8
L-ZISSEN
100
AcDbLine
 10
1424.663271367882
 20
-2783.859995488182
 30
0.0
 11
1424.663271367882
 21
-2786.517589113838
 31
0.0
  0
LINE
  5
AADC
330
2
100
AcDbEntity
  8
L-ZISSEN
100
AcDbLine
 10
1424.663271367882
 20
-2783.859995488182
 30
0.0
 11
1425.368345797821
 21
-2783.275168185597
 31
0.0
  0
LINE
  5
AADD
330
2
100
AcDbEntity
  8
L-ZISSEN
100
AcDbLine
 10
1424.663271367882
 20
-2783.37589310416
 30
0.0
 11
1425.368345797821
 21
-2783.275168185597
 31
0.0
  0
LINE
  5
AADE
330
2
100
AcDbEntity
  8
L-ZISSEN
100
AcDbLine
 10
1425.914376997821
 20
-2787.279396985598
 30
0.0
 11
1424.663271367882
 21
-2786.517589113838
 31
0.0
  0
LINE
  5
AADF
330
2
100
AcDbEntity
  8
L-ZISSEN
100
AcDbLine
 10
1415.53978419782
 20
-2777.086814585598
 30
0.0
 11
1417.72390899782
 21
-2780.727022585598
 31
0.0
  0
LINE
  5
AAE0
330
2
100
AcDbEntity
  8
L-ZISSEN
100
AcDbLine
 10
1416.99586739782
 20
-2777.086814585598
 30
0.0
 11
1415.53978419782
 21
-2777.086814585598
 31
0.0
  0
LINE
  5
AAE1
330
2
100
AcDbEntity
  8
L-ZISSEN
100
AcDbLine
 10
1419.90803379782
 20
-2777.086814585598
 30
0.0
 11
1417.72390899782
 21
-2780.727022585598
 31
0.0
  0
LINE
  5
AAE2
330
2
100
AcDbEntity
  8
L-ZISSEN
100
AcDbLine
 10
1418.45195059782
 20
-2777.086814585598
 30
0.0
 11
1419.90803379782
 21
-2777.086814585598
 31
0.0
  0
LINE
  5
AAE3
330
2
100
AcDbEntity
  8
L-ZISSEN
100
AcDbLine
 10
1417.723908997821
 20
-2789.463521785597
 30
0.0
 11
1417.723908997821
 21
-2784.85133296962
 31
0.0
  0
LINE
  5
AAE4
330
2
100
AcDbEntity
  8
L-ZISSEN
100
AcDbLine
 10
1417.723908997821
 20
-2789.463521785597
 30
0.0
 11
1417.723908997821
 21
-2784.367230585597
 31
0.0
  0
LINE
  5
AAE5
330
2
100
AcDbEntity
  8
L-ZISSEN
100
AcDbLine
 10
1423.010090239919
 20
-2788.11032344211
 30
0.0
 11
1423.010090239919
 21
-2792.643649493852
 31
0.0
  0
LINE
  5
AAE6
330
2
100
AcDbEntity
  8
L-ZISSEN
100
AcDbLine
 10
1426.642418597821
 20
-2768.915977319335
 30
0.0
 11
1426.642418597821
 21
-2769.078356985597
 31
0.0
  0
LINE
  5
AAE7
330
2
100
AcDbEntity
  8
L-ZISSEN
100
AcDbLine
 10
1408.805399397821
 20
-2769.078356985597
 30
0.0
 11
1408.805399397821
 21
-2768.915977319335
 31
0.0
  0
LINE
  5
AAE8
330
2
100
AcDbEntity
  8
L-ZISSEN
100
AcDbLine
 10
1401.723930426392
 20
-2732.915977319334
 30
0.0
 11
1433.723887569249
 21
-2732.915977319334
 31
0.0
  0
LINE
  5
AAE9
330
2
100
AcDbEntity
  8
L-ZISSEN
100
AcDbLine
 10
1395.509908997821
 20
-2729.430263033621
 30
0.0
 11
1439.937908997821
 21
-2729.43026303362
 31
0.0
  0
LINE
  5
AAEA
330
2
100
AcDbEntity
  8
L-ZISSEN
100
AcDbLine
 10
1401.723930426392
 20
-2750.915977319335
 30
0.0
 11
1401.723930426392
 21
-2732.915977319334
 31
0.0
  0
LINE
  5
AAEB
330
2
100
AcDbEntity
  8
L-ZISSEN
100
AcDbLine
 10
1405.223908997821
 20
-2732.915977319334
 30
0.0
 11
1405.223908997821
 21
-2750.915977319335
 31
0.0
  0
LINE
  5
AAEC
330
2
100
AcDbEntity
  8
L-ZISSEN
100
AcDbLine
 10
1393.723908997821
 20
-2732.458834462192
 30
0.0
 11
1395.509908997821
 21
-2729.43026303362
 31
0.0
  0
LINE
  5
AAED
330
2
100
AcDbEntity
  8
L-ZISSEN
100
AcDbLine
 10
1395.509908997821
 20
-2729.43026303362
 30
0.0
 11
1395.509908997821
 21
-2750.915977319335
 31
0.0
  0
LINE
  5
AAEE
330
2
100
AcDbEntity
  8
L-ZISSEN
100
AcDbLine
 10
1393.723908997821
 20
-2732.458834462192
 30
0.0
 11
1393.723908997821
 21
-2750.915977319335
 31
0.0
  0
LINE
  5
AAEF
330
2
100
AcDbEntity
  8
L-TYUSIN
100
AcDbLine
 10
1397.723908997821
 20
-2710.915977319335
 30
0.0
 11
1397.723908997821
 21
-2722.415977319335
 31
0.0
  0
LINE
  5
AAF0
330
2
100
AcDbEntity
  8
L-SOUZOU
100
AcDbLine
 10
1396.973908997821
 20
-2719.915977319335
 30
0.0
 11
1398.473908997821
 21
-2719.915977319335
 31
0.0
  0
LINE
  5
AAF1
330
2
100
AcDbEntity
  8
L-SOUZOU
100
AcDbLine
 10
1396.973908997821
 20
-2713.415977319335
 30
0.0
 11
1398.473908997821
 21
-2713.415977319335
 31
0.0
  0
ARC
  5
AAF2
330
2
100
AcDbEntity
  8
L-SOUZOU
100
AcDbCircle
 10
1398.473908997821
 20
-2716.665977319335
 30
0.0
 40
3.25
100
AcDbArc
 50
270.0
 51
90.0
  0
ARC
  5
AAF3
330
2
100
AcDbEntity
  8
L-SOUZOU
100
AcDbCircle
 10
1396.973908997821
 20
-2716.665977319335
 30
0.0
 40
3.25
100
AcDbArc
 50
90.0
 51
270.0
  0
LINE
  5
AAF4
330
2
100
AcDbEntity
  8
L-ZISSEN
100
AcDbLine
 10
1391.223908997821
 20
-2755.415977319335
 30
0.0
 11
1393.223908997821
 21
-2755.415977319335
 31
0.0
  0
LINE
  5
AAF5
330
2
100
AcDbEntity
  8
L-ZISSEN
100
AcDbLine
 10
1391.223908997821
 20
-2755.415977319335
 30
0.0
 11
1391.223908997821
 21
-2727.915977319335
 31
0.0
  0
LINE
  5
AAF6
330
2
100
AcDbEntity
  8
L-ZISSEN
100
AcDbLine
 10
1391.223908997821
 20
-2727.915977319335
 30
0.0
 11
1391.223908997821
 21
-2732.458834462192
 31
0.0
  0
LINE
  5
AAF7
330
2
100
AcDbEntity
  8
L-SOUZOU
100
AcDbLine
 10
1391.223908997821
 20
-2750.915977319335
 30
0.0
 11
1391.223908997821
 21
-2709.415977319335
 31
0.0
  0
LINE
  5
AAF8
330
2
100
AcDbEntity
  8
L-ZISSEN
100
AcDbLine
 10
1391.223908997821
 20
-2727.915977319335
 30
0.0
 11
1395.009623283535
 21
-2727.915977319335
 31
0.0
  0
LINE
  5
AAF9
330
2
100
AcDbEntity
  8
L-ZISSEN
100
AcDbLine
 10
1391.223908997821
 20
-2732.458834462192
 30
0.0
 11
1393.723908997821
 21
-2732.458834462192
 31
0.0
  0
LINE
  5
AAFA
330
2
100
AcDbEntity
  8
L-TYUSIN
100
AcDbLine
 10
1391.223908997821
 20
-2716.665977319335
 30
0.0
 11
1404.223908997821
 21
-2716.665977319335
 31
0.0
  0
LINE
  5
AAFB
330
2
100
AcDbEntity
  8
L-ZISSEN
100
AcDbLine
 10
1433.723887569251
 20
-2750.915977319335
 30
0.0
 11
1433.723887569249
 21
-2732.915977319334
 31
0.0
  0
LINE
  5
AAFC
330
2
100
AcDbEntity
  8
L-ZISSEN
100
AcDbLine
 10
1430.223908997821
 20
-2732.915977319334
 30
0.0
 11
1430.223908997821
 21
-2750.915977319335
 31
0.0
  0
LINE
  5
AAFE
330
2
100
AcDbEntity
  8
L-TYUSIN
100
AcDbLine
 10
1437.723908997821
 20
-2710.915977319335
 30
0.0
 11
1437.723908997821
 21
-2722.415977319335
 31
0.0
  0
ARC
  5
AAFF
330
2
100
AcDbEntity
  8
L-SOUZOU
100
AcDbCircle
 10
1436.973908997821
 20
-2716.665977319335
 30
0.0
 40
3.25
100
AcDbArc
 50
90.0
 51
270.0
  0
LINE
  5
AB00
330
2
100
AcDbEntity
  8
L-SOUZOU
100
AcDbLine
 10
1436.973908997821
 20
-2713.415977319335
 30
0.0
 11
1438.473908997821
 21
-2713.415977319335
 31
0.0
  0
LINE
  5
AB01
330
2
100
AcDbEntity
  8
L-SOUZOU
100
AcDbLine
 10
1436.973908997821
 20
-2719.915977319335
 30
0.0
 11
1438.473908997821
 21
-2719.915977319335
 31
0.0
  0
LINE
  5
AB02
330
2
100
AcDbEntity
  8
L-ZISSEN
100
AcDbLine
 10
1441.573908997824
 20
-2768.915977319335
 30
0.0
 11
1441.573908997824
 21
-2750.915977319335
 31
0.0
  0
LINE
  5
AB03
330
2
100
AcDbEntity
  8
L-ZISSEN
100
AcDbLine
 10
1442.331051854965
 20
-2757.444548747905
 30
0.0
 11
1442.331051854965
 21
-2754.794548747905
 31
0.0
  0
LINE
  5
AB04
330
2
100
AcDbEntity
  8
L-ZISSEN
100
AcDbLine
 10
1444.223908997822
 20
-2768.915977319335
 30
0.0
 11
1444.223908997821
 21
-2757.444548747905
 31
0.0
  0
LINE
  5
AB05
330
2
100
AcDbEntity
  8
L-ZISSEN
100
AcDbLine
 10
1444.223908997821
 20
-2757.444548747905
 30
0.0
 11
1442.331051854965
 21
-2757.444548747905
 31
0.0
  0
LINE
  5
AB07
330
2
100
AcDbEntity
  8
L-ZISSEN
100
AcDbLine
 10
1444.223908997821
 20
-2727.915977319335
 30
0.0
 11
1444.223908997821
 21
-2732.458834462191
 31
0.0
  0
LINE
  5
AB09
330
2
100
AcDbEntity
  8
L-ZISSEN
100
AcDbLine
 10
1444.223908997821
 20
-2754.794548747905
 30
0.0
 11
1442.331051854965
 21
-2754.794548747905
 31
0.0
  0
LINE
  5
AB0A
330
2
100
AcDbEntity
  8
L-ZISSEN
100
AcDbLine
 10
1444.223908997821
 20
-2732.458834462191
 30
0.0
 11
1444.223908997821
 21
-2754.794548747905
 31
0.0
  0
LINE
  5
AB0B
330
2
100
AcDbEntity
  8
L-SOUZOU
100
AcDbLine
 10
1444.223908997821
 20
-2709.415977319335
 30
0.0
 11
1444.223908997821
 21
-2750.915977319335
 31
0.0
  0
LINE
  5
AE49
330
2
100
AcDbEntity
  8
L-TYUSIN
100
AcDbLine
 10
1227.223908997821
 20
-2621.915977319335
 30
0.0
 11
1234.023908997821
 21
-2621.915977319335
 31
0.0
  0
LINE
  5
AE4A
330
2
100
AcDbEntity
  8
L-TYUSIN
100
AcDbLine
 10
1227.223908997821
 20
-2661.915977319335
 30
0.0
 11
1234.023908997821
 21
-2661.915977319335
 31
0.0
  0
LINE
  5
C610
330
2
100
AcDbEntity
  8
L-ZISSEN
100
AcDbLine
 10
1252.723908997821
 20
-2668.415977319336
 30
0.0
 11
1252.723908997821
 21
-2665.213549255562
 31
0.0
  0
LINE
  5
C611
330
2
100
AcDbEntity
  8
L-ZISSEN
100
AcDbLine
 10
1241.223908997821
 20
-2661.915977319336
 30
0.0
 11
1252.723908997821
 21
-2665.213549255562
 31
0.0
  0
LINE
  5
C612
330
2
100
AcDbEntity
  8
L-ZISSEN
100
AcDbLine
 10
1252.723908997821
 20
-2665.915977319336
 30
0.0
 11
1255.973908997821
 21
-2664.187921666436
 31
0.0
  0
LINE
  5
C613
330
2
100
AcDbEntity
  8
L-ZISSEN
100
AcDbLine
 10
1252.723908997821
 20
-2617.915977319336
 30
0.0
 11
1255.973908997821
 21
-2619.644032972235
 31
0.0
  0
LINE
  5
C614
330
2
100
AcDbEntity
  8
L-ZISSEN
100
AcDbLine
 10
1241.223908997821
 20
-2621.915977319336
 30
0.0
 11
1252.723908997821
 21
-2618.618405383109
 31
0.0
  0
LINE
  5
C615
330
2
100
AcDbEntity
  8
L-ZISSEN
100
AcDbLine
 10
1252.723908997821
 20
-2615.415977319336
 30
0.0
 11
1252.723908997821
 21
-2618.618405383109
 31
0.0
  0
LINE
  5
C616
330
2
100
AcDbEntity
  8
L-ZISSEN
100
AcDbLine
 10
1294.223908997821
 20
-2621.915977319336
 30
0.0
 11
1282.723908997821
 21
-2618.618405383109
 31
0.0
  0
LINE
  5
C617
330
2
100
AcDbEntity
  8
L-ZISSEN
100
AcDbLine
 10
1282.723908997821
 20
-2617.915977319336
 30
0.0
 11
1279.473908997821
 21
-2619.644032972235
 31
0.0
  0
LINE
  5
C618
330
2
100
AcDbEntity
  8
L-ZISSEN
100
AcDbLine
 10
1282.723908997821
 20
-2615.415977319336
 30
0.0
 11
1282.723908997821
 21
-2618.618405383109
 31
0.0
  0
LINE
  5
C619
330
2
100
AcDbEntity
  8
L-ZISSEN
100
AcDbLine
 10
1294.223908997821
 20
-2661.915977319336
 30
0.0
 11
1282.723908997821
 21
-2665.213549255562
 31
0.0
  0
LINE
  5
C61A
330
2
100
AcDbEntity
  8
L-ZISSEN
100
AcDbLine
 10
1282.723908997821
 20
-2665.915977319336
 30
0.0
 11
1279.473908997821
 21
-2664.187921666436
 31
0.0
  0
LINE
  5
C61B
330
2
100
AcDbEntity
  8
L-ZISSEN
100
AcDbLine
 10
1282.723908997821
 20
-2668.415977319336
 30
0.0
 11
1282.723908997821
 21
-2665.213549255562
 31
0.0
  0
LINE
  5
C64C
330
2
100
AcDbEntity
  8
L-ZISSEN
100
AcDbLine
 10
1444.223908997821
 20
-2732.458834462192
 30
0.0
 11
1441.723908997821
 21
-2732.458834462192
 31
0.0
  0
LINE
  5
C64D
330
2
100
AcDbEntity
  8
L-ZISSEN
100
AcDbLine
 10
1441.723908997821
 20
-2732.458834462192
 30
0.0
 11
1439.937908997821
 21
-2729.43026303362
 31
0.0
  0
LINE
  5
C64E
330
2
100
AcDbEntity
  8
L-ZISSEN
100
AcDbLine
 10
1441.723908997821
 20
-2732.458834462192
 30
0.0
 11
1441.723908997821
 21
-2750.915977319335
 31
0.0
  0
LINE
  5
C64F
330
2
100
AcDbEntity
  8
L-ZISSEN
100
AcDbLine
 10
1439.937908997821
 20
-2729.43026303362
 30
0.0
 11
1439.937908997821
 21
-2750.915977319335
 31
0.0
  0
LINE
  5
CE74
330
2
100
AcDbEntity
  8
L-TYUSIN
100
AcDbLine
 10
1480.303330983257
 20
-2495.837353882381
 30
0.0
 11
1480.303330983257
 21
-2868.350478868912
 31
0.0
  0
LINE
  5
CE75
330
2
100
AcDbEntity
  8
L-ZISSEN
100
AcDbLine
 10
1533.941110219565
 20
-2763.622273785597
 30
0.0
 11
1533.941110219567
 21
-2840.622273785598
 31
0.0
  0
LINE
  5
CE76
330
2
100
AcDbEntity
  8
L-ZISSEN
100
AcDbLine
 10
1545.191110219565
 20
-2775.122273785598
 30
0.0
 11
1545.191110219565
 21
-2829.122273785598
 31
0.0
  0
LINE
  5
CE77
330
2
100
AcDbEntity
  8
L-ZISSEN
100
AcDbLine
 10
1540.191110219565
 20
-2829.122273785598
 30
0.0
 11
1540.191110219565
 21
-2775.122273785598
 31
0.0
  0
LINE
  5
CE78
330
2
100
AcDbEntity
  8
L-ZISSEN
100
AcDbLine
 10
1551.441110219565
 20
-2763.622273785597
 30
0.0
 11
1551.441110219567
 21
-2840.622273785598
 31
0.0
  0
LINE
  5
CE79
330
2
100
AcDbEntity
  8
L-ZISSEN
100
AcDbLine
 10
1520.381853455258
 20
-2758.078356985597
 30
0.0
 11
1522.589294573046
 21
-2837.761881979215
 31
0.0
  0
LINE
  5
CE7A
330
2
100
AcDbEntity
  8
L-ZISSEN
100
AcDbLine
 10
1565.000366983873
 20
-2758.078356985597
 30
0.0
 11
1562.792925866084
 21
-2837.761881979215
 31
0.0
  0
LINE
  5
CE7B
330
2
100
AcDbEntity
  8
L-ZISSEN
100
AcDbLine
 10
1545.72390899782
 20
-2849.857142729826
 30
0.0
 11
1548.22390899782
 21
-2849.857142729826
 31
0.0
  0
LINE
  5
CE7C
330
2
100
AcDbEntity
  8
L-ZISSEN
100
AcDbLine
 10
1535.945593381316
 20
-2847.916598434155
 30
0.0
 11
1549.436627057814
 21
-2847.917395203926
 31
0.0
  0
ARC
  5
CE7D
330
2
100
AcDbEntity
  8
L-ZISSEN
100
AcDbCircle
 10
1542.723908997821
 20
-2827.274914645418
 30
0.0
 40
20.64106267391694
100
AcDbArc
 50
257.3236813122643
 51
282.4944195184325
  0
LINE
  5
CE7E
330
2
100
AcDbEntity
  8
L-ZISSEN
100
AcDbLine
 10
1548.42390899782
 20
-2859.915977319335
 30
0.0
 11
1537.023908997821
 21
-2859.915977319335
 31
0.0
  0
LINE
  5
CE7F
330
2
100
AcDbEntity
  8
L-ZISSEN
100
AcDbLine
 10
1533.941110219565
 20
-2840.622273785598
 30
0.0
 11
1551.441110219565
 21
-2840.622273785598
 31
0.0
  0
LINE
  5
CE80
330
2
100
AcDbEntity
  8
L-ZISSEN
100
AcDbLine
 10
1532.341110219565
 20
-2842.622273785598
 30
0.0
 11
1553.041110219565
 21
-2842.622273785598
 31
0.0
  0
LINE
  5
CE81
330
2
100
AcDbEntity
  8
L-ZISSEN
100
AcDbLine
 10
1532.341110219565
 20
-2844.914957819631
 30
0.0
 11
1553.041110219565
 21
-2844.914957819631
 31
0.0
  0
LINE
  5
CE82
330
2
100
AcDbEntity
  8
L-TYUSIN
100
AcDbLine
 10
1548.941110219565
 20
-2835.372273785598
 30
0.0
 11
1536.441110219565
 21
-2835.372273785598
 31
0.0
  0
LINE
  5
CE83
330
2
100
AcDbEntity
  8
L-ZISSEN
100
AcDbLine
 10
1535.945593381316
 20
-2844.915356204516
 30
0.0
 11
1549.436627057814
 21
-2844.914559434745
 31
0.0
  0
ARC
  5
CE84
330
2
100
AcDbEntity
  8
L-ZISSEN
100
AcDbCircle
 10
1542.723908997821
 20
-2865.557039993252
 30
0.0
 40
20.64106267391679
100
AcDbArc
 50
77.50558048156747
 51
102.6763186877484
  0
CIRCLE
  5
CE85
330
2
100
AcDbEntity
  8
L-ZISSEN
100
AcDbCircle
 10
1542.691110219565
 20
-2835.372273785598
 30
0.0
 40
3.75
  0
LINE
  5
CE86
330
2
100
AcDbEntity
  8
L-ZISSEN
100
AcDbLine
 10
1540.723908997823
 20
-2849.857142729826
 30
0.0
 11
1540.723908997823
 21
-2859.915977319335
 31
0.0
  0
LINE
  5
CE87
330
2
100
AcDbEntity
  8
L-ZISSEN
100
AcDbLine
 10
1541.723908997822
 20
-2849.857142729826
 30
0.0
 11
1541.723908997822
 21
-2859.915977319335
 31
0.0
  0
LINE
  5
CE88
330
2
100
AcDbEntity
  8
L-ZISSEN
100
AcDbLine
 10
1542.723908997823
 20
-2849.857142729826
 30
0.0
 11
1542.723908997823
 21
-2859.915977319335
 31
0.0
  0
LINE
  5
CE89
330
2
100
AcDbEntity
  8
L-ZISSEN
100
AcDbLine
 10
1543.723908997822
 20
-2849.857142729826
 30
0.0
 11
1543.723908997822
 21
-2859.915977319335
 31
0.0
  0
LINE
  5
CE8A
330
2
100
AcDbEntity
  8
L-ZISSEN
100
AcDbLine
 10
1544.723908997821
 20
-2849.857142729826
 30
0.0
 11
1544.723908997821
 21
-2859.915977319335
 31
0.0
  0
LINE
  5
CE8B
330
2
100
AcDbEntity
  8
L-ZISSEN
100
AcDbLine
 10
1545.72390899782
 20
-2849.857142729826
 30
0.0
 11
1545.72390899782
 21
-2859.915977319335
 31
0.0
  0
LINE
  5
CE8C
330
2
100
AcDbEntity
  8
L-ZISSEN
100
AcDbLine
 10
1545.191110219565
 20
-2829.122273785598
 30
0.0
 11
1540.191110219565
 21
-2829.122273785598
 31
0.0
  0
LINE
  5
CE8D
330
2
100
AcDbEntity
  8
L-ZISSEN
100
AcDbLine
 10
1533.724265377737
 20
-2845.406244589279
 30
0.0
 11
1533.724265377737
 21
-2847.425710049391
 31
0.0
  0
LINE
  5
CE8E
330
2
100
AcDbEntity
  8
L-ZISSEN
100
AcDbLine
 10
1538.194372679802
 20
-2845.419096477284
 30
0.0
 11
1538.194372679809
 21
-2847.412858161387
 31
0.0
  0
ARC
  5
CE8F
330
2
100
AcDbEntity
  8
L-ZISSEN
100
AcDbCircle
 10
1535.945593381316
 20
-2842.645268263785
 30
0.0
 40
5.271330170370607
100
AcDbArc
 50
245.0771192748252
 51
295.2523389966426
  0
LINE
  5
CE90
330
2
100
AcDbEntity
  8
L-ZISSEN
100
AcDbLine
 10
1537.223908997822
 20
-2849.357142729827
 30
0.0
 11
1537.223908997822
 21
-2847.915977319335
 31
0.0
  0
LINE
  5
CE91
330
2
100
AcDbEntity
  8
L-ZISSEN
100
AcDbLine
 10
1536.723908997822
 20
-2859.615977319335
 30
0.0
 11
1536.723908997822
 21
-2850.357142729826
 31
0.0
  0
LINE
  5
CE92
330
2
100
AcDbEntity
  8
L-ZISSEN
100
AcDbLine
 10
1537.723908997821
 20
-2849.857142729826
 30
0.0
 11
1537.723908997821
 21
-2859.915977319335
 31
0.0
  0
LINE
  5
CE93
330
2
100
AcDbEntity
  8
L-ZISSEN
100
AcDbLine
 10
1537.023908997821
 20
-2859.915977319335
 30
0.0
 11
1536.723908997822
 21
-2859.615977319336
 31
0.0
  0
LINE
  5
CE94
330
2
100
AcDbEntity
  8
L-ZISSEN
100
AcDbLine
 10
1537.223908997819
 20
-2849.857142729826
 30
0.0
 11
1536.723908997822
 21
-2850.357142729826
 31
0.0
  0
LINE
  5
CE95
330
2
100
AcDbEntity
  8
L-ZISSEN
100
AcDbLine
 10
1537.723908997819
 20
-2849.857142729826
 30
0.0
 11
1537.223908997822
 21
-2849.357142729827
 31
0.0
  0
LINE
  5
CE96
330
2
100
AcDbEntity
  8
L-ZISSEN
100
AcDbLine
 10
1537.723908997823
 20
-2847.916673930463
 30
0.0
 11
1537.723908997819
 21
-2849.857142729826
 31
0.0
  0
ARC
  5
CE97
330
2
100
AcDbEntity
  8
L-ZISSEN
100
AcDbCircle
 10
1532.146757452295
 20
-2821.474513232945
 30
0.0
 40
21.14865360703842
100
AcDbArc
 50
249.7017647719361
 51
270.5265465241191
  0
ARC
  5
CE98
330
2
100
AcDbEntity
  8
L-ZISSEN
100
AcDbCircle
 10
1535.945593381316
 20
-2850.186686374886
 30
0.0
 40
5.271330170370607
100
AcDbArc
 50
64.74766100341561
 51
114.9228807251748
  0
LINE
  5
CE99
330
2
100
AcDbEntity
  8
L-ZISSEN
100
AcDbLine
 10
1532.341110219565
 20
-2844.914957819631
 30
0.0
 11
1532.341110219565
 21
-2842.622273785598
 31
0.0
  0
LINE
  5
CE9A
330
2
100
AcDbEntity
  8
L-ZISSEN
100
AcDbLine
 10
1538.72390899782
 20
-2849.857142729826
 30
0.0
 11
1538.72390899782
 21
-2859.915977319335
 31
0.0
  0
LINE
  5
CE9B
330
2
100
AcDbEntity
  8
L-ZISSEN
100
AcDbLine
 10
1539.723908997821
 20
-2849.857142729826
 30
0.0
 11
1539.723908997821
 21
-2859.915977319335
 31
0.0
  0
LINE
  5
CE9C
330
2
100
AcDbEntity
  8
L-ZISSEN
100
AcDbLine
 10
1537.223908997819
 20
-2849.857142729826
 30
0.0
 11
1545.72390899782
 21
-2849.857142729826
 31
0.0
  0
ARC
  5
CE9D
330
2
100
AcDbEntity
  8
L-ZISSEN
100
AcDbCircle
 10
1526.542354811328
 20
-2837.756495382187
 30
0.0
 40
3.95306390827567
100
AcDbArc
 50
180.0780734585508
 51
244.0113010331027
  0
POLYLINE
  5
CE9E
330
2
100
AcDbEntity
  8
L-ZISSEN
100
AcDb2dPolyline
 66
     1
 10
0.0
 20
0.0
 30
0.0
 70
     1
  0
VERTEX
  5
D276
330
CE9E
100
AcDbEntity
  8
L-ZISSEN
100
AcDbVertex
100
AcDb2dVertex
 10
1541.441110219565
 20
-2834.650585949111
 30
0.0
  0
VERTEX
  5
D277
330
CE9E
100
AcDbEntity
  8
L-ZISSEN
100
AcDbVertex
100
AcDb2dVertex
 10
1542.691110219565
 20
-2833.928898112624
 30
0.0
  0
VERTEX
  5
D278
330
CE9E
100
AcDbEntity
  8
L-ZISSEN
100
AcDbVertex
100
AcDb2dVertex
 10
1543.941110219565
 20
-2834.650585949111
 30
0.0
  0
VERTEX
  5
D279
330
CE9E
100
AcDbEntity
  8
L-ZISSEN
100
AcDbVertex
100
AcDb2dVertex
 10
1543.941110219565
 20
-2836.093961622085
 30
0.0
  0
VERTEX
  5
D27A
330
CE9E
100
AcDbEntity
  8
L-ZISSEN
100
AcDbVertex
100
AcDb2dVertex
 10
1542.691110219565
 20
-2836.815649458572
 30
0.0
  0
VERTEX
  5
D27B
330
CE9E
100
AcDbEntity
  8
L-ZISSEN
100
AcDbVertex
100
AcDb2dVertex
 10
1541.441110219565
 20
-2836.093961622085
 30
0.0
  0
SEQEND
  5
D27C
330
CE9E
100
AcDbEntity
  8
L-ZISSEN
  0
ARC
  5
CE9F
330
2
100
AcDbEntity
  8
L-ZISSEN
100
AcDbCircle
 10
1558.839865627802
 20
-2837.756495382187
 30
0.0
 40
3.95306390827567
100
AcDbArc
 50
295.9886989668972
 51
359.9219265414491
  0
LINE
  5
CEA0
330
2
100
AcDbEntity
  8
L-ZISSEN
100
AcDbLine
 10
1547.187284634838
 20
-2845.418565363022
 30
0.0
 11
1547.187284634838
 21
-2847.413389275649
 31
0.0
  0
LINE
  5
CEA1
330
2
100
AcDbEntity
  8
L-ZISSEN
100
AcDbLine
 10
1551.723552617907
 20
-2845.436479826241
 30
0.0
 11
1551.723552617907
 21
-2847.395474812429
 31
0.0
  0
ARC
  5
CEA2
330
2
100
AcDbEntity
  8
L-ZISSEN
100
AcDbCircle
 10
1549.436627057814
 20
-2842.646065033555
 30
0.0
 40
5.271330170371532
100
AcDbArc
 50
244.7408933165821
 51
295.7116451148609
  0
LINE
  5
CEA3
330
2
100
AcDbEntity
  8
L-ZISSEN
100
AcDbLine
 10
1548.22390899782
 20
-2849.357142729827
 30
0.0
 11
1548.22390899782
 21
-2847.915977319335
 31
0.0
  0
LINE
  5
CEA4
330
2
100
AcDbEntity
  8
L-ZISSEN
100
AcDbLine
 10
1546.723908997824
 20
-2849.857142729826
 30
0.0
 11
1546.723908997824
 21
-2859.915977319335
 31
0.0
  0
LINE
  5
CEA5
330
2
100
AcDbEntity
  8
L-ZISSEN
100
AcDbLine
 10
1547.723908997823
 20
-2849.857142729826
 30
0.0
 11
1547.723908997825
 21
-2859.915977319335
 31
0.0
  0
LINE
  5
CEA6
330
2
100
AcDbEntity
  8
L-ZISSEN
100
AcDbLine
 10
1548.72390899782
 20
-2850.357142729826
 30
0.0
 11
1548.72390899782
 21
-2859.615977319335
 31
0.0
  0
LINE
  5
CEA7
330
2
100
AcDbEntity
  8
L-ZISSEN
100
AcDbLine
 10
1548.42390899782
 20
-2859.915977319335
 30
0.0
 11
1548.72390899782
 21
-2859.615977319336
 31
0.0
  0
LINE
  5
CEA8
330
2
100
AcDbEntity
  8
L-ZISSEN
100
AcDbLine
 10
1548.22390899782
 20
-2849.857142729826
 30
0.0
 11
1548.72390899782
 21
-2850.357142729826
 31
0.0
  0
LINE
  5
CEA9
330
2
100
AcDbEntity
  8
L-ZISSEN
100
AcDbLine
 10
1547.72390899782
 20
-2849.857142729826
 30
0.0
 11
1548.22390899782
 21
-2849.357142729827
 31
0.0
  0
LINE
  5
CEAA
330
2
100
AcDbEntity
  8
L-ZISSEN
100
AcDbLine
 10
1547.723908997824
 20
-2847.917323581757
 30
0.0
 11
1547.72390899782
 21
-2849.857142729826
 31
0.0
  0
ARC
  5
CEAB
330
2
100
AcDbEntity
  8
L-ZISSEN
100
AcDbCircle
 10
1549.436627057814
 20
-2850.185889605116
 30
0.0
 40
5.271330170371789
100
AcDbArc
 50
64.28835488513906
 51
115.2591066834178
  0
LINE
  5
CEAC
330
2
100
AcDbEntity
  8
L-ZISSEN
100
AcDbLine
 10
1553.041110219565
 20
-2844.914957819631
 30
0.0
 11
1553.041110219565
 21
-2842.622273785598
 31
0.0
  0
ARC
  5
CEAD
330
2
100
AcDbEntity
  8
L-ZISSEN
100
AcDbCircle
 10
1553.235462986835
 20
-2821.474513232945
 30
0.0
 40
21.14865360703842
100
AcDbArc
 50
269.4734534758808
 51
290.2982352280637
  0
TEXT
  5
CEAE
330
2
100
AcDbEntity
  8
L-ZISSEN
100
AcDbText
 10
1503.19291867091
 20
-2716.631361423191
 30
0.0
 40
4.5
  1
MODEL NO. F63- 00-*210
100
AcDbText
  0
LINE
  5
CEAF
330
2
100
AcDbEntity
  8
L-ZISSEN
100
AcDbLine
 10
1533.941110219565
 20
-2763.622273785597
 30
0.0
 11
1551.441110219565
 21
-2763.622273785597
 31
0.0
  0
LINE
  5
CEB0
330
2
100
AcDbEntity
  8
L-TYUSIN
100
AcDbLine
 10
1548.941110219565
 20
-2768.872273785598
 30
0.0
 11
1536.441110219565
 21
-2768.872273785598
 31
0.0
  0
CIRCLE
  5
CEB1
330
2
100
AcDbEntity
  8
L-ZISSEN
100
AcDbCircle
 10
1542.691110219565
 20
-2768.872273785598
 30
0.0
 40
3.75
  0
SOLID
  5
CEB2
330
2
100
AcDbEntity
  8
L-ZISSEN
100
AcDbTrace
 10
1540.974071638738
 20
-2756.891682279872
 30
0.0
 11
1541.400861238514
 21
-2756.37953476014
 31
0.0
 12
1542.723908997821
 22
-2757.915977319335
 32
0.0
 13
1542.723908997821
 23
-2757.915977319335
 33
0.0
  0
LINE
  5
CEB3
330
2
100
AcDbEntity
  8
L-ZISSEN
100
AcDbLine
 10
1541.187466438626
 20
-2756.635608520006
 30
0.0
 11
1527.723908997821
 21
-2745.415977319335
 31
0.0
  0
LINE
  5
CEB4
330
2
100
AcDbEntity
  8
L-ZISSEN
100
AcDbLine
 10
1540.191110219565
 20
-2775.122273785597
 30
0.0
 11
1545.191110219565
 21
-2775.122273785598
 31
0.0
  0
LINE
  5
CEB5
330
2
100
AcDbEntity
  8
L-ZISSEN
100
AcDbLine
 10
1529.441110219566
 20
-2766.09115599408
 30
0.0
 11
1529.441110219566
 21
-2775.122273785597
 31
0.0
  0
LINE
  5
CEB6
330
2
100
AcDbEntity
  8
L-ZISSEN
100
AcDbLine
 10
1524.441110219566
 20
-2766.09115599408
 30
0.0
 11
1524.441110219566
 21
-2775.122273785597
 31
0.0
  0
LINE
  5
CEB7
330
2
100
AcDbEntity
  8
L-ZISSEN
100
AcDbLine
 10
1529.441110219565
 20
-2775.122273785597
 30
0.0
 11
1533.941110219565
 21
-2775.122273785597
 31
0.0
  0
LINE
  5
CEB8
330
2
100
AcDbEntity
  8
L-ZISSEN
100
AcDbLine
 10
1529.441110219566
 20
-2766.09115599408
 30
0.0
 11
1524.441110219566
 21
-2766.09115599408
 31
0.0
  0
LINE
  5
CEB9
330
2
100
AcDbEntity
  8
L-ZISSEN
100
AcDbLine
 10
1524.441110219566
 20
-2775.122273785597
 30
0.0
 11
1520.854014328607
 21
-2775.122273785597
 31
0.0
  0
POLYLINE
  5
CEBA
330
2
100
AcDbEntity
  8
L-ZISSEN
100
AcDb2dPolyline
 66
     1
 10
0.0
 20
0.0
 30
0.0
 70
     1
  0
VERTEX
  5
D27D
330
CEBA
100
AcDbEntity
  8
L-ZISSEN
100
AcDbVertex
100
AcDb2dVertex
 10
1541.441110219565
 20
-2769.593961622085
 30
0.0
  0
VERTEX
  5
D27E
330
CEBA
100
AcDbEntity
  8
L-ZISSEN
100
AcDbVertex
100
AcDb2dVertex
 10
1542.691110219565
 20
-2770.315649458572
 30
0.0
  0
VERTEX
  5
D27F
330
CEBA
100
AcDbEntity
  8
L-ZISSEN
100
AcDbVertex
100
AcDb2dVertex
 10
1543.941110219565
 20
-2769.593961622085
 30
0.0
  0
VERTEX
  5
D280
330
CEBA
100
AcDbEntity
  8
L-ZISSEN
100
AcDbVertex
100
AcDb2dVertex
 10
1543.941110219565
 20
-2768.15058594911
 30
0.0
  0
VERTEX
  5
D281
330
CEBA
100
AcDbEntity
  8
L-ZISSEN
100
AcDbVertex
100
AcDb2dVertex
 10
1542.691110219565
 20
-2767.428898112624
 30
0.0
  0
VERTEX
  5
D282
330
CEBA
100
AcDbEntity
  8
L-ZISSEN
100
AcDbVertex
100
AcDb2dVertex
 10
1541.441110219565
 20
-2768.15058594911
 30
0.0
  0
SEQEND
  5
D283
330
CEBA
100
AcDbEntity
  8
L-ZISSEN
  0
TEXT
  5
CEBB
330
2
100
AcDbEntity
  8
L-ZISSEN
100
AcDbText
 10
1514.723908997821
 20
-2747.665977319335
 30
0.0
 40
4.5
  1
P.P
100
AcDbText
  0
LINE
  5
CEBC
330
2
100
AcDbEntity
  8
L-ZISSEN
100
AcDbLine
 10
1527.723908997821
 20
-2745.415977319335
 30
0.0
 11
1525.723908997821
 21
-2745.415977319335
 31
0.0
  0
LINE
  5
CEBD
330
2
100
AcDbEntity
  8
L-ZISSEN
100
AcDbLine
 10
1568.576318951677
 20
-2758.078356985597
 30
0.0
 11
1565.000366983874
 21
-2758.078356985597
 31
0.0
  0
LINE
  5
CEBE
330
2
100
AcDbEntity
  8
L-ZISSEN
100
AcDbLine
 10
1566.915978567792
 20
-2797.222273785596
 30
0.0
 11
1563.847669543751
 21
-2799.688071754362
 31
0.0
  0
LINE
  5
CEBF
330
2
100
AcDbEntity
  8
L-ZISSEN
100
AcDbLine
 10
1564.193952090546
 20
-2787.188071754362
 30
0.0
 11
1566.915978567792
 21
-2787.188071754362
 31
0.0
  0
LINE
  5
CEC0
330
2
100
AcDbEntity
  8
L-ZISSEN
100
AcDbLine
 10
1560.941110219564
 20
-2775.122273785597
 30
0.0
 11
1564.528206110525
 21
-2775.122273785597
 31
0.0
  0
LINE
  5
CEC1
330
2
100
AcDbEntity
  8
L-ZISSEN
100
AcDbLine
 10
1560.941110219564
 20
-2766.09115599408
 30
0.0
 11
1560.941110219564
 21
-2775.122273785597
 31
0.0
  0
LINE
  5
CEC2
330
2
100
AcDbEntity
  8
L-ZISSEN
100
AcDbLine
 10
1566.915978567792
 20
-2780.078356985598
 30
0.0
 11
1566.915978567792
 21
-2797.222273785596
 31
0.0
  0
LINE
  5
CEC3
330
2
100
AcDbEntity
  8
L-ZISSEN
100
AcDbLine
 10
1565.715978567792
 20
-2787.188071754362
 30
0.0
 11
1565.715978567792
 21
-2775.79056624632
 31
0.0
  0
LINE
  5
CEC4
330
2
100
AcDbEntity
  8
L-ZISSEN
 48
5.0
100
AcDbLine
 10
1571.488485351677
 20
-2775.546627030342
 30
0.0
 11
1571.488485351677
 21
-2778.665680271103
 31
0.0
  0
LINE
  5
CEC5
330
2
100
AcDbEntity
  8
L-ZISSEN
 48
5.0
100
AcDbLine
 10
1571.488485351677
 20
-2778.665680271103
 30
0.0
 11
1567.484256551677
 21
-2780.15881584632
 31
0.0
  0
LINE
  5
CEC6
330
2
100
AcDbEntity
  8
L-ZISSEN
 48
5.0
100
AcDbLine
 10
1567.484256551677
 20
-2780.15881584632
 30
0.0
 11
1566.915978567792
 21
-2780.15881584632
 31
0.0
  0
LINE
  5
CEC7
330
2
100
AcDbEntity
  8
L-ZISSEN
 48
5.0
100
AcDbLine
 10
1568.576318951677
 20
-2775.06252464632
 30
0.0
 11
1571.488485351677
 21
-2775.546627030342
 31
0.0
  0
LINE
  5
CEC8
330
2
100
AcDbEntity
  8
L-ZISSEN
 48
5.0
100
AcDbLine
 10
1564.5096926693
 20
-2775.79056624632
 30
0.0
 11
1566.915978567792
 21
-2775.79056624632
 31
0.0
  0
LINE
  5
CEC9
330
2
100
AcDbEntity
  8
L-ZISSEN
 48
5.0
100
AcDbLine
 10
1566.915978567792
 20
-2775.79056624632
 30
0.0
 11
1564.936110951677
 21
-2775.79056624632
 31
0.0
  0
LINE
  5
CECA
330
2
100
AcDbEntity
  8
L-ZISSEN
100
AcDbLine
 10
1555.941110219564
 20
-2766.09115599408
 30
0.0
 11
1555.941110219564
 21
-2775.122273785597
 31
0.0
  0
LINE
  5
CECB
330
2
100
AcDbEntity
  8
L-ZISSEN
100
AcDbLine
 10
1555.941110219565
 20
-2775.122273785597
 30
0.0
 11
1551.441110219565
 21
-2775.122273785597
 31
0.0
  0
LINE
  5
CECC
330
2
100
AcDbEntity
  8
L-ZISSEN
100
AcDbLine
 10
1555.941110219564
 20
-2766.09115599408
 30
0.0
 11
1560.941110219564
 21
-2766.09115599408
 31
0.0
  0
LINE
  5
CECD
330
2
100
AcDbEntity
  8
L-ZISSEN
 48
5.0
100
AcDbLine
 10
1568.576318951677
 20
-2758.078356985598
 30
0.0
 11
1568.576318951677
 21
-2775.06252464632
 31
0.0
  0
LINE
  5
CECE
330
2
100
AcDbEntity
  8
L-ZISSEN
 48
5.0
100
AcDbLine
 10
1566.915978567792
 20
-2780.078356985598
 30
0.0
 11
1566.936595626857
 21
-2758.078356985598
 31
0.0
  0
TEXT
  5
CECF
330
2
100
AcDbEntity
  8
L-ZISSEN
100
AcDbText
 10
1563.291851379213
 20
-2713.274916386177
 30
0.0
 40
4.5
  1
2
100
AcDbText
  0
TEXT
  5
CED0
330
2
100
AcDbEntity
  8
L-ZISSEN
100
AcDbText
 10
1563.291851379213
 20
-2719.785780056377
 30
0.0
 40
4.5
  1
3
100
AcDbText
  0
LINE
  5
CED1
330
2
100
AcDbEntity
  8
L-ZISSEN
100
AcDbLine
 10
1665.03316576213
 20
-2758.078356985597
 30
0.0
 11
1662.82572464434
 21
-2837.761881979215
 31
0.0
  0
LINE
  5
CED2
330
2
100
AcDbEntity
  8
L-ZISSEN
100
AcDbLine
 10
1608.76398559151
 20
-2763.622273785597
 30
0.0
 11
1608.763985591512
 21
-2840.622273785598
 31
0.0
  0
LINE
  5
CED3
330
2
100
AcDbEntity
  8
L-ZISSEN
100
AcDbLine
 10
1618.263985591511
 20
-2840.622273785598
 30
0.0
 11
1618.263985591511
 21
-2763.622273785597
 31
0.0
  0
LINE
  5
CED4
330
2
100
AcDbEntity
  8
L-ZISSEN
100
AcDbLine
 10
1620.414652233514
 20
-2758.078356985597
 30
0.0
 11
1622.622093351302
 21
-2837.761881979215
 31
0.0
  0
ARC
  5
CED5
330
2
100
AcDbEntity
  8
L-ZISSEN
100
AcDbCircle
 10
1649.46942583607
 20
-2842.646065033555
 30
0.0
 40
5.271330170371532
100
AcDbArc
 50
244.7408933165821
 51
295.7116451148609
  0
ARC
  5
CED6
330
2
100
AcDbEntity
  8
L-ZISSEN
100
AcDbCircle
 10
1649.46942583607
 20
-2850.185889605116
 30
0.0
 40
5.271330170371789
100
AcDbArc
 50
64.28835488513906
 51
115.2591066834178
  0
LINE
  5
CED7
330
2
100
AcDbEntity
  8
L-ZISSEN
100
AcDbLine
 10
1632.373908997821
 20
-2842.622273785598
 30
0.0
 11
1653.073908997821
 21
-2842.622273785598
 31
0.0
  0
LINE
  5
CED8
330
2
100
AcDbEntity
  8
L-ZISSEN
100
AcDbLine
 10
1632.373908997821
 20
-2844.914957819631
 30
0.0
 11
1653.073908997821
 21
-2844.914957819631
 31
0.0
  0
ARC
  5
CED9
330
2
100
AcDbEntity
  8
L-ZISSEN
100
AcDbCircle
 10
1626.575153589584
 20
-2837.756495382187
 30
0.0
 40
3.95306390827567
100
AcDbArc
 50
180.0780734585508
 51
244.0113010331027
  0
LINE
  5
CEDA
330
2
100
AcDbEntity
  8
L-ZISSEN
100
AcDbLine
 10
1623.877778141319
 20
-2840.622273785598
 30
0.0
 11
1618.263985591511
 21
-2840.622273785598
 31
0.0
  0
LINE
  5
CEDB
330
2
100
AcDbEntity
  8
L-ZISSEN
100
AcDbLine
 10
1608.76398559151
 20
-2840.622273785598
 30
0.0
 11
1618.26398559151
 21
-2840.622273785598
 31
0.0
  0
LINE
  5
CEDC
330
2
100
AcDbEntity
  8
L-ZISSEN
100
AcDbLine
 10
1606.863985591511
 20
-2836.815649458571
 30
0.0
 11
1606.86398559151
 21
-2833.928898112624
 31
0.0
  0
ARC
  5
CEDD
330
2
100
AcDbEntity
  8
L-ZISSEN
100
AcDbCircle
 10
1609.175988159288
 20
-2836.847060301416
 30
0.0
 40
2.312215931624567
100
AcDbArc
 50
179.2216280233924
 51
259.735931627791
  0
ARC
  5
CEDE
330
2
100
AcDbEntity
  8
L-ZISSEN
100
AcDbCircle
 10
1609.175988159288
 20
-2833.89748726978
 30
0.0
 40
2.312215931624567
100
AcDbArc
 50
100.264068372209
 51
180.7783719766075
  0
LINE
  5
CEDF
330
2
100
AcDbEntity
  8
L-TYUSIN
100
AcDbLine
 10
1623.272047302583
 20
-2835.522273785598
 30
0.0
 11
1601.86398559151
 21
-2835.522273785601
 31
0.0
  0
LINE
  5
CEE0
330
2
100
AcDbEntity
  8
L-ZISSEN
100
AcDbLine
 10
1638.227171458058
 20
-2845.419096477284
 30
0.0
 11
1638.227171458065
 21
-2847.412858161387
 31
0.0
  0
LINE
  5
CEE1
330
2
100
AcDbEntity
  8
L-ZISSEN
100
AcDbLine
 10
1647.220083413094
 20
-2845.418565363022
 30
0.0
 11
1647.220083413094
 21
-2847.413389275649
 31
0.0
  0
LINE
  5
CEE2
330
2
100
AcDbEntity
  8
L-ZISSEN
100
AcDbLine
 10
1648.256707776075
 20
-2849.357142729827
 30
0.0
 11
1648.256707776075
 21
-2847.915977319335
 31
0.0
  0
LINE
  5
CEE3
330
2
100
AcDbEntity
  8
L-ZISSEN
100
AcDbLine
 10
1645.756707776076
 20
-2849.857142729826
 30
0.0
 11
1645.756707776076
 21
-2859.915977319335
 31
0.0
  0
LINE
  5
CEE4
330
2
100
AcDbEntity
  8
L-ZISSEN
100
AcDbLine
 10
1646.75670777608
 20
-2849.857142729826
 30
0.0
 11
1646.75670777608
 21
-2859.915977319335
 31
0.0
  0
LINE
  5
CEE5
330
2
100
AcDbEntity
  8
L-ZISSEN
100
AcDbLine
 10
1647.756707776079
 20
-2849.857142729826
 30
0.0
 11
1647.756707776081
 21
-2859.915977319335
 31
0.0
  0
LINE
  5
CEE6
330
2
100
AcDbEntity
  8
L-ZISSEN
100
AcDbLine
 10
1648.756707776075
 20
-2850.357142729826
 30
0.0
 11
1648.756707776075
 21
-2859.615977319335
 31
0.0
  0
LINE
  5
CEE7
330
2
100
AcDbEntity
  8
L-ZISSEN
100
AcDbLine
 10
1648.456707776076
 20
-2859.915977319335
 30
0.0
 11
1648.756707776075
 21
-2859.615977319336
 31
0.0
  0
LINE
  5
CEE8
330
2
100
AcDbEntity
  8
L-ZISSEN
100
AcDbLine
 10
1648.256707776076
 20
-2849.857142729826
 30
0.0
 11
1648.756707776075
 21
-2850.357142729826
 31
0.0
  0
LINE
  5
CEE9
330
2
100
AcDbEntity
  8
L-ZISSEN
100
AcDbLine
 10
1645.756707776076
 20
-2849.857142729826
 30
0.0
 11
1648.256707776076
 21
-2849.857142729826
 31
0.0
  0
LINE
  5
CEEA
330
2
100
AcDbEntity
  8
L-ZISSEN
100
AcDbLine
 10
1647.756707776076
 20
-2849.857142729826
 30
0.0
 11
1648.256707776075
 21
-2849.357142729827
 31
0.0
  0
LINE
  5
CEEB
330
2
100
AcDbEntity
  8
L-ZISSEN
100
AcDbLine
 10
1647.75670777608
 20
-2847.917323581757
 30
0.0
 11
1647.756707776076
 21
-2849.857142729826
 31
0.0
  0
LINE
  5
CEEC
330
2
100
AcDbEntity
  8
L-ZISSEN
100
AcDbLine
 10
1638.756707776076
 20
-2849.857142729826
 30
0.0
 11
1638.756707776076
 21
-2859.915977319335
 31
0.0
  0
LINE
  5
CEED
330
2
100
AcDbEntity
  8
L-ZISSEN
100
AcDbLine
 10
1639.756707776077
 20
-2849.857142729826
 30
0.0
 11
1639.756707776077
 21
-2859.915977319335
 31
0.0
  0
LINE
  5
CEEE
330
2
100
AcDbEntity
  8
L-ZISSEN
100
AcDbLine
 10
1640.756707776079
 20
-2849.857142729826
 30
0.0
 11
1640.756707776079
 21
-2859.915977319335
 31
0.0
  0
LINE
  5
CEEF
330
2
100
AcDbEntity
  8
L-ZISSEN
100
AcDbLine
 10
1641.756707776077
 20
-2849.857142729826
 30
0.0
 11
1641.756707776077
 21
-2859.915977319335
 31
0.0
  0
LINE
  5
CEF0
330
2
100
AcDbEntity
  8
L-ZISSEN
100
AcDbLine
 10
1642.756707776079
 20
-2849.857142729826
 30
0.0
 11
1642.756707776079
 21
-2859.915977319335
 31
0.0
  0
LINE
  5
CEF1
330
2
100
AcDbEntity
  8
L-ZISSEN
100
AcDbLine
 10
1643.756707776078
 20
-2849.857142729826
 30
0.0
 11
1643.756707776078
 21
-2859.915977319335
 31
0.0
  0
LINE
  5
CEF2
330
2
100
AcDbEntity
  8
L-ZISSEN
100
AcDbLine
 10
1644.756707776077
 20
-2849.857142729826
 30
0.0
 11
1644.756707776077
 21
-2859.915977319335
 31
0.0
  0
ARC
  5
CEF3
330
2
100
AcDbEntity
  8
L-ZISSEN
100
AcDbCircle
 10
1642.756707776077
 20
-2827.274914645418
 30
0.0
 40
20.64106267391694
100
AcDbArc
 50
257.3236813122643
 51
282.4944195184325
  0
ARC
  5
CEF4
330
2
100
AcDbEntity
  8
L-ZISSEN
100
AcDbCircle
 10
1642.756707776077
 20
-2865.557039993252
 30
0.0
 40
20.64106267391679
100
AcDbArc
 50
77.50558048156747
 51
102.6763186877484
  0
LINE
  5
CEF5
330
2
100
AcDbEntity
  8
L-ZISSEN
100
AcDbLine
 10
1633.757064155992
 20
-2845.406244589279
 30
0.0
 11
1633.757064155992
 21
-2847.425710049391
 31
0.0
  0
ARC
  5
CEF6
330
2
100
AcDbEntity
  8
L-ZISSEN
100
AcDbCircle
 10
1632.179556230551
 20
-2821.474513232945
 30
0.0
 40
21.14865360703842
100
AcDbArc
 50
249.7017647719361
 51
270.5265465241191
  0
LINE
  5
CEF7
330
2
100
AcDbEntity
  8
L-ZISSEN
100
AcDbLine
 10
1632.373908997821
 20
-2844.914957819631
 30
0.0
 11
1632.373908997821
 21
-2842.622273785598
 31
0.0
  0
LINE
  5
CEF8
330
2
100
AcDbEntity
  8
L-ZISSEN
100
AcDbLine
 10
1637.256707776077
 20
-2849.357142729827
 30
0.0
 11
1637.256707776077
 21
-2847.915977319335
 31
0.0
  0
LINE
  5
CEF9
330
2
100
AcDbEntity
  8
L-ZISSEN
100
AcDbLine
 10
1636.756707776077
 20
-2859.615977319335
 30
0.0
 11
1636.756707776077
 21
-2850.357142729826
 31
0.0
  0
LINE
  5
CEFA
330
2
100
AcDbEntity
  8
L-ZISSEN
100
AcDbLine
 10
1637.756707776077
 20
-2849.857142729826
 30
0.0
 11
1637.756707776077
 21
-2859.915977319335
 31
0.0
  0
LINE
  5
CEFB
330
2
100
AcDbEntity
  8
L-ZISSEN
100
AcDbLine
 10
1637.056707776077
 20
-2859.915977319335
 30
0.0
 11
1636.756707776077
 21
-2859.615977319336
 31
0.0
  0
LINE
  5
CEFC
330
2
100
AcDbEntity
  8
L-ZISSEN
100
AcDbLine
 10
1637.256707776074
 20
-2849.857142729826
 30
0.0
 11
1636.756707776077
 21
-2850.357142729826
 31
0.0
  0
LINE
  5
CEFD
330
2
100
AcDbEntity
  8
L-ZISSEN
100
AcDbLine
 10
1637.756707776075
 20
-2849.857142729826
 30
0.0
 11
1637.256707776077
 21
-2849.357142729827
 31
0.0
  0
LINE
  5
CEFE
330
2
100
AcDbEntity
  8
L-ZISSEN
100
AcDbLine
 10
1637.756707776079
 20
-2847.916673930463
 30
0.0
 11
1637.756707776075
 21
-2849.857142729826
 31
0.0
  0
ARC
  5
CEFF
330
2
100
AcDbEntity
  8
L-ZISSEN
100
AcDbCircle
 10
1635.978392159572
 20
-2842.645268263785
 30
0.0
 40
5.271330170370607
100
AcDbArc
 50
245.0771192748252
 51
295.2523389966426
  0
LINE
  5
CF00
330
2
100
AcDbEntity
  8
L-ZISSEN
100
AcDbLine
 10
1635.978392159572
 20
-2847.916598434155
 30
0.0
 11
1649.46942583607
 21
-2847.917395203926
 31
0.0
  0
ARC
  5
CF01
330
2
100
AcDbEntity
  8
L-ZISSEN
100
AcDbCircle
 10
1635.978392159572
 20
-2850.186686374886
 30
0.0
 40
5.271330170370607
100
AcDbArc
 50
64.74766100341561
 51
114.9228807251748
  0
LINE
  5
CF02
330
2
100
AcDbEntity
  8
L-ZISSEN
100
AcDbLine
 10
1635.978392159572
 20
-2844.915356204516
 30
0.0
 11
1649.46942583607
 21
-2844.914559434745
 31
0.0
  0
LINE
  5
CF03
330
2
100
AcDbEntity
  8
L-ZISSEN
100
AcDbLine
 10
1648.456707776076
 20
-2859.915977319335
 30
0.0
 11
1637.056707776077
 21
-2859.915977319335
 31
0.0
  0
LINE
  5
CF04
330
2
100
AcDbEntity
  8
L-ZISSEN
100
AcDbLine
 10
1637.256707776074
 20
-2849.857142729826
 30
0.0
 11
1645.756707776076
 21
-2849.857142729826
 31
0.0
  0
ARC
  5
CF05
330
2
100
AcDbEntity
  8
L-ZISSEN
100
AcDbCircle
 10
1658.872664406058
 20
-2837.756495382187
 30
0.0
 40
3.95306390827567
100
AcDbArc
 50
295.9886989668972
 51
359.9219265414491
  0
LINE
  5
CF06
330
2
100
AcDbEntity
  8
L-ZISSEN
100
AcDbLine
 10
1651.756351396163
 20
-2845.436479826241
 30
0.0
 11
1651.756351396163
 21
-2847.395474812429
 31
0.0
  0
LINE
  5
CF07
330
2
100
AcDbEntity
  8
L-ZISSEN
100
AcDbLine
 10
1653.073908997821
 20
-2844.914957819631
 30
0.0
 11
1653.073908997821
 21
-2842.622273785598
 31
0.0
  0
ARC
  5
CF08
330
2
100
AcDbEntity
  8
L-ZISSEN
100
AcDbCircle
 10
1653.268261765091
 20
-2821.474513232945
 30
0.0
 40
21.14865360703842
100
AcDbArc
 50
269.4734534758808
 51
290.2982352280637
  0
LINE
  5
CF09
330
2
100
AcDbEntity
  8
L-ZISSEN
100
AcDbLine
 10
1648.473908997821
 20
-2787.022273785596
 30
0.0
 11
1650.973908997821
 21
-2787.022273785596
 31
0.0
  0
LINE
  5
CF0A
330
2
100
AcDbEntity
  8
L-ZISSEN
100
AcDbLine
 10
1650.914376997822
 20
-2777.894232185597
 30
0.0
 11
1649.663271367882
 21
-2777.132424313839
 31
0.0
  0
LINE
  5
CF0B
330
2
100
AcDbEntity
  8
L-ZISSEN
100
AcDbLine
 10
1649.663271367882
 20
-2774.474830688182
 30
0.0
 11
1650.368345797821
 21
-2773.890003385598
 31
0.0
  0
LINE
  5
CF0C
330
2
100
AcDbEntity
  8
L-ZISSEN
100
AcDbLine
 10
1649.663271367882
 20
-2773.99072830416
 30
0.0
 11
1650.368345797821
 21
-2773.890003385598
 31
0.0
  0
LINE
  5
CF0D
330
2
100
AcDbEntity
  8
L-ZISSEN
100
AcDbLine
 10
1642.723908997821
 20
-2780.078356985598
 30
0.0
 11
1650.914376997822
 21
-2777.894232185597
 31
0.0
  0
LINE
  5
CF0E
330
2
100
AcDbEntity
  8
L-ZISSEN
100
AcDbLine
 10
1642.723908997821
 20
-2774.982065785598
 30
0.0
 11
1650.368345797821
 21
-2773.890003385598
 31
0.0
  0
LINE
  5
CF0F
330
2
100
AcDbEntity
  8
L-ZISSEN
100
AcDbLine
 10
1634.473908997821
 20
-2799.022273785596
 30
0.0
 11
1650.973908997821
 21
-2799.022273785596
 31
0.0
  0
LINE
  5
CF10
330
2
100
AcDbEntity
  8
L-ZISSEN
100
AcDbLine
 10
1634.823908997821
 20
-2797.222273785595
 30
0.0
 11
1650.62390899782
 21
-2797.222273785595
 31
0.0
  0
SOLID
  5
CF11
330
2
100
AcDbEntity
  8
L-ZISSEN
100
AcDbTrace
 10
1640.974071638738
 20
-2756.891682279872
 30
0.0
 11
1641.400861238514
 21
-2756.37953476014
 31
0.0
 12
1642.723908997821
 22
-2757.915977319335
 32
0.0
 13
1642.723908997821
 23
-2757.915977319335
 33
0.0
  0
LINE
  5
CF12
330
2
100
AcDbEntity
  8
L-ZISSEN
100
AcDbLine
 10
1641.187466438626
 20
-2756.635608520006
 30
0.0
 11
1627.723908997821
 21
-2745.415977319335
 31
0.0
  0
LINE
  5
CF13
330
2
100
AcDbEntity
  8
L-ZISSEN
100
AcDbLine
 10
1624.473908997822
 20
-2775.122273785597
 30
0.0
 11
1620.886813106862
 21
-2775.122273785597
 31
0.0
  0
LINE
  5
CF14
330
2
100
AcDbEntity
  8
L-ZISSEN
100
AcDbLine
 10
1608.76398559151
 20
-2763.622273785597
 30
0.0
 11
1618.26398559151
 21
-2763.622273785597
 31
0.0
  0
ARC
  5
CF15
330
2
100
AcDbEntity
  8
L-ZISSEN
100
AcDbCircle
 10
1609.175988159288
 20
-2767.397487269779
 30
0.0
 40
2.312215931624567
100
AcDbArc
 50
100.264068372209
 51
180.7783719766075
  0
LINE
  5
CF16
330
2
100
AcDbEntity
  8
L-ZISSEN
100
AcDbLine
 10
1606.863985591511
 20
-2767.428898112624
 30
0.0
 11
1606.86398559151
 21
-2770.315649458571
 31
0.0
  0
ARC
  5
CF17
330
2
100
AcDbEntity
  8
L-ZISSEN
100
AcDbCircle
 10
1609.175988159288
 20
-2770.347060301415
 30
0.0
 40
2.312215931624567
100
AcDbArc
 50
179.2216280233924
 51
259.735931627791
  0
LINE
  5
CF18
330
2
100
AcDbEntity
  8
L-ZISSEN
100
AcDbLine
 10
1620.568233163812
 20
-2763.622273785597
 30
0.0
 11
1618.263985591511
 21
-2763.622273785598
 31
0.0
  0
LINE
  5
CF19
330
2
100
AcDbEntity
  8
L-TYUSIN
100
AcDbLine
 10
1601.86398559151
 20
-2768.822273785599
 30
0.0
 11
1621.529606123591
 21
-2768.822273785599
 31
0.0
  0
LINE
  5
CF1A
330
2
100
AcDbEntity
  8
L-ZISSEN
100
AcDbLine
 10
1647.456179397822
 20
-2762.1334001856
 30
0.0
 11
1647.456179397822
 21
-2761.4053585856
 31
0.0
  0
LINE
  5
CF1B
330
2
100
AcDbEntity
  8
L-ZISSEN
100
AcDbLine
 10
1643.45195059782
 20
-2760.677316985598
 30
0.0
 11
1641.99586739782
 21
-2760.677316985598
 31
0.0
  0
LINE
  5
CF1C
330
2
100
AcDbEntity
  8
L-ZISSEN
100
AcDbLine
 10
1644.544012997823
 20
-2762.1334001856
 30
0.0
 11
1647.456179397822
 21
-2762.1334001856
 31
0.0
  0
LINE
  5
CF1D
330
2
100
AcDbEntity
  8
L-ZISSEN
100
AcDbLine
 10
1644.544012997823
 20
-2762.1334001856
 30
0.0
 11
1647.456179397822
 21
-2762.1334001856
 31
0.0
  0
LINE
  5
CF1E
330
2
100
AcDbEntity
  8
L-ZISSEN
100
AcDbLine
 10
1634.473908997819
 20
-2758.922273785592
 30
0.0
 11
1632.223908997819
 21
-2758.922273785592
 31
0.0
  0
LINE
  5
CF1F
330
2
100
AcDbEntity
  8
L-ZISSEN
100
AcDbLine
 10
1637.991638597818
 20
-2762.1334001856
 30
0.0
 11
1637.991638597818
 21
-2761.4053585856
 31
0.0
  0
LINE
  5
CF20
330
2
100
AcDbEntity
  8
L-ZISSEN
100
AcDbLine
 10
1640.903804997818
 20
-2762.1334001856
 30
0.0
 11
1637.991638597818
 21
-2762.1334001856
 31
0.0
  0
LINE
  5
CF21
330
2
100
AcDbEntity
  8
L-ZISSEN
100
AcDbLine
 10
1640.903804997818
 20
-2762.1334001856
 30
0.0
 11
1637.991638597818
 21
-2762.1334001856
 31
0.0
  0
LINE
  5
CF22
330
2
100
AcDbEntity
  8
L-ZISSEN
100
AcDbLine
 10
1647.456179397822
 20
-2763.5894833856
 30
0.0
 11
1649.276283397822
 21
-2762.4974209856
 31
0.0
  0
LINE
  5
CF23
330
2
100
AcDbEntity
  8
L-ZISSEN
100
AcDbLine
 10
1647.456179397822
 20
-2762.861441785601
 30
0.0
 11
1647.456179397822
 21
-2763.5894833856
 31
0.0
  0
LINE
  5
CF24
330
2
100
AcDbEntity
  8
L-ZISSEN
100
AcDbLine
 10
1649.663271367882
 20
-2774.474830688182
 30
0.0
 11
1649.663271367882
 21
-2777.132424313839
 31
0.0
  0
LINE
  5
CF25
330
2
100
AcDbEntity
  8
L-ZISSEN
100
AcDbLine
 10
1648.723908997821
 20
-2787.022273785596
 30
0.0
 11
1648.723908997821
 21
-2795.022273785596
 31
0.0
  0
LINE
  5
CF26
330
2
100
AcDbEntity
  8
L-TYUSIN
100
AcDbLine
 10
1645.723908997821
 20
-2789.72585330953
 30
0.0
 11
1645.723908997821
 21
-2792.37295137629
 31
0.0
  0
LINE
  5
CF27
330
2
100
AcDbEntity
  8
L-ZISSEN
100
AcDbLine
 10
1648.473908997821
 20
-2778.545023652265
 30
0.0
 11
1648.473908997821
 21
-2795.022273785596
 31
0.0
  0
LINE
  5
CF28
330
2
100
AcDbEntity
  8
L-ZISSEN
100
AcDbLine
 10
1643.45195059782
 20
-2767.701649785598
 30
0.0
 11
1644.90803379782
 21
-2767.701649785598
 31
0.0
  0
LINE
  5
CF29
330
2
100
AcDbEntity
  8
L-ZISSEN
100
AcDbLine
 10
1641.99586739782
 20
-2767.701649785598
 30
0.0
 11
1640.53978419782
 21
-2767.701649785598
 31
0.0
  0
LINE
  5
CF2A
330
2
100
AcDbEntity
  8
L-ZISSEN
100
AcDbLine
 10
1644.90803379782
 20
-2767.701649785598
 30
0.0
 11
1642.72390899782
 21
-2771.341857785598
 31
0.0
  0
LINE
  5
CF2B
330
2
100
AcDbEntity
  8
L-ZISSEN
100
AcDbLine
 10
1640.53978419782
 20
-2767.701649785598
 30
0.0
 11
1642.72390899782
 21
-2771.341857785598
 31
0.0
  0
LINE
  5
CF2C
330
2
100
AcDbEntity
  8
L-TYUSIN
100
AcDbLine
 10
1639.723908997821
 20
-2789.890124149418
 30
0.0
 11
1639.723908997821
 21
-2792.198033740451
 31
0.0
  0
ARC
  5
CF2D
330
2
100
AcDbEntity
  8
L-ZISSEN
100
AcDbCircle
 10
1642.723908997821
 20
-2782.272273785596
 30
0.0
 40
1.25
100
AcDbArc
 50
180.0
 51
0.0
  0
LINE
  5
CF2E
330
2
100
AcDbEntity
  8
L-ZISSEN
100
AcDbLine
 10
1641.473908997821
 20
-2782.272273785596
 30
0.0
 11
1641.473908997821
 21
-2779.745023652264
 31
0.0
  0
LINE
  5
CF2F
330
2
100
AcDbEntity
  8
L-ZISSEN
100
AcDbLine
 10
1643.973908997821
 20
-2782.272273785596
 30
0.0
 11
1643.973908997821
 21
-2779.745023652264
 31
0.0
  0
LINE
  5
CF30
330
2
100
AcDbEntity
  8
L-ZISSEN
100
AcDbLine
 10
1644.544012997823
 20
-2762.861441785601
 30
0.0
 11
1647.456179397822
 21
-2762.861441785601
 31
0.0
  0
LINE
  5
CF31
330
2
100
AcDbEntity
  8
L-ZISSEN
100
AcDbLine
 10
1644.544012997823
 20
-2762.861441785601
 30
0.0
 11
1647.456179397822
 21
-2762.861441785601
 31
0.0
  0
CIRCLE
  5
CF32
330
2
100
AcDbEntity
  8
L-ZISSEN
100
AcDbCircle
 10
1645.723908997821
 20
-2791.022273785596
 30
0.0
 40
2.0
  0
LINE
  5
CF33
330
2
100
AcDbEntity
  8
L-ZISSEN
100
AcDbLine
 10
1649.663271367882
 20
-2777.132424313839
 30
0.0
 11
1642.723908997821
 21
-2778.585221410381
 31
0.0
  0
LINE
  5
CF34
330
2
100
AcDbEntity
  8
L-ZISSEN
100
AcDbLine
 10
1642.723908997821
 20
-2775.46616816962
 30
0.0
 11
1649.663271367882
 21
-2774.474830688182
 31
0.0
  0
LINE
  5
CF35
330
2
100
AcDbEntity
  8
L-ZISSEN
100
AcDbLine
 10
1637.991638597818
 20
-2763.5894833856
 30
0.0
 11
1636.171534597818
 21
-2762.4974209856
 31
0.0
  0
LINE
  5
CF36
330
2
100
AcDbEntity
  8
L-ZISSEN
100
AcDbLine
 10
1634.473908997821
 20
-2787.022273785596
 30
0.0
 11
1636.973908997821
 21
-2787.022273785596
 31
0.0
  0
LINE
  5
CF37
330
2
100
AcDbEntity
  8
L-ZISSEN
100
AcDbLine
 10
1634.823908997821
 20
-2787.022273785596
 30
0.0
 11
1634.823908997821
 21
-2797.222273785595
 31
0.0
  0
LINE
  5
CF38
330
2
100
AcDbEntity
  8
L-ZISSEN
100
AcDbLine
 10
1634.823908997821
 20
-2797.222273785595
 30
0.0
 11
1634.473908997821
 21
-2799.022273785596
 31
0.0
  0
LINE
  5
CF39
330
2
100
AcDbEntity
  8
L-ZISSEN
100
AcDbLine
 10
1629.473908997821
 20
-2775.122273785597
 30
0.0
 11
1634.473908997821
 21
-2775.122273785597
 31
0.0
  0
LINE
  5
CF3A
330
2
100
AcDbEntity
  8
L-ZISSEN
100
AcDbLine
 10
1629.473908997822
 20
-2766.09115599408
 30
0.0
 11
1629.473908997822
 21
-2775.122273785597
 31
0.0
  0
LINE
  5
CF3B
330
2
100
AcDbEntity
  8
L-ZISSEN
100
AcDbLine
 10
1624.473908997822
 20
-2766.09115599408
 30
0.0
 11
1624.473908997822
 21
-2775.122273785597
 31
0.0
  0
LINE
  5
CF3C
330
2
100
AcDbEntity
  8
L-ZISSEN
100
AcDbLine
 10
1629.473908997822
 20
-2766.09115599408
 30
0.0
 11
1624.473908997822
 21
-2766.09115599408
 31
0.0
  0
LINE
  5
CF3D
330
2
100
AcDbEntity
  8
L-ZISSEN
100
AcDbLine
 10
1632.223908997815
 20
-2767.522273785591
 30
0.0
 11
1634.47390899782
 21
-2767.522273785592
 31
0.0
  0
LINE
  5
CF3E
330
2
100
AcDbEntity
  8
L-ZISSEN
100
AcDbLine
 10
1635.784546627758
 20
-2774.474830688182
 30
0.0
 11
1635.784546627758
 21
-2777.132424313839
 31
0.0
  0
LINE
  5
CF3F
330
2
100
AcDbEntity
  8
L-ZISSEN
100
AcDbLine
 10
1634.533440997821
 20
-2777.894232185597
 30
0.0
 11
1635.784546627758
 21
-2777.132424313839
 31
0.0
  0
LINE
  5
CF40
330
2
100
AcDbEntity
  8
L-ZISSEN
100
AcDbLine
 10
1635.784546627758
 20
-2773.99072830416
 30
0.0
 11
1635.079472197821
 21
-2773.890003385598
 31
0.0
  0
LINE
  5
CF41
330
2
100
AcDbEntity
  8
L-ZISSEN
100
AcDbLine
 10
1635.784546627758
 20
-2774.474830688182
 30
0.0
 11
1635.079472197821
 21
-2773.890003385598
 31
0.0
  0
LINE
  5
CF42
330
2
100
AcDbEntity
  8
L-ZISSEN
100
AcDbLine
 10
1636.723908997821
 20
-2787.022273785596
 30
0.0
 11
1636.723908997821
 21
-2795.022273785596
 31
0.0
  0
LINE
  5
CF43
330
2
100
AcDbEntity
  8
L-ZISSEN
100
AcDbLine
 10
1636.973908997821
 20
-2778.545023652264
 30
0.0
 11
1636.973908997821
 21
-2795.022273785596
 31
0.0
  0
LINE
  5
CF44
330
2
100
AcDbEntity
  8
L-ZISSEN
100
AcDbLine
 10
1637.991638597818
 20
-2762.861441785601
 30
0.0
 11
1637.991638597818
 21
-2763.5894833856
 31
0.0
  0
LINE
  5
CF45
330
2
100
AcDbEntity
  8
L-ZISSEN
100
AcDbLine
 10
1635.784546627758
 20
-2777.132424313839
 30
0.0
 11
1642.723908997821
 21
-2778.585221410381
 31
0.0
  0
LINE
  5
CF46
330
2
100
AcDbEntity
  8
L-ZISSEN
100
AcDbLine
 10
1642.723908997821
 20
-2780.078356985598
 30
0.0
 11
1634.533440997821
 21
-2777.894232185597
 31
0.0
  0
LINE
  5
CF47
330
2
100
AcDbEntity
  8
L-ZISSEN
100
AcDbLine
 10
1642.723908997821
 20
-2775.46616816962
 30
0.0
 11
1635.784546627758
 21
-2774.474830688182
 31
0.0
  0
LINE
  5
CF48
330
2
100
AcDbEntity
  8
L-ZISSEN
100
AcDbLine
 10
1642.723908997821
 20
-2774.982065785598
 30
0.0
 11
1635.079472197821
 21
-2773.890003385598
 31
0.0
  0
CIRCLE
  5
CF49
330
2
100
AcDbEntity
  8
L-ZISSEN
100
AcDbCircle
 10
1639.723908997821
 20
-2791.022273785596
 30
0.0
 40
2.0
  0
LINE
  5
CF4A
330
2
100
AcDbEntity
  8
L-ZISSEN
100
AcDbLine
 10
1640.903804997818
 20
-2762.861441785601
 30
0.0
 11
1637.991638597818
 21
-2762.861441785601
 31
0.0
  0
LINE
  5
CF4B
330
2
100
AcDbEntity
  8
L-ZISSEN
100
AcDbLine
 10
1640.903804997818
 20
-2762.861441785601
 30
0.0
 11
1637.991638597818
 21
-2762.861441785601
 31
0.0
  0
LINE
  5
CF4C
330
2
100
AcDbEntity
  8
L-TYUSIN
100
AcDbLine
 10
1637.723908997821
 20
-2791.022273785596
 30
0.0
 11
1647.723908997821
 21
-2791.022273785596
 31
0.0
  0
LINE
  5
CF4D
330
2
100
AcDbEntity
  8
L-ZISSEN
100
AcDbLine
 10
1636.723908997821
 20
-2795.022273785596
 30
0.0
 11
1648.723908997821
 21
-2795.022273785596
 31
0.0
  0
LINE
  5
CF4E
330
2
100
AcDbEntity
  8
L-ZISSEN
100
AcDbLine
 10
1637.991638597818
 20
-2761.4053585856
 30
0.0
 11
1636.171534597818
 21
-2762.4974209856
 31
0.0
  0
LINE
  5
CF4F
330
2
100
AcDbEntity
  8
L-ZISSEN
100
AcDbLine
 10
1634.47390899782
 20
-2758.078356985597
 30
0.0
 11
1634.473908997821
 21
-2799.022273785596
 31
0.0
  0
LINE
  5
CF50
330
2
100
AcDbEntity
  8
L-ZISSEN
100
AcDbLine
 10
1632.223908997819
 20
-2758.922273785592
 30
0.0
 11
1632.223908997815
 21
-2767.522273785591
 31
0.0
  0
LINE
  5
CF51
330
2
100
AcDbEntity
  8
L-ZISSEN
100
AcDbLine
 10
1634.533440997821
 20
-2758.078356985597
 30
0.0
 11
1634.533440997821
 21
-2777.894232185597
 31
0.0
  0
LINE
  5
CF52
330
2
100
AcDbEntity
  8
L-ZISSEN
100
AcDbLine
 10
1634.533440997821
 20
-2759.693192185597
 30
0.0
 11
1634.533440997821
 21
-2773.548857866499
 31
0.0
  0
LINE
  5
CF53
330
2
100
AcDbEntity
  8
L-ZISSEN
100
AcDbLine
 10
1635.079472197821
 20
-2758.078356985597
 30
0.0
 11
1635.079472197821
 21
-2773.890003385598
 31
0.0
  0
LINE
  5
CF54
330
2
100
AcDbEntity
  8
L-ZISSEN
100
AcDbLine
 10
1647.456179397822
 20
-2761.4053585856
 30
0.0
 11
1649.276283397822
 21
-2762.4974209856
 31
0.0
  0
LINE
  5
CF55
330
2
100
AcDbEntity
  8
L-ZISSEN
100
AcDbLine
 10
1641.99586739782
 20
-2760.677316985598
 30
0.0
 11
1641.99586739782
 21
-2767.701649785598
 31
0.0
  0
LINE
  5
CF56
330
2
100
AcDbEntity
  8
L-ZISSEN
100
AcDbLine
 10
1643.45195059782
 20
-2760.677316985598
 30
0.0
 11
1643.45195059782
 21
-2767.701649785598
 31
0.0
  0
LINE
  5
CF57
330
2
100
AcDbEntity
  8
L-ZISSEN
100
AcDbLine
 10
1641.99586739782
 20
-2761.877316985598
 30
0.0
 11
1641.99586739782
 21
-2767.701649785598
 31
0.0
  0
LINE
  5
CF58
330
2
100
AcDbEntity
  8
L-ZISSEN
100
AcDbLine
 10
1643.45195059782
 20
-2761.877316985598
 30
0.0
 11
1643.45195059782
 21
-2767.701649785598
 31
0.0
  0
LINE
  5
CF59
330
2
100
AcDbEntity
  8
L-ZISSEN
100
AcDbLine
 10
1644.544012997823
 20
-2762.1334001856
 30
0.0
 11
1644.544012997823
 21
-2762.861441785601
 31
0.0
  0
LINE
  5
CF5A
330
2
100
AcDbEntity
  8
L-ZISSEN
100
AcDbLine
 10
1640.903804997818
 20
-2762.1334001856
 30
0.0
 11
1640.903804997818
 21
-2762.861441785601
 31
0.0
  0
TEXT
  5
CF5B
330
2
100
AcDbEntity
  8
L-ZISSEN
100
AcDbText
 10
1614.723908997821
 20
-2747.665977319335
 30
0.0
 40
4.5
  1
P.P
100
AcDbText
  0
LINE
  5
CF5C
330
2
100
AcDbEntity
  8
L-ZISSEN
100
AcDbLine
 10
1627.723908997821
 20
-2745.415977319335
 30
0.0
 11
1625.723908997821
 21
-2745.415977319335
 31
0.0
  0
LINE
  5
CF5D
330
2
100
AcDbEntity
  8
L-ZISSEN
100
AcDbLine
 10
1650.97390899782
 20
-2758.922273785596
 30
0.0
 11
1653.223908997821
 21
-2758.922273785596
 31
0.0
  0
LINE
  5
CF5E
330
2
100
AcDbEntity
  8
L-ZISSEN
100
AcDbLine
 10
1660.97390899782
 20
-2775.122273785597
 30
0.0
 11
1664.561004888781
 21
-2775.122273785597
 31
0.0
  0
LINE
  5
CF5F
330
2
100
AcDbEntity
  8
L-ZISSEN
100
AcDbLine
 10
1655.97390899782
 20
-2766.09115599408
 30
0.0
 11
1660.97390899782
 21
-2766.09115599408
 31
0.0
  0
LINE
  5
CF60
330
2
100
AcDbEntity
  8
L-ZISSEN
100
AcDbLine
 10
1655.97390899782
 20
-2766.09115599408
 30
0.0
 11
1655.97390899782
 21
-2775.122273785597
 31
0.0
  0
LINE
  5
CF61
330
2
100
AcDbEntity
  8
L-ZISSEN
100
AcDbLine
 10
1660.97390899782
 20
-2766.09115599408
 30
0.0
 11
1660.97390899782
 21
-2775.122273785597
 31
0.0
  0
LINE
  5
CF62
330
2
100
AcDbEntity
  8
L-ZISSEN
100
AcDbLine
 10
1650.62390899782
 20
-2787.022273785596
 30
0.0
 11
1650.62390899782
 21
-2797.222273785595
 31
0.0
  0
LINE
  5
CF63
330
2
100
AcDbEntity
  8
L-ZISSEN
100
AcDbLine
 10
1650.62390899782
 20
-2797.222273785595
 30
0.0
 11
1650.973908997821
 21
-2799.022273785596
 31
0.0
  0
LINE
  5
CF64
330
2
100
AcDbEntity
  8
L-ZISSEN
100
AcDbLine
 10
1653.223908997821
 20
-2767.522273785594
 30
0.0
 11
1650.97390899782
 21
-2767.522273785596
 31
0.0
  0
LINE
  5
CF65
330
2
100
AcDbEntity
  8
L-ZISSEN
100
AcDbLine
 10
1655.973908997821
 20
-2775.122273785597
 30
0.0
 11
1650.973908997821
 21
-2775.122273785597
 31
0.0
  0
LINE
  5
CF66
330
2
100
AcDbEntity
  8
L-ZISSEN
100
AcDbLine
 10
1650.97390899782
 20
-2758.078356985597
 30
0.0
 11
1650.973908997821
 21
-2799.022273785596
 31
0.0
  0
LINE
  5
CF67
330
2
100
AcDbEntity
  8
L-ZISSEN
100
AcDbLine
 10
1653.223908997821
 20
-2758.922273785596
 30
0.0
 11
1653.223908997821
 21
-2767.522273785596
 31
0.0
  0
LINE
  5
CF68
330
2
100
AcDbEntity
  8
L-ZISSEN
100
AcDbLine
 10
1650.914376997822
 20
-2758.078356985597
 30
0.0
 11
1650.914376997822
 21
-2777.894232185597
 31
0.0
  0
LINE
  5
CF69
330
2
100
AcDbEntity
  8
L-ZISSEN
100
AcDbLine
 10
1650.368345797821
 20
-2758.078356985597
 30
0.0
 11
1650.368345797821
 21
-2773.890003385598
 31
0.0
  0
LINE
  5
CF6A
330
2
100
AcDbEntity
  8
L-ZISSEN
100
AcDbLine
 10
1650.914376997822
 20
-2759.693192185597
 30
0.0
 11
1650.914376997822
 21
-2773.548857866499
 31
0.0
  0
LINE
  5
CF6B
330
2
100
AcDbEntity
  8
L-TYUSIN
100
AcDbLine
 10
1673.953457349124
 20
-2686.908711773924
 30
0.0
 11
1480.303330983257
 21
-2686.908711773924
 31
0.0
  0
LINE
  5
CF6C
330
2
100
AcDbEntity
  8
L-ZISSEN
100
AcDbLine
 10
1564.72390899782
 20
-2624.102932062641
 30
0.0
 11
1564.723908997821
 21
-2554.17573104632
 31
0.0
  0
LINE
  5
CF6D
330
2
100
AcDbEntity
  8
L-ZISSEN
100
AcDbLine
 10
1561.150194712108
 20
-2544.262273519715
 30
0.0
 11
1561.150194712106
 21
-2607.262273519715
 31
0.0
  0
LINE
  5
CF6E
330
2
100
AcDbEntity
  8
L-ZISSEN
100
AcDbLine
 10
1530.052703707315
 20
-2544.262273519715
 30
0.0
 11
1530.052703707315
 21
-2607.262273519714
 31
0.0
  0
LINE
  5
CF6F
330
2
100
AcDbEntity
  8
L-ZISSEN
100
AcDbLine
 10
1554.767480426392
 20
-2544.262273519715
 30
0.0
 11
1554.767480426392
 21
-2607.262273519714
 31
0.0
  0
LINE
  5
CF70
330
2
100
AcDbEntity
  8
L-ZISSEN
100
AcDbLine
 10
1520.723908997821
 20
-2624.102932062641
 30
0.0
 11
1520.72390899782
 21
-2537.915977319335
 31
0.0
  0
LINE
  5
CF71
330
2
100
AcDbEntity
  8
L-ZISSEN
100
AcDbLine
 10
1523.669989421598
 20
-2544.262273519715
 30
0.0
 11
1523.669989421598
 21
-2607.262273519714
 31
0.0
  0
LINE
  5
CF72
330
2
100
AcDbEntity
  8
L-ZISSEN
100
AcDbLine
 10
1530.723908997821
 20
-2632.715977319334
 30
0.0
 11
1554.723908997821
 21
-2632.715977319334
 31
0.0
  0
LINE
  5
CF73
330
2
100
AcDbEntity
  8
L-ZISSEN
100
AcDbLine
 10
1530.723908997821
 20
-2631.215977319334
 30
0.0
 11
1554.723908997821
 21
-2631.215977319334
 31
0.0
  0
LINE
  5
CF74
330
2
100
AcDbEntity
  8
L-ZISSEN
100
AcDbLine
 10
1530.723908997821
 20
-2635.215977319335
 30
0.0
 11
1554.723908997821
 21
-2635.215977319335
 31
0.0
  0
LINE
  5
CF75
330
2
100
AcDbEntity
  8
L-ZISSEN
100
AcDbLine
 10
1553.72390899782
 20
-2644.215977319335
 30
0.0
 11
1531.72390899782
 21
-2644.215977319335
 31
0.0
  0
LINE
  5
CF76
330
2
100
AcDbEntity
  8
L-ZISSEN
100
AcDbLine
 10
1532.72390899782
 20
-2647.715977319335
 30
0.0
 11
1552.723908997821
 21
-2647.715977319335
 31
0.0
  0
LINE
  5
CF77
330
2
100
AcDbEntity
  8
L-ZISSEN
100
AcDbLine
 10
1532.72390899782
 20
-2648.415977319335
 30
0.0
 11
1552.723908997821
 21
-2648.415977319335
 31
0.0
  0
LINE
  5
CF78
330
2
100
AcDbEntity
  8
L-ZISSEN
100
AcDbLine
 10
1532.72390899782
 20
-2661.915977319335
 30
0.0
 11
1552.723908997821
 21
-2661.915977319335
 31
0.0
  0
LINE
  5
CF79
330
2
100
AcDbEntity
  8
L-ZISSEN
100
AcDbLine
 10
1531.72390899782
 20
-2635.215977319335
 30
0.0
 11
1531.72390899782
 21
-2644.215977319335
 31
0.0
  0
LINE
  5
CF7A
330
2
100
AcDbEntity
  8
L-ZISSEN
100
AcDbLine
 10
1532.72390899782
 20
-2661.915977319335
 30
0.0
 11
1532.72390899782
 21
-2648.415977319335
 31
0.0
  0
LINE
  5
CF7B
330
2
100
AcDbEntity
  8
L-ZISSEN
100
AcDbLine
 10
1533.723908997821
 20
-2648.415977319335
 30
0.0
 11
1533.723908997821
 21
-2647.715977319335
 31
0.0
  0
LINE
  5
CF7C
330
2
100
AcDbEntity
  8
L-ZISSEN
100
AcDbLine
 10
1532.72390899782
 20
-2647.715977319335
 30
0.0
 11
1532.72390899782
 21
-2644.215977319335
 31
0.0
  0
ARC
  5
CF7D
330
2
100
AcDbEntity
  8
L-ZISSEN
100
AcDbCircle
 10
1526.781051854964
 20
-2624.102932062641
 30
0.0
 40
6.057142857142703
100
AcDbArc
 50
180.0
 51
256.0937629349095
  0
LINE
  5
CF7E
330
2
100
AcDbEntity
  8
L-ZISSEN
100
AcDbLine
 10
1530.052703707315
 20
-2607.262273519714
 30
0.0
 11
1526.861346564456
 21
-2608.776559234001
 31
0.0
  0
LINE
  5
CF7F
330
2
100
AcDbEntity
  8
L-ZISSEN
100
AcDbLine
 10
1526.861346564456
 20
-2608.776559234001
 30
0.0
 11
1523.669989421598
 21
-2607.262273519714
 31
0.0
  0
LINE
  5
CF80
330
2
100
AcDbEntity
  8
L-ZISSEN
100
AcDbLine
 10
1530.723908997821
 20
-2635.215977319335
 30
0.0
 11
1530.723908997821
 21
-2631.215977319334
 31
0.0
  0
ARC
  5
CF81
330
2
100
AcDbEntity
  8
L-ZISSEN
100
AcDbCircle
 10
1436.895196407476
 20
-3029.461374334941
 30
0.0
 40
409.1493902604269
100
AcDbArc
 50
76.74258899664265
 51
77.51807467751068
  0
LINE
  5
CF82
330
2
100
AcDbEntity
  8
L-ZISSEN
100
AcDbLine
 10
1553.72390899782
 20
-2635.215977319335
 30
0.0
 11
1553.72390899782
 21
-2644.215977319335
 31
0.0
  0
LINE
  5
CF83
330
2
100
AcDbEntity
  8
L-ZISSEN
100
AcDbLine
 10
1552.723908997821
 20
-2661.915977319335
 30
0.0
 11
1552.723908997821
 21
-2648.415977319335
 31
0.0
  0
LINE
  5
CF84
330
2
100
AcDbEntity
  8
L-ZISSEN
100
AcDbLine
 10
1551.723908997821
 20
-2648.415977319335
 30
0.0
 11
1551.72390899782
 21
-2647.715977319335
 31
0.0
  0
LINE
  5
CF85
330
2
100
AcDbEntity
  8
L-ZISSEN
100
AcDbLine
 10
1552.723908997821
 20
-2647.715977319335
 30
0.0
 11
1552.723908997821
 21
-2644.215977319335
 31
0.0
  0
LINE
  5
CF86
330
2
100
AcDbEntity
  8
L-ZISSEN
100
AcDbLine
 10
1557.958837569249
 20
-2608.776559234001
 30
0.0
 11
1561.150194712106
 21
-2607.262273519714
 31
0.0
  0
ARC
  5
CF87
330
2
100
AcDbEntity
  8
L-ZISSEN
100
AcDbCircle
 10
1558.666766140677
 20
-2624.102932062641
 30
0.0
 40
6.057142857142703
100
AcDbArc
 50
283.9062370650903
 51
0.0
  0
LINE
  5
CF88
330
2
100
AcDbEntity
  8
L-ZISSEN
100
AcDbLine
 10
1554.723908997821
 20
-2635.215977319335
 30
0.0
 11
1554.723908997821
 21
-2631.215977319334
 31
0.0
  0
ARC
  5
CF89
330
2
100
AcDbEntity
  8
L-ZISSEN
100
AcDbCircle
 10
1648.552621588165
 20
-3029.461374334941
 30
0.0
 40
409.1493902604269
100
AcDbArc
 50
102.4819253224893
 51
103.2574110033573
  0
LINE
  5
CF8A
330
2
100
AcDbEntity
  8
L-ZISSEN
100
AcDbLine
 10
1554.767480426392
 20
-2607.262273519714
 30
0.0
 11
1557.958837569249
 21
-2608.776559234001
 31
0.0
  0
TEXT
  5
CF8B
330
2
100
AcDbEntity
  8
L-ZISSEN
100
AcDbText
 10
1503.19291867091
 20
-2503.826950380034
 30
0.0
 40
4.5
  1
MODEL NO. F63- 00-*020
100
AcDbText
  0
TEXT
  5
CF8C
330
2
100
AcDbEntity
  8
L-ZISSEN
100
AcDbText
 10
1514.723908997821
 20
-2527.665977319335
 30
0.0
 40
4.5
  1
P.P
100
AcDbText
  0
SOLID
  5
CF8D
330
2
100
AcDbEntity
  8
L-ZISSEN
100
AcDbTrace
 10
1540.974071638738
 20
-2536.891682279872
 30
0.0
 11
1541.400861238514
 21
-2536.37953476014
 31
0.0
 12
1542.723908997821
 22
-2537.915977319335
 32
0.0
 13
1542.723908997821
 23
-2537.915977319335
 33
0.0
  0
LINE
  5
CF8E
330
2
100
AcDbEntity
  8
L-ZISSEN
100
AcDbLine
 10
1527.723908997821
 20
-2525.415977319335
 30
0.0
 11
1525.723908997821
 21
-2525.415977319335
 31
0.0
  0
LINE
  5
CF8F
330
2
100
AcDbEntity
  8
L-ZISSEN
100
AcDbLine
 10
1541.187466438626
 20
-2536.635608520006
 30
0.0
 11
1527.723908997821
 21
-2525.415977319335
 31
0.0
  0
LINE
  5
CF90
330
2
100
AcDbEntity
  8
L-ZISSEN
100
AcDbLine
 10
1523.669989421598
 20
-2544.262273519715
 30
0.0
 11
1530.052703707315
 21
-2544.262273519715
 31
0.0
  0
LINE
  5
CF91
330
2
100
AcDbEntity
  8
L-ZISSEN
100
AcDbLine
 10
1565.475085675938
 20
-2538.52283664632
 30
0.0
 11
1563.09929678815
 21
-2538.52283664632
 31
0.0
  0
LINE
  5
CF92
330
2
100
AcDbEntity
  8
L-ZISSEN
100
AcDbLine
 10
1563.09929678815
 20
-2554.17573104632
 30
0.0
 11
1566.688650349915
 21
-2554.17573104632
 31
0.0
  0
LINE
  5
CF93
330
2
100
AcDbEntity
  8
L-ZISSEN
100
AcDbLine
 10
1563.09929678815
 20
-2538.52283664632
 30
0.0
 11
1563.09929678815
 21
-2554.17573104632
 31
0.0
  0
LINE
  5
CF94
330
2
100
AcDbEntity
  8
L-ZISSEN
100
AcDbLine
 10
1567.256928333801
 20
-2538.15881584632
 30
0.0
 11
1568.348990733801
 21
-2538.15881584632
 31
0.0
  0
LINE
  5
CF95
330
2
100
AcDbEntity
  8
L-ZISSEN
100
AcDbLine
 10
1567.256928333801
 20
-2537.915977319335
 30
0.0
 11
1567.256928333801
 21
-2538.15881584632
 31
0.0
  0
LINE
  5
CF96
330
2
100
AcDbEntity
  8
L-ZISSEN
100
AcDbLine
 10
1566.1648659338
 20
-2538.52283664632
 30
0.0
 11
1564.3447619338
 21
-2538.52283664632
 31
0.0
  0
ARC
  5
CF97
330
2
100
AcDbEntity
  8
L-ZISSEN
100
AcDbCircle
 10
1554.42044877106
 20
-2554.769902390947
 30
0.0
 40
12.28258155137619
100
AcDbArc
 50
327.020737907156
 51
2.772772323679433
  0
LINE
  5
CF98
330
2
100
AcDbEntity
  8
L-ZISSEN
100
AcDbLine
 10
1566.688650349915
 20
-2554.17573104632
 30
0.0
 11
1564.7087827338
 21
-2554.17573104632
 31
0.0
  0
LINE
  5
CF99
330
2
100
AcDbEntity
  8
L-ZISSEN
100
AcDbLine
 10
1571.2611571338
 20
-2553.931791830342
 30
0.0
 11
1571.2611571338
 21
-2557.050845071103
 31
0.0
  0
LINE
  5
CF9A
330
2
100
AcDbEntity
  8
L-ZISSEN
100
AcDbLine
 10
1567.256928333801
 20
-2558.463521785597
 30
0.0
 11
1566.688650349915
 21
-2558.463521785597
 31
0.0
  0
LINE
  5
CF9B
330
2
100
AcDbEntity
  8
L-ZISSEN
100
AcDbLine
 10
1568.348990733801
 20
-2553.447689446319
 30
0.0
 11
1571.2611571338
 21
-2553.931791830342
 31
0.0
  0
LINE
  5
CF9C
330
2
100
AcDbEntity
  8
L-ZISSEN
100
AcDbLine
 10
1568.348990733801
 20
-2538.15881584632
 30
0.0
 11
1568.348990733801
 21
-2553.447689446319
 31
0.0
  0
LINE
  5
CF9D
330
2
100
AcDbEntity
  8
L-ZISSEN
100
AcDbLine
 10
1571.2611571338
 20
-2557.050845071103
 30
0.0
 11
1567.256928333801
 21
-2558.463521785597
 31
0.0
  0
LINE
  5
CF9E
330
2
100
AcDbEntity
  8
L-ZISSEN
100
AcDbLine
 10
1566.688650349915
 20
-2558.463521785597
 30
0.0
 11
1566.709656793118
 21
-2537.915977319335
 31
0.0
  0
LINE
  5
CF9F
330
2
100
AcDbEntity
  8
L-ZISSEN
100
AcDbLine
 10
1566.1648659338
 20
-2537.915977319335
 30
0.0
 11
1566.1648659338
 21
-2538.52283664632
 31
0.0
  0
LINE
  5
CFA0
330
2
100
AcDbEntity
  8
L-ZISSEN
100
AcDbLine
 10
1564.686729531409
 20
-2537.915977319335
 30
0.0
 11
1564.686729531409
 21
-2538.52283664632
 31
0.0
  0
LINE
  5
CFA1
330
2
100
AcDbEntity
  8
L-ZISSEN
100
AcDbLine
 10
1564.723908997821
 20
-2554.17573104632
 30
0.0
 11
1564.723908997821
 21
-2567.722538430516
 31
0.0
  0
LINE
  5
CFA2
330
2
100
AcDbEntity
  8
L-ZISSEN
100
AcDbLine
 10
1561.150194712108
 20
-2544.262273519715
 30
0.0
 11
1554.767480426392
 21
-2544.262273519715
 31
0.0
  0
TEXT
  5
CFA3
330
2
100
AcDbEntity
  8
L-ZISSEN
100
AcDbText
 10
1563.291851379213
 20
-2506.981369013219
 30
0.0
 40
4.5
  1
3
100
AcDbText
  0
TEXT
  5
CFA4
330
2
100
AcDbEntity
  8
L-ZISSEN
100
AcDbText
 10
1563.291851379213
 20
-2500.47050534302
 30
0.0
 40
4.5
  1
2
100
AcDbText
  0
LINE
  5
CFA7
330
2
100
AcDbEntity
  8
L-ZISSEN
100
AcDbLine
 10
1655.387123283544
 20
-2544.450176104405
 30
0.0
 11
1655.387123283544
 21
-2607.262273519715
 31
0.0
  0
LINE
  5
CFA8
330
2
100
AcDbEntity
  8
L-ZISSEN
100
AcDbLine
 10
1661.769837569258
 20
-2544.450176104405
 30
0.0
 11
1661.769837569259
 21
-2607.262273519714
 31
0.0
  0
LINE
  5
CFA9
330
2
100
AcDbEntity
  8
L-ZISSEN
100
AcDbLine
 10
1664.723908997821
 20
-2624.102932062641
 30
0.0
 11
1664.723908997821
 21
-2537.915977319335
 31
0.0
  0
LINE
  5
CFAA
330
2
100
AcDbEntity
  8
L-ZISSEN
100
AcDbLine
 10
1623.488694712113
 20
-2544.450176104405
 30
0.0
 11
1623.488694712113
 21
-2607.262273519715
 31
0.0
  0
LINE
  5
CFAB
330
2
100
AcDbEntity
  8
L-ZISSEN
100
AcDbLine
 10
1629.871408997829
 20
-2544.450176104405
 30
0.0
 11
1629.871408997829
 21
-2607.262273519715
 31
0.0
  0
LINE
  5
CFAC
330
2
100
AcDbEntity
  8
L-ZISSEN
100
AcDbLine
 10
1620.723908997821
 20
-2624.102932062641
 30
0.0
 11
1620.72390899782
 21
-2537.915977319335
 31
0.0
  0
LINE
  5
CFAD
330
2
100
AcDbEntity
  8
L-ZISSEN
100
AcDbLine
 10
1632.723908997821
 20
-2661.915977319335
 30
0.0
 11
1652.723908997821
 21
-2661.915977319335
 31
0.0
  0
LINE
  5
CFAE
330
2
100
AcDbEntity
  8
L-ZISSEN
100
AcDbLine
 10
1632.723908997821
 20
-2648.415977319335
 30
0.0
 11
1652.723908997821
 21
-2648.415977319335
 31
0.0
  0
LINE
  5
CFAF
330
2
100
AcDbEntity
  8
L-ZISSEN
100
AcDbLine
 10
1632.723908997821
 20
-2647.715977319335
 30
0.0
 11
1652.723908997821
 21
-2647.715977319335
 31
0.0
  0
LINE
  5
CFB0
330
2
100
AcDbEntity
  8
L-ZISSEN
100
AcDbLine
 10
1653.723908997821
 20
-2644.215977319335
 30
0.0
 11
1631.723908997821
 21
-2644.215977319335
 31
0.0
  0
LINE
  5
CFB1
330
2
100
AcDbEntity
  8
L-ZISSEN
100
AcDbLine
 10
1630.723908997821
 20
-2635.215977319335
 30
0.0
 11
1654.723908997821
 21
-2635.215977319335
 31
0.0
  0
LINE
  5
CFB2
330
2
100
AcDbEntity
  8
L-ZISSEN
100
AcDbLine
 10
1630.723908997821
 20
-2631.215977319334
 30
0.0
 11
1654.723908997821
 21
-2631.215977319334
 31
0.0
  0
LINE
  5
CFB3
330
2
100
AcDbEntity
  8
L-ZISSEN
100
AcDbLine
 10
1630.723908997821
 20
-2632.715977319334
 30
0.0
 11
1654.723908997821
 21
-2632.715977319334
 31
0.0
  0
LINE
  5
CFB4
330
2
100
AcDbEntity
  8
L-ZISSEN
100
AcDbLine
 10
1631.723908997821
 20
-2635.215977319335
 30
0.0
 11
1631.723908997821
 21
-2644.215977319335
 31
0.0
  0
LINE
  5
CFB5
330
2
100
AcDbEntity
  8
L-ZISSEN
100
AcDbLine
 10
1632.723908997821
 20
-2661.915977319335
 30
0.0
 11
1632.723908997821
 21
-2648.415977319335
 31
0.0
  0
LINE
  5
CFB6
330
2
100
AcDbEntity
  8
L-ZISSEN
100
AcDbLine
 10
1633.72390899782
 20
-2648.415977319335
 30
0.0
 11
1633.723908997821
 21
-2647.715977319335
 31
0.0
  0
LINE
  5
CFB7
330
2
100
AcDbEntity
  8
L-ZISSEN
100
AcDbLine
 10
1632.723908997821
 20
-2647.715977319335
 30
0.0
 11
1632.723908997821
 21
-2644.215977319335
 31
0.0
  0
LINE
  5
CFB8
330
2
100
AcDbEntity
  8
L-ZISSEN
100
AcDbLine
 10
1626.680051854969
 20
-2608.776559234001
 30
0.0
 11
1623.488694712113
 21
-2607.262273519715
 31
0.0
  0
ARC
  5
CFB9
330
2
100
AcDbEntity
  8
L-ZISSEN
100
AcDbCircle
 10
1626.781051854964
 20
-2624.102932062641
 30
0.0
 40
6.057142857142703
100
AcDbArc
 50
180.0
 51
256.0937629349095
  0
LINE
  5
CFBA
330
2
100
AcDbEntity
  8
L-ZISSEN
100
AcDbLine
 10
1629.871408997829
 20
-2607.262273519715
 30
0.0
 11
1626.680051854969
 21
-2608.776559234001
 31
0.0
  0
ARC
  5
CFBB
330
2
100
AcDbEntity
  8
L-ZISSEN
100
AcDbCircle
 10
1536.895196407477
 20
-3029.461374334941
 30
0.0
 40
409.1493902604269
100
AcDbArc
 50
76.74258899664265
 51
77.51807467751068
  0
LINE
  5
CFBC
330
2
100
AcDbEntity
  8
L-ZISSEN
100
AcDbLine
 10
1630.723908997821
 20
-2635.215977319335
 30
0.0
 11
1630.723908997821
 21
-2631.215977319334
 31
0.0
  0
LINE
  5
CFBD
330
2
100
AcDbEntity
  8
L-ZISSEN
100
AcDbLine
 10
1653.723908997821
 20
-2635.215977319335
 30
0.0
 11
1653.723908997821
 21
-2644.215977319335
 31
0.0
  0
LINE
  5
CFBE
330
2
100
AcDbEntity
  8
L-ZISSEN
100
AcDbLine
 10
1652.723908997821
 20
-2661.915977319335
 30
0.0
 11
1652.723908997821
 21
-2648.415977319335
 31
0.0
  0
LINE
  5
CFBF
330
2
100
AcDbEntity
  8
L-ZISSEN
100
AcDbLine
 10
1651.723908997821
 20
-2648.415977319335
 30
0.0
 11
1651.72390899782
 21
-2647.715977319335
 31
0.0
  0
LINE
  5
CFC0
330
2
100
AcDbEntity
  8
L-ZISSEN
100
AcDbLine
 10
1652.723908997821
 20
-2647.715977319335
 30
0.0
 11
1652.723908997821
 21
-2644.215977319335
 31
0.0
  0
LINE
  5
CFC1
330
2
100
AcDbEntity
  8
L-ZISSEN
100
AcDbLine
 10
1658.578480426399
 20
-2608.776559234001
 30
0.0
 11
1661.769837569258
 21
-2607.262273519715
 31
0.0
  0
LINE
  5
CFC2
330
2
100
AcDbEntity
  8
L-ZISSEN
100
AcDbLine
 10
1655.387123283543
 20
-2607.262273519715
 30
0.0
 11
1658.578480426399
 21
-2608.776559234001
 31
0.0
  0
ARC
  5
CFC3
330
2
100
AcDbEntity
  8
L-ZISSEN
100
AcDbCircle
 10
1748.552621588165
 20
-3029.461374334941
 30
0.0
 40
409.1493902604269
100
AcDbArc
 50
102.4819253224893
 51
103.2574110033573
  0
LINE
  5
CFC4
330
2
100
AcDbEntity
  8
L-ZISSEN
100
AcDbLine
 10
1654.723908997821
 20
-2635.215977319335
 30
0.0
 11
1654.723908997821
 21
-2631.215977319334
 31
0.0
  0
ARC
  5
CFC5
330
2
100
AcDbEntity
  8
L-ZISSEN
100
AcDbCircle
 10
1658.666766140678
 20
-2624.102932062641
 30
0.0
 40
6.057142857142703
100
AcDbArc
 50
283.9062370650903
 51
0.0
  0
LINE
  5
CFC6
330
2
100
AcDbEntity
  8
L-ZISSEN
100
AcDbLine
 10
1650.914376997821
 20
-2556.279396985597
 30
0.0
 11
1649.663271367882
 21
-2555.517589113839
 31
0.0
  0
LINE
  5
CFC7
330
2
100
AcDbEntity
  8
L-ZISSEN
100
AcDbLine
 10
1649.663271367882
 20
-2552.37589310416
 30
0.0
 11
1650.36834579782
 21
-2552.275168185597
 31
0.0
  0
LINE
  5
CFC8
330
2
100
AcDbEntity
  8
L-ZISSEN
100
AcDbLine
 10
1649.663271367882
 20
-2552.859995488182
 30
0.0
 11
1650.36834579782
 21
-2552.275168185597
 31
0.0
  0
LINE
  5
CFC9
330
2
100
AcDbEntity
  8
L-ZISSEN
100
AcDbLine
 10
1648.010090239919
 20
-2561.643649493851
 30
0.0
 11
1651.642418597818
 21
-2561.643649493851
 31
0.0
  0
LINE
  5
CFCA
330
2
100
AcDbEntity
  8
L-ZISSEN
100
AcDbLine
 10
1642.72390899782
 20
-2558.463521785597
 30
0.0
 11
1650.914376997821
 21
-2556.279396985597
 31
0.0
  0
LINE
  5
CFCB
330
2
100
AcDbEntity
  8
L-ZISSEN
100
AcDbLine
 10
1642.72390899782
 20
-2553.367230585597
 30
0.0
 11
1650.36834579782
 21
-2552.275168185597
 31
0.0
  0
LINE
  5
CFCC
330
2
100
AcDbEntity
  8
L-ZISSEN
100
AcDbLine
 10
1634.53344099782
 20
-2538.078356985597
 30
0.0
 11
1650.914376997821
 21
-2538.078356985597
 31
0.0
  0
LINE
  5
CFCD
330
2
100
AcDbEntity
  8
L-ZISSEN
100
AcDbLine
 10
1650.36834579782
 20
-2538.078356985597
 30
0.0
 11
1635.079472197821
 21
-2538.078356985597
 31
0.0
  0
LINE
  5
CFCE
330
2
100
AcDbEntity
  8
L-ZISSEN
100
AcDbLine
 10
1651.64241859782
 20
-2538.078356985597
 30
0.0
 11
1633.80539939782
 21
-2538.078356985597
 31
0.0
  0
LINE
  5
CFCF
330
2
100
AcDbEntity
  8
L-ZISSEN
100
AcDbLine
 10
1623.488694712113
 20
-2544.450176104405
 30
0.0
 11
1629.871408997829
 21
-2544.450176104405
 31
0.0
  0
TEXT
  5
CFD0
330
2
100
AcDbEntity
  8
L-ZISSEN
100
AcDbText
 10
1614.723908997821
 20
-2527.665977319335
 30
0.0
 40
4.5
  1
P.P
100
AcDbText
  0
LINE
  5
CFD1
330
2
100
AcDbEntity
  8
L-ZISSEN
100
AcDbLine
 10
1648.010090239919
 20
-2557.11032344211
 30
0.0
 11
1648.010090239919
 21
-2561.643649493851
 31
0.0
  0
LINE
  5
CFD2
330
2
100
AcDbEntity
  8
L-ZISSEN
100
AcDbLine
 10
1642.72390899782
 20
-2558.463521785597
 30
0.0
 11
1642.72390899782
 21
-2553.367230585597
 31
0.0
  0
LINE
  5
CFD3
330
2
100
AcDbEntity
  8
L-ZISSEN
100
AcDbLine
 10
1642.72390899782
 20
-2558.463521785597
 30
0.0
 11
1642.72390899782
 21
-2553.851332969619
 31
0.0
  0
LINE
  5
CFD4
330
2
100
AcDbEntity
  8
L-ZISSEN
100
AcDbLine
 10
1643.451950597819
 20
-2546.086814585598
 30
0.0
 11
1644.908033797819
 21
-2546.086814585598
 31
0.0
  0
LINE
  5
CFD5
330
2
100
AcDbEntity
  8
L-ZISSEN
100
AcDbLine
 10
1644.908033797819
 20
-2546.086814585598
 30
0.0
 11
1642.723908997819
 21
-2549.727022585598
 31
0.0
  0
LINE
  5
CFD6
330
2
100
AcDbEntity
  8
L-ZISSEN
100
AcDbLine
 10
1641.995867397819
 20
-2546.086814585598
 30
0.0
 11
1640.539784197819
 21
-2546.086814585598
 31
0.0
  0
LINE
  5
CFD7
330
2
100
AcDbEntity
  8
L-ZISSEN
100
AcDbLine
 10
1640.539784197819
 20
-2546.086814585598
 30
0.0
 11
1642.723908997819
 21
-2549.727022585598
 31
0.0
  0
LINE
  5
CFD8
330
2
100
AcDbEntity
  8
L-ZISSEN
100
AcDbLine
 10
1649.663271367882
 20
-2552.859995488182
 30
0.0
 11
1649.663271367882
 21
-2555.517589113839
 31
0.0
  0
LINE
  5
CFD9
330
2
100
AcDbEntity
  8
L-ZISSEN
100
AcDbLine
 10
1647.456179397822
 20
-2540.9905233856
 30
0.0
 11
1649.276283397822
 21
-2542.0825857856
 31
0.0
  0
LINE
  5
CFDA
330
2
100
AcDbEntity
  8
L-ZISSEN
100
AcDbLine
 10
1647.456179397822
 20
-2543.174648185599
 30
0.0
 11
1649.276283397822
 21
-2542.0825857856
 31
0.0
  0
LINE
  5
CFDB
330
2
100
AcDbEntity
  8
L-ZISSEN
100
AcDbLine
 10
1647.456179397822
 20
-2541.7185649856
 30
0.0
 11
1647.456179397822
 21
-2540.9905233856
 31
0.0
  0
LINE
  5
CFDC
330
2
100
AcDbEntity
  8
L-ZISSEN
100
AcDbLine
 10
1647.456179397822
 20
-2542.446606585599
 30
0.0
 11
1647.456179397822
 21
-2543.174648185599
 31
0.0
  0
LINE
  5
CFDD
330
2
100
AcDbEntity
  8
L-ZISSEN
100
AcDbLine
 10
1644.544012997822
 20
-2541.7185649856
 30
0.0
 11
1644.544012997822
 21
-2542.446606585599
 31
0.0
  0
LINE
  5
CFDE
330
2
100
AcDbEntity
  8
L-ZISSEN
100
AcDbLine
 10
1644.544012997822
 20
-2541.7185649856
 30
0.0
 11
1647.456179397822
 21
-2541.7185649856
 31
0.0
  0
LINE
  5
CFDF
330
2
100
AcDbEntity
  8
L-ZISSEN
100
AcDbLine
 10
1644.544012997822
 20
-2541.7185649856
 30
0.0
 11
1647.456179397822
 21
-2541.7185649856
 31
0.0
  0
LINE
  5
CFE0
330
2
100
AcDbEntity
  8
L-ZISSEN
100
AcDbLine
 10
1644.544012997822
 20
-2542.446606585599
 30
0.0
 11
1647.456179397822
 21
-2542.446606585599
 31
0.0
  0
LINE
  5
CFE1
330
2
100
AcDbEntity
  8
L-ZISSEN
100
AcDbLine
 10
1644.544012997822
 20
-2542.446606585599
 30
0.0
 11
1647.456179397822
 21
-2542.446606585599
 31
0.0
  0
LINE
  5
CFE2
330
2
100
AcDbEntity
  8
L-ZISSEN
100
AcDbLine
 10
1640.903804997817
 20
-2541.7185649856
 30
0.0
 11
1640.903804997817
 21
-2542.446606585599
 31
0.0
  0
LINE
  5
CFE3
330
2
100
AcDbEntity
  8
L-ZISSEN
100
AcDbLine
 10
1643.451950597819
 20
-2540.262481785598
 30
0.0
 11
1641.995867397819
 21
-2540.262481785598
 31
0.0
  0
LINE
  5
CFE4
330
2
100
AcDbEntity
  8
L-ZISSEN
100
AcDbLine
 10
1643.451950597819
 20
-2540.262481785598
 30
0.0
 11
1643.451950597819
 21
-2546.086814585598
 31
0.0
  0
LINE
  5
CFE5
330
2
100
AcDbEntity
  8
L-ZISSEN
100
AcDbLine
 10
1643.451950597819
 20
-2540.262481785598
 30
0.0
 11
1643.451950597819
 21
-2546.086814585598
 31
0.0
  0
LINE
  5
CFE6
330
2
100
AcDbEntity
  8
L-ZISSEN
100
AcDbLine
 10
1641.995867397819
 20
-2540.262481785598
 30
0.0
 11
1641.995867397819
 21
-2546.086814585598
 31
0.0
  0
LINE
  5
CFE7
330
2
100
AcDbEntity
  8
L-ZISSEN
100
AcDbLine
 10
1641.995867397819
 20
-2540.262481785598
 30
0.0
 11
1641.995867397819
 21
-2546.086814585598
 31
0.0
  0
LINE
  5
CFE8
330
2
100
AcDbEntity
  8
L-ZISSEN
100
AcDbLine
 10
1642.72390899782
 20
-2553.851332969619
 30
0.0
 11
1649.663271367882
 21
-2552.859995488182
 31
0.0
  0
LINE
  5
CFE9
330
2
100
AcDbEntity
  8
L-ZISSEN
100
AcDbLine
 10
1649.663271367882
 20
-2555.517589113839
 30
0.0
 11
1642.72390899782
 21
-2556.97038621038
 31
0.0
  0
SOLID
  5
CFEA
330
2
100
AcDbEntity
  8
L-ZISSEN
100
AcDbTrace
 10
1640.974071638737
 20
-2536.891682279872
 30
0.0
 11
1641.400861238514
 21
-2536.37953476014
 31
0.0
 12
1642.72390899782
 22
-2537.915977319335
 32
0.0
 13
1642.72390899782
 23
-2537.915977319335
 33
0.0
  0
LINE
  5
CFEB
330
2
100
AcDbEntity
  8
L-ZISSEN
100
AcDbLine
 10
1637.437727755719
 20
-2561.643649493851
 30
0.0
 11
1633.80539939782
 21
-2561.643649493851
 31
0.0
  0
LINE
  5
CFEC
330
2
100
AcDbEntity
  8
L-ZISSEN
100
AcDbLine
 10
1637.991638597818
 20
-2540.9905233856
 30
0.0
 11
1636.171534597818
 21
-2542.0825857856
 31
0.0
  0
LINE
  5
CFED
330
2
100
AcDbEntity
  8
L-ZISSEN
100
AcDbLine
 10
1637.991638597818
 20
-2543.174648185599
 30
0.0
 11
1636.171534597818
 21
-2542.0825857856
 31
0.0
  0
LINE
  5
CFEE
330
2
100
AcDbEntity
  8
L-ZISSEN
100
AcDbLine
 10
1635.784546627757
 20
-2552.859995488182
 30
0.0
 11
1635.079472197821
 21
-2552.275168185597
 31
0.0
  0
LINE
  5
CFEF
330
2
100
AcDbEntity
  8
L-ZISSEN
100
AcDbLine
 10
1635.784546627757
 20
-2552.37589310416
 30
0.0
 11
1635.079472197821
 21
-2552.275168185597
 31
0.0
  0
LINE
  5
CFF0
330
2
100
AcDbEntity
  8
L-ZISSEN
100
AcDbLine
 10
1634.53344099782
 20
-2556.279396985597
 30
0.0
 11
1635.784546627757
 21
-2555.517589113839
 31
0.0
  0
LINE
  5
CFF1
330
2
100
AcDbEntity
  8
L-ZISSEN
100
AcDbLine
 10
1633.80539939782
 20
-2538.078356985597
 30
0.0
 11
1633.80539939782
 21
-2537.915977319335
 31
0.0
  0
LINE
  5
CFF2
330
2
100
AcDbEntity
  8
L-ZISSEN
100
AcDbLine
 10
1635.079472197821
 20
-2538.078356985597
 30
0.0
 11
1635.079472197821
 21
-2552.275168185597
 31
0.0
  0
LINE
  5
CFF3
330
2
100
AcDbEntity
  8
L-ZISSEN
100
AcDbLine
 10
1633.80539939782
 20
-2561.643649493851
 30
0.0
 11
1633.80539939782
 21
-2538.078356985597
 31
0.0
  0
LINE
  5
CFF4
330
2
100
AcDbEntity
  8
L-ZISSEN
100
AcDbLine
 10
1634.53344099782
 20
-2538.078356985597
 30
0.0
 11
1634.53344099782
 21
-2556.279396985597
 31
0.0
  0
LINE
  5
CFF5
330
2
100
AcDbEntity
  8
L-ZISSEN
100
AcDbLine
 10
1634.53344099782
 20
-2538.078356985597
 30
0.0
 11
1634.53344099782
 21
-2551.9340226665
 31
0.0
  0
LINE
  5
CFF6
330
2
100
AcDbEntity
  8
L-ZISSEN
100
AcDbLine
 10
1635.784546627757
 20
-2552.859995488182
 30
0.0
 11
1635.784546627757
 21
-2555.517589113839
 31
0.0
  0
LINE
  5
CFF7
330
2
100
AcDbEntity
  8
L-ZISSEN
100
AcDbLine
 10
1637.437727755719
 20
-2557.11032344211
 30
0.0
 11
1637.437727755719
 21
-2561.643649493851
 31
0.0
  0
LINE
  5
CFF8
330
2
100
AcDbEntity
  8
L-ZISSEN
100
AcDbLine
 10
1637.991638597818
 20
-2541.7185649856
 30
0.0
 11
1637.991638597818
 21
-2540.9905233856
 31
0.0
  0
LINE
  5
CFF9
330
2
100
AcDbEntity
  8
L-ZISSEN
100
AcDbLine
 10
1637.991638597818
 20
-2542.446606585599
 30
0.0
 11
1637.991638597818
 21
-2543.174648185599
 31
0.0
  0
LINE
  5
CFFA
330
2
100
AcDbEntity
  8
L-ZISSEN
100
AcDbLine
 10
1627.723908997821
 20
-2525.415977319335
 30
0.0
 11
1625.72390899782
 21
-2525.415977319335
 31
0.0
  0
LINE
  5
CFFB
330
2
100
AcDbEntity
  8
L-ZISSEN
100
AcDbLine
 10
1642.72390899782
 20
-2558.463521785597
 30
0.0
 11
1634.53344099782
 21
-2556.279396985597
 31
0.0
  0
LINE
  5
CFFC
330
2
100
AcDbEntity
  8
L-ZISSEN
100
AcDbLine
 10
1642.72390899782
 20
-2553.367230585597
 30
0.0
 11
1635.079472197821
 21
-2552.275168185597
 31
0.0
  0
LINE
  5
CFFD
330
2
100
AcDbEntity
  8
L-ZISSEN
100
AcDbLine
 10
1642.72390899782
 20
-2553.851332969619
 30
0.0
 11
1635.784546627757
 21
-2552.859995488182
 31
0.0
  0
LINE
  5
CFFE
330
2
100
AcDbEntity
  8
L-ZISSEN
100
AcDbLine
 10
1635.784546627757
 20
-2555.517589113839
 30
0.0
 11
1642.72390899782
 21
-2556.97038621038
 31
0.0
  0
LINE
  5
CFFF
330
2
100
AcDbEntity
  8
L-ZISSEN
100
AcDbLine
 10
1640.903804997817
 20
-2541.7185649856
 30
0.0
 11
1637.991638597818
 21
-2541.7185649856
 31
0.0
  0
LINE
  5
D000
330
2
100
AcDbEntity
  8
L-ZISSEN
100
AcDbLine
 10
1640.903804997817
 20
-2541.7185649856
 30
0.0
 11
1637.991638597818
 21
-2541.7185649856
 31
0.0
  0
LINE
  5
D001
330
2
100
AcDbEntity
  8
L-ZISSEN
100
AcDbLine
 10
1640.903804997817
 20
-2542.446606585599
 30
0.0
 11
1637.991638597818
 21
-2542.446606585599
 31
0.0
  0
LINE
  5
D002
330
2
100
AcDbEntity
  8
L-ZISSEN
100
AcDbLine
 10
1640.903804997817
 20
-2542.446606585599
 30
0.0
 11
1637.991638597818
 21
-2542.446606585599
 31
0.0
  0
LINE
  5
D003
330
2
100
AcDbEntity
  8
L-ZISSEN
100
AcDbLine
 10
1641.187466438626
 20
-2536.635608520006
 30
0.0
 11
1627.723908997821
 21
-2525.415977319335
 31
0.0
  0
LINE
  5
D004
330
2
100
AcDbEntity
  8
L-ZISSEN
100
AcDbLine
 10
1661.769837569258
 20
-2544.450176104405
 30
0.0
 11
1655.387123283544
 21
-2544.450176104405
 31
0.0
  0
LINE
  5
D005
330
2
100
AcDbEntity
  8
L-ZISSEN
100
AcDbLine
 10
1651.64241859782
 20
-2537.915977319335
 30
0.0
 11
1651.64241859782
 21
-2538.078356985597
 31
0.0
  0
LINE
  5
D006
330
2
100
AcDbEntity
  8
L-ZISSEN
100
AcDbLine
 10
1651.642418597818
 20
-2561.643649493851
 30
0.0
 11
1651.642418597818
 21
-2538.078356985597
 31
0.0
  0
LINE
  5
D007
330
2
100
AcDbEntity
  8
L-ZISSEN
100
AcDbLine
 10
1650.914376997821
 20
-2538.078356985597
 30
0.0
 11
1650.914376997821
 21
-2551.9340226665
 31
0.0
  0
LINE
  5
D008
330
2
100
AcDbEntity
  8
L-ZISSEN
100
AcDbLine
 10
1650.36834579782
 20
-2538.078356985597
 30
0.0
 11
1650.36834579782
 21
-2552.275168185597
 31
0.0
  0
LINE
  5
D009
330
2
100
AcDbEntity
  8
L-ZISSEN
100
AcDbLine
 10
1650.914376997821
 20
-2538.078356985597
 30
0.0
 11
1650.914376997821
 21
-2556.279396985597
 31
0.0
  0
LINE
  5
D00A
330
2
100
AcDbEntity
  8
L-ZISSEN
100
AcDbLine
 10
1266.096552128569
 20
-2770.078607793776
 30
0.0
 11
1220.699662939692
 21
-2802.511448932091
 31
0.0
  0
TEXT
  5
D00B
330
2
100
AcDbEntity
  8
L-ZISSEN
100
AcDbText
 10
1207.829273871789
 20
-2804.758123160042
 30
0.0
 40
4.5
  1
P.P
100
AcDbText
  0
LINE
  5
D00C
330
2
100
AcDbEntity
  8
L-ZISSEN
100
AcDbLine
 10
1220.699662939692
 20
-2802.511448932091
 30
0.0
 11
1218.699662939692
 21
-2802.511448932091
 31
0.0
  0
SOLID
  5
D00D
330
2
100
AcDbEntity
  8
L-ZISSEN
100
AcDbTrace
 10
1265.902780382829
 20
-2769.8073816489
 30
0.0
 11
1266.290323874309
 21
-2770.349833938651
 31
0.0
 12
1267.723908997821
 22
-2768.915977319335
 32
0.0
 13
1267.723908997821
 23
-2768.915977319335
 33
0.0
  0
LINE
  5
D00E
330
2
100
AcDbEntity
  8
L-ZISSEN
100
AcDbLine
 10
1416.096552128569
 20
-2770.078607793776
 30
0.0
 11
1370.699662939692
 21
-2802.511448932091
 31
0.0
  0
SOLID
  5
D00F
330
2
100
AcDbEntity
  8
L-ZISSEN
100
AcDbTrace
 10
1415.902780382829
 20
-2769.8073816489
 30
0.0
 11
1416.290323874309
 21
-2770.349833938651
 31
0.0
 12
1417.723908997821
 22
-2768.915977319335
 32
0.0
 13
1417.723908997821
 23
-2768.915977319335
 33
0.0
  0
TEXT
  5
D010
330
2
100
AcDbEntity
  8
L-ZISSEN
100
AcDbText
 10
1357.524633379717
 20
-2804.758123160042
 30
0.0
 40
4.5
  1
P.P
100
AcDbText
  0
LINE
  5
D011
330
2
100
AcDbEntity
  8
L-ZISSEN
100
AcDbLine
 10
1368.699662939692
 20
-2802.511448932091
 30
0.0
 11
1370.699662939692
 21
-2802.511448932091
 31
0.0
  0
LINE
  5
D012
330
2
100
AcDbEntity
  8
L-ZISSEN
100
AcDbLine
 10
1350.041396476255
 20
-2714.382468906678
 30
0.0
 11
1374.136680144607
 21
-2714.382468906678
 31
0.0
  0
TEXT
  5
D013
330
2
100
AcDbEntity
  8
L-ZISSEN
100
AcDbText
 10
1350.588219538354
 20
-2720.871943103859
 30
0.0
 40
4.5
  1
Rc1/4
100
AcDbText
  0
TEXT
  5
D014
330
2
100
AcDbEntity
  8
L-ZISSEN
100
AcDbText
 10
1350.588219538354
 20
-2728.371943103859
 30
0.0
 40
4.5
  1
Rc3/8
100
AcDbText
  0
TEXT
  5
D015
330
2
100
AcDbEntity
  8
L-ZISSEN
100
AcDbText
 10
1350.588219538354
 20
-2713.371943103859
 30
0.0
 40
4.5
  1
IN
100
AcDbText
  0
LINE
  5
D016
330
2
100
AcDbEntity
  8
L-ZISSEN
100
AcDbLine
 10
1390.169296221738
 20
-2740.216626886811
 30
0.0
 11
1374.136680144607
 21
-2714.382468906678
 31
0.0
  0
SOLID
  5
D017
330
2
100
AcDbEntity
  8
L-ZISSEN
100
AcDbTrace
 10
1389.886071149651
 20
-2740.392395682825
 30
0.0
 11
1390.452521293826
 21
-2740.040858090797
 31
0.0
 12
1391.223908997821
 22
-2741.915977319336
 32
0.0
 13
1391.223908997821
 23
-2741.915977319336
 33
0.0
  0
TEXT
  5
D018
330
2
100
AcDbEntity
  8
L-ZISSEN
100
AcDbText
 10
1353.321255262281
 20
-2625.560409432652
 30
0.0
 40
4.5
  1
MODEL NO. F63- 00-*0 0
100
AcDbText
  0
TEXT
  5
D019
330
2
100
AcDbEntity
  8
L-ZISSEN
100
AcDbText
 10
1413.420187970585
 20
-2622.203964395638
 30
0.0
 40
4.5
  1
2
100
AcDbText
  0
TEXT
  5
D01A
330
2
100
AcDbEntity
  8
L-ZISSEN
100
AcDbText
 10
1413.420187970585
 20
-2628.714828065838
 30
0.0
 40
4.5
  1
3
100
AcDbText
  0
TEXT
  5
D22A
330
2
100
AcDbEntity
  8
L-ZISSEN
100
AcDbText
 10
1438.247093261162
 20
-2628.714828065838
 30
0.0
 40
4.5
  1
5
100
AcDbText
  0
TEXT
  5
D22B
330
2
100
AcDbEntity
  8
L-ZISSEN
100
AcDbText
 10
1438.983803656028
 20
-2622.203964395638
 30
0.0
 40
4.5
  1
1
100
AcDbText
  0
VIEWPORT
  5
69B
330
F
100
AcDbEntity
 67
     1
  8
0
100
AcDbViewport
 10
0.0
 20
0.0
 30
0.0
 40
0.0
 41
0.0
 68
     1
 69
     1
1001
ACAD
1000
MVIEW
1002
{
1070
    16
1010
0.0
1020
0.0
1030
0.0
1010
0.0
1020
0.0
1030
1.0
1040
0.0
1040
0.0
1040
0.0
1040
0.0
1040
50.0
1040
0.0
1040
0.0
1070
     0
1070
   100
1070
     1
1070
     1
1070
     0
1070
     0
1070
     0
1070
     0
1040
0.0
1040
0.0
1040
0.0
1040
10.0
1040
10.0
1040
10.0
1040
10.0
1070
     0
1002
{
1002
}
1002
}
  0
VIEWPORT
  5
69D
330
F
100
AcDbEntity
 67
     1
  8
SUNPOU
100
AcDbViewport
 10
0.0
 20
0.0
 30
0.0
 40
0.0
 41
0.0
 68
    -1
 69
     2
1001
ACAD
1000
MVIEW
1002
{
1070
    16
1010
0.0
1020
0.0
1030
0.0
1010
0.0
1020
0.0
1030
1.0
1040
0.0
1040
59.8802181911947
1040
144.5109310282361
1040
-1209.648178221134
1040
50.0
1040
0.0
1040
0.0
1070
    16
1070
   100
1070
     1
1070
     0
1070
     0
1070
     0
1070
     0
1070
     0
1040
0.0
1040
0.0
1040
0.0
1040
1.0
1040
1.0
1040
4.0
1040
4.0
1070
     0
1002
{
1002
}
1002
}
  0
ENDSEC
  0
SECTION
  2
OBJECTS
  0
DICTIONARY
  5
9
330
0
100
AcDbDictionary
  3
ACAD_GROUP
350
23
  3
ACAD_LAYOUT
350
E
  3
ACAD_MLINESTYLE
350
24
  3
ACAD_PLOTSETTINGS
350
25
1001
ACAD
1000
TREAT_AS_HARD
1070
     0
  0
DICTIONARY
  5
8E1
330
15
100
AcDbDictionary
  3
ACAD_LAYERSTATES
350
8E2
1001
ACAD
1000
TREAT_AS_HARD
1070
     1
  0
DICTIONARY
  5
3
330
2
100
AcDbDictionary
  3
ACAD_LAYOUTSELFREF
350
D274
1001
ACAD
1000
TREAT_AS_HARD
1070
     1
  0
DICTIONARY
  5
10
330
F
100
AcDbDictionary
  3
ACAD_LAYOUTSELFREF
350
D275
1001
ACAD
1000
TREAT_AS_HARD
1070
     1
  0
DICTIONARY
  5
23
102
{ACAD_REACTORS
330
9
102
}
330
9
100
AcDbDictionary
1001
ACAD
1000
TREAT_AS_HARD
1070
     0
  0
DICTIONARY
  5
E
102
{ACAD_REACTORS
330
9
102
}
330
9
100
AcDbDictionary
1001
ACAD
1000
TREAT_AS_HARD
1070
     0
  0
DICTIONARY
  5
24
102
{ACAD_REACTORS
330
9
102
}
330
9
100
AcDbDictionary
  3
STANDARD
350
27
1001
ACAD
1000
TREAT_AS_HARD
1070
     0
  0
DICTIONARY
  5
25
102
{ACAD_REACTORS
330
9
102
}
330
9
100
AcDbDictionary
1001
ACAD
1000
TREAT_AS_HARD
1070
     0
  0
DICTIONARY
  5
8E2
102
{ACAD_REACTORS
330
8E1
102
}
330
8E1
100
AcDbDictionary
1001
ACAD
1000
TREAT_AS_HARD
1070
     0
  0
XRECORD
  5
D274
102
{ACAD_REACTORS
330
3
102
}
330
3
100
AcDbXrecord
340
2
  0
XRECORD
  5
D275
102
{ACAD_REACTORS
330
10
102
}
330
10
100
AcDbXrecord
340
F
  0
MLINESTYLE
  5
27
102
{ACAD_REACTORS
330
24
102
}
330
24
100
AcDbMlineStyle
  2
STANDARD
 70
     0
  3

 62
   256
 51
90.0
 52
90.0
 71
     2
 49
0.5
 62
   256
  6
BYLAYER
 49
-0.5
 62
   256
  6
BYLAYER
  0
ENDSEC
  0
EOF
