  0
SECTION
  2
HEADER
  9
$ACADVER
  1
AC1012
  9
$DWGCODEPAGE
  3
dos932
  9
$INSBASE
 10
0.0
 20
0.0
 30
0.0
  9
$EXTMIN
 10
1880.351080596588
 20
-2816.71615798078
 30
-0.0000000349181948
  9
$EXTMAX
 10
2054.660858149358
 20
-2580.492089940575
 30
0.0000000814935746
  9
$LIMMIN
 10
0.0
 20
0.0
  9
$LIMMAX
 10
297.0
 20
210.0
  9
$ORTHOMODE
 70
     1
  9
$REGENMODE
 70
     1
  9
$FILLMODE
 70
     1
  9
$QTEXTMODE
 70
     0
  9
$MIRRTEXT
 70
     1
  9
$DRAGMODE
 70
     2
  9
$LTSCALE
 40
1.0
  9
$OSMODE
 70
    39
  9
$ATTMODE
 70
     1
  9
$TEXTSIZE
 40
5.599999999999999
  9
$TRACEWID
 40
0.05
  9
$TEXTSTYLE
  7
STANDARD
  9
$CLAYER
  8
L-ZISSEN
  9
$CELTYPE
  6
BYLAYER
  9
$CECOLOR
 62
   256
  9
$CELTSCALE
 40
1.0
  9
$DELOBJ
 70
     1
  9
$DISPSILH
 70
     0
  9
$DIMSCALE
 40
2.0
  9
$DIMASZ
 40
2.0
  9
$DIMEXO
 40
1.0
  9
$DIMDLI
 40
8.0
  9
$DIMRND
 40
0.0
  9
$DIMDLE
 40
0.0
  9
$DIMEXE
 40
0.8
  9
$DIMTP
 40
0.0
  9
$DIMTM
 40
0.0
  9
$DIMTXT
 40
2.799999999999999
  9
$DIMCEN
 40
0.0
  9
$DIMTSZ
 40
0.0
  9
$DIMTOL
 70
     0
  9
$DIMLIM
 70
     0
  9
$DIMTIH
 70
     0
  9
$DIMTOH
 70
     0
  9
$DIMSE1
 70
     0
  9
$DIMSE2
 70
     0
  9
$DIMTAD
 70
     0
  9
$DIMZIN
 70
    12
  9
$DIMBLK
  1

  9
$DIMASO
 70
     1
  9
$DIMSHO
 70
     0
  9
$DIMPOST
  1

  9
$DIMAPOST
  1

  9
$DIMALT
 70
     0
  9
$DIMALTD
 70
     2
  9
$DIMALTF
 40
25.4
  9
$DIMLFAC
 40
1.0
  9
$DIMTOFL
 70
     1
  9
$DIMTVP
 40
1.0
  9
$DIMTIX
 70
     1
  9
$DIMSOXD
 70
     0
  9
$DIMSAH
 70
     0
  9
$DIMBLK1
  1

  9
$DIMBLK2
  1

  9
$DIMSTYLE
  2
STANDARD
  9
$DIMCLRD
 70
     0
  9
$DIMCLRE
 70
     0
  9
$DIMCLRT
 70
     0
  9
$DIMTFAC
 40
1.0
  9
$DIMGAP
 40
0.8
  9
$DIMJUST
 70
     0
  9
$DIMSD1
 70
     0
  9
$DIMSD2
 70
     0
  9
$DIMTOLJ
 70
     1
  9
$DIMTZIN
 70
     0
  9
$DIMALTZ
 70
     0
  9
$DIMALTTZ
 70
     0
  9
$DIMFIT
 70
     3
  9
$DIMUPT
 70
     0
  9
$DIMUNIT
 70
     2
  9
$DIMDEC
 70
     8
  9
$DIMTDEC
 70
     8
  9
$DIMALTU
 70
     2
  9
$DIMALTTD
 70
     2
  9
$DIMTXSTY
  7
STANDARD
  9
$DIMAUNIT
 70
     0
  9
$LUNITS
 70
     2
  9
$LUPREC
 70
     4
  9
$SKETCHINC
 40
0.1
  9
$FILLETRAD
 40
10.0
  9
$AUNITS
 70
     0
  9
$AUPREC
 70
     0
  9
$MENU
  1
.
  9
$ELEVATION
 40
0.0
  9
$PELEVATION
 40
0.0
  9
$THICKNESS
 40
0.0
  9
$LIMCHECK
 70
     0
  9
$BLIPMODE
 70
     0
  9
$CHAMFERA
 40
3.0
  9
$CHAMFERB
 40
3.0
  9
$CHAMFERC
 40
0.0
  9
$CHAMFERD
 40
0.0
  9
$SKPOLY
 70
     0
  9
$TDCREATE
 40
2453354.092125822
  9
$TDUPDATE
 40
2455065.428896122
  9
$TDINDWG
 40
10.6238237269
  9
$TDUSRTIMER
 40
10.6238237269
  9
$USRTIMER
 70
     1
  9
$ANGBASE
 50
0.0
  9
$ANGDIR
 70
     0
  9
$PDMODE
 70
     0
  9
$PDSIZE
 40
0.0
  9
$PLINEWID
 40
0.0
  9
$COORDS
 70
     2
  9
$SPLFRAME
 70
     0
  9
$SPLINETYPE
 70
     6
  9
$SPLINESEGS
 70
     8
  9
$ATTDIA
 70
     0
  9
$ATTREQ
 70
     1
  9
$HANDLING
 70
-16383
  9
$HANDSEED
  5
C6AB
  9
$SURFTAB1
 70
     6
  9
$SURFTAB2
 70
     6
  9
$SURFTYPE
 70
     6
  9
$SURFU
 70
     6
  9
$SURFV
 70
     6
  9
$UCSNAME
  2

  9
$UCSORG
 10
0.0
 20
0.0
 30
0.0
  9
$UCSXDIR
 10
1.0
 20
0.0
 30
0.0
  9
$UCSYDIR
 10
0.0
 20
1.0
 30
0.0
  9
$PUCSNAME
  2

  9
$PUCSORG
 10
0.0
 20
0.0
 30
0.0
  9
$PUCSXDIR
 10
1.0
 20
0.0
 30
0.0
  9
$PUCSYDIR
 10
0.0
 20
1.0
 30
0.0
  9
$USERI1
 70
     0
  9
$USERI2
 70
     0
  9
$USERI3
 70
     0
  9
$USERI4
 70
     0
  9
$USERI5
 70
     0
  9
$USERR1
 40
0.0
  9
$USERR2
 40
0.0
  9
$USERR3
 40
0.0
  9
$USERR4
 40
0.0
  9
$USERR5
 40
0.0
  9
$WORLDVIEW
 70
     1
  9
$SHADEDGE
 70
     3
  9
$SHADEDIF
 70
    70
  9
$TILEMODE
 70
     1
  9
$MAXACTVP
 70
    48
  9
$PINSBASE
 10
0.0
 20
0.0
 30
0.0
  9
$PLIMCHECK
 70
     0
  9
$PEXTMIN
 10
0.0
 20
0.0
 30
0.0
  9
$PEXTMAX
 10
0.0
 20
0.0
 30
0.0
  9
$PLIMMIN
 10
0.0
 20
0.0
  9
$PLIMMAX
 10
0.0
 20
0.0
  9
$UNITMODE
 70
     0
  9
$VISRETAIN
 70
     0
  9
$PLINEGEN
 70
     0
  9
$PSLTSCALE
 70
     0
  9
$TREEDEPTH
 70
  3020
  9
$PICKSTYLE
 70
     1
  9
$CMLSTYLE
  2
STANDARD
  9
$CMLJUST
 70
     0
  9
$CMLSCALE
 40
1.0
  9
$SAVEIMAGES
 70
     1
  0
ENDSEC
  0
SECTION
  2
CLASSES
  0
CLASS
  1
ACDBDICTIONARYWDFLT
  2
AcDbDictionaryWithDefault
  3
AutoCAD 2000
 90
    32768
280
     0
281
     0
  0
CLASS
  1
ACDBPLACEHOLDER
  2
AcDbPlaceHolder
  3
AutoCAD 2000
 90
    32768
280
     0
281
     0
  0
CLASS
  1
LAYOUT
  2
AcDbLayout
  3
AutoCAD 2000
 90
    32768
280
     0
281
     0
  0
CLASS
  1
DICTIONARYVAR
  2
AcDbDictionaryVar
  3
AutoCAD 2000
 90
    32768
280
     0
281
     0
  0
CLASS
  1
TABLESTYLE
  2
AcDbTableStyle
  3
ObjectDBX Classes
 90
    34815
280
     1
281
     0
  0
CLASS
  1
ACAD_PROXY_OBJECT_WRAPPER
  2
AcDbProxyObjectWrapper
  3
AutoCAD 2000
 90
    32768
280
     0
281
     0
  0
CLASS
  1
LONG_TRANSACTION
  2
AcDbLongTransaction
  3
AutoCAD 2000
 90
    32768
280
     0
281
     0
  0
CLASS
  1
LWPOLYLINE
  2
AcDbPolyline
  3
AutoCAD 2000
 90
    32768
280
     0
281
     1
  0
CLASS
  1
HATCH
  2
AcDbHatch
  3
AutoCAD 2000
 90
    32768
280
     0
281
     1
  0
CLASS
  1
XRECORD
  2
AcDbXrecord
  3
AutoCAD 2000
 90
    32768
280
     0
281
     0
  0
CLASS
  1
LONG_TRANSACTION
  2
AcDbLongTransaction
  3
AutoCAD 2000
 90
    32768
280
     0
281
     0
  0
CLASS
  1
LWPOLYLINE
  2
AcDbPolyline
  3
AutoCAD 2000
 90
    32768
280
     0
281
     1
  0
CLASS
  1
HATCH
  2
AcDbHatch
  3
AutoCAD 2000
 90
    32768
280
     0
281
     1
  0
CLASS
  1
XRECORD
  2
AcDbXrecord
  3
AutoCAD 2000
 90
    32768
280
     0
281
     0
  0
CLASS
  1
LONG_TRANSACTION
  2
AcDbLongTransaction
  3
AutoCAD 2000
 90
    32768
280
     0
281
     0
  0
CLASS
  1
LWPOLYLINE
  2
AcDbPolyline
  3
AutoCAD 2000
 90
    32768
280
     0
281
     1
  0
CLASS
  1
HATCH
  2
AcDbHatch
  3
AutoCAD 2000
 90
    32768
280
     0
281
     1
  0
CLASS
  1
XRECORD
  2
AcDbXrecord
  3
AutoCAD 2000
 90
    32768
280
     0
281
     0
  0
CLASS
  1
LONG_TRANSACTION
  2
AcDbLongTransaction
  3
AutoCAD 2000
 90
    32768
280
     0
281
     0
  0
CLASS
  1
LWPOLYLINE
  2
AcDbPolyline
  3
AutoCAD 2000
 90
    32768
280
     0
281
     1
  0
CLASS
  1
HATCH
  2
AcDbHatch
  3
AutoCAD 2000
 90
    32768
280
     0
281
     1
  0
CLASS
  1
XRECORD
  2
AcDbXrecord
  3
AutoCAD 2000
 90
    32768
280
     0
281
     0
  0
CLASS
  1
LONG_TRANSACTION
  2
AcDbLongTransaction
  3
AutoCAD 2000
 90
    32768
280
     0
281
     0
  0
CLASS
  1
LWPOLYLINE
  2
AcDbPolyline
  3
AutoCAD 2000
 90
    32768
280
     0
281
     1
  0
CLASS
  1
HATCH
  2
AcDbHatch
  3
AutoCAD 2000
 90
    32768
280
     0
281
     1
  0
CLASS
  1
XRECORD
  2
AcDbXrecord
  3
AutoCAD 2000
 90
    32768
280
     0
281
     0
  0
CLASS
  1
LONG_TRANSACTION
  2
AcDbLongTransaction
  3
AutoCAD 2000
 90
    32768
280
     0
281
     0
  0
CLASS
  1
LWPOLYLINE
  2
AcDbPolyline
  3
AutoCAD 2000
 90
    32768
280
     0
281
     1
  0
CLASS
  1
HATCH
  2
AcDbHatch
  3
AutoCAD 2000
 90
    32768
280
     0
281
     1
  0
CLASS
  1
XRECORD
  2
AcDbXrecord
  3
AutoCAD 2000
 90
    32768
280
     0
281
     0
  0
CLASS
  1
LONG_TRANSACTION
  2
AcDbLongTransaction
  3
AutoCAD 2000
 90
    32768
280
     0
281
     0
  0
CLASS
  1
LWPOLYLINE
  2
AcDbPolyline
  3
AutoCAD 2000
 90
    32768
280
     0
281
     1
  0
CLASS
  1
HATCH
  2
AcDbHatch
  3
AutoCAD 2000
 90
    32768
280
     0
281
     1
  0
CLASS
  1
XRECORD
  2
AcDbXrecord
  3
AutoCAD 2000
 90
    32768
280
     0
281
     0
  0
CLASS
  1
LONG_TRANSACTION
  2
AcDbLongTransaction
  3
AutoCAD 2000
 90
    32768
280
     0
281
     0
  0
CLASS
  1
LWPOLYLINE
  2
AcDbPolyline
  3
AutoCAD 2000
 90
    32768
280
     0
281
     1
  0
CLASS
  1
HATCH
  2
AcDbHatch
  3
AutoCAD 2000
 90
    32768
280
     0
281
     1
  0
CLASS
  1
XRECORD
  2
AcDbXrecord
  3
AutoCAD 2000
 90
    32768
280
     0
281
     0
  0
CLASS
  1
LONG_TRANSACTION
  2
AcDbLongTransaction
  3
AutoCAD 2000
 90
    32768
280
     0
281
     0
  0
CLASS
  1
LWPOLYLINE
  2
AcDbPolyline
  3
AutoCAD 2000
 90
    32768
280
     0
281
     1
  0
CLASS
  1
HATCH
  2
AcDbHatch
  3
AutoCAD 2000
 90
    32768
280
     0
281
     1
  0
CLASS
  1
XRECORD
  2
AcDbXrecord
  3
AutoCAD 2000
 90
    32768
280
     0
281
     0
  0
CLASS
  1
LONG_TRANSACTION
  2
AcDbLongTransaction
  3
AutoCAD 2000
 90
    32768
280
     0
281
     0
  0
CLASS
  1
LWPOLYLINE
  2
AcDbPolyline
  3
AutoCAD 2000
 90
    32768
280
     0
281
     1
  0
CLASS
  1
HATCH
  2
AcDbHatch
  3
AutoCAD 2000
 90
    32768
280
     0
281
     1
  0
CLASS
  1
XRECORD
  2
AcDbXrecord
  3
AutoCAD 2000
 90
    32768
280
     0
281
     0
  0
ENDSEC
  0
SECTION
  2
TABLES
  0
TABLE
  2
VPORT
  5
1E
330
0
100
AcDbSymbolTable
 70
     3
  0
VPORT
  5
C6A8
330
1E
100
AcDbSymbolTableRecord
100
AcDbViewportTableRecord
  2
*ACTIVE
 70
     0
 10
0.0
 20
0.0
 11
1.0
 21
1.0
 12
1967.505969372973
 22
-2698.604123960678
 13
0.0
 23
0.0
 14
1.0
 24
1.0
 15
4.0
 25
4.0
 16
0.0
 26
0.0
 36
1.0
 17
0.0
 27
0.0
 37
0.0
 40
237.7175816421459
 41
1.60759493670886
 42
50.0
 43
0.0
 44
0.0
 50
0.0
 51
0.0
 71
    16
 72
   100
 73
     1
 74
     0
 75
     0
 76
     0
 77
     0
 78
     0
  0
ENDTAB
  0
TABLE
  2
LTYPE
  5
19
330
0
100
AcDbSymbolTable
 70
     3
  0
LTYPE
  5
1A
330
19
100
AcDbSymbolTableRecord
100
AcDbLinetypeTableRecord
  2
BYBLOCK
 70
     0
  3

 72
    65
 73
     0
 40
0.0
  0
LTYPE
  5
1B
330
19
100
AcDbSymbolTableRecord
100
AcDbLinetypeTableRecord
  2
BYLAYER
 70
     0
  3

 72
    65
 73
     0
 40
0.0
  0
LTYPE
  5
B
330
19
100
AcDbSymbolTableRecord
100
AcDbLinetypeTableRecord
  2
CONTINUOUS
 70
     0
  3
Solid line
 72
    65
 73
     0
 40
0.0
  0
LTYPE
  5
32
330
19
100
AcDbSymbolTableRecord
100
AcDbLinetypeTableRecord
  2
CENTER
 70
     0
  3

 72
    65
 73
     4
 40
18.0
 49
15.0
 74
     4
 75
     0
340
0
 46
1.0
 50
0.0
 44
0.0
 45
0.0
 49
-1.0
 74
     4
 75
     0
340
0
 46
1.0
 50
0.0
 44
0.0
 45
0.0
 49
1.0
 74
     4
 75
     0
340
0
 46
1.0
 50
0.0
 44
0.0
 45
0.0
 49
-1.0
 74
     4
 75
     0
340
0
 46
1.0
 50
0.0
 44
0.0
 45
0.0
  0
LTYPE
  5
A348
330
19
100
AcDbSymbolTableRecord
100
AcDbLinetypeTableRecord
  2
PHANTOM
 70
     0
  3
----- - - ----- - - ----- - - ----- - - -----
 72
    65
 73
     6
 40
22.5
 49
15.0
 74
     4
 75
     0
340
0
 46
1.0
 50
0.0
 44
0.0
 45
0.0
 49
-1.5
 74
     4
 75
     0
340
0
 46
1.0
 50
0.0
 44
0.0
 45
0.0
 49
1.5
 74
     4
 75
     0
340
0
 46
1.0
 50
0.0
 44
0.0
 45
0.0
 49
-1.5
 74
     4
 75
     0
340
0
 46
1.0
 50
0.0
 44
0.0
 45
0.0
 49
1.5
 74
     4
 75
     0
340
0
 46
1.0
 50
0.0
 44
0.0
 45
0.0
 49
-1.5
 74
     4
 75
     0
340
0
 46
1.0
 50
0.0
 44
0.0
 45
0.0
  0
ENDTAB
  0
TABLE
  2
LAYER
  5
15
102
{ACAD_XDICTIONARY
360
8E1
102
}
330
0
100
AcDbSymbolTable
 70
     5
  0
LAYER
  5
6
330
15
100
AcDbSymbolTableRecord
100
AcDbLayerTableRecord
  2
0
 70
     0
 62
     7
  6
CONTINUOUS
  0
LAYER
  5
34
330
15
100
AcDbSymbolTableRecord
100
AcDbLayerTableRecord
  2
L-ZISSEN
 70
     0
 62
     7
  6
CONTINUOUS
  0
LAYER
  5
31
330
15
100
AcDbSymbolTableRecord
100
AcDbLayerTableRecord
  2
L-TYUSIN
 70
     0
 62
     1
  6
CENTER
  0
LAYER
  5
26
330
15
100
AcDbSymbolTableRecord
100
AcDbLayerTableRecord
  2
SUNPOU
 70
     0
 62
     3
  6
CONTINUOUS
  0
LAYER
  5
A349
330
15
100
AcDbSymbolTableRecord
100
AcDbLayerTableRecord
  2
L-SOUZOU
 70
     0
 62
     2
  6
PHANTOM
  0
ENDTAB
  0
TABLE
  2
STYLE
  5
16
330
0
100
AcDbSymbolTable
 70
     1
  0
STYLE
  5
17
330
16
100
AcDbSymbolTableRecord
100
AcDbTextStyleTableRecord
  2
STANDARD
 70
     0
 40
0.0
 41
1.0
 50
0.0
 71
     0
 42
5.599999999999999
  3
txt.shx
  4

  0
ENDTAB
  0
TABLE
  2
VIEW
  5
1C
330
0
100
AcDbSymbolTable
 70
     0
  0
ENDTAB
  0
TABLE
  2
UCS
  5
1D
330
0
100
AcDbSymbolTable
 70
     0
  0
ENDTAB
  0
TABLE
  2
APPID
  5
20
330
0
100
AcDbSymbolTable
 70
     1
  0
APPID
  5
A
330
20
100
AcDbSymbolTableRecord
100
AcDbRegAppTableRecord
  2
ACAD
 70
     0
  0
ENDTAB
  0
TABLE
  2
DIMSTYLE
  5
21
330
0
100
AcDbSymbolTable
 70
     1
  0
DIMSTYLE
105
28
330
21
100
AcDbSymbolTableRecord
100
AcDbDimStyleTableRecord
  2
STANDARD
 70
     0
  3

  4

  5

  6

  7

 40
1.0
 41
0.18
 42
0.0625
 43
0.38
 44
0.18
 45
0.0
 46
0.0
 47
0.0
 48
0.0
140
0.18
141
0.09
142
0.0
143
25.4
144
1.0
145
0.0
146
1.0
147
0.09
 71
     0
 72
     0
 73
     1
 74
     1
 75
     0
 76
     0
 77
     0
 78
     0
170
     0
171
     2
172
     0
173
     0
174
     0
175
     0
176
     0
177
     0
178
     0
270
     2
271
     4
272
     4
273
     2
274
     2
340
17
275
     0
280
     0
281
     0
282
     0
283
     1
284
     0
285
     0
286
     0
287
     3
288
     0
  0
ENDTAB
  0
TABLE
  2
BLOCK_RECORD
  5
1
330
0
100
AcDbSymbolTable
 70
     0
  0
BLOCK_RECORD
  5
2
102
{ACAD_XDICTIONARY
360
3
102
}
330
1
100
AcDbSymbolTableRecord
100
AcDbBlockTableRecord
  2
*MODEL_SPACE
  0
BLOCK_RECORD
  5
F
102
{ACAD_XDICTIONARY
360
10
102
}
330
1
100
AcDbSymbolTableRecord
100
AcDbBlockTableRecord
  2
*PAPER_SPACE
  0
ENDTAB
  0
ENDSEC
  0
SECTION
  2
BLOCKS
  0
BLOCK
  5
5
330
2
100
AcDbEntity
  8
0
100
AcDbBlockBegin
  2
*MODEL_SPACE
 70
     0
 10
0.0
 20
0.0
 30
0.0
  3
*MODEL_SPACE
  1

  0
ENDBLK
  5
C
330
2
100
AcDbEntity
  8
0
100
AcDbBlockEnd
  0
BLOCK
  5
12
330
F
100
AcDbEntity
 67
     1
  8
0
100
AcDbBlockBegin
  2
*PAPER_SPACE
 70
     0
 10
0.0
 20
0.0
 30
0.0
  3
*PAPER_SPACE
  1

  0
ENDBLK
  5
13
330
F
100
AcDbEntity
 67
     1
  8
0
100
AcDbBlockEnd
  0
ENDSEC
  0
SECTION
  2
ENTITIES
  0
LINE
  5
BBD2
330
2
100
AcDbEntity
  8
L-ZISSEN
100
AcDbLine
 10
1930.925000960608
 20
-2730.765291289516
 30
0.0
 11
1930.925000960608
 21
-2778.897595630049
 31
0.0
  0
LINE
  5
BBD3
330
2
100
AcDbEntity
  8
L-ZISSEN
100
AcDbLine
 10
1895.933000960606
 20
-2730.765291289516
 30
0.0
 11
1895.933000960607
 21
-2778.897595630049
 31
0.0
  0
LINE
  5
BBD4
330
2
100
AcDbEntity
  8
L-TYUSIN
100
AcDbLine
 10
1913.429000960607
 20
-2690.987252536551
 30
0.0
 11
1913.429000960607
 21
-2816.531444436098
 31
0.0
  0
LINE
  5
BBD5
330
2
100
AcDbEntity
  8
L-ZISSEN
100
AcDbLine
 10
1908.083000960607
 20
-2797.691595630049
 30
0.0
 11
1918.775000960608
 21
-2797.691595630049
 31
0.0
  0
LINE
  5
BBD6
330
2
100
AcDbEntity
  8
L-ZISSEN
100
AcDbLine
 10
1908.429000960605
 20
-2805.69159563005
 30
0.0
 11
1918.429000960605
 21
-2805.69159563005
 31
0.0
  0
LINE
  5
BBD7
330
2
100
AcDbEntity
  8
L-ZISSEN
100
AcDbLine
 10
1906.261763391583
 20
-2794.537442316953
 30
0.0
 11
1920.596238529628
 21
-2794.537442316953
 31
0.0
  0
LINE
  5
BBD8
330
2
100
AcDbEntity
  8
L-ZISSEN
100
AcDbLine
 10
1905.179000960605
 20
-2797.691595630049
 30
0.0
 11
1921.679000960607
 21
-2797.691595630049
 31
0.0
  0
LINE
  5
BBD9
330
2
100
AcDbEntity
  8
L-ZISSEN
100
AcDbLine
 10
1905.179000960605
 20
-2803.19159563005
 30
0.0
 11
1921.679000960607
 21
-2803.19159563005
 31
0.0
  0
LINE
  5
BBDA
330
2
100
AcDbEntity
  8
L-ZISSEN
100
AcDbLine
 10
1908.929000960605
 20
-2809.691595630049
 30
0.0
 11
1917.929000960607
 21
-2809.691595630049
 31
0.0
  0
LINE
  5
BBDB
330
2
100
AcDbEntity
  8
L-ZISSEN
100
AcDbLine
 10
1908.083000960607
 20
-2794.537442316954
 30
0.0
 11
1908.083000960607
 21
-2797.691595630049
 31
0.0
  0
LINE
  5
BBDC
330
2
100
AcDbEntity
  8
L-ZISSEN
100
AcDbLine
 10
1906.261763391583
 20
-2790.910321953294
 30
0.0
 11
1906.261763391583
 21
-2794.537442316953
 31
0.0
  0
LINE
  5
BBDD
330
2
100
AcDbEntity
  8
L-ZISSEN
100
AcDbLine
 10
1905.179000960605
 20
-2797.691595630049
 30
0.0
 11
1905.179000960605
 21
-2803.19159563005
 31
0.0
  0
ARC
  5
BBDE
330
2
100
AcDbEntity
  8
L-ZISSEN
100
AcDbCircle
 10
1908.083000960607
 20
-2778.897595630049
 30
0.0
 40
12.15000000000001
100
AcDbArc
 50
180.0
 51
261.3790947674609
  0
LINE
  5
BBDF
330
2
100
AcDbEntity
  8
L-ZISSEN
100
AcDbLine
 10
1905.179000960605
 20
-2803.19159563005
 30
0.0
 11
1908.429000960605
 21
-2805.69159563005
 31
0.0
  0
ARC
  5
BBE0
330
2
100
AcDbEntity
  8
L-ZISSEN
100
AcDbCircle
 10
1908.929000960605
 20
-2809.19159563005
 30
0.0
 40
0.5000000000001137
100
AcDbArc
 50
180.0
 51
270.0
  0
LINE
  5
BBE1
330
2
100
AcDbEntity
  8
L-ZISSEN
100
AcDbLine
 10
1908.429000960605
 20
-2805.69159563005
 30
0.0
 11
1908.429000960605
 21
-2809.19159563005
 31
0.0
  0
LINE
  5
BBE2
330
2
100
AcDbEntity
  8
L-ZISSEN
100
AcDbLine
 10
1920.596238529628
 20
-2790.910321953294
 30
0.0
 11
1920.596238529628
 21
-2794.537442316953
 31
0.0
  0
LINE
  5
BBE3
330
2
100
AcDbEntity
  8
L-ZISSEN
100
AcDbLine
 10
1921.679000960607
 20
-2803.19159563005
 30
0.0
 11
1921.679000960607
 21
-2797.691595630049
 31
0.0
  0
LINE
  5
BBE4
330
2
100
AcDbEntity
  8
L-ZISSEN
100
AcDbLine
 10
1909.721007817396
 20
-2791.04759563005
 30
0.0
 11
1916.731300747247
 21
-2791.04759563005
 31
0.0
  0
LINE
  5
BBE5
330
2
100
AcDbEntity
  8
L-ZISSEN
100
AcDbLine
 10
1918.775000960608
 20
-2797.691595630049
 30
0.0
 11
1918.775000960608
 21
-2794.537442316954
 31
0.0
  0
LINE
  5
BBE6
330
2
100
AcDbEntity
  8
L-ZISSEN
100
AcDbLine
 10
1921.679000960607
 20
-2803.19159563005
 30
0.0
 11
1918.429000960605
 21
-2805.69159563005
 31
0.0
  0
ARC
  5
BBE7
330
2
100
AcDbEntity
  8
L-ZISSEN
100
AcDbCircle
 10
1917.929000960607
 20
-2809.19159563005
 30
0.0
 40
0.4999999999998295
100
AcDbArc
 50
270.0
 51
0.0
  0
LINE
  5
BBE8
330
2
100
AcDbEntity
  8
L-ZISSEN
100
AcDbLine
 10
1918.429000960605
 20
-2805.69159563005
 30
0.0
 11
1918.429000960605
 21
-2809.19159563005
 31
0.0
  0
ARC
  5
BBE9
330
2
100
AcDbEntity
  8
L-ZISSEN
100
AcDbCircle
 10
1918.775000960608
 20
-2778.897595630049
 30
0.0
 40
12.15000000000031
100
AcDbArc
 50
278.620905232539
 51
0.0
  0
LINE
  5
BBEA
330
2
100
AcDbEntity
  8
L-ZISSEN
100
AcDbLine
 10
1901.315357941308
 20
-2729.955291289516
 30
0.0
 11
1911.412028479555
 21
-2729.955291289516
 31
0.0
  0
LINE
  5
BBEB
330
2
100
AcDbEntity
  8
L-ZISSEN
100
AcDbLine
 10
1902.691093386711
 20
-2730.765291289516
 30
0.0
 11
1910.602028479554
 21
-2730.765291289516
 31
0.0
  0
LINE
  5
BBEC
330
2
100
AcDbEntity
  8
L-ZISSEN
100
AcDbLine
 10
1902.082590799093
 20
-2695.891595630049
 30
0.0
 11
1924.77541112212
 21
-2695.891595630049
 31
0.0
  0
LINE
  5
BBEF
330
2
100
AcDbEntity
  8
L-ZISSEN
100
AcDbLine
 10
1903.429000960607
 20
-2694.691595630049
 30
0.0
 11
1923.429000960607
 21
-2694.691595630049
 31
0.0
  0
LINE
  5
BBF0
330
2
100
AcDbEntity
  8
L-ZISSEN
100
AcDbLine
 10
1903.409385718334
 20
-2694.691595630049
 30
0.0
 11
1923.448616202877
 21
-2694.691595630049
 31
0.0
  0
LINE
  5
BBF1
330
2
100
AcDbEntity
  8
L-ZISSEN
100
AcDbLine
 10
1899.429000960608
 20
-2728.19159563005
 30
0.0
 11
1927.429000960606
 21
-2728.19159563005
 31
0.0
  0
LINE
  5
BBF2
330
2
100
AcDbEntity
  8
L-TYUSIN
100
AcDbLine
 10
1903.429000960607
 20
-2705.69159563005
 30
0.0
 11
1923.429000960607
 21
-2705.69159563005
 31
0.0
  0
LINE
  5
BBF3
330
2
100
AcDbEntity
  8
L-ZISSEN
100
AcDbLine
 10
1893.429000960606
 20
-2728.19159563005
 30
0.0
 11
1933.429000960605
 21
-2728.19159563005
 31
0.0
  0
CIRCLE
  5
BBF6
330
2
100
AcDbEntity
  8
L-ZISSEN
100
AcDbCircle
 10
1913.429000960607
 20
-2705.69159563005
 30
0.0
 40
5.724999999999999
  0
LINE
  5
BBF7
330
2
100
AcDbEntity
  8
L-ZISSEN
100
AcDbLine
 10
1899.429000960608
 20
-2728.19159563005
 30
0.0
 11
1899.429000960608
 21
-2698.291595630049
 31
0.0
  0
LINE
  5
BBF8
330
2
100
AcDbEntity
  8
L-ZISSEN
100
AcDbLine
 10
1893.429000960606
 20
-2728.19159563005
 30
0.0
 11
1893.429000960606
 21
-2710.19159563005
 31
0.0
  0
LINE
  5
BBF9
330
2
100
AcDbEntity
  8
L-ZISSEN
100
AcDbLine
 10
1898.974612319136
 20
-2741.141534167338
 30
0.0
 11
1898.974612319136
 21
-2729.955291289516
 31
0.0
  0
LINE
  5
BBFA
330
2
100
AcDbEntity
  8
L-ZISSEN
100
AcDbLine
 10
1902.691093386711
 20
-2741.141534167338
 30
0.0
 11
1902.691093386711
 21
-2730.765291289516
 31
0.0
  0
LINE
  5
BBFB
330
2
100
AcDbEntity
  8
L-ZISSEN
100
AcDbLine
 10
1895.933000960606
 20
-2741.141534167338
 30
0.0
 11
1895.123000960606
 21
-2740.651287130701
 31
0.0
  0
LINE
  5
BBFC
330
2
100
AcDbEntity
  8
L-ZISSEN
100
AcDbLine
 10
1901.315357941308
 20
-2740.331534167339
 30
0.0
 11
1902.691093386711
 21
-2741.141534167338
 31
0.0
  0
LINE
  5
BBFD
330
2
100
AcDbEntity
  8
L-ZISSEN
100
AcDbLine
 10
1898.974612319136
 20
-2741.141534167338
 30
0.0
 11
1902.691093386711
 21
-2741.141534167338
 31
0.0
  0
LINE
  5
BBFE
330
2
100
AcDbEntity
  8
L-ZISSEN
100
AcDbLine
 10
1901.315357941308
 20
-2740.331534167339
 30
0.0
 11
1901.315357941308
 21
-2729.955291289516
 31
0.0
  0
LINE
  5
BBFF
330
2
100
AcDbEntity
  8
L-ZISSEN
100
AcDbLine
 10
1895.123000960606
 20
-2728.19159563005
 30
0.0
 11
1895.123000960606
 21
-2740.651287130701
 31
0.0
  0
LINE
  5
BC00
330
2
100
AcDbEntity
  8
L-ZISSEN
100
AcDbLine
 10
1898.974612319136
 20
-2740.331534167339
 30
0.0
 11
1901.315357941308
 21
-2740.331534167339
 31
0.0
  0
LINE
  5
BC01
330
2
100
AcDbEntity
  8
L-ZISSEN
100
AcDbLine
 10
1895.933000960606
 20
-2730.765291289516
 30
0.0
 11
1895.123000960606
 21
-2729.955291289516
 31
0.0
  0
LINE
  5
BC02
330
2
100
AcDbEntity
  8
L-ZISSEN
100
AcDbLine
 10
1895.933000960606
 20
-2730.765291289516
 30
0.0
 11
1898.974612319136
 21
-2730.765291289516
 31
0.0
  0
LINE
  5
BC03
330
2
100
AcDbEntity
  8
L-ZISSEN
100
AcDbLine
 10
1895.933000960606
 20
-2729.955291289516
 30
0.0
 11
1898.974612319136
 21
-2729.955291289516
 31
0.0
  0
LINE
  5
BC04
330
2
100
AcDbEntity
  8
L-ZISSEN
100
AcDbLine
 10
1901.315357941308
 20
-2729.955291289516
 30
0.0
 11
1902.691093386711
 21
-2730.765291289516
 31
0.0
  0
LINE
  5
BC05
330
2
100
AcDbEntity
  8
L-ZISSEN
100
AcDbLine
 10
1902.082590799093
 20
-2695.891595630049
 30
0.0
 11
1903.409385718334
 21
-2694.691595630049
 31
0.0
  0
LINE
  5
BC06
330
2
100
AcDbEntity
  8
L-ZISSEN
100
AcDbLine
 10
1899.429000960608
 20
-2698.291595630049
 30
0.0
 11
1902.082590799093
 21
-2695.891595630049
 31
0.0
  0
LINE
  5
BC07
330
2
100
AcDbEntity
  8
L-ZISSEN
100
AcDbLine
 10
1899.429000960608
 20
-2710.19159563005
 30
0.0
 11
1893.429000960606
 21
-2710.19159563005
 31
0.0
  0
LINE
  5
BC08
330
2
100
AcDbEntity
  8
L-ZISSEN
100
AcDbLine
 10
1933.429000960607
 20
-2728.19159563005
 30
0.0
 11
1933.429000960607
 21
-2710.19159563005
 31
0.0
  0
LINE
  5
BC09
330
2
100
AcDbEntity
  8
L-ZISSEN
100
AcDbLine
 10
1927.429000960606
 20
-2698.291595630049
 30
0.0
 11
1927.429000960606
 21
-2728.19159563005
 31
0.0
  0
LINE
  5
BC0A
330
2
100
AcDbEntity
  8
L-ZISSEN
100
AcDbLine
 10
1925.542643979903
 20
-2729.955291289516
 30
0.0
 11
1915.445973441658
 21
-2729.955291289516
 31
0.0
  0
LINE
  5
BC0B
330
2
100
AcDbEntity
  8
L-ZISSEN
100
AcDbLine
 10
1930.925000960608
 20
-2741.141534167338
 30
0.0
 11
1931.735000960603
 21
-2740.651287130701
 31
0.0
  0
LINE
  5
BC0C
330
2
100
AcDbEntity
  8
L-ZISSEN
100
AcDbLine
 10
1931.735000960603
 20
-2728.19159563005
 30
0.0
 11
1931.735000960603
 21
-2740.651287130701
 31
0.0
  0
LINE
  5
BC0D
330
2
100
AcDbEntity
  8
L-ZISSEN
100
AcDbLine
 10
1930.925000960608
 20
-2729.955291289516
 30
0.0
 11
1931.735000960603
 21
-2729.955291289516
 31
0.0
  0
LINE
  5
BC0E
330
2
100
AcDbEntity
  8
L-ZISSEN
100
AcDbLine
 10
1930.925000960608
 20
-2730.765291289516
 30
0.0
 11
1931.735000960603
 21
-2729.955291289516
 31
0.0
  0
LINE
  5
BC0F
330
2
100
AcDbEntity
  8
L-ZISSEN
100
AcDbLine
 10
1927.883389602073
 20
-2741.141534167338
 30
0.0
 11
1927.883389602073
 21
-2729.955291289516
 31
0.0
  0
LINE
  5
BC10
330
2
100
AcDbEntity
  8
L-ZISSEN
100
AcDbLine
 10
1924.166908534502
 20
-2741.141534167338
 30
0.0
 11
1924.166908534502
 21
-2730.765291289516
 31
0.0
  0
LINE
  5
BC11
330
2
100
AcDbEntity
  8
L-ZISSEN
100
AcDbLine
 10
1925.542643979903
 20
-2740.331534167339
 30
0.0
 11
1924.166908534502
 21
-2741.141534167338
 31
0.0
  0
LINE
  5
BC12
330
2
100
AcDbEntity
  8
L-ZISSEN
100
AcDbLine
 10
1927.883389602073
 20
-2741.141534167338
 30
0.0
 11
1924.166908534502
 21
-2741.141534167338
 31
0.0
  0
LINE
  5
BC13
330
2
100
AcDbEntity
  8
L-ZISSEN
100
AcDbLine
 10
1925.542643979903
 20
-2740.331534167339
 30
0.0
 11
1925.542643979903
 21
-2729.955291289516
 31
0.0
  0
LINE
  5
BC14
330
2
100
AcDbEntity
  8
L-ZISSEN
100
AcDbLine
 10
1927.883389602073
 20
-2740.331534167339
 30
0.0
 11
1925.542643979903
 21
-2740.331534167339
 31
0.0
  0
LINE
  5
BC15
330
2
100
AcDbEntity
  8
L-ZISSEN
100
AcDbLine
 10
1925.542643979903
 20
-2729.955291289516
 30
0.0
 11
1924.166908534502
 21
-2730.765291289516
 31
0.0
  0
LINE
  5
BC16
330
2
100
AcDbEntity
  8
L-ZISSEN
100
AcDbLine
 10
1930.925000960608
 20
-2729.955291289516
 30
0.0
 11
1927.883389602073
 21
-2729.955291289516
 31
0.0
  0
LINE
  5
BC17
330
2
100
AcDbEntity
  8
L-ZISSEN
100
AcDbLine
 10
1930.925000960608
 20
-2730.765291289516
 30
0.0
 11
1927.883389602073
 21
-2730.765291289516
 31
0.0
  0
LINE
  5
BC18
330
2
100
AcDbEntity
  8
L-ZISSEN
100
AcDbLine
 10
1916.255973441657
 20
-2741.141534167338
 30
0.0
 11
1916.255973441657
 21
-2730.765291289516
 31
0.0
  0
LINE
  5
BC19
330
2
100
AcDbEntity
  8
L-ZISSEN
100
AcDbLine
 10
1916.255973441657
 20
-2741.141534167338
 30
0.0
 11
1916.255973441657
 21
-2730.765291289516
 31
0.0
  0
LINE
  5
BC1A
330
2
100
AcDbEntity
  8
L-ZISSEN
100
AcDbLine
 10
1910.602028479554
 20
-2741.141534167338
 30
0.0
 11
1910.602028479554
 21
-2730.765291289516
 31
0.0
  0
LINE
  5
BC1B
330
2
100
AcDbEntity
  8
L-ZISSEN
100
AcDbLine
 10
1910.602028479554
 20
-2741.141534167338
 30
0.0
 11
1910.602028479554
 21
-2730.765291289516
 31
0.0
  0
LINE
  5
BC1C
330
2
100
AcDbEntity
  8
L-ZISSEN
100
AcDbLine
 10
1910.602028479554
 20
-2741.141534167338
 30
0.0
 11
1911.412028479555
 21
-2740.331534167339
 31
0.0
  0
LINE
  5
BC1D
330
2
100
AcDbEntity
  8
L-ZISSEN
100
AcDbLine
 10
1916.255973441657
 20
-2741.141534167338
 30
0.0
 11
1915.445973441658
 21
-2740.331534167339
 31
0.0
  0
LINE
  5
BC1E
330
2
100
AcDbEntity
  8
L-ZISSEN
100
AcDbLine
 10
1910.602028479554
 20
-2741.141534167338
 30
0.0
 11
1916.255973441657
 21
-2741.141534167338
 31
0.0
  0
LINE
  5
BC1F
330
2
100
AcDbEntity
  8
L-ZISSEN
100
AcDbLine
 10
1915.445973441658
 20
-2740.331534167339
 30
0.0
 11
1915.445973441658
 21
-2729.955291289516
 31
0.0
  0
LINE
  5
BC20
330
2
100
AcDbEntity
  8
L-ZISSEN
100
AcDbLine
 10
1911.412028479555
 20
-2740.331534167339
 30
0.0
 11
1911.412028479555
 21
-2729.955291289516
 31
0.0
  0
LINE
  5
BC21
330
2
100
AcDbEntity
  8
L-ZISSEN
100
AcDbLine
 10
1911.412028479555
 20
-2740.331534167339
 30
0.0
 11
1915.445973441658
 21
-2740.331534167339
 31
0.0
  0
LINE
  5
BC22
330
2
100
AcDbEntity
  8
L-ZISSEN
100
AcDbLine
 10
1910.602028479554
 20
-2730.765291289516
 30
0.0
 11
1911.412028479555
 21
-2729.955291289516
 31
0.0
  0
LINE
  5
BC23
330
2
100
AcDbEntity
  8
L-ZISSEN
100
AcDbLine
 10
1916.255973441657
 20
-2730.765291289516
 30
0.0
 11
1915.445973441658
 21
-2729.955291289516
 31
0.0
  0
LINE
  5
BC24
330
2
100
AcDbEntity
  8
L-ZISSEN
100
AcDbLine
 10
1924.166908534502
 20
-2730.765291289516
 30
0.0
 11
1916.255973441657
 21
-2730.765291289516
 31
0.0
  0
LINE
  5
BC25
330
2
100
AcDbEntity
  8
L-ZISSEN
100
AcDbLine
 10
1933.429000960605
 20
-2710.19159563005
 30
0.0
 11
1927.429000960606
 21
-2710.19159563005
 31
0.0
  0
LINE
  5
BC26
330
2
100
AcDbEntity
  8
L-ZISSEN
100
AcDbLine
 10
1924.77541112212
 20
-2695.891595630049
 30
0.0
 11
1923.448616202877
 21
-2694.691595630049
 31
0.0
  0
LINE
  5
BC27
330
2
100
AcDbEntity
  8
L-ZISSEN
100
AcDbLine
 10
1927.429000960606
 20
-2698.291595630049
 30
0.0
 11
1924.77541112212
 21
-2695.891595630049
 31
0.0
  0
LINE
  5
BC29
330
2
100
AcDbEntity
  8
L-ZISSEN
100
AcDbLine
 10
2030.92500096061
 20
-2730.765291289516
 30
0.0
 11
2030.92500096061
 21
-2778.897595630049
 31
0.0
  0
LINE
  5
BC2A
330
2
100
AcDbEntity
  8
L-ZISSEN
100
AcDbLine
 10
1995.933000960607
 20
-2730.765291289516
 30
0.0
 11
1995.933000960607
 21
-2778.897595630049
 31
0.0
  0
LINE
  5
BC2B
330
2
100
AcDbEntity
  8
L-TYUSIN
100
AcDbLine
 10
2013.429000960607
 20
-2690.987252536551
 30
0.0
 11
2013.429000960607
 21
-2814.69159563005
 31
0.0
  0
LINE
  5
BC2C
330
2
100
AcDbEntity
  8
L-ZISSEN
100
AcDbLine
 10
2021.679000960609
 20
-2803.19159563005
 30
0.0
 11
2018.429000960606
 21
-2805.69159563005
 31
0.0
  0
LINE
  5
BC2D
330
2
100
AcDbEntity
  8
L-ZISSEN
100
AcDbLine
 10
2006.261763391584
 20
-2794.537442316953
 30
0.0
 11
2020.59623852963
 21
-2794.537442316953
 31
0.0
  0
LINE
  5
BC2E
330
2
100
AcDbEntity
  8
L-ZISSEN
100
AcDbLine
 10
2005.17900096061
 20
-2797.691595630049
 30
0.0
 11
2021.679000960609
 21
-2797.691595630049
 31
0.0
  0
LINE
  5
BC2F
330
2
100
AcDbEntity
  8
L-ZISSEN
100
AcDbLine
 10
2005.17900096061
 20
-2803.19159563005
 30
0.0
 11
2021.679000960609
 21
-2803.19159563005
 31
0.0
  0
LINE
  5
BC34
330
2
100
AcDbEntity
  8
L-ZISSEN
100
AcDbLine
 10
2018.77500096061
 20
-2797.691595630049
 30
0.0
 11
2018.77500096061
 21
-2794.537442316954
 31
0.0
  0
LINE
  5
BC35
330
2
100
AcDbEntity
  8
L-ZISSEN
100
AcDbLine
 10
2006.261763391584
 20
-2790.910321953294
 30
0.0
 11
2006.261763391584
 21
-2794.537442316953
 31
0.0
  0
LINE
  5
BC36
330
2
100
AcDbEntity
  8
L-ZISSEN
100
AcDbLine
 10
2008.083000960609
 20
-2794.537442316954
 30
0.0
 11
2008.083000960609
 21
-2797.691595630049
 31
0.0
  0
LINE
  5
BC37
330
2
100
AcDbEntity
  8
L-ZISSEN
100
AcDbLine
 10
2005.17900096061
 20
-2797.691595630049
 30
0.0
 11
2005.17900096061
 21
-2803.19159563005
 31
0.0
  0
LINE
  5
BC38
330
2
100
AcDbEntity
  8
L-ZISSEN
100
AcDbLine
 10
2005.17900096061
 20
-2803.19159563005
 30
0.0
 11
2008.429000960607
 21
-2805.69159563005
 31
0.0
  0
ARC
  5
BC39
330
2
100
AcDbEntity
  8
L-ZISSEN
100
AcDbCircle
 10
2008.083000960605
 20
-2778.897595630049
 30
0.0
 40
12.15000000000001
100
AcDbArc
 50
180.0
 51
261.3790947674609
  0
LINE
  5
BC3A
330
2
100
AcDbEntity
  8
L-ZISSEN
100
AcDbLine
 10
2009.721007817396
 20
-2791.04759563005
 30
0.0
 11
2016.731300747249
 21
-2791.04759563005
 31
0.0
  0
LINE
  5
BC3B
330
2
100
AcDbEntity
  8
L-ZISSEN
100
AcDbLine
 10
2008.083000960609
 20
-2797.691595630049
 30
0.0
 11
2018.77500096061
 21
-2797.691595630049
 31
0.0
  0
LINE
  5
BC3C
330
2
100
AcDbEntity
  8
L-ZISSEN
100
AcDbLine
 10
2008.429000960607
 20
-2805.69159563005
 30
0.0
 11
2018.429000960606
 21
-2805.69159563005
 31
0.0
  0
ARC
  5
BC3D
330
2
100
AcDbEntity
  8
L-ZISSEN
100
AcDbCircle
 10
2017.929000960609
 20
-2809.19159563005
 30
0.0
 40
0.5000000000001137
100
AcDbArc
 50
270.0
 51
0.0
  0
ARC
  5
BC3E
330
2
100
AcDbEntity
  8
L-ZISSEN
100
AcDbCircle
 10
2008.92900096061
 20
-2809.19159563005
 30
0.0
 40
0.5000000000001137
100
AcDbArc
 50
180.0
 51
270.0
  0
LINE
  5
BC40
330
2
100
AcDbEntity
  8
L-ZISSEN
100
AcDbLine
 10
2008.92900096061
 20
-2809.691595630049
 30
0.0
 11
2017.929000960609
 21
-2809.691595630049
 31
0.0
  0
LINE
  5
BC41
330
2
100
AcDbEntity
  8
L-ZISSEN
100
AcDbLine
 10
2008.429000960607
 20
-2805.69159563005
 30
0.0
 11
2008.429000960607
 21
-2809.19159563005
 31
0.0
  0
LINE
  5
BC42
330
2
100
AcDbEntity
  8
L-ZISSEN
100
AcDbLine
 10
2018.429000960606
 20
-2805.69159563005
 30
0.0
 11
2018.429000960606
 21
-2809.19159563005
 31
0.0
  0
LINE
  5
BC43
330
2
100
AcDbEntity
  8
L-ZISSEN
100
AcDbLine
 10
2020.59623852963
 20
-2790.910321953294
 30
0.0
 11
2020.59623852963
 21
-2794.537442316953
 31
0.0
  0
LINE
  5
BC44
330
2
100
AcDbEntity
  8
L-ZISSEN
100
AcDbLine
 10
2021.679000960609
 20
-2803.19159563005
 30
0.0
 11
2021.679000960609
 21
-2797.691595630049
 31
0.0
  0
ARC
  5
BC45
330
2
100
AcDbEntity
  8
L-ZISSEN
100
AcDbCircle
 10
2018.77500096061
 20
-2778.897595630049
 30
0.0
 40
12.14999999999984
100
AcDbArc
 50
278.620905232539
 51
0.0
  0
LINE
  5
BC46
330
2
100
AcDbEntity
  8
L-ZISSEN
100
AcDbLine
 10
2024.166908534504
 20
-2730.765291289516
 30
0.0
 11
2016.255973441659
 21
-2730.765291289516
 31
0.0
  0
LINE
  5
BC47
330
2
100
AcDbEntity
  8
L-ZISSEN
100
AcDbLine
 10
2025.542643979903
 20
-2729.955291289516
 30
0.0
 11
2015.445973441658
 21
-2729.955291289516
 31
0.0
  0
LINE
  5
BC48
330
2
100
AcDbEntity
  8
L-ZISSEN
100
AcDbLine
 10
2031.629000960609
 20
-2710.191595630049
 30
0.0
 11
1995.229000960608
 21
-2710.19159563005
 31
0.0
  0
LINE
  5
BC49
330
2
100
AcDbEntity
  8
L-ZISSEN
100
AcDbLine
 10
1993.429000960611
 20
-2728.19159563005
 30
0.0
 11
2033.429000960607
 21
-2728.19159563005
 31
0.0
  0
LINE
  5
BC4A
330
2
100
AcDbEntity
  8
L-ZISSEN
100
AcDbLine
 10
1993.429000960611
 20
-2694.691595630049
 30
0.0
 11
2033.42900096061
 21
-2694.691595630049
 31
0.0
  0
LINE
  5
BC4B
330
2
100
AcDbEntity
  8
L-ZISSEN
100
AcDbLine
 10
2030.42900096061
 20
-2695.891595630049
 30
0.0
 11
2013.429000960611
 21
-2695.891595630049
 31
0.0
  0
LINE
  5
BC4C
330
2
100
AcDbEntity
  8
L-TYUSIN
100
AcDbLine
 10
1988.42900096061
 20
-2705.69159563005
 30
0.0
 11
2038.42900096061
 21
-2705.69159563005
 31
0.0
  0
LINE
  5
BC4F
330
2
100
AcDbEntity
  8
L-ZISSEN
100
AcDbLine
 10
1993.429000960611
 20
-2728.19159563005
 30
0.0
 11
1993.429000960611
 21
-2694.691595630049
 31
0.0
  0
LINE
  5
BC50
330
2
100
AcDbEntity
  8
L-ZISSEN
100
AcDbLine
 10
1995.929000960608
 20
-2728.19159563005
 30
0.0
 11
1995.929000960608
 21
-2710.19159563005
 31
0.0
  0
LINE
  5
BC51
330
2
100
AcDbEntity
  8
L-ZISSEN
100
AcDbLine
 10
1997.259168936466
 20
-2728.19159563005
 30
0.0
 11
1997.259168936466
 21
-2710.191595630051
 31
0.0
  0
LINE
  5
BC52
330
2
100
AcDbEntity
  8
L-ZISSEN
100
AcDbLine
 10
2016.255973441659
 20
-2741.141534167338
 30
0.0
 11
2016.255973441659
 21
-2730.765291289516
 31
0.0
  0
LINE
  5
BC53
330
2
100
AcDbEntity
  8
L-ZISSEN
100
AcDbLine
 10
2016.255973441659
 20
-2741.141534167338
 30
0.0
 11
2016.255973441659
 21
-2730.765291289516
 31
0.0
  0
LINE
  5
BC54
330
2
100
AcDbEntity
  8
L-ZISSEN
100
AcDbLine
 10
2010.602028479554
 20
-2741.141534167338
 30
0.0
 11
2010.602028479554
 21
-2730.765291289516
 31
0.0
  0
LINE
  5
BC55
330
2
100
AcDbEntity
  8
L-ZISSEN
100
AcDbLine
 10
2010.602028479554
 20
-2741.141534167338
 30
0.0
 11
2010.602028479554
 21
-2730.765291289516
 31
0.0
  0
LINE
  5
BC56
330
2
100
AcDbEntity
  8
L-ZISSEN
100
AcDbLine
 10
2010.602028479554
 20
-2741.141534167338
 30
0.0
 11
2011.412028479556
 21
-2740.331534167339
 31
0.0
  0
LINE
  5
BC57
330
2
100
AcDbEntity
  8
L-ZISSEN
100
AcDbLine
 10
2015.445973441658
 20
-2740.331534167339
 30
0.0
 11
2015.445973441658
 21
-2729.955291289516
 31
0.0
  0
LINE
  5
BC58
330
2
100
AcDbEntity
  8
L-ZISSEN
100
AcDbLine
 10
2011.412028479556
 20
-2740.331534167339
 30
0.0
 11
2011.412028479556
 21
-2729.955291289516
 31
0.0
  0
LINE
  5
BC59
330
2
100
AcDbEntity
  8
L-ZISSEN
100
AcDbLine
 10
2011.412028479556
 20
-2740.331534167339
 30
0.0
 11
2015.445973441658
 21
-2740.331534167339
 31
0.0
  0
LINE
  5
BC5A
330
2
100
AcDbEntity
  8
L-ZISSEN
100
AcDbLine
 10
2010.602028479554
 20
-2730.765291289516
 30
0.0
 11
2011.412028479556
 21
-2729.955291289516
 31
0.0
  0
LINE
  5
BC5B
330
2
100
AcDbEntity
  8
L-ZISSEN
100
AcDbLine
 10
2002.691093386709
 20
-2741.141534167338
 30
0.0
 11
2002.691093386709
 21
-2730.765291289516
 31
0.0
  0
LINE
  5
BC5C
330
2
100
AcDbEntity
  8
L-ZISSEN
100
AcDbLine
 10
2002.691093386709
 20
-2730.765291289516
 30
0.0
 11
2010.602028479554
 21
-2730.765291289516
 31
0.0
  0
LINE
  5
BC5D
330
2
100
AcDbEntity
  8
L-ZISSEN
100
AcDbLine
 10
1998.974612319138
 20
-2741.141534167338
 30
0.0
 11
1998.974612319138
 21
-2729.955291289516
 31
0.0
  0
LINE
  5
BC5E
330
2
100
AcDbEntity
  8
L-ZISSEN
100
AcDbLine
 10
1995.933000960607
 20
-2741.141534167338
 30
0.0
 11
1995.123000960608
 21
-2740.651287130701
 31
0.0
  0
LINE
  5
BC63
330
2
100
AcDbEntity
  8
L-ZISSEN
100
AcDbLine
 10
2001.31535794131
 20
-2740.331534167339
 30
0.0
 11
2001.31535794131
 21
-2729.955291289516
 31
0.0
  0
LINE
  5
BC64
330
2
100
AcDbEntity
  8
L-ZISSEN
100
AcDbLine
 10
1995.123000960608
 20
-2728.19159563005
 30
0.0
 11
1995.123000960608
 21
-2740.651287130701
 31
0.0
  0
LINE
  5
BC65
330
2
100
AcDbEntity
  8
L-ZISSEN
100
AcDbLine
 10
1998.974612319138
 20
-2740.331534167339
 30
0.0
 11
2001.31535794131
 21
-2740.331534167339
 31
0.0
  0
LINE
  5
BC66
330
2
100
AcDbEntity
  8
L-ZISSEN
100
AcDbLine
 10
1995.933000960607
 20
-2730.765291289516
 30
0.0
 11
1995.123000960608
 21
-2729.955291289516
 31
0.0
  0
LINE
  5
BC67
330
2
100
AcDbEntity
  8
L-ZISSEN
100
AcDbLine
 10
1995.933000960607
 20
-2730.765291289516
 30
0.0
 11
1998.974612319138
 21
-2730.765291289516
 31
0.0
  0
LINE
  5
BC68
330
2
100
AcDbEntity
  8
L-ZISSEN
100
AcDbLine
 10
1995.933000960607
 20
-2729.955291289516
 30
0.0
 11
1998.974612319138
 21
-2729.955291289516
 31
0.0
  0
LINE
  5
BC69
330
2
100
AcDbEntity
  8
L-ZISSEN
100
AcDbLine
 10
2001.31535794131
 20
-2740.331534167339
 30
0.0
 11
2002.691093386709
 21
-2741.141534167338
 31
0.0
  0
LINE
  5
BC6A
330
2
100
AcDbEntity
  8
L-ZISSEN
100
AcDbLine
 10
1998.974612319138
 20
-2741.141534167338
 30
0.0
 11
2002.691093386709
 21
-2741.141534167338
 31
0.0
  0
LINE
  5
BC6B
330
2
100
AcDbEntity
  8
L-ZISSEN
100
AcDbLine
 10
2001.31535794131
 20
-2729.955291289516
 30
0.0
 11
2002.691093386709
 21
-2730.765291289516
 31
0.0
  0
LINE
  5
BC6C
330
2
100
AcDbEntity
  8
L-ZISSEN
100
AcDbLine
 10
2001.31535794131
 20
-2729.955291289516
 30
0.0
 11
2011.412028479556
 21
-2729.955291289516
 31
0.0
  0
LINE
  5
BC6D
330
2
100
AcDbEntity
  8
L-ZISSEN
100
AcDbLine
 10
2016.255973441659
 20
-2741.141534167338
 30
0.0
 11
2015.445973441658
 21
-2740.331534167339
 31
0.0
  0
LINE
  5
BC6E
330
2
100
AcDbEntity
  8
L-ZISSEN
100
AcDbLine
 10
2010.602028479554
 20
-2741.141534167338
 30
0.0
 11
2016.255973441659
 21
-2741.141534167338
 31
0.0
  0
LINE
  5
BC6F
330
2
100
AcDbEntity
  8
L-ZISSEN
100
AcDbLine
 10
2016.255973441659
 20
-2730.765291289516
 30
0.0
 11
2015.445973441658
 21
-2729.955291289516
 31
0.0
  0
LINE
  5
BC70
330
2
100
AcDbEntity
  8
L-ZISSEN
100
AcDbLine
 10
1995.229000960608
 20
-2698.291595630049
 30
0.0
 11
1996.42900096061
 21
-2695.891595630049
 31
0.0
  0
LINE
  5
BC71
330
2
100
AcDbEntity
  8
L-ZISSEN
100
AcDbLine
 10
1996.42900096061
 20
-2695.891595630049
 30
0.0
 11
1996.42900096061
 21
-2710.19159563005
 31
0.0
  0
LINE
  5
BC72
330
2
100
AcDbEntity
  8
L-ZISSEN
100
AcDbLine
 10
1995.229000960608
 20
-2698.291595630049
 30
0.0
 11
1995.229000960608
 21
-2710.19159563005
 31
0.0
  0
LINE
  5
BC74
330
2
100
AcDbEntity
  8
L-ZISSEN
100
AcDbLine
 10
1993.429000960611
 20
-2698.291595630049
 30
0.0
 11
1995.229000960608
 21
-2698.291595630049
 31
0.0
  0
LINE
  5
BC76
330
2
100
AcDbEntity
  8
L-ZISSEN
100
AcDbLine
 10
1996.42900096061
 20
-2695.891595630049
 30
0.0
 11
2013.429000960611
 21
-2695.891595630049
 31
0.0
  0
LINE
  5
BC78
330
2
100
AcDbEntity
  8
L-ZISSEN
100
AcDbLine
 10
2033.42900096061
 20
-2728.19159563005
 30
0.0
 11
2033.42900096061
 21
-2694.691595630049
 31
0.0
  0
LINE
  5
BC79
330
2
100
AcDbEntity
  8
L-ZISSEN
100
AcDbLine
 10
2030.929000960606
 20
-2728.19159563005
 30
0.0
 11
2030.929000960606
 21
-2710.191595630049
 31
0.0
  0
LINE
  5
BC7A
330
2
100
AcDbEntity
  8
L-ZISSEN
100
AcDbLine
 10
2029.598832984748
 20
-2728.19159563005
 30
0.0
 11
2029.598832984748
 21
-2710.19159563005
 31
0.0
  0
LINE
  5
BC7E
330
2
100
AcDbEntity
  8
L-ZISSEN
100
AcDbLine
 10
2030.92500096061
 20
-2741.141534167338
 30
0.0
 11
2031.735000960605
 21
-2740.651287130701
 31
0.0
  0
LINE
  5
BC83
330
2
100
AcDbEntity
  8
L-ZISSEN
100
AcDbLine
 10
2031.735000960605
 20
-2728.19159563005
 30
0.0
 11
2031.735000960605
 21
-2740.651287130701
 31
0.0
  0
LINE
  5
BC84
330
2
100
AcDbEntity
  8
L-ZISSEN
100
AcDbLine
 10
2030.92500096061
 20
-2729.955291289516
 30
0.0
 11
2031.735000960605
 21
-2729.955291289516
 31
0.0
  0
LINE
  5
BC85
330
2
100
AcDbEntity
  8
L-ZISSEN
100
AcDbLine
 10
2030.92500096061
 20
-2730.765291289516
 30
0.0
 11
2031.735000960605
 21
-2729.955291289516
 31
0.0
  0
LINE
  5
BC86
330
2
100
AcDbEntity
  8
L-ZISSEN
100
AcDbLine
 10
2027.883389602075
 20
-2741.141534167338
 30
0.0
 11
2027.883389602075
 21
-2729.955291289516
 31
0.0
  0
LINE
  5
BC87
330
2
100
AcDbEntity
  8
L-ZISSEN
100
AcDbLine
 10
2024.166908534504
 20
-2741.141534167338
 30
0.0
 11
2024.166908534504
 21
-2730.765291289516
 31
0.0
  0
LINE
  5
BC88
330
2
100
AcDbEntity
  8
L-ZISSEN
100
AcDbLine
 10
2025.542643979903
 20
-2740.331534167339
 30
0.0
 11
2024.166908534504
 21
-2741.141534167338
 31
0.0
  0
LINE
  5
BC89
330
2
100
AcDbEntity
  8
L-ZISSEN
100
AcDbLine
 10
2025.542643979903
 20
-2740.331534167339
 30
0.0
 11
2025.542643979903
 21
-2729.955291289516
 31
0.0
  0
LINE
  5
BC8A
330
2
100
AcDbEntity
  8
L-ZISSEN
100
AcDbLine
 10
2025.542643979903
 20
-2729.955291289516
 30
0.0
 11
2024.166908534504
 21
-2730.765291289516
 31
0.0
  0
LINE
  5
BC8B
330
2
100
AcDbEntity
  8
L-ZISSEN
100
AcDbLine
 10
2027.883389602075
 20
-2741.141534167338
 30
0.0
 11
2024.166908534504
 21
-2741.141534167338
 31
0.0
  0
LINE
  5
BC8C
330
2
100
AcDbEntity
  8
L-ZISSEN
100
AcDbLine
 10
2027.883389602075
 20
-2740.331534167339
 30
0.0
 11
2025.542643979903
 21
-2740.331534167339
 31
0.0
  0
LINE
  5
BC8D
330
2
100
AcDbEntity
  8
L-ZISSEN
100
AcDbLine
 10
2030.92500096061
 20
-2729.955291289516
 30
0.0
 11
2027.883389602075
 21
-2729.955291289516
 31
0.0
  0
LINE
  5
BC8E
330
2
100
AcDbEntity
  8
L-ZISSEN
100
AcDbLine
 10
2030.92500096061
 20
-2730.765291289516
 30
0.0
 11
2027.883389602075
 21
-2730.765291289516
 31
0.0
  0
LINE
  5
BC90
330
2
100
AcDbEntity
  8
L-ZISSEN
100
AcDbLine
 10
2031.629000960609
 20
-2698.291595630049
 30
0.0
 11
2030.42900096061
 21
-2695.891595630049
 31
0.0
  0
LINE
  5
BC91
330
2
100
AcDbEntity
  8
L-ZISSEN
100
AcDbLine
 10
2030.42900096061
 20
-2695.891595630049
 30
0.0
 11
2030.42900096061
 21
-2710.191595630049
 31
0.0
  0
LINE
  5
BC92
330
2
100
AcDbEntity
  8
L-ZISSEN
100
AcDbLine
 10
2031.629000960609
 20
-2698.291595630049
 30
0.0
 11
2031.629000960609
 21
-2710.191595630049
 31
0.0
  0
LINE
  5
BC93
330
2
100
AcDbEntity
  8
L-ZISSEN
100
AcDbLine
 10
2033.42900096061
 20
-2698.291595630049
 30
0.0
 11
2031.629000960609
 21
-2698.291595630049
 31
0.0
  0
LINE
  5
BC94
330
2
100
AcDbEntity
  8
L-ZISSEN
100
AcDbLine
 10
2033.42900096061
 20
-2698.291595630049
 30
0.0
 11
2032.629000960608
 21
-2698.291595630049
 31
0.0
  0
LINE
  5
BCFA
330
2
100
AcDbEntity
  8
L-ZISSEN
100
AcDbLine
 10
1901.579000960606
 20
-2715.19159563005
 30
0.0
 11
1925.279000960605
 21
-2715.19159563005
 31
0.0
  0
LINE
  5
BCFB
330
2
100
AcDbEntity
  8
L-ZISSEN
100
AcDbLine
 10
1925.279000960605
 20
-2715.19159563005
 30
0.0
 11
1925.279000960605
 21
-2716.69159563005
 31
0.0
  0
LINE
  5
BCFC
330
2
100
AcDbEntity
  8
L-ZISSEN
100
AcDbLine
 10
1925.279000960605
 20
-2716.69159563005
 30
0.0
 11
1901.579000960606
 21
-2716.69159563005
 31
0.0
  0
LINE
  5
BCFD
330
2
100
AcDbEntity
  8
L-ZISSEN
100
AcDbLine
 10
1901.579000960606
 20
-2716.69159563005
 30
0.0
 11
1901.579000960606
 21
-2715.19159563005
 31
0.0
  0
LINE
  5
BD00
330
2
100
AcDbEntity
  8
L-ZISSEN
100
AcDbLine
 10
1927.429000960607
 20
-2625.691595630049
 30
0.0
 11
1899.429000960607
 21
-2625.691595630049
 31
0.0
  0
LINE
  5
BD01
330
2
100
AcDbEntity
  8
L-ZISSEN
100
AcDbLine
 10
1927.429000960607
 20
-2585.691595630049
 30
0.0
 11
1899.429000960607
 21
-2585.691595630049
 31
0.0
  0
LINE
  5
BD02
330
2
100
AcDbEntity
  8
L-ZISSEN
100
AcDbLine
 10
1903.679000960607
 20
-2624.341595630049
 30
0.0
 11
1903.679000960607
 21
-2587.041595630049
 31
0.0
  0
LINE
  5
BD04
330
2
100
AcDbEntity
  8
L-TYUSIN
100
AcDbLine
 10
1938.429000960607
 20
-2605.691595630049
 30
0.0
 11
1888.429000960607
 21
-2605.691595630049
 31
0.0
  0
LINE
  5
BD09
330
2
100
AcDbEntity
  8
L-ZISSEN
100
AcDbLine
 10
1927.429000960607
 20
-2585.691595630049
 30
0.0
 11
1927.429000960607
 21
-2587.941595630049
 31
0.0
  0
LINE
  5
BD0B
330
2
100
AcDbEntity
  8
L-ZISSEN
100
AcDbLine
 10
1927.429000960607
 20
-2625.691595630049
 30
0.0
 11
1927.429000960607
 21
-2623.441595630049
 31
0.0
  0
LINE
  5
BD0C
330
2
100
AcDbEntity
  8
L-TYUSIN
100
AcDbLine
 10
1913.429000960606
 20
-2580.69159563005
 30
0.0
 11
1913.429000960607
 21
-2630.691595630049
 31
0.0
  0
LINE
  5
BD0D
330
2
100
AcDbEntity
  8
L-ZISSEN
100
AcDbLine
 10
1923.179000960607
 20
-2587.041595630049
 30
0.0
 11
1903.679000960607
 21
-2587.041595630049
 31
0.0
  0
LINE
  5
BD0E
330
2
100
AcDbEntity
  8
L-ZISSEN
100
AcDbLine
 10
1923.179000960607
 20
-2624.341595630049
 30
0.0
 11
1903.679000960607
 21
-2624.341595630049
 31
0.0
  0
LINE
  5
BD0F
330
2
100
AcDbEntity
  8
L-ZISSEN
100
AcDbLine
 10
1902.429000960607
 20
-2585.691595630049
 30
0.0
 11
1902.429000960607
 21
-2625.691595630049
 31
0.0
  0
LINE
  5
BD12
330
2
100
AcDbEntity
  8
L-ZISSEN
100
AcDbLine
 10
1923.179000960607
 20
-2624.341595630049
 30
0.0
 11
1923.179000960607
 21
-2587.041595630049
 31
0.0
  0
LINE
  5
BD13
330
2
100
AcDbEntity
  8
L-ZISSEN
100
AcDbLine
 10
1924.429000960607
 20
-2585.691595630049
 30
0.0
 11
1924.429000960607
 21
-2625.691595630049
 31
0.0
  0
LINE
  5
BD23
330
2
100
AcDbEntity
  8
L-ZISSEN
100
AcDbLine
 10
1933.429000960607
 20
-2589.691595630049
 30
0.0
 11
1933.429000960607
 21
-2621.691595630049
 31
0.0
  0
LINE
  5
BD24
330
2
100
AcDbEntity
  8
L-ZISSEN
100
AcDbLine
 10
1893.429000960607
 20
-2589.691595630049
 30
0.0
 11
1893.429000960607
 21
-2621.691595630049
 31
0.0
  0
LINE
  5
BF46
330
2
100
AcDbEntity
  8
L-ZISSEN
100
AcDbLine
 10
1899.429000960607
 20
-2588.19159563005
 30
0.0
 11
1893.429000960606
 21
-2589.521763605908
 31
0.0
  0
LINE
  5
BF47
330
2
100
AcDbEntity
  8
L-ZISSEN
100
AcDbLine
 10
1893.429000960606
 20
-2621.86142765419
 30
0.0
 11
1893.429000960606
 21
-2589.521763605908
 31
0.0
  0
LINE
  5
BF48
330
2
100
AcDbEntity
  8
L-ZISSEN
100
AcDbLine
 10
1899.429000960607
 20
-2585.69159563005
 30
0.0
 11
1899.429000960607
 21
-2588.19159563005
 31
0.0
  0
LINE
  5
BF49
330
2
100
AcDbEntity
  8
L-ZISSEN
100
AcDbLine
 10
1899.429000960607
 20
-2587.49159563005
 30
0.0
 11
1902.429000960607
 21
-2589.191595630049
 31
0.0
  0
LINE
  5
BF4A
330
2
100
AcDbEntity
  8
L-ZISSEN
100
AcDbLine
 10
1899.429000960607
 20
-2623.191595630048
 30
0.0
 11
1893.429000960606
 21
-2621.86142765419
 31
0.0
  0
LINE
  5
BF4B
330
2
100
AcDbEntity
  8
L-ZISSEN
100
AcDbLine
 10
1899.429000960607
 20
-2625.691595630048
 30
0.0
 11
1899.429000960607
 21
-2623.191595630048
 31
0.0
  0
LINE
  5
BF4C
330
2
100
AcDbEntity
  8
L-ZISSEN
100
AcDbLine
 10
1927.429000960606
 20
-2585.69159563005
 30
0.0
 11
1927.429000960606
 21
-2588.19159563005
 31
0.0
  0
LINE
  5
BF4D
330
2
100
AcDbEntity
  8
L-ZISSEN
100
AcDbLine
 10
1927.429000960606
 20
-2585.69159563005
 30
0.0
 11
1927.429000960606
 21
-2587.49159563005
 31
0.0
  0
LINE
  5
BF4E
330
2
100
AcDbEntity
  8
L-ZISSEN
100
AcDbLine
 10
1927.429000960606
 20
-2587.49159563005
 30
0.0
 11
1924.429000960607
 21
-2589.191595630049
 31
0.0
  0
LINE
  5
BF4F
330
2
100
AcDbEntity
  8
L-ZISSEN
100
AcDbLine
 10
1927.429000960606
 20
-2588.19159563005
 30
0.0
 11
1933.429000960607
 21
-2589.521763605908
 31
0.0
  0
LINE
  5
BF50
330
2
100
AcDbEntity
  8
L-ZISSEN
100
AcDbLine
 10
1933.429000960607
 20
-2621.86142765419
 30
0.0
 11
1933.429000960607
 21
-2589.521763605908
 31
0.0
  0
LINE
  5
BF51
330
2
100
AcDbEntity
  8
L-ZISSEN
100
AcDbLine
 10
1927.429000960606
 20
-2623.191595630048
 30
0.0
 11
1933.429000960607
 21
-2621.86142765419
 31
0.0
  0
LINE
  5
BF52
330
2
100
AcDbEntity
  8
L-ZISSEN
100
AcDbLine
 10
1927.429000960606
 20
-2625.691595630048
 30
0.0
 11
1927.429000960606
 21
-2623.191595630049
 31
0.0
  0
LINE
  5
BF53
330
2
100
AcDbEntity
  8
L-ZISSEN
100
AcDbLine
 10
1899.429000960607
 20
-2623.891595630049
 30
0.0
 11
1902.429000960607
 21
-2622.191595630049
 31
0.0
  0
LINE
  5
BF54
330
2
100
AcDbEntity
  8
L-ZISSEN
100
AcDbLine
 10
1927.429000960606
 20
-2623.891595630049
 30
0.0
 11
1924.429000960607
 21
-2622.191595630049
 31
0.0
  0
CIRCLE
  5
C1D4
330
2
100
AcDbEntity
  8
L-ZISSEN
100
AcDbCircle
 10
1897.429000960607
 20
-2592.691595630049
 30
0.0
 40
1.649999999999999
  0
CIRCLE
  5
C1D5
330
2
100
AcDbEntity
  8
L-ZISSEN
100
AcDbCircle
 10
1897.429000960607
 20
-2618.691595630049
 30
0.0
 40
1.649999999999999
  0
CIRCLE
  5
C1D6
330
2
100
AcDbEntity
  8
L-ZISSEN
100
AcDbCircle
 10
1929.429000960607
 20
-2618.691595630049
 30
0.0
 40
1.649999999999999
  0
CIRCLE
  5
C1D7
330
2
100
AcDbEntity
  8
L-ZISSEN
100
AcDbCircle
 10
1929.429000960607
 20
-2592.691595630049
 30
0.0
 40
1.649999999999999
  0
LINE
  5
C1D8
330
2
100
AcDbEntity
  8
L-SOUZOU
100
AcDbLine
 10
1993.429000960606
 20
-2710.19159563005
 30
0.0
 11
2033.429000960607
 21
-2710.19159563005
 31
0.0
  0
LINE
  5
C1DA
330
2
100
AcDbEntity
  8
L-SOUZOU
100
AcDbLine
 10
2003.429000960606
 20
-2666.19159563005
 30
0.0
 11
2023.429000960606
 21
-2666.19159563005
 31
0.0
  0
LINE
  5
C1DB
330
2
100
AcDbEntity
  8
L-SOUZOU
100
AcDbLine
 10
1993.429000960606
 20
-2676.191595630049
 30
0.0
 11
1993.429000960606
 21
-2710.19159563005
 31
0.0
  0
LINE
  5
C1DC
330
2
100
AcDbEntity
  8
L-SOUZOU
100
AcDbLine
 10
2033.429000960607
 20
-2676.191595630049
 30
0.0
 11
2033.429000960607
 21
-2710.19159563005
 31
0.0
  0
ARC
  5
C1DD
330
2
100
AcDbEntity
  8
L-SOUZOU
100
AcDbCircle
 10
2022.829000960606
 20
-2692.791595630049
 30
0.0
 40
3.399999999999999
100
AcDbArc
 50
180.0
 51
0.0
  0
LINE
  5
C1DE
330
2
100
AcDbEntity
  8
L-TYUSIN
100
AcDbLine
 10
2022.829000960606
 20
-2698.69159563005
 30
0.0
 11
2022.829000960606
 21
-2676.69159563005
 31
0.0
  0
ARC
  5
C1DF
330
2
100
AcDbEntity
  8
L-SOUZOU
100
AcDbCircle
 10
2022.829000960606
 20
-2682.59159563005
 30
0.0
 40
3.399999999999999
100
AcDbArc
 50
0.0
 51
180.0
  0
LINE
  5
C1E0
330
2
100
AcDbEntity
  8
L-SOUZOU
100
AcDbLine
 10
2019.429000960607
 20
-2682.59159563005
 30
0.0
 11
2019.429000960607
 21
-2692.791595630049
 31
0.0
  0
LINE
  5
C1E1
330
2
100
AcDbEntity
  8
L-SOUZOU
100
AcDbLine
 10
2026.229000960607
 20
-2682.59159563005
 30
0.0
 11
2026.229000960607
 21
-2692.791595630049
 31
0.0
  0
ARC
  5
C1E3
330
2
100
AcDbEntity
  8
L-SOUZOU
100
AcDbCircle
 10
2004.029000960607
 20
-2682.59159563005
 30
0.0
 40
3.399999999999999
100
AcDbArc
 50
0.0
 51
180.0
  0
LINE
  5
C1E4
330
2
100
AcDbEntity
  8
L-SOUZOU
100
AcDbLine
 10
2007.429000960607
 20
-2682.59159563005
 30
0.0
 11
2007.429000960607
 21
-2692.791595630049
 31
0.0
  0
LINE
  5
C1E5
330
2
100
AcDbEntity
  8
L-SOUZOU
100
AcDbLine
 10
2000.629000960607
 20
-2682.59159563005
 30
0.0
 11
2000.629000960607
 21
-2692.791595630049
 31
0.0
  0
LINE
  5
C1E6
330
2
100
AcDbEntity
  8
L-TYUSIN
100
AcDbLine
 10
2004.029000960607
 20
-2698.69159563005
 30
0.0
 11
2004.029000960607
 21
-2676.69159563005
 31
0.0
  0
ARC
  5
C1E7
330
2
100
AcDbEntity
  8
L-SOUZOU
100
AcDbCircle
 10
2004.029000960607
 20
-2692.791595630049
 30
0.0
 40
3.399999999999999
100
AcDbArc
 50
180.0
 51
0.0
  0
LINE
  5
C1EB
330
2
100
AcDbEntity
  8
L-TYUSIN
100
AcDbLine
 10
2009.929000960606
 20
-2687.69159563005
 30
0.0
 11
1998.129000960607
 21
-2687.69159563005
 31
0.0
  0
LINE
  5
C2C9
330
2
100
AcDbEntity
  8
L-SOUZOU
100
AcDbLine
 10
1993.429000960606
 20
-2708.391595630049
 30
0.0
 11
2033.429000960607
 21
-2708.391595630049
 31
0.0
  0
ARC
  5
C2CE
330
2
100
AcDbEntity
  8
L-SOUZOU
100
AcDbCircle
 10
2003.429000960606
 20
-2676.191595630049
 30
0.0
 40
10.0
100
AcDbArc
 50
90.0
 51
180.0000000000003
  0
ARC
  5
C2CF
330
2
100
AcDbEntity
  8
L-SOUZOU
100
AcDbCircle
 10
2023.429000960606
 20
-2676.191595630049
 30
0.0
 40
10.0
100
AcDbArc
 50
0.0000000000003053
 51
90.0
  0
LINE
  5
C2D0
330
2
100
AcDbEntity
  8
L-SOUZOU
100
AcDbLine
 10
1899.429000960608
 20
-2710.191595630051
 30
0.0
 11
1885.429000960605
 21
-2710.191595630051
 31
0.0
  0
LINE
  5
C2D2
330
2
100
AcDbEntity
  8
L-SOUZOU
100
AcDbLine
 10
1899.429000960608
 20
-2708.39159563005
 30
0.0
 11
1887.229000960604
 21
-2708.391595630051
 31
0.0
  0
LINE
  5
C2D4
330
2
100
AcDbEntity
  8
L-SOUZOU
100
AcDbLine
 10
1885.429000960605
 20
-2666.191595630051
 30
0.0
 11
1885.429000960605
 21
-2710.191595630051
 31
0.0
  0
LINE
  5
C2D5
330
2
100
AcDbEntity
  8
L-SOUZOU
100
AcDbLine
 10
1887.229000960605
 20
-2666.191595630051
 30
0.0
 11
1887.229000960604
 21
-2708.391595630051
 31
0.0
  0
LINE
  5
C2D6
330
2
100
AcDbEntity
  8
L-SOUZOU
100
AcDbLine
 10
1885.429000960605
 20
-2666.191595630051
 30
0.0
 11
1887.229000960605
 21
-2666.191595630051
 31
0.0
  0
LINE
  5
C2E8
330
2
100
AcDbEntity
  8
L-SOUZOU
100
AcDbLine
 10
1892.929000960607
 20
-2597.191595630049
 30
0.0
 11
1902.429000960607
 21
-2597.191595630049
 31
0.0
  0
LINE
  5
C2E9
330
2
100
AcDbEntity
  8
L-SOUZOU
100
AcDbLine
 10
1893.429000960607
 20
-2585.691595630049
 30
0.0
 11
1902.429000960607
 21
-2589.691595630049
 31
0.0
  0
LINE
  5
C2EA
330
2
100
AcDbEntity
  8
L-SOUZOU
100
AcDbLine
 10
1892.929000960607
 20
-2597.191595630049
 30
0.0
 11
1892.929000960607
 21
-2614.191595630049
 31
0.0
  0
LINE
  5
C2EB
330
2
100
AcDbEntity
  8
L-SOUZOU
100
AcDbLine
 10
1887.229000960607
 20
-2625.691595630049
 30
0.0
 11
1887.229000960607
 21
-2585.691595630049
 31
0.0
  0
LINE
  5
C2EC
330
2
100
AcDbEntity
  8
L-SOUZOU
100
AcDbLine
 10
1885.429000960607
 20
-2625.691595630049
 30
0.0
 11
1885.429000960607
 21
-2585.691595630049
 31
0.0
  0
LINE
  5
C2ED
330
2
100
AcDbEntity
  8
L-SOUZOU
100
AcDbLine
 10
1885.429000960607
 20
-2585.691595630049
 30
0.0
 11
1893.429000960607
 21
-2585.691595630049
 31
0.0
  0
LINE
  5
C2EE
330
2
100
AcDbEntity
  8
L-SOUZOU
100
AcDbLine
 10
1902.429000960607
 20
-2597.191595630049
 30
0.0
 11
1902.429000960607
 21
-2589.691595630049
 31
0.0
  0
LINE
  5
C2EF
330
2
100
AcDbEntity
  8
L-SOUZOU
100
AcDbLine
 10
1892.929000960607
 20
-2614.191595630049
 30
0.0
 11
1902.429000960607
 21
-2614.191595630049
 31
0.0
  0
LINE
  5
C2F0
330
2
100
AcDbEntity
  8
L-SOUZOU
100
AcDbLine
 10
1902.429000960607
 20
-2621.691595630049
 30
0.0
 11
1902.429000960607
 21
-2614.191595630049
 31
0.0
  0
LINE
  5
C2F1
330
2
100
AcDbEntity
  8
L-SOUZOU
100
AcDbLine
 10
1893.429000960607
 20
-2625.691595630049
 30
0.0
 11
1902.429000960607
 21
-2621.691595630049
 31
0.0
  0
LINE
  5
C2F2
330
2
100
AcDbEntity
  8
L-SOUZOU
100
AcDbLine
 10
1885.429000960607
 20
-2625.691595630049
 30
0.0
 11
1893.429000960607
 21
-2625.691595630049
 31
0.0
  0
LINE
  5
C2F4
330
2
100
AcDbEntity
  8
L-TYUSIN
100
AcDbLine
 10
2028.729000960607
 20
-2687.69159563005
 30
0.0
 11
2016.929000960606
 21
-2687.69159563005
 31
0.0
  0
LINE
  5
C339
330
2
100
AcDbEntity
  8
L-TYUSIN
100
AcDbLine
 10
1892.229000960605
 20
-2687.69159563005
 30
0.0
 11
1880.429000960605
 21
-2687.69159563005
 31
0.0
  0
TEXT
  5
C344
330
2
100
AcDbEntity
  8
L-ZISSEN
100
AcDbText
 10
1962.307036388235
 20
-2607.080723858454
 30
0.0
 40
4.5
  1
MODEL NO. F62- 00-*9*0
100
AcDbText
  0
TEXT
  5
C345
330
2
100
AcDbEntity
  8
L-ZISSEN
100
AcDbText
 10
2023.334208882201
 20
-2603.72427882144
 30
0.0
 40
4.5
  1
1
100
AcDbText
  0
TEXT
  5
C346
330
2
100
AcDbEntity
  8
L-ZISSEN
100
AcDbText
 10
2022.405969096539
 20
-2610.23514249164
 30
0.0
 40
4.5
  1
2
100
AcDbText
  0
VIEWPORT
  5
69B
330
F
100
AcDbEntity
 67
     1
  8
0
100
AcDbViewport
 10
0.0
 20
0.0
 30
0.0
 40
0.0
 41
0.0
 68
     1
 69
     1
1001
ACAD
1000
MVIEW
1002
{
1070
    16
1010
0.0
1020
0.0
1030
0.0
1010
0.0
1020
0.0
1030
1.0
1040
0.0
1040
0.0
1040
0.0
1040
0.0
1040
50.0
1040
0.0
1040
0.0
1070
     0
1070
   100
1070
     1
1070
     1
1070
     0
1070
     0
1070
     0
1070
     0
1040
0.0
1040
0.0
1040
0.0
1040
10.0
1040
10.0
1040
10.0
1040
10.0
1070
     0
1002
{
1002
}
1002
}
  0
VIEWPORT
  5
69D
330
F
100
AcDbEntity
 67
     1
  8
SUNPOU
100
AcDbViewport
 10
0.0
 20
0.0
 30
0.0
 40
0.0
 41
0.0
 68
    -1
 69
     2
1001
ACAD
1000
MVIEW
1002
{
1070
    16
1010
0.0
1020
0.0
1030
0.0
1010
0.0
1020
0.0
1030
1.0
1040
0.0
1040
59.8802181911947
1040
144.5109310282361
1040
-1209.648178221134
1040
50.0
1040
0.0
1040
0.0
1070
    16
1070
   100
1070
     1
1070
     0
1070
     0
1070
     0
1070
     0
1070
     0
1040
0.0
1040
0.0
1040
0.0
1040
1.0
1040
1.0
1040
4.0
1040
4.0
1070
     0
1002
{
1002
}
1002
}
  0
ENDSEC
  0
SECTION
  2
OBJECTS
  0
DICTIONARY
  5
9
330
0
100
AcDbDictionary
  3
ACAD_GROUP
350
23
  3
ACAD_LAYOUT
350
E
  3
ACAD_MLINESTYLE
350
24
  3
ACAD_PLOTSETTINGS
350
25
1001
ACAD
1000
TREAT_AS_HARD
1070
     0
  0
DICTIONARY
  5
8E1
330
15
100
AcDbDictionary
  3
ACAD_LAYERSTATES
350
8E2
1001
ACAD
1000
TREAT_AS_HARD
1070
     1
  0
DICTIONARY
  5
3
330
2
100
AcDbDictionary
  3
ACAD_LAYOUTSELFREF
350
C6A9
1001
ACAD
1000
TREAT_AS_HARD
1070
     1
  0
DICTIONARY
  5
10
330
F
100
AcDbDictionary
  3
ACAD_LAYOUTSELFREF
350
C6AA
1001
ACAD
1000
TREAT_AS_HARD
1070
     1
  0
DICTIONARY
  5
23
102
{ACAD_REACTORS
330
9
102
}
330
9
100
AcDbDictionary
1001
ACAD
1000
TREAT_AS_HARD
1070
     0
  0
DICTIONARY
  5
E
102
{ACAD_REACTORS
330
9
102
}
330
9
100
AcDbDictionary
1001
ACAD
1000
TREAT_AS_HARD
1070
     0
  0
DICTIONARY
  5
24
102
{ACAD_REACTORS
330
9
102
}
330
9
100
AcDbDictionary
  3
STANDARD
350
27
1001
ACAD
1000
TREAT_AS_HARD
1070
     0
  0
DICTIONARY
  5
25
102
{ACAD_REACTORS
330
9
102
}
330
9
100
AcDbDictionary
1001
ACAD
1000
TREAT_AS_HARD
1070
     0
  0
DICTIONARY
  5
8E2
102
{ACAD_REACTORS
330
8E1
102
}
330
8E1
100
AcDbDictionary
1001
ACAD
1000
TREAT_AS_HARD
1070
     0
  0
XRECORD
  5
C6A9
102
{ACAD_REACTORS
330
3
102
}
330
3
100
AcDbXrecord
340
2
  0
XRECORD
  5
C6AA
102
{ACAD_REACTORS
330
10
102
}
330
10
100
AcDbXrecord
340
F
  0
MLINESTYLE
  5
27
102
{ACAD_REACTORS
330
24
102
}
330
24
100
AcDbMlineStyle
  2
STANDARD
 70
     0
  3

 62
   256
 51
90.0
 52
90.0
 71
     2
 49
0.5
 62
   256
  6
BYLAYER
 49
-0.5
 62
   256
  6
BYLAYER
  0
ENDSEC
  0
EOF
