  0
SECTION
  2
HEADER
  9
$ACADVER
  1
AC1006
  9
$INSBASE
 10
0.0
 20
0.0
 30
0.0
  9
$EXTMIN
 10
60.0
 20
25.0
  9
$EXTMAX
 10
1010.0
 20
700.0
  9
$LIMMIN
 10
0.0
 20
0.0
  9
$LIMMAX
 10
1189.0
 20
841.0
  9
$ORTHOMODE
 70
     0
  9
$REGENMODE
 70
     1
  9
$FILLMODE
 70
     1
  9
$QTEXTMODE
 70
     0
  9
$MIRRTEXT
 70
     1
  9
$DRAGMODE
 70
     2
  9
$LTSCALE
 40
1.0
  9
$OSMODE
 70
     0
  9
$ATTMODE
 70
     1
  9
$TEXTSIZE
 40
4.5
  9
$TRACEWID
 40
0.05
  9
$TEXTSTYLE
  7
STANDARD
  9
$CLAYER
  8
L-ZISSEN
  9
$CELTYPE
  6
BYLAYER
  9
$CECOLOR
 62
   256
  9
$DIMSCALE
 40
1.0
  9
$DIMASZ
 40
2.0
  9
$DIMEXO
 40
1.0
  9
$DIMDLI
 40
0.38
  9
$DIMRND
 40
0.0
  9
$DIMDLE
 40
1.0
  9
$DIMEXE
 40
1.0
  9
$DIMTP
 40
0.0
  9
$DIMTM
 40
0.0
  9
$DIMTXT
 40
4.5
  9
$DIMCEN
 40
0.09
  9
$DIMTSZ
 40
0.0
  9
$DIMTOL
 70
     0
  9
$DIMLIM
 70
     0
  9
$DIMTIH
 70
     0
  9
$DIMTOH
 70
     0
  9
$DIMSE1
 70
     0
  9
$DIMSE2
 70
     0
  9
$DIMTAD
 70
     1
  9
$DIMZIN
 70
     0
  9
$DIMBLK
  1

  9
$DIMASO
 70
     0
  9
$DIMSHO
 70
     0
  9
$DIMPOST
  1

  9
$DIMAPOST
  1

  9
$DIMALT
 70
     0
  9
$DIMALTD
 70
     2
  9
$DIMALTF
 40
25.4
  9
$DIMLFAC
 40
1.0
  9
$DIMTOFL
 70
     1
  9
$DIMTVP
 40
0.0
  9
$DIMTIX
 70
     1
  9
$DIMSOXD
 70
     0
  9
$DIMSAH
 70
     0
  9
$DIMBLK1
  1

  9
$DIMBLK2
  1

  9
$LUNITS
 70
     2
  9
$LUPREC
 70
     4
  9
$AXISMODE
 70
     0
  9
$AXISUNIT
 10
0.0
 20
0.0
  9
$SKETCHINC
 40
0.1
  9
$FILLETRAD
 40
22.5
  9
$AUNITS
 70
     0
  9
$AUPREC
 70
     0
  9
$MENU
  1
acad
  9
$ELEVATION
 40
0.0
  9
$THICKNESS
 40
0.0
  9
$LIMCHECK
 70
     0
  9
$BLIPMODE
 70
     1
  9
$CHAMFERA
 40
0.0
  9
$CHAMFERB
 40
0.0
  9
$SKPOLY
 70
     0
  9
$TDCREATE
 40
2449608.5279451390
  9
$TDUPDATE
 40
2449608.5279451390
  9
$TDINDWG
 40
0.0000000000
  9
$TDUSRTIMER
 40
0.0000000000
  9
$USRTIMER
 70
     1
  9
$ANGBASE
 50
0.0
  9
$ANGDIR
 70
     0
  9
$PDMODE
 70
     0
  9
$PDSIZE
 40
0.0
  9
$PLINEWID
 40
0.0
  9
$COORDS
 70
     2
  9
$SPLFRAME
 70
     0
  9
$SPLINETYPE
 70
     6
  9
$SPLINESEGS
 70
     8
  9
$ATTDIA
 70
     0
  9
$ATTREQ
 70
     1
  9
$HANDLING
 70
     0
  9
$HANDSEED
  5
0
  9
$SURFTAB1
 70
     6
  9
$SURFTAB2
 70
     6
  9
$SURFTYPE
 70
     6
  9
$SURFU
 70
     6
  9
$SURFV
 70
     6
  9
$FLATLAND
 70
     0
  9
$UCSNAME
  2

  9
$UCSORG
 10
0.0
 20
0.0
 30
0.0
  9
$UCSXDIR
 10
1.0
 20
0.0
 30
0.0
  9
$UCSYDIR
 10
0.0
 20
1.0
 30
0.0
  9
$USERI1
 70
     0
  9
$USERI2
 70
     0
  9
$USERI3
 70
     0
  9
$USERI4
 70
     0
  9
$USERI5
 70
     0
  9
$USERR1
 40
0.0
  9
$USERR2
 40
0.0
  9
$USERR3
 40
0.0
  9
$USERR4
 40
0.0
  9
$USERR5
 40
0.0
  9
$WORLDVIEW
 70
     1
  0
ENDSEC
  0
SECTION
  2
TABLES
  0
TABLE
  2
VPORT
 70
     2
  0
VPORT
  2
*ACTIVE
 70
     0
 10
0.0
 20
0.0
 11
1.0
 21
1.0
 12
674.578245
 22
435.577173
 13
0.0
 23
0.0
 14
5.0
 24
5.0
 15
0.0
 25
0.0
 16
0.0
 26
0.0
 36
1.0
 17
0.0
 27
0.0
 37
0.0
 40
871.154346
 41
1.5487
 42
50.0
 43
0.0
 44
0.0
 50
0.0
 51
0.0
 71
     0
 72
   100
 73
     1
 74
     0
 75
     0
 76
     0
 77
     0
 78
     0
  0
ENDTAB
  0
TABLE
  2
LTYPE
 70
     2
  0
LTYPE
  2
CONTINUOUS
 70
    64
  3
Solid line
 72
    65
 73
     0
 40
0.0
  0
LTYPE
  2
CENTER
 70
    64
  3
____ _ ____ _ ____ _ ____ _ 
 72
    65
 73
     4
 40
60.0
 49
45.0
 49
-5.0
 49
5.0
 49
-5.0
  0
ENDTAB
  0
TABLE
  2
LAYER
 70
     3
  0
LAYER
  2
0
 70
     0
 62
     7
  6
CONTINUOUS
  0
LAYER
  2
L-ZISSEN
 70
    64
 62
     7
  6
CONTINUOUS
  0
LAYER
  2
L-TYUSIN
 70
    64
 62
     1
  6
CENTER
  0
ENDTAB
  0
TABLE
  2
STYLE
 70
     1
  0
STYLE
  2
STANDARD
 70
    64
 40
0.0
 41
1.0
 50
0.0
 71
     0
 42
4.5
  3
txt
  4

  0
ENDTAB
  0
TABLE
  2
VIEW
 70
     0
  0
ENDTAB
  0
TABLE
  2
UCS
 70
     0
  0
ENDTAB
  0
TABLE
  2
DWGMGR
 70
     0
  0
ENDTAB
  0
ENDSEC
  0
SECTION
  2
BLOCKS
  0
ENDSEC
  0
SECTION
  2
ENTITIES
  0
LINE
  8
L-ZISSEN
  6
CONTINUOUS
 62
     7
 10
447.5
 20
337.8
 30
0.0
 11
492.5
 21
337.8
 31
0.0
  0
LINE
  8
L-ZISSEN
 10
483.0
 20
235.8
 30
0.0
 11
477.5
 21
228.8
 31
0.0
  0
LINE
  8
L-ZISSEN
 10
457.0
 20
235.8
 30
0.0
 11
462.5
 21
228.8
 31
0.0
  0
LINE
  8
L-ZISSEN
 10
457.0
 20
105.0
 30
0.0
 11
462.5
 21
112.0
 31
0.0
  0
LINE
  8
L-ZISSEN
 10
483.0
 20
105.0
 30
0.0
 11
477.5
 21
112.0
 31
0.0
  0
LINE
  8
L-ZISSEN
 10
462.5
 20
228.8
 30
0.0
 11
462.5
 21
112.0
 31
0.0
  0
LINE
  8
L-ZISSEN
 10
477.5
 20
228.8
 30
0.0
 11
477.5
 21
112.0
 31
0.0
  0
LINE
  8
L-ZISSEN
 10
483.0
 20
243.8
 30
0.0
 11
457.0
 21
243.8
 31
0.0
  0
LINE
  8
L-ZISSEN
 10
457.0
 20
97.0
 30
0.0
 11
457.0
 21
243.8
 31
0.0
  0
LINE
  8
L-ZISSEN
 10
483.0
 20
97.0
 30
0.0
 11
483.0
 21
243.8
 31
0.0
  0
LINE
  8
L-ZISSEN
 10
325.464771
 20
337.8
 30
0.0
 11
325.464771
 21
292.8
 31
0.0
  0
LINE
  8
L-ZISSEN
 10
254.535229
 20
337.8
 30
0.0
 11
254.535229
 21
292.8
 31
0.0
  0
LINE
  8
L-ZISSEN
 10
447.5
 20
337.8
 30
0.0
 11
447.5
 21
292.8
 31
0.0
  0
LINE
  8
L-ZISSEN
 10
492.5
 20
337.8
 30
0.0
 11
492.5
 21
292.8
 31
0.0
  0
LINE
  8
L-ZISSEN
  6
CONTINUOUS
 62
     7
 10
512.0
 20
347.0
 30
0.0
 11
428.0
 21
347.0
 31
0.0
  0
LINE
  8
L-ZISSEN
  6
CONTINUOUS
 62
     7
 10
415.0
 20
292.8
 30
0.0
 11
415.0
 21
252.8
 31
0.0
  0
LINE
  8
L-ZISSEN
  6
CONTINUOUS
 62
     7
 10
415.0
 20
292.8
 30
0.0
 11
525.0
 21
292.8
 31
0.0
  0
LINE
  8
L-ZISSEN
  6
CONTINUOUS
 62
     7
 10
525.0
 20
252.8
 30
0.0
 11
415.0
 21
252.8
 31
0.0
  0
LINE
  8
L-ZISSEN
  6
CONTINUOUS
 62
     7
 10
483.0
 20
69.0
 30
0.0
 11
457.0
 21
69.0
 31
0.0
  0
LINE
  8
L-ZISSEN
  6
CONTINUOUS
 62
     7
 10
460.5
 20
66.0
 30
0.0
 11
479.5
 21
66.0
 31
0.0
  0
LINE
  8
L-ZISSEN
  6
CONTINUOUS
 62
     7
 10
525.0
 20
292.8
 30
0.0
 11
525.0
 21
252.8
 31
0.0
  0
LINE
  8
L-ZISSEN
 10
428.0
 20
347.0
 30
0.0
 11
428.0
 21
292.8
 31
0.0
  0
LINE
  8
L-ZISSEN
 10
512.0
 20
347.0
 30
0.0
 11
512.0
 21
292.8
 31
0.0
  0
LINE
  8
L-ZISSEN
 10
483.0
 20
69.0
 30
0.0
 11
483.0
 21
71.0
 31
0.0
  0
LINE
  8
L-ZISSEN
 10
485.5
 20
71.0
 30
0.0
 11
454.5
 21
71.0
 31
0.0
  0
LINE
  8
L-ZISSEN
 10
457.0
 20
69.0
 30
0.0
 11
457.0
 21
71.0
 31
0.0
  0
LINE
  8
L-ZISSEN
 10
483.0
 20
97.0
 30
0.0
 11
457.0
 21
97.0
 31
0.0
  0
ARC
  8
L-ZISSEN
 10
454.5
 20
97.0
 30
0.0
 40
26.0
 50
180.0
 51
270.0
  0
ARC
  8
L-ZISSEN
 10
485.5
 20
97.0
 30
0.0
 40
26.0
 50
270.0
 51
0.0
  0
LINE
  8
L-ZISSEN
 10
423.97093
 20
252.8
 30
0.0
 11
428.5
 21
97.0
 31
0.0
  0
LINE
  8
L-ZISSEN
 10
516.02907
 20
252.8
 30
0.0
 11
511.5
 21
97.0
 31
0.0
  0
LINE
  8
L-ZISSEN
 10
477.5
 20
112.0
 30
0.0
 11
462.5
 21
112.0
 31
0.0
  0
LINE
  8
L-ZISSEN
  6
CONTINUOUS
 62
     7
 10
462.5
 20
228.8
 30
0.0
 11
477.5
 21
228.8
 31
0.0
  0
LINE
  8
L-TYUSIN
  6
CENTER
 62
     1
 10
290.0
 20
405.0
 30
0.0
 11
290.0
 21
525.0
 31
0.0
  0
LINE
  8
L-ZISSEN
  6
CONTINUOUS
 62
     7
 10
236.0
 20
487.5
 30
0.0
 11
236.0
 21
442.5
 31
0.0
  0
LINE
  8
L-ZISSEN
  6
CONTINUOUS
 62
     7
 10
357.0
 20
487.5
 30
0.0
 11
357.0
 21
442.5
 31
0.0
  0
LINE
  8
L-ZISSEN
 10
236.0
 20
487.5
 30
0.0
 11
254.535229
 21
487.5
 31
0.0
  0
LINE
  8
L-ZISSEN
 10
236.0
 20
442.5
 30
0.0
 11
254.535229
 21
442.5
 31
0.0
  0
ARC
  8
L-ZISSEN
 10
290.0
 20
465.0
 30
0.0
 40
42.0
 50
50.731821
 51
39.268179
  0
LINE
  8
L-ZISSEN
 10
325.464771
 20
442.5
 30
0.0
 11
357.0
 21
442.5
 31
0.0
  0
LINE
  8
L-ZISSEN
 10
325.464771
 20
487.5
 30
0.0
 11
357.0
 21
487.5
 31
0.0
  0
ARC
  8
L-ZISSEN
 10
290.0
 20
465.0
 30
0.0
 40
55.0
 50
24.14774
 51
155.85226
  0
ARC
  8
L-ZISSEN
 10
290.0
 20
465.0
 30
0.0
 40
55.0
 50
204.14774
 51
335.85226
  0
LINE
  8
L-TYUSIN
 10
362.0
 20
465.0
 30
0.0
 11
231.0
 21
465.0
 31
0.0
  0
LINE
  8
L-TYUSIN
  6
CENTER
 62
     1
 10
290.0
 20
365.5
 30
0.0
 11
290.0
 21
54.0
 31
0.0
  0
LINE
  8
L-ZISSEN
  6
CONTINUOUS
 62
     7
 10
357.0
 20
337.8
 30
0.0
 11
357.0
 21
292.8
 31
0.0
  0
LINE
  8
L-ZISSEN
  6
CONTINUOUS
 62
     7
 10
332.0
 20
347.0
 30
0.0
 11
248.0
 21
347.0
 31
0.0
  0
LINE
  8
L-ZISSEN
  6
CONTINUOUS
 62
     7
 10
236.0
 20
337.8
 30
0.0
 11
236.0
 21
292.8
 31
0.0
  0
LINE
  8
L-ZISSEN
  6
CONTINUOUS
 62
     7
 10
325.464771
 20
337.8
 30
0.0
 11
357.0
 21
337.8
 31
0.0
  0
LINE
  8
L-ZISSEN
  6
CONTINUOUS
 62
     7
 10
254.535229
 20
337.8
 30
0.0
 11
236.0
 21
337.8
 31
0.0
  0
LINE
  8
L-ZISSEN
  6
CONTINUOUS
 62
     7
 10
235.0
 20
292.8
 30
0.0
 11
357.0
 21
292.8
 31
0.0
  0
LINE
  8
L-ZISSEN
  6
CONTINUOUS
 62
     7
 10
345.0
 20
252.8
 30
0.0
 11
235.0
 21
252.8
 31
0.0
  0
LINE
  8
L-ZISSEN
  6
CONTINUOUS
 62
     7
 10
303.0
 20
69.0
 30
0.0
 11
277.0
 21
69.0
 31
0.0
  0
LINE
  8
L-ZISSEN
  6
CONTINUOUS
 62
     7
 10
279.75
 20
66.0
 30
0.0
 11
300.25
 21
66.0
 31
0.0
  0
LINE
  8
L-ZISSEN
  6
CONTINUOUS
 62
     7
 10
283.25
 20
59.0
 30
0.0
 11
296.75
 21
59.0
 31
0.0
  0
LINE
  8
L-ZISSEN
  6
CONTINUOUS
 62
     7
 10
300.25
 20
66.0
 30
0.0
 11
300.25
 21
69.0
 31
0.0
  0
LINE
  8
L-ZISSEN
  6
CONTINUOUS
 62
     7
 10
279.75
 20
66.0
 30
0.0
 11
279.75
 21
69.0
 31
0.0
  0
LINE
  8
L-ZISSEN
  6
CONTINUOUS
 62
     7
 10
335.767442
 20
243.8
 30
0.0
 11
346.5
 21
243.8
 31
0.0
  0
LINE
  8
L-ZISSEN
  6
CONTINUOUS
 62
     7
 10
346.0
 20
292.8
 30
0.0
 11
346.0
 21
252.8
 31
0.0
  0
LINE
  8
L-ZISSEN
 10
248.0
 20
347.0
 30
0.0
 11
248.0
 21
337.8
 31
0.0
  0
LINE
  8
L-ZISSEN
 10
332.0
 20
347.0
 30
0.0
 11
332.0
 21
337.8
 31
0.0
  0
LINE
  8
L-ZISSEN
 10
303.0
 20
69.0
 30
0.0
 11
303.0
 21
71.0
 31
0.0
  0
LINE
  8
L-ZISSEN
 10
305.5
 20
71.0
 30
0.0
 11
274.5
 21
71.0
 31
0.0
  0
LINE
  8
L-ZISSEN
 10
277.0
 20
69.0
 30
0.0
 11
277.0
 21
71.0
 31
0.0
  0
LINE
  8
L-ZISSEN
 10
346.5
 20
97.0
 30
0.0
 11
331.5
 21
97.0
 31
0.0
  0
ARC
  8
L-ZISSEN
 10
274.5
 20
97.0
 30
0.0
 40
26.0
 50
180.0
 51
270.0
  0
ARC
  8
L-ZISSEN
 10
305.5
 20
97.0
 30
0.0
 40
26.0
 50
270.0
 51
0.0
  0
LINE
  8
L-ZISSEN
 10
243.97093
 20
252.8
 30
0.0
 11
248.5
 21
97.0
 31
0.0
  0
LINE
  8
L-ZISSEN
 10
336.02907
 20
252.8
 30
0.0
 11
331.5
 21
97.0
 31
0.0
  0
LINE
  8
L-ZISSEN
 10
342.5
 20
97.0
 30
0.0
 11
342.5
 21
243.8
 31
0.0
  0
LINE
  8
L-ZISSEN
 10
352.5
 20
112.0
 30
0.0
 11
352.5
 21
228.8
 31
0.0
  0
LINE
  8
L-ZISSEN
 10
352.5
 20
112.0
 30
0.0
 11
342.5
 21
112.0
 31
0.0
  0
LINE
  8
L-ZISSEN
  6
CONTINUOUS
 62
     7
 10
342.5
 20
228.8
 30
0.0
 11
352.5
 21
228.8
 31
0.0
  0
LINE
  8
L-ZISSEN
 10
346.5
 20
97.0
 30
0.0
 11
346.5
 21
112.0
 31
0.0
  0
LINE
  8
L-ZISSEN
 10
346.5
 20
228.8
 30
0.0
 11
346.5
 21
243.8
 31
0.0
  0
LINE
  8
L-TYUSIN
 10
362.0
 20
315.0
 30
0.0
 11
231.0
 21
315.0
 31
0.0
  0
LINE
  8
L-TYUSIN
 10
470.0
 20
365.5
 30
0.0
 11
470.0
 21
54.0
 31
0.0
  0
LINE
  8
L-TYUSIN
 10
423.0
 20
315.0
 30
0.0
 11
517.0
 21
315.0
 31
0.0
  0
TEXT
  8
L-ZISSEN
 10
70.0
 20
535.0
 30
0.0
 40
4.5
  1
MODEL NO. : F46- 01-A0DB
  0
LINE
  8
L-TYUSIN
 10
167.0
 20
315.0
 30
0.0
 11
73.0
 21
315.0
 31
0.0
  0
LINE
  8
L-TYUSIN
 10
120.0
 20
365.5
 30
0.0
 11
120.0
 21
54.0
 31
0.0
  0
LINE
  8
L-ZISSEN
 10
73.97093
 20
252.8
 30
0.0
 11
78.5
 21
97.0
 31
0.0
  0
LINE
  8
L-ZISSEN
 10
166.02907
 20
252.8
 30
0.0
 11
161.5
 21
97.0
 31
0.0
  0
ARC
  8
L-ZISSEN
 10
104.5
 20
97.0
 30
0.0
 40
26.0
 50
180.0
 51
270.0
  0
ARC
  8
L-ZISSEN
 10
135.5
 20
97.0
 30
0.0
 40
26.0
 50
270.0
 51
0.0
  0
LINE
  8
L-ZISSEN
 10
133.0
 20
69.0
 30
0.0
 11
133.0
 21
71.0
 31
0.0
  0
LINE
  8
L-ZISSEN
 10
104.5
 20
71.0
 30
0.0
 11
135.5
 21
71.0
 31
0.0
  0
LINE
  8
L-ZISSEN
 10
107.0
 20
69.0
 30
0.0
 11
107.0
 21
71.0
 31
0.0
  0
LINE
  8
L-ZISSEN
 10
78.0
 20
347.0
 30
0.0
 11
78.0
 21
292.8
 31
0.0
  0
LINE
  8
L-ZISSEN
 10
162.0
 20
347.0
 30
0.0
 11
162.0
 21
292.8
 31
0.0
  0
LINE
  8
L-ZISSEN
  6
CONTINUOUS
 62
     7
 10
65.0
 20
292.8
 30
0.0
 11
65.0
 21
252.8
 31
0.0
  0
LINE
  8
L-ZISSEN
  6
CONTINUOUS
 62
     7
 10
130.25
 20
66.0
 30
0.0
 11
130.25
 21
69.0
 31
0.0
  0
LINE
  8
L-ZISSEN
  6
CONTINUOUS
 62
     7
 10
109.75
 20
66.0
 30
0.0
 11
109.75
 21
69.0
 31
0.0
  0
LINE
  8
L-ZISSEN
  6
CONTINUOUS
 62
     7
 10
130.25
 20
66.0
 30
0.0
 11
109.75
 21
66.0
 31
0.0
  0
LINE
  8
L-ZISSEN
  6
CONTINUOUS
 62
     7
 10
107.0
 20
69.0
 30
0.0
 11
133.0
 21
69.0
 31
0.0
  0
LINE
  8
L-ZISSEN
  6
CONTINUOUS
 62
     7
 10
65.0
 20
252.8
 30
0.0
 11
175.0
 21
252.8
 31
0.0
  0
LINE
  8
L-ZISSEN
  6
CONTINUOUS
 62
     7
 10
175.0
 20
292.8
 30
0.0
 11
65.0
 21
292.8
 31
0.0
  0
LINE
  8
L-ZISSEN
  6
CONTINUOUS
 62
     7
 10
175.0
 20
292.8
 30
0.0
 11
175.0
 21
252.8
 31
0.0
  0
LINE
  8
L-ZISSEN
  6
CONTINUOUS
 62
     7
 10
78.0
 20
347.0
 30
0.0
 11
162.0
 21
347.0
 31
0.0
  0
LINE
  8
L-ZISSEN
 10
97.5
 20
337.8
 30
0.0
 11
97.5
 21
292.8
 31
0.0
  0
LINE
  8
L-ZISSEN
 10
142.5
 20
337.8
 30
0.0
 11
142.5
 21
292.8
 31
0.0
  0
LINE
  8
L-ZISSEN
  6
CONTINUOUS
 62
     7
 10
142.5
 20
337.8
 30
0.0
 11
97.5
 21
337.8
 31
0.0
  0
LINE
  8
L-ZISSEN
  6
CONTINUOUS
 62
     7
 10
235.0
 20
292.8
 30
0.0
 11
235.0
 21
252.8
 31
0.0
  0
CIRCLE
  8
L-ZISSEN
 10
120.0
 20
315.0
 30
0.0
 40
12.0585
  0
CIRCLE
  8
L-ZISSEN
 10
470.0
 20
315.0
 30
0.0
 40
12.0585
  0
TEXT
  8
L-ZISSEN
 10
136.5
 20
538.0
 30
0.0
 40
4.5
  1
6
  0
TEXT
  8
L-ZISSEN
 10
136.5
 20
532.0
 30
0.0
 40
4.5
  1
8
  0
LINE
  8
L-ZISSEN
 10
479.5
 20
66.0
 30
0.0
 11
479.5
 21
69.0
 31
0.0
  0
LINE
  8
L-ZISSEN
 10
460.5
 20
69.0
 30
0.0
 11
460.5
 21
66.0
 31
0.0
  0
LINE
  8
L-ZISSEN
 10
802.0
 20
656.0
 30
0.0
 11
777.0
 21
656.0
 31
0.0
  0
LINE
  8
L-ZISSEN
 10
802.0
 20
526.0
 30
0.0
 11
777.0
 21
526.0
 31
0.0
  0
LINE
  8
L-ZISSEN
 10
777.0
 20
526.0
 30
0.0
 11
777.0
 21
656.0
 31
0.0
  0
LINE
  8
L-ZISSEN
 10
802.0
 20
526.0
 30
0.0
 11
802.0
 21
656.0
 31
0.0
  0
LINE
  8
L-TYUSIN
  6
CENTER
 62
     1
 10
789.5
 20
661.0
 30
0.0
 11
789.5
 21
651.0
 31
0.0
  0
CIRCLE
  8
L-ZISSEN
 10
789.5
 20
596.5
 30
0.0
 40
3.5
  0
LINE
  8
L-ZISSEN
 10
786.035898
 20
602.5
 30
0.0
 11
782.571797
 21
596.5
 31
0.0
  0
LINE
  8
L-ZISSEN
 10
782.571797
 20
596.5
 30
0.0
 11
786.035898
 21
590.5
 31
0.0
  0
LINE
  8
L-ZISSEN
 10
786.035898
 20
590.5
 30
0.0
 11
792.964102
 21
590.5
 31
0.0
  0
LINE
  8
L-ZISSEN
 10
792.964102
 20
590.5
 30
0.0
 11
796.428203
 21
596.5
 31
0.0
  0
LINE
  8
L-ZISSEN
 10
796.428203
 20
596.5
 30
0.0
 11
792.964102
 21
602.5
 31
0.0
  0
LINE
  8
L-ZISSEN
 10
792.964102
 20
602.5
 30
0.0
 11
786.035898
 21
602.5
 31
0.0
  0
LINE
  8
L-ZISSEN
 10
781.5
 20
607.0
 30
0.0
 11
781.5
 21
543.0
 31
0.0
  0
LINE
  8
L-ZISSEN
 10
797.5
 20
607.0
 30
0.0
 11
797.5
 21
543.0
 31
0.0
  0
LINE
  8
L-ZISSEN
 10
781.5
 20
607.0
 30
0.0
 11
797.5
 21
607.0
 31
0.0
  0
LINE
  8
L-ZISSEN
 10
781.5
 20
543.0
 30
0.0
 11
797.5
 21
543.0
 31
0.0
  0
LINE
  8
L-ZISSEN
 10
792.964102
 20
547.5
 30
0.0
 11
786.035898
 21
547.5
 31
0.0
  0
LINE
  8
L-ZISSEN
 10
796.428203
 20
553.5
 30
0.0
 11
792.964102
 21
547.5
 31
0.0
  0
LINE
  8
L-ZISSEN
 10
792.964102
 20
559.5
 30
0.0
 11
796.428203
 21
553.5
 31
0.0
  0
LINE
  8
L-ZISSEN
 10
786.035898
 20
559.5
 30
0.0
 11
792.964102
 21
559.5
 31
0.0
  0
LINE
  8
L-ZISSEN
 10
782.571797
 20
553.5
 30
0.0
 11
786.035898
 21
559.5
 31
0.0
  0
LINE
  8
L-ZISSEN
 10
786.035898
 20
547.5
 30
0.0
 11
782.571797
 21
553.5
 31
0.0
  0
CIRCLE
  8
L-ZISSEN
 10
789.5
 20
553.5
 30
0.0
 40
3.5
  0
CIRCLE
  8
L-ZISSEN
 10
639.5
 20
553.5
 30
0.0
 40
3.5
  0
LINE
  8
L-ZISSEN
 10
636.035898
 20
547.5
 30
0.0
 11
632.571797
 21
553.5
 31
0.0
  0
LINE
  8
L-ZISSEN
 10
632.571797
 20
553.5
 30
0.0
 11
636.035898
 21
559.5
 31
0.0
  0
LINE
  8
L-ZISSEN
 10
636.035898
 20
559.5
 30
0.0
 11
642.964102
 21
559.5
 31
0.0
  0
LINE
  8
L-ZISSEN
 10
642.964102
 20
559.5
 30
0.0
 11
646.428203
 21
553.5
 31
0.0
  0
LINE
  8
L-ZISSEN
 10
646.428203
 20
553.5
 30
0.0
 11
642.964102
 21
547.5
 31
0.0
  0
LINE
  8
L-ZISSEN
 10
642.964102
 20
547.5
 30
0.0
 11
636.035898
 21
547.5
 31
0.0
  0
LINE
  8
L-ZISSEN
 10
631.5
 20
543.0
 30
0.0
 11
647.5
 21
543.0
 31
0.0
  0
LINE
  8
L-ZISSEN
 10
631.5
 20
607.0
 30
0.0
 11
647.5
 21
607.0
 31
0.0
  0
LINE
  8
L-ZISSEN
 10
647.5
 20
607.0
 30
0.0
 11
647.5
 21
543.0
 31
0.0
  0
LINE
  8
L-ZISSEN
 10
631.5
 20
607.0
 30
0.0
 11
631.5
 21
543.0
 31
0.0
  0
LINE
  8
L-ZISSEN
 10
642.964102
 20
602.5
 30
0.0
 11
636.035898
 21
602.5
 31
0.0
  0
LINE
  8
L-ZISSEN
 10
646.428203
 20
596.5
 30
0.0
 11
642.964102
 21
602.5
 31
0.0
  0
LINE
  8
L-ZISSEN
 10
642.964102
 20
590.5
 30
0.0
 11
646.428203
 21
596.5
 31
0.0
  0
LINE
  8
L-ZISSEN
 10
636.035898
 20
590.5
 30
0.0
 11
642.964102
 21
590.5
 31
0.0
  0
LINE
  8
L-ZISSEN
 10
632.571797
 20
596.5
 30
0.0
 11
636.035898
 21
590.5
 31
0.0
  0
LINE
  8
L-ZISSEN
 10
636.035898
 20
602.5
 30
0.0
 11
632.571797
 21
596.5
 31
0.0
  0
CIRCLE
  8
L-ZISSEN
 10
639.5
 20
596.5
 30
0.0
 40
3.5
  0
LINE
  8
L-ZISSEN
 10
652.0
 20
526.0
 30
0.0
 11
652.0
 21
656.0
 31
0.0
  0
LINE
  8
L-ZISSEN
 10
627.0
 20
526.0
 30
0.0
 11
627.0
 21
656.0
 31
0.0
  0
LINE
  8
L-ZISSEN
 10
652.0
 20
656.0
 30
0.0
 11
627.0
 21
656.0
 31
0.0
  0
LINE
  8
L-ZISSEN
 10
652.0
 20
526.0
 30
0.0
 11
627.0
 21
526.0
 31
0.0
  0
LINE
  8
L-TYUSIN
  6
CENTER
 62
     1
 10
639.5
 20
661.0
 30
0.0
 11
639.5
 21
651.0
 31
0.0
  0
LINE
  8
L-ZISSEN
 10
777.0
 20
387.6
 30
0.0
 11
777.0
 21
463.6
 31
0.0
  0
LINE
  8
L-ZISSEN
 10
802.0
 20
387.6
 30
0.0
 11
802.0
 21
463.6
 31
0.0
  0
LINE
  8
L-ZISSEN
 10
777.0
 20
458.6
 30
0.0
 11
802.0
 21
458.6
 31
0.0
  0
LINE
  8
L-ZISSEN
 10
777.0
 20
463.6
 30
0.0
 11
802.0
 21
463.6
 31
0.0
  0
LINE
  8
L-ZISSEN
 10
777.0
 20
387.6
 30
0.0
 11
802.0
 21
387.6
 31
0.0
  0
LINE
  8
L-TYUSIN
 10
800.0
 20
404.6
 30
0.0
 11
779.0
 21
404.6
 31
0.0
  0
LINE
  8
L-TYUSIN
 10
789.5
 20
394.1
 30
0.0
 11
789.5
 21
415.1
 31
0.0
  0
CIRCLE
  8
L-ZISSEN
 10
789.5
 20
404.6
 30
0.0
 40
4.3
  0
ARC
  8
L-ZISSEN
 10
789.5
 20
447.6
 30
0.0
 40
4.3
 50
324.484016
 51
35.515984
  0
LINE
  8
L-TYUSIN
 10
800.0
 20
447.6
 30
0.0
 11
779.0
 21
447.6
 31
0.0
  0
LINE
  8
L-TYUSIN
 10
789.5
 20
437.1
 30
0.0
 11
789.5
 21
458.1
 31
0.0
  0
LINE
  8
L-ZISSEN
 10
786.0
 20
496.4
 30
0.0
 11
786.0
 21
472.6
 31
0.0
  0
LINE
  8
L-ZISSEN
 10
793.0
 20
496.4
 30
0.0
 11
793.0
 21
472.6
 31
0.0
  0
ARC
  8
L-ZISSEN
 10
789.5
 20
427.9
 30
0.0
 40
3.5
 50
180.0
 51
0.0
  0
ARC
  8
L-ZISSEN
 10
789.5
 20
447.6
 30
0.0
 40
4.3
 50
144.484016
 51
215.515984
  0
LINE
  8
L-ZISSEN
 10
793.0
 20
496.4
 30
0.0
 11
786.0
 21
496.4
 31
0.0
  0
LINE
  8
L-ZISSEN
 10
781.5
 20
465.6
 30
0.0
 11
797.5
 21
465.6
 31
0.0
  0
LINE
  8
L-ZISSEN
 10
781.5
 20
465.6
 30
0.0
 11
781.5
 21
463.6
 31
0.0
  0
LINE
  8
L-ZISSEN
 10
797.5
 20
465.6
 30
0.0
 11
797.5
 21
463.6
 31
0.0
  0
LINE
  8
L-ZISSEN
 10
782.571797
 20
472.6
 30
0.0
 11
796.428203
 21
472.6
 31
0.0
  0
LINE
  8
L-ZISSEN
 10
782.571797
 20
472.6
 30
0.0
 11
782.571797
 21
465.6
 31
0.0
  0
LINE
  8
L-ZISSEN
 10
796.428203
 20
472.6
 30
0.0
 11
796.428203
 21
465.6
 31
0.0
  0
LINE
  8
L-ZISSEN
 10
793.0
 20
458.6
 30
0.0
 11
793.0
 21
427.9
 31
0.0
  0
LINE
  8
L-ZISSEN
 10
786.0
 20
458.6
 30
0.0
 11
786.0
 21
427.9
 31
0.0
  0
LINE
  8
L-ZISSEN
 10
636.0
 20
458.6
 30
0.0
 11
636.0
 21
427.9
 31
0.0
  0
LINE
  8
L-ZISSEN
 10
643.0
 20
458.6
 30
0.0
 11
643.0
 21
427.9
 31
0.0
  0
LINE
  8
L-ZISSEN
 10
646.428203
 20
472.6
 30
0.0
 11
646.428203
 21
465.6
 31
0.0
  0
LINE
  8
L-ZISSEN
 10
632.571797
 20
472.6
 30
0.0
 11
632.571797
 21
465.6
 31
0.0
  0
LINE
  8
L-ZISSEN
 10
632.571797
 20
472.6
 30
0.0
 11
646.428203
 21
472.6
 31
0.0
  0
LINE
  8
L-ZISSEN
 10
647.5
 20
465.6
 30
0.0
 11
647.5
 21
463.6
 31
0.0
  0
LINE
  8
L-ZISSEN
 10
631.5
 20
465.6
 30
0.0
 11
631.5
 21
463.6
 31
0.0
  0
LINE
  8
L-ZISSEN
 10
631.5
 20
465.6
 30
0.0
 11
647.5
 21
465.6
 31
0.0
  0
LINE
  8
L-ZISSEN
 10
643.0
 20
496.4
 30
0.0
 11
636.0
 21
496.4
 31
0.0
  0
ARC
  8
L-ZISSEN
 10
639.5
 20
447.6
 30
0.0
 40
4.3
 50
144.484016
 51
215.515984
  0
ARC
  8
L-ZISSEN
 10
639.5
 20
427.9
 30
0.0
 40
3.5
 50
180.0
 51
0.0
  0
LINE
  8
L-ZISSEN
 10
643.0
 20
496.4
 30
0.0
 11
643.0
 21
472.6
 31
0.0
  0
LINE
  8
L-ZISSEN
 10
636.0
 20
496.4
 30
0.0
 11
636.0
 21
472.6
 31
0.0
  0
LINE
  8
L-TYUSIN
 10
639.5
 20
437.1
 30
0.0
 11
639.5
 21
458.1
 31
0.0
  0
LINE
  8
L-TYUSIN
 10
650.0
 20
447.6
 30
0.0
 11
629.0
 21
447.6
 31
0.0
  0
ARC
  8
L-ZISSEN
 10
639.5
 20
447.6
 30
0.0
 40
4.3
 50
324.484016
 51
35.515984
  0
CIRCLE
  8
L-ZISSEN
 10
639.5
 20
404.6
 30
0.0
 40
4.3
  0
LINE
  8
L-TYUSIN
 10
639.5
 20
394.1
 30
0.0
 11
639.5
 21
415.1
 31
0.0
  0
LINE
  8
L-TYUSIN
 10
650.0
 20
404.6
 30
0.0
 11
629.0
 21
404.6
 31
0.0
  0
LINE
  8
L-ZISSEN
 10
627.0
 20
387.6
 30
0.0
 11
652.0
 21
387.6
 31
0.0
  0
LINE
  8
L-ZISSEN
 10
627.0
 20
463.6
 30
0.0
 11
652.0
 21
463.6
 31
0.0
  0
LINE
  8
L-ZISSEN
 10
627.0
 20
458.6
 30
0.0
 11
652.0
 21
458.6
 31
0.0
  0
LINE
  8
L-ZISSEN
 10
652.0
 20
387.6
 30
0.0
 11
652.0
 21
463.6
 31
0.0
  0
LINE
  8
L-ZISSEN
 10
627.0
 20
387.6
 30
0.0
 11
627.0
 21
463.6
 31
0.0
  0
LINE
  8
L-ZISSEN
 10
991.0
 20
463.6
 30
0.0
 11
991.0
 21
387.6
 31
0.0
  0
LINE
  8
L-ZISSEN
 10
986.0
 20
387.6
 30
0.0
 11
991.0
 21
387.6
 31
0.0
  0
LINE
  8
L-ZISSEN
 10
986.0
 20
458.6
 30
0.0
 11
986.0
 21
387.6
 31
0.0
  0
LINE
  8
L-ZISSEN
 10
861.0
 20
463.6
 30
0.0
 11
991.0
 21
463.6
 31
0.0
  0
LINE
  8
L-ZISSEN
 10
861.0
 20
458.6
 30
0.0
 11
986.0
 21
458.6
 31
0.0
  0
LINE
  8
L-ZISSEN
 10
861.0
 20
463.6
 30
0.0
 11
861.0
 21
458.6
 31
0.0
  0
LINE
  8
L-ZISSEN
 10
882.5
 20
472.6
 30
0.0
 11
894.5
 21
472.6
 31
0.0
  0
LINE
  8
L-ZISSEN
 10
892.0
 20
496.4
 30
0.0
 11
885.0
 21
496.4
 31
0.0
  0
LINE
  8
L-ZISSEN
 10
892.0
 20
496.4
 30
0.0
 11
892.0
 21
472.6
 31
0.0
  0
LINE
  8
L-ZISSEN
 10
885.0
 20
496.4
 30
0.0
 11
885.0
 21
472.6
 31
0.0
  0
LINE
  8
L-ZISSEN
 10
878.0
 20
465.6
 30
0.0
 11
942.0
 21
465.6
 31
0.0
  0
LINE
  8
L-ZISSEN
 10
878.0
 20
465.6
 30
0.0
 11
878.0
 21
463.6
 31
0.0
  0
LINE
  8
L-ZISSEN
 10
942.0
 20
465.6
 30
0.0
 11
942.0
 21
463.6
 31
0.0
  0
LINE
  8
L-ZISSEN
 10
882.5
 20
472.6
 30
0.0
 11
882.5
 21
465.6
 31
0.0
  0
LINE
  8
L-ZISSEN
 10
894.5
 20
472.6
 30
0.0
 11
894.5
 21
465.6
 31
0.0
  0
LINE
  8
L-ZISSEN
 10
937.5
 20
472.6
 30
0.0
 11
937.5
 21
465.6
 31
0.0
  0
LINE
  8
L-ZISSEN
 10
925.5
 20
472.6
 30
0.0
 11
925.5
 21
465.6
 31
0.0
  0
LINE
  8
L-ZISSEN
 10
935.0
 20
496.4
 30
0.0
 11
928.0
 21
496.4
 31
0.0
  0
LINE
  8
L-ZISSEN
 10
925.5
 20
472.6
 30
0.0
 11
937.5
 21
472.6
 31
0.0
  0
LINE
  8
L-ZISSEN
 10
935.0
 20
496.4
 30
0.0
 11
935.0
 21
472.6
 31
0.0
  0
LINE
  8
L-ZISSEN
 10
928.0
 20
496.4
 30
0.0
 11
928.0
 21
472.6
 31
0.0
  0
ARC
  8
L-ZISSEN
 10
910.0
 20
449.4
 30
0.0
 40
18.0
 50
180.0
 51
0.0
  0
ARC
  8
L-ZISSEN
 10
910.0
 20
449.4
 30
0.0
 40
25.0
 50
180.0
 51
0.0
  0
LINE
  8
L-ZISSEN
 10
885.0
 20
458.6
 30
0.0
 11
885.0
 21
449.4
 31
0.0
  0
LINE
  8
L-ZISSEN
 10
892.0
 20
458.6
 30
0.0
 11
892.0
 21
449.4
 31
0.0
  0
LINE
  8
L-ZISSEN
 10
928.0
 20
458.6
 30
0.0
 11
928.0
 21
449.4
 31
0.0
  0
LINE
  8
L-ZISSEN
 10
935.0
 20
458.6
 30
0.0
 11
935.0
 21
449.4
 31
0.0
  0
LINE
  8
L-TYUSIN
 10
996.0
 20
404.6
 30
0.0
 11
981.0
 21
404.6
 31
0.0
  0
LINE
  8
L-TYUSIN
 10
996.0
 20
447.6
 30
0.0
 11
981.0
 21
447.6
 31
0.0
  0
LINE
  8
L-TYUSIN
 10
996.0
 20
111.0
 30
0.0
 11
981.0
 21
111.0
 31
0.0
  0
LINE
  8
L-TYUSIN
 10
996.0
 20
68.0
 30
0.0
 11
981.0
 21
68.0
 31
0.0
  0
LINE
  8
L-ZISSEN
 10
934.99998
 20
122.0
 30
0.0
 11
934.99998
 21
106.0
 31
0.0
  0
LINE
  8
L-ZISSEN
 10
927.99998
 20
122.0
 30
0.0
 11
927.99998
 21
106.0
 31
0.0
  0
LINE
  8
L-ZISSEN
 10
891.99998
 20
122.0
 30
0.0
 11
891.99998
 21
106.0
 31
0.0
  0
LINE
  8
L-ZISSEN
 10
884.99998
 20
122.0
 30
0.0
 11
884.99998
 21
106.0
 31
0.0
  0
ARC
  8
L-ZISSEN
 10
909.99998
 20
106.0
 30
0.0
 40
25.0
 50
180.0
 51
0.0
  0
ARC
  8
L-ZISSEN
 10
909.99998
 20
106.0
 30
0.0
 40
18.0
 50
180.0
 51
0.0
  0
LINE
  8
L-ZISSEN
 10
927.99998
 20
153.0
 30
0.0
 11
927.99998
 21
136.0
 31
0.0
  0
LINE
  8
L-ZISSEN
 10
934.99998
 20
153.0
 30
0.0
 11
934.99998
 21
136.0
 31
0.0
  0
LINE
  8
L-ZISSEN
 10
925.5
 20
136.0
 30
0.0
 11
937.5
 21
136.0
 31
0.0
  0
LINE
  8
L-ZISSEN
 10
934.99998
 20
153.0
 30
0.0
 11
927.99998
 21
153.0
 31
0.0
  0
LINE
  8
L-ZISSEN
 10
925.5
 20
136.0
 30
0.0
 11
925.5
 21
129.0
 31
0.0
  0
LINE
  8
L-ZISSEN
 10
937.5
 20
136.0
 30
0.0
 11
937.5
 21
129.0
 31
0.0
  0
LINE
  8
L-ZISSEN
 10
894.5
 20
136.0
 30
0.0
 11
894.5
 21
129.0
 31
0.0
  0
LINE
  8
L-ZISSEN
 10
882.5
 20
136.0
 30
0.0
 11
882.5
 21
129.0
 31
0.0
  0
LINE
  8
L-ZISSEN
 10
942.0
 20
129.0
 30
0.0
 11
942.0
 21
127.0
 31
0.0
  0
LINE
  8
L-ZISSEN
 10
878.0
 20
129.0
 30
0.0
 11
878.0
 21
127.0
 31
0.0
  0
LINE
  8
L-ZISSEN
 10
878.0
 20
129.0
 30
0.0
 11
942.0
 21
129.0
 31
0.0
  0
LINE
  8
L-ZISSEN
 10
884.99998
 20
153.0
 30
0.0
 11
884.99998
 21
136.0
 31
0.0
  0
LINE
  8
L-ZISSEN
 10
891.99998
 20
153.0
 30
0.0
 11
891.99998
 21
136.0
 31
0.0
  0
LINE
  8
L-ZISSEN
 10
891.99998
 20
153.0
 30
0.0
 11
884.99998
 21
153.0
 31
0.0
  0
LINE
  8
L-ZISSEN
 10
882.5
 20
136.0
 30
0.0
 11
894.5
 21
136.0
 31
0.0
  0
LINE
  8
L-ZISSEN
 10
861.0
 20
127.0
 30
0.0
 11
861.0
 21
122.0
 31
0.0
  0
LINE
  8
L-ZISSEN
 10
861.0
 20
122.0
 30
0.0
 11
986.0
 21
122.0
 31
0.0
  0
LINE
  8
L-ZISSEN
 10
861.0
 20
127.0
 30
0.0
 11
991.0
 21
127.0
 31
0.0
  0
LINE
  8
L-ZISSEN
 10
986.0
 20
122.0
 30
0.0
 11
986.0
 21
51.0
 31
0.0
  0
LINE
  8
L-ZISSEN
 10
986.0
 20
51.0
 30
0.0
 11
991.0
 21
51.0
 31
0.0
  0
LINE
  8
L-ZISSEN
 10
991.0
 20
127.0
 30
0.0
 11
991.0
 21
51.0
 31
0.0
  0
LINE
  8
L-ZISSEN
 10
786.0
 20
122.0
 30
0.0
 11
786.0
 21
84.5
 31
0.0
  0
LINE
  8
L-ZISSEN
 10
793.0
 20
122.0
 30
0.0
 11
793.0
 21
84.5
 31
0.0
  0
LINE
  8
L-ZISSEN
 10
796.428203
 20
136.0
 30
0.0
 11
796.428203
 21
129.0
 31
0.0
  0
LINE
  8
L-ZISSEN
 10
782.571797
 20
136.0
 30
0.0
 11
782.571797
 21
129.0
 31
0.0
  0
LINE
  8
L-ZISSEN
 10
782.571797
 20
136.0
 30
0.0
 11
796.428203
 21
136.0
 31
0.0
  0
LINE
  8
L-ZISSEN
 10
797.5
 20
129.0
 30
0.0
 11
797.5
 21
127.0
 31
0.0
  0
LINE
  8
L-ZISSEN
 10
781.5
 20
129.0
 30
0.0
 11
781.5
 21
127.0
 31
0.0
  0
LINE
  8
L-ZISSEN
 10
781.5
 20
129.0
 30
0.0
 11
797.5
 21
129.0
 31
0.0
  0
LINE
  8
L-ZISSEN
 10
793.0
 20
153.0
 30
0.0
 11
786.0
 21
153.0
 31
0.0
  0
ARC
  8
L-ZISSEN
 10
789.5
 20
111.0
 30
0.0
 40
4.3
 50
144.484016
 51
215.515984
  0
ARC
  8
L-ZISSEN
 10
789.5
 20
84.5
 30
0.0
 40
3.5
 50
180.0
 51
0.0
  0
LINE
  8
L-ZISSEN
 10
793.0
 20
153.0
 30
0.0
 11
793.0
 21
136.0
 31
0.0
  0
LINE
  8
L-ZISSEN
 10
786.0
 20
153.0
 30
0.0
 11
786.0
 21
136.0
 31
0.0
  0
LINE
  8
L-TYUSIN
 10
789.5
 20
100.5
 30
0.0
 11
789.5
 21
121.5
 31
0.0
  0
LINE
  8
L-TYUSIN
 10
800.0
 20
111.0
 30
0.0
 11
779.0
 21
111.0
 31
0.0
  0
ARC
  8
L-ZISSEN
 10
789.5
 20
111.0
 30
0.0
 40
4.3
 50
324.484016
 51
35.515984
  0
CIRCLE
  8
L-ZISSEN
 10
789.5
 20
68.0
 30
0.0
 40
4.3
  0
LINE
  8
L-TYUSIN
 10
789.5
 20
57.5
 30
0.0
 11
789.5
 21
78.5
 31
0.0
  0
LINE
  8
L-TYUSIN
 10
800.0
 20
68.0
 30
0.0
 11
779.0
 21
68.0
 31
0.0
  0
LINE
  8
L-ZISSEN
 10
777.0
 20
51.0
 30
0.0
 11
802.0
 21
51.0
 31
0.0
  0
LINE
  8
L-ZISSEN
 10
777.0
 20
127.0
 30
0.0
 11
802.0
 21
127.0
 31
0.0
  0
LINE
  8
L-ZISSEN
 10
777.0
 20
122.0
 30
0.0
 11
802.0
 21
122.0
 31
0.0
  0
LINE
  8
L-ZISSEN
 10
802.0
 20
51.0
 30
0.0
 11
802.0
 21
127.0
 31
0.0
  0
LINE
  8
L-ZISSEN
 10
777.0
 20
51.0
 30
0.0
 11
777.0
 21
127.0
 31
0.0
  0
LINE
  8
L-TYUSIN
  6
CENTER
 62
     1
 10
639.5
 20
321.0
 30
0.0
 11
639.5
 21
311.0
 31
0.0
  0
LINE
  8
L-ZISSEN
 10
652.0
 20
186.0
 30
0.0
 11
627.0
 21
186.0
 31
0.0
  0
LINE
  8
L-ZISSEN
 10
652.0
 20
316.0
 30
0.0
 11
627.0
 21
316.0
 31
0.0
  0
LINE
  8
L-ZISSEN
 10
627.0
 20
186.0
 30
0.0
 11
627.0
 21
316.0
 31
0.0
  0
LINE
  8
L-ZISSEN
 10
652.0
 20
186.0
 30
0.0
 11
652.0
 21
316.0
 31
0.0
  0
CIRCLE
  8
L-ZISSEN
 10
639.5
 20
256.5
 30
0.0
 40
3.5
  0
LINE
  8
L-ZISSEN
 10
636.035898
 20
262.5
 30
0.0
 11
632.571797
 21
256.5
 31
0.0
  0
LINE
  8
L-ZISSEN
 10
632.571797
 20
256.5
 30
0.0
 11
636.035898
 21
250.5
 31
0.0
  0
LINE
  8
L-ZISSEN
 10
636.035898
 20
250.5
 30
0.0
 11
642.964102
 21
250.5
 31
0.0
  0
LINE
  8
L-ZISSEN
 10
642.964102
 20
250.5
 30
0.0
 11
646.428203
 21
256.5
 31
0.0
  0
LINE
  8
L-ZISSEN
 10
646.428203
 20
256.5
 30
0.0
 11
642.964102
 21
262.5
 31
0.0
  0
LINE
  8
L-ZISSEN
 10
642.964102
 20
262.5
 30
0.0
 11
636.035898
 21
262.5
 31
0.0
  0
LINE
  8
L-ZISSEN
 10
631.5
 20
267.0
 30
0.0
 11
631.5
 21
203.0
 31
0.0
  0
LINE
  8
L-ZISSEN
 10
647.5
 20
267.0
 30
0.0
 11
647.5
 21
203.0
 31
0.0
  0
LINE
  8
L-ZISSEN
 10
631.5
 20
267.0
 30
0.0
 11
647.5
 21
267.0
 31
0.0
  0
LINE
  8
L-ZISSEN
 10
631.5
 20
203.0
 30
0.0
 11
647.5
 21
203.0
 31
0.0
  0
LINE
  8
L-ZISSEN
 10
642.964102
 20
207.5
 30
0.0
 11
636.035898
 21
207.5
 31
0.0
  0
LINE
  8
L-ZISSEN
 10
646.428203
 20
213.5
 30
0.0
 11
642.964102
 21
207.5
 31
0.0
  0
LINE
  8
L-ZISSEN
 10
642.964102
 20
219.5
 30
0.0
 11
646.428203
 21
213.5
 31
0.0
  0
LINE
  8
L-ZISSEN
 10
636.035898
 20
219.5
 30
0.0
 11
642.964102
 21
219.5
 31
0.0
  0
LINE
  8
L-ZISSEN
 10
632.571797
 20
213.5
 30
0.0
 11
636.035898
 21
219.5
 31
0.0
  0
LINE
  8
L-ZISSEN
 10
636.035898
 20
207.5
 30
0.0
 11
632.571797
 21
213.5
 31
0.0
  0
CIRCLE
  8
L-ZISSEN
 10
639.5
 20
213.5
 30
0.0
 40
3.5
  0
CIRCLE
  8
L-ZISSEN
 10
789.5
 20
213.5
 30
0.0
 40
3.5
  0
LINE
  8
L-ZISSEN
 10
786.035898
 20
207.5
 30
0.0
 11
782.571797
 21
213.5
 31
0.0
  0
LINE
  8
L-ZISSEN
 10
782.571797
 20
213.5
 30
0.0
 11
786.035898
 21
219.5
 31
0.0
  0
LINE
  8
L-ZISSEN
 10
786.035898
 20
219.5
 30
0.0
 11
792.964102
 21
219.5
 31
0.0
  0
LINE
  8
L-ZISSEN
 10
792.964102
 20
219.5
 30
0.0
 11
796.428203
 21
213.5
 31
0.0
  0
LINE
  8
L-ZISSEN
 10
796.428203
 20
213.5
 30
0.0
 11
792.964102
 21
207.5
 31
0.0
  0
LINE
  8
L-ZISSEN
 10
792.964102
 20
207.5
 30
0.0
 11
786.035898
 21
207.5
 31
0.0
  0
LINE
  8
L-ZISSEN
 10
781.5
 20
203.0
 30
0.0
 11
797.5
 21
203.0
 31
0.0
  0
LINE
  8
L-ZISSEN
 10
781.5
 20
267.0
 30
0.0
 11
797.5
 21
267.0
 31
0.0
  0
LINE
  8
L-ZISSEN
 10
797.5
 20
267.0
 30
0.0
 11
797.5
 21
203.0
 31
0.0
  0
LINE
  8
L-ZISSEN
 10
781.5
 20
267.0
 30
0.0
 11
781.5
 21
203.0
 31
0.0
  0
LINE
  8
L-ZISSEN
 10
792.964102
 20
262.5
 30
0.0
 11
786.035898
 21
262.5
 31
0.0
  0
LINE
  8
L-ZISSEN
 10
796.428203
 20
256.5
 30
0.0
 11
792.964102
 21
262.5
 31
0.0
  0
LINE
  8
L-ZISSEN
 10
792.964102
 20
250.5
 30
0.0
 11
796.428203
 21
256.5
 31
0.0
  0
LINE
  8
L-ZISSEN
 10
786.035898
 20
250.5
 30
0.0
 11
792.964102
 21
250.5
 31
0.0
  0
LINE
  8
L-ZISSEN
 10
782.571797
 20
256.5
 30
0.0
 11
786.035898
 21
250.5
 31
0.0
  0
LINE
  8
L-ZISSEN
 10
786.035898
 20
262.5
 30
0.0
 11
782.571797
 21
256.5
 31
0.0
  0
CIRCLE
  8
L-ZISSEN
 10
789.5
 20
256.5
 30
0.0
 40
3.5
  0
LINE
  8
L-TYUSIN
  6
CENTER
 62
     1
 10
789.5
 20
321.0
 30
0.0
 11
789.5
 21
311.0
 31
0.0
  0
LINE
  8
L-ZISSEN
 10
802.0
 20
186.0
 30
0.0
 11
802.0
 21
316.0
 31
0.0
  0
LINE
  8
L-ZISSEN
 10
777.0
 20
186.0
 30
0.0
 11
777.0
 21
316.0
 31
0.0
  0
LINE
  8
L-ZISSEN
 10
802.0
 20
186.0
 30
0.0
 11
777.0
 21
186.0
 31
0.0
  0
LINE
  8
L-ZISSEN
 10
802.0
 20
316.0
 30
0.0
 11
777.0
 21
316.0
 31
0.0
  0
LINE
  8
L-ZISSEN
 10
627.0
 20
51.0
 30
0.0
 11
627.0
 21
127.0
 31
0.0
  0
LINE
  8
L-ZISSEN
 10
652.0
 20
51.0
 30
0.0
 11
652.0
 21
127.0
 31
0.0
  0
LINE
  8
L-ZISSEN
 10
627.0
 20
122.0
 30
0.0
 11
652.0
 21
122.0
 31
0.0
  0
LINE
  8
L-ZISSEN
 10
627.0
 20
127.0
 30
0.0
 11
652.0
 21
127.0
 31
0.0
  0
LINE
  8
L-ZISSEN
 10
627.0
 20
51.0
 30
0.0
 11
652.0
 21
51.0
 31
0.0
  0
LINE
  8
L-TYUSIN
 10
650.0
 20
68.0
 30
0.0
 11
629.0
 21
68.0
 31
0.0
  0
LINE
  8
L-TYUSIN
 10
639.5
 20
57.5
 30
0.0
 11
639.5
 21
78.5
 31
0.0
  0
CIRCLE
  8
L-ZISSEN
 10
639.5
 20
68.0
 30
0.0
 40
4.3
  0
ARC
  8
L-ZISSEN
 10
639.5
 20
111.0
 30
0.0
 40
4.3
 50
324.484016
 51
35.515984
  0
LINE
  8
L-TYUSIN
 10
650.0
 20
111.0
 30
0.0
 11
629.0
 21
111.0
 31
0.0
  0
LINE
  8
L-TYUSIN
 10
639.5
 20
100.5
 30
0.0
 11
639.5
 21
121.5
 31
0.0
  0
LINE
  8
L-ZISSEN
 10
636.0
 20
153.0
 30
0.0
 11
636.0
 21
136.0
 31
0.0
  0
LINE
  8
L-ZISSEN
 10
643.0
 20
153.0
 30
0.0
 11
643.0
 21
136.0
 31
0.0
  0
ARC
  8
L-ZISSEN
 10
639.5
 20
84.5
 30
0.0
 40
3.5
 50
180.0
 51
0.0
  0
ARC
  8
L-ZISSEN
 10
639.5
 20
111.0
 30
0.0
 40
4.3
 50
144.484016
 51
215.515984
  0
LINE
  8
L-ZISSEN
 10
643.0
 20
153.0
 30
0.0
 11
636.0
 21
153.0
 31
0.0
  0
LINE
  8
L-ZISSEN
 10
631.5
 20
129.0
 30
0.0
 11
647.5
 21
129.0
 31
0.0
  0
LINE
  8
L-ZISSEN
 10
631.5
 20
129.0
 30
0.0
 11
631.5
 21
127.0
 31
0.0
  0
LINE
  8
L-ZISSEN
 10
647.5
 20
129.0
 30
0.0
 11
647.5
 21
127.0
 31
0.0
  0
LINE
  8
L-ZISSEN
 10
632.571797
 20
136.0
 30
0.0
 11
646.428203
 21
136.0
 31
0.0
  0
LINE
  8
L-ZISSEN
 10
632.571797
 20
136.0
 30
0.0
 11
632.571797
 21
129.0
 31
0.0
  0
LINE
  8
L-ZISSEN
 10
646.428203
 20
136.0
 30
0.0
 11
646.428203
 21
129.0
 31
0.0
  0
LINE
  8
L-ZISSEN
 10
643.0
 20
122.0
 30
0.0
 11
643.0
 21
84.5
 31
0.0
  0
LINE
  8
L-ZISSEN
 10
636.0
 20
122.0
 30
0.0
 11
636.0
 21
84.5
 31
0.0
  0
SOLID
  8
L-ZISSEN
 10
722.090165
 20
573.290423
 30
0.0
 11
722.585694
 21
573.7364
 31
0.0
 12
721.0
 22
575.0
 32
0.0
 13
721.0
 23
575.0
 33
0.0
  0
LINE
  8
L-ZISSEN
 10
722.337929
 20
573.513412
 30
0.0
 11
730.0
 21
565.0
 31
0.0
  0
LINE
  8
L-ZISSEN
 10
730.0
 20
565.0
 30
0.0
 11
732.0
 21
565.0
 31
0.0
  0
TEXT
  8
L-ZISSEN
 10
734.0
 20
562.75
 30
0.0
 40
4.5
  1
P.P
  0
TEXT
  8
L-ZISSEN
 10
734.0
 20
222.75
 30
0.0
 40
4.5
  1
P.P
  0
LINE
  8
L-ZISSEN
 10
730.0
 20
225.0
 30
0.0
 11
732.0
 21
225.0
 31
0.0
  0
LINE
  8
L-ZISSEN
 10
722.337929
 20
233.513412
 30
0.0
 11
730.0
 21
225.0
 31
0.0
  0
SOLID
  8
L-ZISSEN
 10
722.090165
 20
233.290423
 30
0.0
 11
722.585694
 21
233.7364
 31
0.0
 12
721.0
 22
235.0
 32
0.0
 13
721.0
 23
235.0
 33
0.0
  0
SOLID
  8
L-ZISSEN
 10
722.159206
 20
106.663536
 30
0.0
 11
721.557021
 21
106.949574
 31
0.0
 12
721.0
 22
105.0
 32
0.0
 13
721.0
 23
105.0
 33
0.0
  0
LINE
  8
L-ZISSEN
 10
721.858114
 20
106.806555
 30
0.0
 11
740.0
 21
145.0
 31
0.0
  0
LINE
  8
L-ZISSEN
 10
740.0
 20
145.0
 30
0.0
 11
742.0
 21
145.0
 31
0.0
  0
TEXT
  8
L-ZISSEN
 10
744.0
 20
142.75
 30
0.0
 40
4.5
  1
P.P
  0
SOLID
  8
L-ZISSEN
 10
910.685728
 20
106.908111
 30
0.0
 11
910.029814
 21
107.027368
 31
0.0
 12
910.0
 22
105.0
 32
0.0
 13
910.0
 23
105.0
 33
0.0
  0
LINE
  8
L-ZISSEN
 10
910.357771
 20
106.96774
 30
0.0
 11
920.0
 21
160.0
 31
0.0
  0
LINE
  8
L-ZISSEN
 10
920.0
 20
160.0
 30
0.0
 11
922.0
 21
160.0
 31
0.0
  0
TEXT
  8
L-ZISSEN
 10
924.0
 20
157.75
 30
0.0
 40
4.5
  1
P.P
  0
TEXT
  8
L-ZISSEN
 10
744.0
 20
482.75
 30
0.0
 40
4.5
  1
P.P
  0
LINE
  8
L-ZISSEN
 10
740.0
 20
485.0
 30
0.0
 11
742.0
 21
485.0
 31
0.0
  0
LINE
  8
L-ZISSEN
 10
721.858114
 20
446.806555
 30
0.0
 11
740.0
 21
485.0
 31
0.0
  0
SOLID
  8
L-ZISSEN
 10
722.159206
 20
446.663536
 30
0.0
 11
721.557021
 21
446.949574
 31
0.0
 12
721.0
 22
445.0
 32
0.0
 13
721.0
 23
445.0
 33
0.0
  0
SOLID
  8
L-ZISSEN
 10
910.685728
 20
446.908111
 30
0.0
 11
910.029814
 21
447.027368
 31
0.0
 12
910.0
 22
445.0
 32
0.0
 13
910.0
 23
445.0
 33
0.0
  0
LINE
  8
L-ZISSEN
 10
910.357771
 20
446.96774
 30
0.0
 11
920.0
 21
500.0
 31
0.0
  0
TEXT
  8
L-ZISSEN
 10
924.0
 20
497.75
 30
0.0
 40
4.5
  1
P.P
  0
LINE
  8
L-ZISSEN
 10
920.0
 20
500.0
 30
0.0
 11
922.0
 21
500.0
 31
0.0
  0
LINE
  8
L-TYUSIN
 10
600.0
 20
700.0
 30
0.0
 11
600.0
 21
25.0
 31
0.0
  0
LINE
  8
L-TYUSIN
 10
600.0
 20
365.0
 30
0.0
 11
1010.0
 21
365.0
 31
0.0
  0
TEXT
  8
L-ZISSEN
 10
620.0
 20
350.0
 30
0.0
 40
4.5
  1
L TYPE BRACKET
  0
TEXT
  8
L-ZISSEN
 10
620.0
 20
330.0
 30
0.0
 40
4.5
  1
(F46-801)
  0
TEXT
  8
L-ZISSEN
 10
620.0
 20
670.0
 30
0.0
 40
4.5
  1
(F46-601)
  0
TEXT
  8
L-ZISSEN
 10
620.0
 20
690.0
 30
0.0
 40
4.5
  1
L TYPE BRACKET
  0
TEXT
  8
L-ZISSEN
 10
620.0
 20
680.0
 30
0.0
 40
4.5
  1
MODEL NO. : 6212-50
  0
TEXT
  8
L-ZISSEN
 10
620.0
 20
340.0
 30
0.0
 40
4.5
  1
MODEL NO. : 6212-50
  0
LINE
  8
L-ZISSEN
  6
CONTINUOUS
 62
     7
 10
113.75
 20
59.0
 30
0.0
 11
126.25
 21
59.0
 31
0.0
  0
CIRCLE
  8
L-ZISSEN
 10
305.0
 20
480.0
 30
0.0
 40
21.0
  0
CIRCLE
  8
L-ZISSEN
 10
305.0
 20
480.0
 30
0.0
 40
10.0
  0
ARC
  8
L-ZISSEN
 10
305.0
 20
480.0
 30
0.0
 40
10.5
 50
34.849905
 51
325.150095
  0
ARC
  8
L-ZISSEN
 10
305.0
 20
480.0
 30
0.0
 40
12.0
 50
38.682187
 51
167.975301
  0
ARC
  8
L-ZISSEN
 10
309.987946
 20
480.0
 30
0.0
 40
7.012054
 50
301.166233
 51
58.833767
  0
ARC
  8
L-ZISSEN
 10
309.627946
 20
480.0
 30
0.0
 40
8.872054
 50
302.290436
 51
57.709564
  0
LINE
  8
L-ZISSEN
 10
287.5
 20
477.5
 30
0.0
 11
287.5
 21
482.5
 31
0.0
  0
LINE
  8
L-ZISSEN
 10
287.5
 20
482.5
 30
0.0
 11
293.263305
 21
482.5
 31
0.0
  0
LINE
  8
L-ZISSEN
 10
287.5
 20
477.5
 30
0.0
 11
293.263305
 21
477.5
 31
0.0
  0
ARC
  8
L-ZISSEN
 10
305.0
 20
480.0
 30
0.0
 40
12.0
 50
192.024699
 51
321.317813
  0
LINE
  8
L-ZISSEN
 10
288.5
 20
478.25
 30
0.0
 11
288.5
 21
481.75
 31
0.0
  0
LINE
  8
L-ZISSEN
 10
288.5
 20
478.25
 30
0.0
 11
291.531089
 21
480.0
 31
0.0
  0
LINE
  8
L-ZISSEN
 10
288.5
 20
481.75
 30
0.0
 11
291.531089
 21
480.0
 31
0.0
  0
CIRCLE
  8
L-ZISSEN
 10
305.0
 20
495.25
 30
0.0
 40
3.25
  0
CIRCLE
  8
L-ZISSEN
 10
305.0
 20
464.75
 30
0.0
 40
3.25
  0
LINE
  8
L-ZISSEN
 10
284.0
 20
357.0
 30
0.0
 11
284.0
 21
347.0
 31
0.0
  0
LINE
  8
L-ZISSEN
 10
284.0
 20
357.0
 30
0.0
 11
326.0
 21
357.0
 31
0.0
  0
LINE
  8
L-ZISSEN
 10
326.0
 20
357.0
 30
0.0
 11
326.0
 21
347.0
 31
0.0
  0
LINE
  8
L-ZISSEN
 10
294.5
 20
368.0
 30
0.0
 11
317.0
 21
368.0
 31
0.0
  0
LINE
  8
L-ZISSEN
 10
294.5
 20
368.0
 30
0.0
 11
294.5
 21
357.0
 31
0.0
  0
LINE
  8
L-ZISSEN
 10
317.0
 20
368.0
 30
0.0
 11
317.0
 21
357.0
 31
0.0
  0
LINE
  8
L-ZISSEN
 10
295.0
 20
380.0
 30
0.0
 11
315.0
 21
380.0
 31
0.0
  0
LINE
  8
L-ZISSEN
 10
295.0
 20
380.0
 30
0.0
 11
295.0
 21
368.0
 31
0.0
  0
LINE
  8
L-ZISSEN
 10
315.0
 20
380.0
 30
0.0
 11
315.0
 21
368.0
 31
0.0
  0
LINE
  8
L-ZISSEN
 10
301.75
 20
360.5
 30
0.0
 11
308.25
 21
360.5
 31
0.0
  0
LINE
  8
L-ZISSEN
 10
301.75
 20
360.5
 30
0.0
 11
301.75
 21
357.0
 31
0.0
  0
LINE
  8
L-ZISSEN
 10
308.25
 20
360.5
 30
0.0
 11
308.25
 21
357.0
 31
0.0
  0
LINE
  8
L-ZISSEN
 10
313.616844
 20
368.0
 30
0.0
 11
313.616844
 21
357.0
 31
0.0
  0
LINE
  8
L-ZISSEN
 10
473.0
 20
360.5
 30
0.0
 11
473.0
 21
357.0
 31
0.0
  0
LINE
  8
L-ZISSEN
 10
466.5
 20
360.5
 30
0.0
 11
466.5
 21
357.0
 31
0.0
  0
LINE
  8
L-ZISSEN
 10
466.5
 20
360.5
 30
0.0
 11
473.0
 21
360.5
 31
0.0
  0
LINE
  8
L-ZISSEN
 10
495.0
 20
380.0
 30
0.0
 11
495.0
 21
368.0
 31
0.0
  0
LINE
  8
L-ZISSEN
 10
475.0
 20
380.0
 30
0.0
 11
475.0
 21
368.0
 31
0.0
  0
LINE
  8
L-ZISSEN
 10
475.0
 20
380.0
 30
0.0
 11
495.0
 21
380.0
 31
0.0
  0
LINE
  8
L-ZISSEN
 10
474.5
 20
368.0
 30
0.0
 11
474.5
 21
357.0
 31
0.0
  0
LINE
  8
L-ZISSEN
 10
474.5
 20
368.0
 30
0.0
 11
495.5
 21
368.0
 31
0.0
  0
LINE
  8
L-ZISSEN
 10
506.0
 20
357.0
 30
0.0
 11
506.0
 21
347.0
 31
0.0
  0
LINE
  8
L-ZISSEN
 10
464.0
 20
357.0
 30
0.0
 11
506.0
 21
357.0
 31
0.0
  0
LINE
  8
L-ZISSEN
 10
464.0
 20
357.0
 30
0.0
 11
464.0
 21
347.0
 31
0.0
  0
LINE
  8
L-ZISSEN
 10
495.5
 20
368.0
 30
0.0
 11
495.5
 21
357.0
 31
0.0
  0
LINE
  8
L-ZISSEN
 10
503.5
 20
360.5
 30
0.0
 11
497.0
 21
360.5
 31
0.0
  0
LINE
  8
L-ZISSEN
 10
503.5
 20
360.5
 30
0.0
 11
503.5
 21
357.0
 31
0.0
  0
LINE
  8
L-ZISSEN
 10
497.0
 20
360.5
 30
0.0
 11
497.0
 21
357.0
 31
0.0
  0
LINE
  8
L-ZISSEN
 10
93.0
 20
360.5
 30
0.0
 11
93.0
 21
357.0
 31
0.0
  0
LINE
  8
L-ZISSEN
 10
86.5
 20
360.5
 30
0.0
 11
86.5
 21
357.0
 31
0.0
  0
LINE
  8
L-ZISSEN
 10
86.5
 20
360.5
 30
0.0
 11
93.0
 21
360.5
 31
0.0
  0
LINE
  8
L-ZISSEN
 10
94.5
 20
368.0
 30
0.0
 11
94.5
 21
357.0
 31
0.0
  0
LINE
  8
L-ZISSEN
 10
126.0
 20
357.0
 30
0.0
 11
126.0
 21
347.0
 31
0.0
  0
LINE
  8
L-ZISSEN
 10
126.0
 20
357.0
 30
0.0
 11
84.0
 21
357.0
 31
0.0
  0
LINE
  8
L-ZISSEN
 10
84.0
 20
357.0
 30
0.0
 11
84.0
 21
347.0
 31
0.0
  0
LINE
  8
L-ZISSEN
 10
115.5
 20
368.0
 30
0.0
 11
94.5
 21
368.0
 31
0.0
  0
LINE
  8
L-ZISSEN
 10
115.5
 20
368.0
 30
0.0
 11
115.5
 21
357.0
 31
0.0
  0
LINE
  8
L-ZISSEN
 10
115.0
 20
380.0
 30
0.0
 11
95.0
 21
380.0
 31
0.0
  0
LINE
  8
L-ZISSEN
 10
115.0
 20
380.0
 30
0.0
 11
115.0
 21
368.0
 31
0.0
  0
LINE
  8
L-ZISSEN
 10
95.0
 20
380.0
 30
0.0
 11
95.0
 21
368.0
 31
0.0
  0
LINE
  8
L-ZISSEN
 10
123.5
 20
360.5
 30
0.0
 11
117.0
 21
360.5
 31
0.0
  0
LINE
  8
L-ZISSEN
 10
123.5
 20
360.5
 30
0.0
 11
123.5
 21
357.0
 31
0.0
  0
LINE
  8
L-ZISSEN
 10
117.0
 20
360.5
 30
0.0
 11
117.0
 21
357.0
 31
0.0
  0
SOLID
  8
L-ZISSEN
 10
289.492327
 20
316.963003
 30
0.0
 11
288.883119
 21
316.692244
 31
0.0
 12
290.0
 22
315.0
 32
0.0
 13
290.0
 23
315.0
 33
0.0
  0
LINE
  8
L-ZISSEN
 10
289.187723
 20
316.827623
 30
0.0
 11
270.0
 21
360.0
 31
0.0
  0
LINE
  8
L-ZISSEN
 10
270.0
 20
360.0
 30
0.0
 11
268.0
 21
360.0
 31
0.0
  0
TEXT
  8
L-ZISSEN
 10
257.0
 20
357.75
 30
0.0
 40
4.5
  1
P.P
  0
SOLID
  8
L-ZISSEN
 10
469.3201
 20
316.910196
 30
0.0
 11
468.737328
 21
316.586434
 31
0.0
 12
470.0
 22
315.0
 32
0.0
 13
470.0
 23
315.0
 33
0.0
  0
LINE
  8
L-ZISSEN
 10
469.028714
 20
316.748315
 30
0.0
 11
445.0
 21
360.0
 31
0.0
  0
LINE
  8
L-ZISSEN
 10
445.0
 20
360.0
 30
0.0
 11
443.0
 21
360.0
 31
0.0
  0
TEXT
  8
L-ZISSEN
 10
432.0
 20
357.75
 30
0.0
 40
4.5
  1
P.P
  0
SOLID
  8
L-ZISSEN
 10
290.9891
 20
463.230031
 30
0.0
 11
291.50968
 21
463.646494
 31
0.0
 12
290.0
 22
465.0
 32
0.0
 13
290.0
 23
465.0
 33
0.0
  0
LINE
  8
L-ZISSEN
 10
291.24939
 20
463.438262
 30
0.0
 11
330.0
 21
415.0
 31
0.0
  0
LINE
  8
L-ZISSEN
 10
330.0
 20
415.0
 30
0.0
 11
332.0
 21
415.0
 31
0.0
  0
TEXT
  8
L-ZISSEN
 10
334.0
 20
412.75
 30
0.0
 40
4.5
  1
P.P
  0
LINE
  8
L-ZISSEN
 10
126.25
 20
59.0
 30
0.0
 11
126.25
 21
66.0
 31
0.0
  0
LINE
  8
L-ZISSEN
 10
113.75
 20
59.0
 30
0.0
 11
113.75
 21
66.0
 31
0.0
  0
LINE
  8
L-ZISSEN
 10
463.75
 20
59.0
 30
0.0
 11
463.75
 21
66.0
 31
0.0
  0
LINE
  8
L-ZISSEN
  6
CONTINUOUS
 62
     7
 10
463.75
 20
59.0
 30
0.0
 11
476.25
 21
59.0
 31
0.0
  0
LINE
  8
L-ZISSEN
 10
476.25
 20
59.0
 30
0.0
 11
476.25
 21
66.0
 31
0.0
  0
LINE
  8
L-ZISSEN
 10
283.25
 20
59.0
 30
0.0
 11
283.25
 21
66.0
 31
0.0
  0
LINE
  8
L-ZISSEN
 10
296.75
 20
59.0
 30
0.0
 11
296.75
 21
66.0
 31
0.0
  0
SOLID
  8
L-ZISSEN
 10
234.127337
 20
314.222668
 30
0.0
 11
234.48067
 21
313.657336
 31
0.0
 12
236.0
 22
315.0
 32
0.0
 13
236.0
 23
315.0
 33
0.0
  0
LINE
  8
L-ZISSEN
 10
234.304003
 20
313.940002
 30
0.0
 11
220.0
 21
305.0
 31
0.0
  0
LINE
  8
L-ZISSEN
 10
220.0
 20
305.0
 30
0.0
 11
218.0
 21
305.0
 31
0.0
  0
TEXT
  8
L-ZISSEN
 10
210.0
 20
302.75
 30
0.0
 40
4.5
  1
IN
  0
TEXT
  8
L-ZISSEN
 10
195.0
 20
295.0
 30
0.0
 40
4.5
  1
Rc 3/4
  0
TEXT
  8
L-ZISSEN
 10
195.0
 20
285.0
 30
0.0
 40
4.5
  1
Rc 1
  0
ENDSEC
  0
EOF
