  0
SECTION
  2
HEADER
  9
$ACADVER
  1
AC1006
  9
$INSBASE
 10
0.0
 20
0.0
 30
0.0
  9
$EXTMIN
 10
10.0
 20
5.0
  9
$EXTMAX
 10
330.0
 20
290.0
  9
$LIMMIN
 10
0.0
 20
0.0
  9
$LIMMAX
 10
420.0
 20
297.0
  9
$ORTHOMODE
 70
     1
  9
$REGENMODE
 70
     1
  9
$FILLMODE
 70
     1
  9
$QTEXTMODE
 70
     0
  9
$MIRRTEXT
 70
     1
  9
$DRAGMODE
 70
     2
  9
$LTSCALE
 40
1.0
  9
$OSMODE
 70
     0
  9
$ATTMODE
 70
     1
  9
$TEXTSIZE
 40
4.5
  9
$TRACEWID
 40
0.05
  9
$TEXTSTYLE
  7
STANDARD
  9
$CLAYER
  8
L-ZISSEN
  9
$CELTYPE
  6
BYLAYER
  9
$CECOLOR
 62
   256
  9
$DIMSCALE
 40
1.0
  9
$DIMASZ
 40
2.0
  9
$DIMEXO
 40
2.0
  9
$DIMDLI
 40
0.38
  9
$DIMRND
 40
0.0
  9
$DIMDLE
 40
1.0
  9
$DIMEXE
 40
2.0
  9
$DIMTP
 40
0.0
  9
$DIMTM
 40
0.0
  9
$DIMTXT
 40
4.5
  9
$DIMCEN
 40
0.09
  9
$DIMTSZ
 40
0.0
  9
$DIMTOL
 70
     0
  9
$DIMLIM
 70
     0
  9
$DIMTIH
 70
     0
  9
$DIMTOH
 70
     0
  9
$DIMSE1
 70
     0
  9
$DIMSE2
 70
     0
  9
$DIMTAD
 70
     1
  9
$DIMZIN
 70
     0
  9
$DIMBLK
  1

  9
$DIMASO
 70
     0
  9
$DIMSHO
 70
     0
  9
$DIMPOST
  1

  9
$DIMAPOST
  1

  9
$DIMALT
 70
     0
  9
$DIMALTD
 70
     2
  9
$DIMALTF
 40
25.4
  9
$DIMLFAC
 40
1.0
  9
$DIMTOFL
 70
     1
  9
$DIMTVP
 40
0.0
  9
$DIMTIX
 70
     1
  9
$DIMSOXD
 70
     0
  9
$DIMSAH
 70
     0
  9
$DIMBLK1
  1

  9
$DIMBLK2
  1

  9
$LUNITS
 70
     2
  9
$LUPREC
 70
     4
  9
$AXISMODE
 70
     0
  9
$AXISUNIT
 10
0.0
 20
0.0
  9
$SKETCHINC
 40
0.1
  9
$FILLETRAD
 40
0.0
  9
$AUNITS
 70
     0
  9
$AUPREC
 70
     0
  9
$MENU
  1
acad
  9
$ELEVATION
 40
0.0
  9
$THICKNESS
 40
0.0
  9
$LIMCHECK
 70
     0
  9
$BLIPMODE
 70
     1
  9
$CHAMFERA
 40
0.0
  9
$CHAMFERB
 40
0.0
  9
$SKPOLY
 70
     0
  9
$TDCREATE
 40
2449602.7386645833
  9
$TDUPDATE
 40
2449654.6644802084
  9
$TDINDWG
 40
0.0065313657
  9
$TDUSRTIMER
 40
0.0065313657
  9
$USRTIMER
 70
     1
  9
$ANGBASE
 50
0.0
  9
$ANGDIR
 70
     0
  9
$PDMODE
 70
     0
  9
$PDSIZE
 40
0.0
  9
$PLINEWID
 40
0.0
  9
$COORDS
 70
     2
  9
$SPLFRAME
 70
     0
  9
$SPLINETYPE
 70
     6
  9
$SPLINESEGS
 70
     8
  9
$ATTDIA
 70
     0
  9
$ATTREQ
 70
     1
  9
$HANDLING
 70
     0
  9
$HANDSEED
  5
0
  9
$SURFTAB1
 70
     6
  9
$SURFTAB2
 70
     6
  9
$SURFTYPE
 70
     6
  9
$SURFU
 70
     6
  9
$SURFV
 70
     6
  9
$FLATLAND
 70
     0
  9
$UCSNAME
  2

  9
$UCSORG
 10
0.0
 20
0.0
 30
0.0
  9
$UCSXDIR
 10
1.0
 20
0.0
 30
0.0
  9
$UCSYDIR
 10
0.0
 20
1.0
 30
0.0
  9
$USERI1
 70
     0
  9
$USERI2
 70
     0
  9
$USERI3
 70
     0
  9
$USERI4
 70
     0
  9
$USERI5
 70
     0
  9
$USERR1
 40
0.0
  9
$USERR2
 40
0.0
  9
$USERR3
 40
0.0
  9
$USERR4
 40
0.0
  9
$USERR5
 40
0.0
  9
$WORLDVIEW
 70
     1
  0
ENDSEC
  0
SECTION
  2
TABLES
  0
TABLE
  2
VPORT
 70
     2
  0
VPORT
  2
*ACTIVE
 70
     0
 10
0.0
 20
0.0
 11
1.0
 21
1.0
 12
155.39425
 22
150.657533
 13
0.0
 23
0.0
 14
5.0
 24
5.0
 15
0.0
 25
0.0
 16
0.0
 26
0.0
 36
1.0
 17
0.0
 27
0.0
 37
0.0
 40
305.316101
 41
1.5487
 42
50.0
 43
0.0
 44
0.0
 50
0.0
 51
0.0
 71
     0
 72
   100
 73
     1
 74
     0
 75
     0
 76
     0
 77
     0
 78
     0
  0
ENDTAB
  0
TABLE
  2
LTYPE
 70
     2
  0
LTYPE
  2
CONTINUOUS
 70
    64
  3
Solid line
 72
    65
 73
     0
 40
0.0
  0
LTYPE
  2
CENTER
 70
    64
  3
____ _ ____ _ ____ _ ____ _ 
 72
    65
 73
     4
 40
60.0
 49
45.0
 49
-5.0
 49
5.0
 49
-5.0
  0
ENDTAB
  0
TABLE
  2
LAYER
 70
     3
  0
LAYER
  2
0
 70
     0
 62
     7
  6
CONTINUOUS
  0
LAYER
  2
L-ZISSEN
 70
    64
 62
     7
  6
CONTINUOUS
  0
LAYER
  2
L-TYUSIN
 70
    64
 62
     1
  6
CENTER
  0
ENDTAB
  0
TABLE
  2
STYLE
 70
     1
  0
STYLE
  2
STANDARD
 70
    64
 40
0.0
 41
1.0
 50
0.0
 71
     0
 42
4.5
  3
TXT
  4

  0
ENDTAB
  0
TABLE
  2
VIEW
 70
     0
  0
ENDTAB
  0
TABLE
  2
UCS
 70
     0
  0
ENDTAB
  0
TABLE
  2
DWGMGR
 70
     0
  0
ENDTAB
  0
ENDSEC
  0
SECTION
  2
BLOCKS
  0
ENDSEC
  0
SECTION
  2
ENTITIES
  0
LINE
  8
L-TYUSIN
 10
42.0
 20
120.0
 30
0.0
 11
94.0
 21
120.0
 31
0.0
  0
LINE
  8
L-TYUSIN
 10
70.0
 20
134.5
 30
0.0
 11
70.0
 21
19.0
 31
0.0
  0
LINE
  8
L-ZISSEN
 10
51.5
 20
99.5
 30
0.0
 11
51.5
 21
110.5
 31
0.0
  0
LINE
  8
L-ZISSEN
 10
88.5
 20
99.5
 30
0.0
 11
88.5
 21
110.5
 31
0.0
  0
LINE
  8
L-TYUSIN
 10
130.0
 20
134.5
 30
0.0
 11
130.0
 21
19.0
 31
0.0
  0
LINE
  8
L-TYUSIN
 10
109.5
 20
120.0
 30
0.0
 11
150.5
 21
120.0
 31
0.0
  0
LINE
  8
L-ZISSEN
 10
145.5
 20
128.0
 30
0.0
 11
114.5
 21
128.0
 31
0.0
  0
LINE
  8
L-ZISSEN
 10
89.0
 20
128.0
 30
0.0
 11
89.0
 21
110.5
 31
0.0
  0
LINE
  8
L-ZISSEN
 10
89.0
 20
128.0
 30
0.0
 11
47.0
 21
128.0
 31
0.0
  0
LINE
  8
L-ZISSEN
 10
47.0
 20
128.0
 30
0.0
 11
47.0
 21
110.5
 31
0.0
  0
TEXT
  8
L-ZISSEN
 10
25.0
 20
205.0
 30
0.0
 40
4.5
  1
MODEL NO. : F07- 00-A1TB
  0
LINE
  8
L-ZISSEN
 10
239.0
 20
29.5
 30
0.0
 11
201.0
 21
29.5
 31
0.0
  0
LINE
  8
L-ZISSEN
 10
239.0
 20
31.8
 30
0.0
 11
201.0
 21
31.8
 31
0.0
  0
LINE
  8
L-ZISSEN
 10
234.0
 20
70.5
 30
0.0
 11
206.0
 21
70.5
 31
0.0
  0
LINE
  8
L-ZISSEN
 10
201.0
 20
29.5
 30
0.0
 11
201.0
 21
65.5
 31
0.0
  0
LINE
  8
L-ZISSEN
 10
239.0
 20
29.5
 30
0.0
 11
239.0
 21
65.5
 31
0.0
  0
LINE
  8
L-ZISSEN
 10
206.0
 20
70.5
 30
0.0
 11
201.0
 21
65.5
 31
0.0
  0
LINE
  8
L-ZISSEN
 10
234.0
 20
70.5
 30
0.0
 11
239.0
 21
65.5
 31
0.0
  0
LINE
  8
L-TYUSIN
 10
224.0
 20
55.5
 30
0.0
 11
201.0
 21
55.5
 31
0.0
  0
ARC
  8
L-ZISSEN
 10
209.0
 20
55.5
 30
0.0
 40
3.0
 50
90.0
 51
270.0
  0
ARC
  8
L-ZISSEN
 10
216.0
 20
55.5
 30
0.0
 40
3.0
 50
270.0
 51
90.0
  0
LINE
  8
L-TYUSIN
 10
212.5
 20
47.5
 30
0.0
 11
212.5
 21
63.5
 31
0.0
  0
LINE
  8
L-ZISSEN
 10
216.0
 20
52.5
 30
0.0
 11
209.0
 21
52.5
 31
0.0
  0
LINE
  8
L-ZISSEN
 10
216.0
 20
58.5
 30
0.0
 11
209.0
 21
58.5
 31
0.0
  0
LINE
  8
L-ZISSEN
 10
224.0
 20
66.5
 30
0.0
 11
231.0
 21
66.5
 31
0.0
  0
LINE
  8
L-ZISSEN
 10
224.0
 20
60.5
 30
0.0
 11
231.0
 21
60.5
 31
0.0
  0
LINE
  8
L-TYUSIN
 10
227.5
 20
55.5
 30
0.0
 11
227.5
 21
71.5
 31
0.0
  0
ARC
  8
L-ZISSEN
 10
224.0
 20
63.5
 30
0.0
 40
3.0
 50
90.0
 51
270.0
  0
ARC
  8
L-ZISSEN
 10
231.0
 20
63.5
 30
0.0
 40
3.0
 50
270.0
 51
90.0
  0
LINE
  8
L-TYUSIN
 10
216.0
 20
63.5
 30
0.0
 11
239.0
 21
63.5
 31
0.0
  0
LINE
  8
L-ZISSEN
 10
239.0
 20
116.0
 30
0.0
 11
239.0
 21
134.0
 31
0.0
  0
LINE
  8
L-ZISSEN
 10
201.0
 20
116.0
 30
0.0
 11
201.0
 21
134.0
 31
0.0
  0
LINE
  8
L-ZISSEN
 10
239.0
 20
134.0
 30
0.0
 11
201.0
 21
134.0
 31
0.0
  0
LINE
  8
L-ZISSEN
 10
239.0
 20
131.7
 30
0.0
 11
201.0
 21
131.7
 31
0.0
  0
LINE
  8
L-ZISSEN
 10
205.0
 20
109.0
 30
0.0
 11
201.0
 21
116.0
 31
0.0
  0
LINE
  8
L-ZISSEN
 10
235.0
 20
109.0
 30
0.0
 11
239.0
 21
116.0
 31
0.0
  0
LINE
  8
L-ZISSEN
 10
205.0
 20
109.0
 30
0.0
 11
205.0
 21
97.0
 31
0.0
  0
LINE
  8
L-ZISSEN
 10
235.0
 20
109.0
 30
0.0
 11
235.0
 21
97.0
 31
0.0
  0
ARC
  8
L-ZISSEN
 10
220.0
 20
97.0
 30
0.0
 40
15.0
 50
180.0
 51
0.0
  0
CIRCLE
  8
L-ZISSEN
 10
227.0
 20
90.875856
 30
0.0
 40
2.5
  0
CIRCLE
  8
L-ZISSEN
 10
213.0
 20
90.875856
 30
0.0
 40
2.5
  0
CIRCLE
  8
L-ZISSEN
 10
213.0
 20
109.124144
 30
0.0
 40
2.5
  0
CIRCLE
  8
L-ZISSEN
 10
227.0
 20
109.124144
 30
0.0
 40
2.5
  0
CIRCLE
  8
L-ZISSEN
 10
220.0
 20
88.5
 30
0.0
 40
4.0
  0
CIRCLE
  8
L-ZISSEN
 10
220.0
 20
111.5
 30
0.0
 40
4.0
  0
LINE
  8
L-ZISSEN
 10
224.0
 20
34.3
 30
0.0
 11
224.0
 21
31.8
 31
0.0
  0
LINE
  8
L-ZISSEN
 10
271.0
 20
29.5
 30
0.0
 11
271.0
 21
31.8
 31
0.0
  0
LINE
  8
L-ZISSEN
 10
321.7
 20
31.8
 30
0.0
 11
271.0
 21
31.8
 31
0.0
  0
LINE
  8
L-ZISSEN
 10
324.0
 20
29.5
 30
0.0
 11
271.0
 21
29.5
 31
0.0
  0
LINE
  8
L-ZISSEN
 10
324.0
 20
70.5
 30
0.0
 11
324.0
 21
29.5
 31
0.0
  0
LINE
  8
L-ZISSEN
 10
321.7
 20
70.5
 30
0.0
 11
321.7
 21
31.8
 31
0.0
  0
LINE
  8
L-ZISSEN
 10
321.7
 20
70.5
 30
0.0
 11
324.0
 21
70.5
 31
0.0
  0
LINE
  8
L-ZISSEN
 10
321.7
 20
65.5
 30
0.0
 11
324.0
 21
65.5
 31
0.0
  0
LINE
  8
L-TYUSIN
 10
316.7
 20
63.5
 30
0.0
 11
329.0
 21
63.5
 31
0.0
  0
LINE
  8
L-TYUSIN
 10
329.0
 20
55.5
 30
0.0
 11
316.7
 21
55.5
 31
0.0
  0
TEXT
  8
L-ZISSEN
 10
91.0
 20
208.75
 30
0.0
 40
4.5
  1
1
  0
TEXT
  8
L-ZISSEN
 10
90.0
 20
201.25
 30
0.0
 40
4.5
  1
2
  0
LINE
  8
L-TYUSIN
 10
42.0
 20
170.0
 30
0.0
 11
94.0
 21
170.0
 31
0.0
  0
LINE
  8
L-TYUSIN
 10
70.0
 20
193.5
 30
0.0
 11
70.0
 21
146.5
 31
0.0
  0
ARC
  8
L-ZISSEN
 10
70.0
 20
170.0
 30
0.0
 40
18.5
 50
30.898148
 51
149.101852
  0
LINE
  8
L-ZISSEN
 10
89.0
 20
179.5
 30
0.0
 11
89.0
 21
160.5
 31
0.0
  0
LINE
  8
L-ZISSEN
 10
47.0
 20
179.5
 30
0.0
 11
47.0
 21
160.5
 31
0.0
  0
LINE
  8
L-ZISSEN
 10
89.0
 20
179.5
 30
0.0
 11
78.87412
 21
179.5
 31
0.0
  0
LINE
  8
L-ZISSEN
 10
89.0
 20
160.5
 30
0.0
 11
78.87412
 21
160.5
 31
0.0
  0
ARC
  8
L-ZISSEN
 10
70.0
 20
170.0
 30
0.0
 40
13.0
 50
287.443431
 51
353.385276
  0
CIRCLE
  8
L-ZISSEN
 10
70.0
 20
158.5
 30
0.0
 40
2.0
  0
ARC
  8
L-ZISSEN
 10
70.0
 20
158.5
 30
0.0
 40
4.0
 50
193.034839
 51
346.965161
  0
ARC
  8
L-ZISSEN
 10
70.0
 20
181.5
 30
0.0
 40
4.0
 50
13.034839
 51
166.965161
  0
CIRCLE
  8
L-ZISSEN
 10
70.0
 20
181.5
 30
0.0
 40
2.0
  0
LINE
  8
L-ZISSEN
 10
61.12588
 20
160.5
 30
0.0
 11
47.0
 21
160.5
 31
0.0
  0
LINE
  8
L-ZISSEN
 10
61.12588
 20
179.5
 30
0.0
 11
47.0
 21
179.5
 31
0.0
  0
ARC
  8
L-ZISSEN
 10
70.0
 20
170.0
 30
0.0
 40
13.0
 50
107.443431
 51
173.385276
  0
ARC
  8
L-ZISSEN
 10
70.0
 20
170.0
 30
0.0
 40
18.5
 50
210.898148
 51
329.101852
  0
ARC
  8
L-ZISSEN
 10
70.0
 20
170.0
 30
0.0
 40
13.0
 50
6.614724
 51
72.556569
  0
ARC
  8
L-ZISSEN
 10
70.0
 20
170.0
 30
0.0
 40
13.0
 50
186.614724
 51
252.556569
  0
LINE
  8
L-ZISSEN
 10
88.5
 20
99.5
 30
0.0
 11
51.5
 21
99.5
 31
0.0
  0
LINE
  8
L-ZISSEN
 10
89.0
 20
110.5
 30
0.0
 11
47.0
 21
110.5
 31
0.0
  0
LINE
  8
L-ZISSEN
 10
148.5
 20
99.5
 30
0.0
 11
148.5
 21
110.5
 31
0.0
  0
LINE
  8
L-ZISSEN
 10
148.5
 20
110.5
 30
0.0
 11
111.5
 21
110.5
 31
0.0
  0
LINE
  8
L-ZISSEN
 10
148.5
 20
99.5
 30
0.0
 11
111.5
 21
99.5
 31
0.0
  0
LINE
  8
L-ZISSEN
 10
111.5
 20
99.5
 30
0.0
 11
111.5
 21
110.5
 31
0.0
  0
LINE
  8
L-ZISSEN
 10
120.5
 20
122.545268
 30
0.0
 11
120.5
 21
117.454732
 31
0.0
  0
LINE
  8
L-ZISSEN
 10
139.5
 20
122.545268
 30
0.0
 11
139.5
 21
117.454732
 31
0.0
  0
LINE
  8
L-ZISSEN
 10
114.5
 20
128.0
 30
0.0
 11
114.5
 21
110.5
 31
0.0
  0
LINE
  8
L-ZISSEN
 10
145.5
 20
128.0
 30
0.0
 11
145.5
 21
110.5
 31
0.0
  0
ARC
  8
L-ZISSEN
 10
130.0
 20
117.0
 30
0.0
 40
11.0
 50
30.272641
 51
149.727359
  0
LINE
  8
L-ZISSEN
 10
236.5
 20
239.5
 30
0.0
 11
234.127361
 21
193.149111
 31
0.0
  0
LINE
  8
L-ZISSEN
 10
203.5
 20
239.5
 30
0.0
 11
205.872639
 21
193.149111
 31
0.0
  0
LINE
  8
L-ZISSEN
 10
238.5
 20
239.5
 30
0.0
 11
201.5
 21
239.5
 31
0.0
  0
LINE
  8
L-ZISSEN
 10
219.5
 20
179.0
 30
0.0
 11
219.25
 21
179.0
 31
0.0
  0
LINE
  8
L-ZISSEN
 10
220.75
 20
178.5
 30
0.0
 11
220.75
 21
179.0
 31
0.0
  0
LINE
  8
L-ZISSEN
 10
220.5
 20
180.5
 30
0.0
 11
220.5
 21
179.0
 31
0.0
  0
LINE
  8
L-ZISSEN
 10
219.5
 20
180.5
 30
0.0
 11
219.5
 21
179.0
 31
0.0
  0
LINE
  8
L-ZISSEN
 10
219.25
 20
178.5
 30
0.0
 11
219.25
 21
179.0
 31
0.0
  0
LINE
  8
L-ZISSEN
 10
220.75
 20
179.0
 30
0.0
 11
220.5
 21
179.0
 31
0.0
  0
ARC
  8
L-ZISSEN
 10
219.872639
 20
193.149111
 30
0.0
 40
14.0
 50
180.0
 51
244.623066
  0
ARC
  8
L-ZISSEN
 10
220.127361
 20
193.149111
 30
0.0
 40
14.0
 50
295.376934
 51
0.0
  0
LINE
  8
L-ZISSEN
 10
213.872639
 20
180.5
 30
0.0
 11
226.127361
 21
180.5
 31
0.0
  0
LINE
  8
L-ZISSEN
 10
220.75
 20
178.5
 30
0.0
 11
219.25
 21
178.5
 31
0.0
  0
LINE
  8
L-TYUSIN
 10
180.0
 20
290.0
 30
0.0
 11
180.0
 21
5.0
 31
0.0
  0
LINE
  8
L-TYUSIN
 10
180.0
 20
170.0
 30
0.0
 11
330.0
 21
170.0
 31
0.0
  0
SOLID
  8
L-ZISSEN
 10
221.639783
 20
98.80743
 30
0.0
 11
221.937926
 21
99.403715
 31
0.0
 12
220.0
 22
100.0
 32
0.0
 13
220.0
 23
100.0
 33
0.0
  0
LINE
  8
L-ZISSEN
 10
221.788854
 20
99.105573
 30
0.0
 11
240.0
 21
90.0
 31
0.0
  0
LINE
  8
L-ZISSEN
 10
240.0
 20
90.0
 30
0.0
 11
242.0
 21
90.0
 31
0.0
  0
TEXT
  8
L-ZISSEN
 10
244.0
 20
87.75
 30
0.0
 40
4.5
  1
P.P
  0
SOLID
  8
L-ZISSEN
 10
221.178511
 20
18.350084
 30
0.0
 11
221.649916
 21
18.821489
 31
0.0
 12
220.0
 22
20.0
 32
0.0
 13
220.0
 23
20.0
 33
0.0
  0
LINE
  8
L-ZISSEN
 10
221.414214
 20
18.585786
 30
0.0
 11
230.0
 21
10.0
 31
0.0
  0
LINE
  8
L-ZISSEN
 10
230.0
 20
10.0
 30
0.0
 11
232.0
 21
10.0
 31
0.0
  0
TEXT
  8
L-ZISSEN
 10
234.0
 20
7.75
 30
0.0
 40
4.5
  1
P.P
  0
LINE
  8
L-ZISSEN
 10
216.0
 20
34.3
 30
0.0
 11
224.0
 21
34.3
 31
0.0
  0
LINE
  8
L-ZISSEN
 10
216.0
 20
34.3
 30
0.0
 11
216.0
 21
31.8
 31
0.0
  0
LINE
  8
L-ZISSEN
 10
274.5
 20
34.3
 30
0.0
 11
274.5
 21
31.8
 31
0.0
  0
LINE
  8
L-ZISSEN
 10
274.5
 20
34.3
 30
0.0
 11
282.5
 21
34.3
 31
0.0
  0
LINE
  8
L-ZISSEN
 10
282.5
 20
34.3
 30
0.0
 11
282.5
 21
31.8
 31
0.0
  0
LINE
  8
L-ZISSEN
 10
305.5
 20
34.3
 30
0.0
 11
305.5
 21
31.8
 31
0.0
  0
LINE
  8
L-ZISSEN
 10
297.5
 20
34.3
 30
0.0
 11
305.5
 21
34.3
 31
0.0
  0
LINE
  8
L-ZISSEN
 10
297.5
 20
34.3
 30
0.0
 11
297.5
 21
31.8
 31
0.0
  0
SOLID
  8
L-ZISSEN
 10
291.178511
 20
18.350084
 30
0.0
 11
291.649916
 21
18.821489
 31
0.0
 12
290.0
 22
20.0
 32
0.0
 13
290.0
 23
20.0
 33
0.0
  0
LINE
  8
L-ZISSEN
 10
291.414214
 20
18.585786
 30
0.0
 11
300.0
 21
10.0
 31
0.0
  0
LINE
  8
L-ZISSEN
 10
300.0
 20
10.0
 30
0.0
 11
302.0
 21
10.0
 31
0.0
  0
TEXT
  8
L-ZISSEN
 10
304.0
 20
7.75
 30
0.0
 40
4.5
  1
P.P
  0
LINE
  8
L-TYUSIN
 10
227.5
 20
126.7
 30
0.0
 11
227.5
 21
139.0
 31
0.0
  0
LINE
  8
L-TYUSIN
 10
212.5
 20
126.7
 30
0.0
 11
212.5
 21
139.0
 31
0.0
  0
LINE
  8
L-ZISSEN
 10
63.5
 20
38.0
 30
0.0
 11
63.5
 21
40.481494
 31
0.0
  0
LINE
  8
L-ZISSEN
 10
63.5
 20
40.481494
 30
0.0
 11
76.5
 21
40.481494
 31
0.0
  0
ARC
  8
L-ZISSEN
 10
70.0
 20
54.0
 30
0.0
 40
15.0
 50
295.679289
 51
0.0
  0
ARC
  8
L-ZISSEN
 10
70.0
 20
54.0
 30
0.0
 40
15.0
 50
180.0
 51
244.320711
  0
LINE
  8
L-ZISSEN
 10
76.5
 20
38.0
 30
0.0
 11
76.5
 21
40.481494
 31
0.0
  0
LINE
  8
L-ZISSEN
 10
76.5
 20
38.0
 30
0.0
 11
63.5
 21
38.0
 31
0.0
  0
LINE
  8
L-ZISSEN
 10
73.5
 20
24.0
 30
0.0
 11
73.5
 21
38.0
 31
0.0
  0
LINE
  8
L-ZISSEN
 10
66.5
 20
24.0
 30
0.0
 11
66.5
 21
38.0
 31
0.0
  0
LINE
  8
L-ZISSEN
 10
73.5
 20
24.0
 30
0.0
 11
66.5
 21
24.0
 31
0.0
  0
SOLID
  8
L-ZISSEN
 10
45.250163
 20
118.975705
 30
0.0
 11
45.676952
 21
118.463557
 31
0.0
 12
47.0
 22
120.0
 32
0.0
 13
47.0
 23
120.0
 33
0.0
  0
LINE
  8
L-ZISSEN
 10
45.463557
 20
118.719631
 30
0.0
 11
35.0
 21
110.0
 31
0.0
  0
LINE
  8
L-ZISSEN
 10
35.0
 20
110.0
 30
0.0
 11
33.0
 21
110.0
 31
0.0
  0
TEXT
  8
L-ZISSEN
 10
25.0
 20
107.75
 30
0.0
 40
4.5
  1
IN
  0
TEXT
  8
L-ZISSEN
 10
10.0
 20
100.0
 30
0.0
 40
4.5
  1
Rc 1/8
  0
TEXT
  8
L-ZISSEN
 10
10.0
 20
90.0
 30
0.0
 40
4.5
  1
Rc 1/4
  0
CIRCLE
  8
L-ZISSEN
 10
130.0
 20
120.0
 30
0.0
 40
4.283
  0
SOLID
  8
L-ZISSEN
 10
71.649916
 20
121.178511
 30
0.0
 11
71.178511
 21
121.649916
 31
0.0
 12
70.0
 22
120.0
 32
0.0
 13
70.0
 23
120.0
 33
0.0
  0
LINE
  8
L-ZISSEN
 10
71.414214
 20
121.414214
 30
0.0
 11
85.0
 21
135.0
 31
0.0
  0
LINE
  8
L-ZISSEN
 10
85.0
 20
135.0
 30
0.0
 11
87.0
 21
135.0
 31
0.0
  0
TEXT
  8
L-ZISSEN
 10
89.0
 20
132.75
 30
0.0
 40
4.5
  1
P.P
  0
SOLID
  8
L-ZISSEN
 10
131.38675
 20
121.479201
 30
0.0
 11
130.83205
 21
121.849001
 31
0.0
 12
130.0
 22
120.0
 32
0.0
 13
130.0
 23
120.0
 33
0.0
  0
LINE
  8
L-ZISSEN
 10
131.1094
 20
121.664101
 30
0.0
 11
140.0
 21
135.0
 31
0.0
  0
LINE
  8
L-ZISSEN
 10
140.0
 20
135.0
 30
0.0
 11
142.0
 21
135.0
 31
0.0
  0
TEXT
  8
L-ZISSEN
 10
144.0
 20
132.75
 30
0.0
 40
4.5
  1
P.P
  0
SOLID
  8
L-ZISSEN
 10
71.178511
 20
168.350084
 30
0.0
 11
71.649916
 21
168.821489
 31
0.0
 12
70.0
 22
170.0
 32
0.0
 13
70.0
 23
170.0
 33
0.0
  0
LINE
  8
L-ZISSEN
 10
71.414214
 20
168.585786
 30
0.0
 11
85.0
 21
155.0
 31
0.0
  0
LINE
  8
L-ZISSEN
 10
85.0
 20
155.0
 30
0.0
 11
87.0
 21
155.0
 31
0.0
  0
TEXT
  8
L-ZISSEN
 10
89.0
 20
152.75
 30
0.0
 40
4.5
  1
P.P
  0
TEXT
  8
L-ZISSEN
 10
195.0
 20
160.0
 30
0.0
 40
4.5
  1
WALL MOUNTING BRACKET
  0
TEXT
  8
L-ZISSEN
 10
195.0
 20
150.0
 30
0.0
 40
4.5
  1
MODEL NO. : 5939-06
  0
TEXT
  8
L-ZISSEN
 10
195.0
 20
280.0
 30
0.0
 40
4.5
  1
MANUAL DRAIN BOWL
  0
TEXT
  8
L-ZISSEN
 10
195.0
 20
270.0
 30
0.0
 40
4.5
  1
MODEL NO. : F07-*00-M1TB
  0
SOLID
  8
L-ZISSEN
 10
221.178511
 20
258.350084
 30
0.0
 11
221.649916
 21
258.821489
 31
0.0
 12
220.0
 22
260.0
 32
0.0
 13
220.0
 23
260.0
 33
0.0
  0
LINE
  8
L-ZISSEN
 10
221.414214
 20
258.585786
 30
0.0
 11
230.0
 21
250.0
 31
0.0
  0
LINE
  8
L-ZISSEN
 10
230.0
 20
250.0
 30
0.0
 11
232.0
 21
250.0
 31
0.0
  0
TEXT
  8
L-ZISSEN
 10
234.0
 20
247.75
 30
0.0
 40
4.5
  1
P.P
  0
LINE
  8
L-ZISSEN
 10
55.0
 20
54.0
 30
0.0
 11
53.5
 21
99.5
 31
0.0
  0
LINE
  8
L-ZISSEN
 10
85.0
 20
54.0
 30
0.0
 11
86.5
 21
99.5
 31
0.0
  0
LINE
  8
L-ZISSEN
 10
133.5
 20
24.0
 30
0.0
 11
126.5
 21
24.0
 31
0.0
  0
LINE
  8
L-ZISSEN
 10
126.5
 20
24.0
 30
0.0
 11
126.5
 21
38.0
 31
0.0
  0
LINE
  8
L-ZISSEN
 10
133.5
 20
24.0
 30
0.0
 11
133.5
 21
38.0
 31
0.0
  0
LINE
  8
L-ZISSEN
 10
136.5
 20
38.0
 30
0.0
 11
123.5
 21
38.0
 31
0.0
  0
LINE
  8
L-ZISSEN
 10
136.5
 20
38.0
 30
0.0
 11
136.5
 21
40.481494
 31
0.0
  0
ARC
  8
L-ZISSEN
 10
130.0
 20
54.0
 30
0.0
 40
15.0
 50
180.0
 51
244.320711
  0
ARC
  8
L-ZISSEN
 10
130.0
 20
54.0
 30
0.0
 40
15.0
 50
295.679289
 51
0.0
  0
LINE
  8
L-ZISSEN
 10
123.5
 20
40.481494
 30
0.0
 11
136.5
 21
40.481494
 31
0.0
  0
LINE
  8
L-ZISSEN
 10
123.5
 20
38.0
 30
0.0
 11
123.5
 21
40.481494
 31
0.0
  0
LINE
  8
L-ZISSEN
 10
145.0
 20
54.0
 30
0.0
 11
146.5
 21
99.5
 31
0.0
  0
LINE
  8
L-ZISSEN
 10
115.0
 20
54.0
 30
0.0
 11
113.5
 21
99.5
 31
0.0
  0
ARC
  8
L-ZISSEN
 10
130.0
 20
123.0
 30
0.0
 40
11.0
 50
210.272641
 51
-30.272641
  0
ENDSEC
  0
EOF
