  0
SECTION
  2
HEADER
  9
$ACADVER
  1
AC1006
  9
$INSBASE
 10
0.0
 20
0.0
 30
0.0
  9
$EXTMIN
 10
45.0
 20
20.0
  9
$EXTMAX
 10
1200.0
 20
820.0
  9
$LIMMIN
 10
0.0
 20
0.0
  9
$LIMMAX
 10
1189.0
 20
841.0
  9
$ORTHOMODE
 70
     0
  9
$REGENMODE
 70
     1
  9
$FILLMODE
 70
     1
  9
$QTEXTMODE
 70
     0
  9
$MIRRTEXT
 70
     1
  9
$DRAGMODE
 70
     2
  9
$LTSCALE
 40
1.0
  9
$OSMODE
 70
     0
  9
$ATTMODE
 70
     1
  9
$TEXTSIZE
 40
4.5
  9
$TRACEWID
 40
0.05
  9
$TEXTSTYLE
  7
STANDARD
  9
$CLAYER
  8
L-ZISSEN
  9
$CELTYPE
  6
BYLAYER
  9
$CECOLOR
 62
   256
  9
$DIMSCALE
 40
1.0
  9
$DIMASZ
 40
2.0
  9
$DIMEXO
 40
1.0
  9
$DIMDLI
 40
0.38
  9
$DIMRND
 40
0.0
  9
$DIMDLE
 40
1.0
  9
$DIMEXE
 40
1.0
  9
$DIMTP
 40
0.0
  9
$DIMTM
 40
0.0
  9
$DIMTXT
 40
4.5
  9
$DIMCEN
 40
0.09
  9
$DIMTSZ
 40
0.0
  9
$DIMTOL
 70
     0
  9
$DIMLIM
 70
     0
  9
$DIMTIH
 70
     0
  9
$DIMTOH
 70
     0
  9
$DIMSE1
 70
     0
  9
$DIMSE2
 70
     0
  9
$DIMTAD
 70
     1
  9
$DIMZIN
 70
     0
  9
$DIMBLK
  1

  9
$DIMASO
 70
     0
  9
$DIMSHO
 70
     0
  9
$DIMPOST
  1

  9
$DIMAPOST
  1

  9
$DIMALT
 70
     0
  9
$DIMALTD
 70
     2
  9
$DIMALTF
 40
25.4
  9
$DIMLFAC
 40
1.0
  9
$DIMTOFL
 70
     1
  9
$DIMTVP
 40
0.0
  9
$DIMTIX
 70
     1
  9
$DIMSOXD
 70
     0
  9
$DIMSAH
 70
     0
  9
$DIMBLK1
  1

  9
$DIMBLK2
  1

  9
$LUNITS
 70
     2
  9
$LUPREC
 70
     4
  9
$AXISMODE
 70
     0
  9
$AXISUNIT
 10
0.0
 20
0.0
  9
$SKETCHINC
 40
0.1
  9
$FILLETRAD
 40
22.5
  9
$AUNITS
 70
     0
  9
$AUPREC
 70
     0
  9
$MENU
  1
acad
  9
$ELEVATION
 40
0.0
  9
$THICKNESS
 40
0.0
  9
$LIMCHECK
 70
     0
  9
$BLIPMODE
 70
     1
  9
$CHAMFERA
 40
0.0
  9
$CHAMFERB
 40
0.0
  9
$SKPOLY
 70
     0
  9
$TDCREATE
 40
2449097.6201856481
  9
$TDUPDATE
 40
2449097.6201856481
  9
$TDINDWG
 40
0.0000000000
  9
$TDUSRTIMER
 40
0.0000000000
  9
$USRTIMER
 70
     1
  9
$ANGBASE
 50
0.0
  9
$ANGDIR
 70
     0
  9
$PDMODE
 70
     0
  9
$PDSIZE
 40
0.0
  9
$PLINEWID
 40
0.0
  9
$COORDS
 70
     2
  9
$SPLFRAME
 70
     0
  9
$SPLINETYPE
 70
     6
  9
$SPLINESEGS
 70
     8
  9
$ATTDIA
 70
     0
  9
$ATTREQ
 70
     1
  9
$HANDLING
 70
     0
  9
$HANDSEED
  5
0
  9
$SURFTAB1
 70
     6
  9
$SURFTAB2
 70
     6
  9
$SURFTYPE
 70
     6
  9
$SURFU
 70
     6
  9
$SURFV
 70
     6
  9
$FLATLAND
 70
     0
  9
$UCSNAME
  2

  9
$UCSORG
 10
0.0
 20
0.0
 30
0.0
  9
$UCSXDIR
 10
1.0
 20
0.0
 30
0.0
  9
$UCSYDIR
 10
0.0
 20
1.0
 30
0.0
  9
$USERI1
 70
     0
  9
$USERI2
 70
     0
  9
$USERI3
 70
     0
  9
$USERI4
 70
     0
  9
$USERI5
 70
     0
  9
$USERR1
 40
0.0
  9
$USERR2
 40
0.0
  9
$USERR3
 40
0.0
  9
$USERR4
 40
0.0
  9
$USERR5
 40
0.0
  9
$WORLDVIEW
 70
     1
  0
ENDSEC
  0
SECTION
  2
TABLES
  0
TABLE
  2
VPORT
 70
     2
  0
VPORT
  2
*ACTIVE
 70
     0
 10
0.0
 20
0.0
 11
1.0
 21
1.0
 12
674.578245
 22
435.577173
 13
0.0
 23
0.0
 14
5.0
 24
5.0
 15
0.0
 25
0.0
 16
0.0
 26
0.0
 36
1.0
 17
0.0
 27
0.0
 37
0.0
 40
871.154346
 41
1.5487
 42
50.0
 43
0.0
 44
0.0
 50
0.0
 51
0.0
 71
     0
 72
   100
 73
     1
 74
     0
 75
     0
 76
     0
 77
     0
 78
     0
  0
ENDTAB
  0
TABLE
  2
LTYPE
 70
     2
  0
LTYPE
  2
CONTINUOUS
 70
    64
  3
Solid line
 72
    65
 73
     0
 40
0.0
  0
LTYPE
  2
CENTER
 70
    64
  3
____ _ ____ _ ____ _ ____ _ 
 72
    65
 73
     4
 40
60.0
 49
45.0
 49
-5.0
 49
5.0
 49
-5.0
  0
ENDTAB
  0
TABLE
  2
LAYER
 70
     3
  0
LAYER
  2
0
 70
     0
 62
     7
  6
CONTINUOUS
  0
LAYER
  2
L-ZISSEN
 70
    64
 62
     7
  6
CONTINUOUS
  0
LAYER
  2
L-TYUSIN
 70
    64
 62
     1
  6
CENTER
  0
ENDTAB
  0
TABLE
  2
STYLE
 70
     1
  0
STYLE
  2
STANDARD
 70
    64
 40
0.0
 41
1.0
 50
0.0
 71
     0
 42
4.5
  3
txt
  4

  0
ENDTAB
  0
TABLE
  2
VIEW
 70
     0
  0
ENDTAB
  0
TABLE
  2
UCS
 70
     0
  0
ENDTAB
  0
TABLE
  2
DWGMGR
 70
     0
  0
ENDTAB
  0
ENDSEC
  0
SECTION
  2
BLOCKS
  0
ENDSEC
  0
SECTION
  2
ENTITIES
  0
LINE
  8
L-ZISSEN
  6
CONTINUOUS
 62
     7
 10
77.5
 20
337.8
 30
0.0
 11
122.5
 21
337.8
 31
0.0
  0
LINE
  8
L-ZISSEN
 10
113.0
 20
235.8
 30
0.0
 11
107.5
 21
228.8
 31
0.0
  0
LINE
  8
L-ZISSEN
 10
87.0
 20
235.8
 30
0.0
 11
92.5
 21
228.8
 31
0.0
  0
LINE
  8
L-ZISSEN
 10
87.0
 20
105.0
 30
0.0
 11
92.5
 21
112.0
 31
0.0
  0
LINE
  8
L-ZISSEN
 10
113.0
 20
105.0
 30
0.0
 11
107.5
 21
112.0
 31
0.0
  0
LINE
  8
L-ZISSEN
 10
92.5
 20
228.8
 30
0.0
 11
92.5
 21
112.0
 31
0.0
  0
LINE
  8
L-ZISSEN
 10
107.5
 20
228.8
 30
0.0
 11
107.5
 21
112.0
 31
0.0
  0
LINE
  8
L-ZISSEN
 10
113.0
 20
243.8
 30
0.0
 11
87.0
 21
243.8
 31
0.0
  0
LINE
  8
L-ZISSEN
 10
87.0
 20
97.0
 30
0.0
 11
87.0
 21
243.8
 31
0.0
  0
LINE
  8
L-ZISSEN
 10
113.0
 20
97.0
 30
0.0
 11
113.0
 21
243.8
 31
0.0
  0
LINE
  8
L-ZISSEN
 10
255.535229
 20
337.8
 30
0.0
 11
255.535229
 21
292.8
 31
0.0
  0
LINE
  8
L-ZISSEN
 10
326.464771
 20
337.8
 30
0.0
 11
326.464771
 21
292.8
 31
0.0
  0
LINE
  8
L-ZISSEN
 10
77.5
 20
337.8
 30
0.0
 11
77.5
 21
292.8
 31
0.0
  0
LINE
  8
L-ZISSEN
 10
122.5
 20
337.8
 30
0.0
 11
122.5
 21
292.8
 31
0.0
  0
LINE
  8
L-ZISSEN
  6
CONTINUOUS
 62
     7
 10
142.0
 20
347.0
 30
0.0
 11
58.0
 21
347.0
 31
0.0
  0
LINE
  8
L-ZISSEN
  6
CONTINUOUS
 62
     7
 10
45.0
 20
292.8
 30
0.0
 11
45.0
 21
252.8
 31
0.0
  0
LINE
  8
L-ZISSEN
  6
CONTINUOUS
 62
     7
 10
45.0
 20
292.8
 30
0.0
 11
155.0
 21
292.8
 31
0.0
  0
LINE
  8
L-ZISSEN
  6
CONTINUOUS
 62
     7
 10
155.0
 20
252.8
 30
0.0
 11
45.0
 21
252.8
 31
0.0
  0
LINE
  8
L-ZISSEN
  6
CONTINUOUS
 62
     7
 10
113.0
 20
69.0
 30
0.0
 11
87.0
 21
69.0
 31
0.0
  0
LINE
  8
L-ZISSEN
  6
CONTINUOUS
 62
     7
 10
90.5
 20
66.0
 30
0.0
 11
109.5
 21
66.0
 31
0.0
  0
LINE
  8
L-ZISSEN
  6
CONTINUOUS
 62
     7
 10
94.0
 20
59.0
 30
0.0
 11
106.0
 21
59.0
 31
0.0
  0
LINE
  8
L-ZISSEN
  6
CONTINUOUS
 62
     7
 10
155.0
 20
292.8
 30
0.0
 11
155.0
 21
252.8
 31
0.0
  0
LINE
  8
L-ZISSEN
 10
58.0
 20
347.0
 30
0.0
 11
58.0
 21
292.8
 31
0.0
  0
LINE
  8
L-ZISSEN
 10
142.0
 20
347.0
 30
0.0
 11
142.0
 21
292.8
 31
0.0
  0
LINE
  8
L-ZISSEN
 10
113.0
 20
69.0
 30
0.0
 11
113.0
 21
71.0
 31
0.0
  0
LINE
  8
L-ZISSEN
 10
115.5
 20
71.0
 30
0.0
 11
84.5
 21
71.0
 31
0.0
  0
LINE
  8
L-ZISSEN
 10
87.0
 20
69.0
 30
0.0
 11
87.0
 21
71.0
 31
0.0
  0
LINE
  8
L-ZISSEN
 10
113.0
 20
97.0
 30
0.0
 11
87.0
 21
97.0
 31
0.0
  0
ARC
  8
L-ZISSEN
 10
84.5
 20
97.0
 30
0.0
 40
26.0
 50
180.0
 51
270.0
  0
ARC
  8
L-ZISSEN
 10
115.5
 20
97.0
 30
0.0
 40
26.0
 50
270.0
 51
0.0
  0
LINE
  8
L-ZISSEN
 10
53.97093
 20
252.8
 30
0.0
 11
58.5
 21
97.0
 31
0.0
  0
LINE
  8
L-ZISSEN
 10
146.02907
 20
252.8
 30
0.0
 11
141.5
 21
97.0
 31
0.0
  0
LINE
  8
L-ZISSEN
 10
107.5
 20
112.0
 30
0.0
 11
92.5
 21
112.0
 31
0.0
  0
LINE
  8
L-ZISSEN
  6
CONTINUOUS
 62
     7
 10
92.5
 20
228.8
 30
0.0
 11
107.5
 21
228.8
 31
0.0
  0
LINE
  8
L-TYUSIN
  6
CENTER
 62
     1
 10
291.0
 20
505.0
 30
0.0
 11
291.0
 21
385.0
 31
0.0
  0
LINE
  8
L-ZISSEN
  6
CONTINUOUS
 62
     7
 10
345.0
 20
422.5
 30
0.0
 11
345.0
 21
467.5
 31
0.0
  0
LINE
  8
L-ZISSEN
  6
CONTINUOUS
 62
     7
 10
224.0
 20
422.5
 30
0.0
 11
224.0
 21
467.5
 31
0.0
  0
LINE
  8
L-ZISSEN
 10
345.0
 20
422.5
 30
0.0
 11
326.464771
 21
422.5
 31
0.0
  0
LINE
  8
L-ZISSEN
 10
345.0
 20
467.5
 30
0.0
 11
326.464771
 21
467.5
 31
0.0
  0
CIRCLE
  8
L-ZISSEN
 10
291.0
 20
445.0
 30
0.0
 40
42.0
  0
LINE
  8
L-ZISSEN
 10
255.535229
 20
467.5
 30
0.0
 11
224.0
 21
467.5
 31
0.0
  0
LINE
  8
L-ZISSEN
 10
255.535229
 20
422.5
 30
0.0
 11
224.0
 21
422.5
 31
0.0
  0
ARC
  8
L-ZISSEN
 10
291.0
 20
445.0
 30
0.0
 40
55.0
 50
204.14774
 51
335.85226
  0
ARC
  8
L-ZISSEN
 10
291.0
 20
445.0
 30
0.0
 40
55.0
 50
24.14774
 51
155.85226
  0
LINE
  8
L-TYUSIN
 10
219.0
 20
445.0
 30
0.0
 11
350.0
 21
445.0
 31
0.0
  0
LINE
  8
L-TYUSIN
  6
CENTER
 62
     1
 10
291.0
 20
352.0
 30
0.0
 11
291.0
 21
54.0
 31
0.0
  0
LINE
  8
L-ZISSEN
  6
CONTINUOUS
 62
     7
 10
224.0
 20
337.8
 30
0.0
 11
224.0
 21
292.8
 31
0.0
  0
LINE
  8
L-ZISSEN
  6
CONTINUOUS
 62
     7
 10
249.0
 20
347.0
 30
0.0
 11
333.0
 21
347.0
 31
0.0
  0
LINE
  8
L-ZISSEN
  6
CONTINUOUS
 62
     7
 10
345.0
 20
337.8
 30
0.0
 11
345.0
 21
292.8
 31
0.0
  0
LINE
  8
L-ZISSEN
  6
CONTINUOUS
 62
     7
 10
255.535229
 20
337.8
 30
0.0
 11
224.0
 21
337.8
 31
0.0
  0
LINE
  8
L-ZISSEN
  6
CONTINUOUS
 62
     7
 10
326.464771
 20
337.8
 30
0.0
 11
345.0
 21
337.8
 31
0.0
  0
LINE
  8
L-ZISSEN
  6
CONTINUOUS
 62
     7
 10
346.0
 20
292.8
 30
0.0
 11
224.0
 21
292.8
 31
0.0
  0
LINE
  8
L-ZISSEN
  6
CONTINUOUS
 62
     7
 10
236.0
 20
252.8
 30
0.0
 11
346.0
 21
252.8
 31
0.0
  0
LINE
  8
L-ZISSEN
  6
CONTINUOUS
 62
     7
 10
278.0
 20
69.0
 30
0.0
 11
304.0
 21
69.0
 31
0.0
  0
LINE
  8
L-ZISSEN
  6
CONTINUOUS
 62
     7
 10
301.25
 20
66.0
 30
0.0
 11
280.75
 21
66.0
 31
0.0
  0
LINE
  8
L-ZISSEN
  6
CONTINUOUS
 62
     7
 10
298.25
 20
59.0
 30
0.0
 11
283.75
 21
59.0
 31
0.0
  0
LINE
  8
L-ZISSEN
  6
CONTINUOUS
 62
     7
 10
280.75
 20
66.0
 30
0.0
 11
280.75
 21
69.0
 31
0.0
  0
LINE
  8
L-ZISSEN
  6
CONTINUOUS
 62
     7
 10
301.25
 20
66.0
 30
0.0
 11
301.25
 21
69.0
 31
0.0
  0
LINE
  8
L-ZISSEN
  6
CONTINUOUS
 62
     7
 10
245.232558
 20
243.8
 30
0.0
 11
234.5
 21
243.8
 31
0.0
  0
LINE
  8
L-ZISSEN
  6
CONTINUOUS
 62
     7
 10
235.0
 20
292.8
 30
0.0
 11
235.0
 21
252.8
 31
0.0
  0
LINE
  8
L-ZISSEN
 10
333.0
 20
347.0
 30
0.0
 11
333.0
 21
337.8
 31
0.0
  0
LINE
  8
L-ZISSEN
 10
249.0
 20
347.0
 30
0.0
 11
249.0
 21
337.8
 31
0.0
  0
LINE
  8
L-ZISSEN
 10
283.75
 20
59.0
 30
0.0
 11
283.75
 21
66.0
 31
0.0
  0
LINE
  8
L-ZISSEN
 10
298.25
 20
59.0
 30
0.0
 11
298.25
 21
66.0
 31
0.0
  0
LINE
  8
L-ZISSEN
 10
278.0
 20
69.0
 30
0.0
 11
278.0
 21
71.0
 31
0.0
  0
LINE
  8
L-ZISSEN
 10
275.5
 20
71.0
 30
0.0
 11
306.5
 21
71.0
 31
0.0
  0
LINE
  8
L-ZISSEN
 10
304.0
 20
69.0
 30
0.0
 11
304.0
 21
71.0
 31
0.0
  0
LINE
  8
L-ZISSEN
 10
234.5
 20
97.0
 30
0.0
 11
249.5
 21
97.0
 31
0.0
  0
ARC
  8
L-ZISSEN
 10
306.5
 20
97.0
 30
0.0
 40
26.0
 50
270.0
 51
0.0
  0
ARC
  8
L-ZISSEN
 10
275.5
 20
97.0
 30
0.0
 40
26.0
 50
180.0
 51
270.0
  0
LINE
  8
L-ZISSEN
 10
337.02907
 20
252.8
 30
0.0
 11
332.5
 21
97.0
 31
0.0
  0
LINE
  8
L-ZISSEN
 10
244.97093
 20
252.8
 30
0.0
 11
249.5
 21
97.0
 31
0.0
  0
LINE
  8
L-ZISSEN
 10
238.5
 20
97.0
 30
0.0
 11
238.5
 21
243.8
 31
0.0
  0
LINE
  8
L-ZISSEN
 10
228.5
 20
112.0
 30
0.0
 11
228.5
 21
228.8
 31
0.0
  0
LINE
  8
L-ZISSEN
 10
228.5
 20
112.0
 30
0.0
 11
238.5
 21
112.0
 31
0.0
  0
LINE
  8
L-ZISSEN
  6
CONTINUOUS
 62
     7
 10
238.5
 20
228.8
 30
0.0
 11
228.5
 21
228.8
 31
0.0
  0
LINE
  8
L-ZISSEN
 10
234.5
 20
97.0
 30
0.0
 11
234.5
 21
112.0
 31
0.0
  0
LINE
  8
L-ZISSEN
 10
234.5
 20
228.8
 30
0.0
 11
234.5
 21
243.8
 31
0.0
  0
LINE
  8
L-TYUSIN
 10
219.0
 20
315.0
 30
0.0
 11
350.0
 21
315.0
 31
0.0
  0
LINE
  8
L-TYUSIN
 10
100.0
 20
352.0
 30
0.0
 11
100.0
 21
54.0
 31
0.0
  0
LINE
  8
L-TYUSIN
 10
53.0
 20
315.0
 30
0.0
 11
147.0
 21
315.0
 31
0.0
  0
TEXT
  8
L-ZISSEN
 10
60.0
 20
510.0
 30
0.0
 40
4.5
  1
MODEL No. : F17- 00-A*DB
  0
LINE
  8
L-TYUSIN
 10
527.0
 20
315.0
 30
0.0
 11
433.0
 21
315.0
 31
0.0
  0
LINE
  8
L-TYUSIN
 10
480.0
 20
352.0
 30
0.0
 11
480.0
 21
54.0
 31
0.0
  0
LINE
  8
L-ZISSEN
 10
433.97093
 20
252.8
 30
0.0
 11
438.5
 21
97.0
 31
0.0
  0
LINE
  8
L-ZISSEN
 10
526.02907
 20
252.8
 30
0.0
 11
521.5
 21
97.0
 31
0.0
  0
ARC
  8
L-ZISSEN
 10
464.5
 20
97.0
 30
0.0
 40
26.0
 50
180.0
 51
270.0
  0
ARC
  8
L-ZISSEN
 10
495.5
 20
97.0
 30
0.0
 40
26.0
 50
270.0
 51
0.0
  0
LINE
  8
L-ZISSEN
 10
493.0
 20
69.0
 30
0.0
 11
493.0
 21
71.0
 31
0.0
  0
LINE
  8
L-ZISSEN
 10
464.5
 20
71.0
 30
0.0
 11
495.5
 21
71.0
 31
0.0
  0
LINE
  8
L-ZISSEN
 10
467.0
 20
69.0
 30
0.0
 11
467.0
 21
71.0
 31
0.0
  0
LINE
  8
L-ZISSEN
 10
487.25
 20
59.0
 30
0.0
 11
487.25
 21
66.0
 31
0.0
  0
LINE
  8
L-ZISSEN
 10
472.75
 20
59.0
 30
0.0
 11
472.75
 21
66.0
 31
0.0
  0
LINE
  8
L-ZISSEN
 10
438.0
 20
347.0
 30
0.0
 11
438.0
 21
292.8
 31
0.0
  0
LINE
  8
L-ZISSEN
 10
522.0
 20
347.0
 30
0.0
 11
522.0
 21
292.8
 31
0.0
  0
LINE
  8
L-ZISSEN
  6
CONTINUOUS
 62
     7
 10
425.0
 20
292.8
 30
0.0
 11
425.0
 21
252.8
 31
0.0
  0
LINE
  8
L-ZISSEN
  6
CONTINUOUS
 62
     7
 10
490.25
 20
66.0
 30
0.0
 11
490.25
 21
69.0
 31
0.0
  0
LINE
  8
L-ZISSEN
  6
CONTINUOUS
 62
     7
 10
469.75
 20
66.0
 30
0.0
 11
469.75
 21
69.0
 31
0.0
  0
LINE
  8
L-ZISSEN
  6
CONTINUOUS
 62
     7
 10
487.25
 20
59.0
 30
0.0
 11
472.75
 21
59.0
 31
0.0
  0
LINE
  8
L-ZISSEN
  6
CONTINUOUS
 62
     7
 10
490.25
 20
66.0
 30
0.0
 11
469.75
 21
66.0
 31
0.0
  0
LINE
  8
L-ZISSEN
  6
CONTINUOUS
 62
     7
 10
467.0
 20
69.0
 30
0.0
 11
493.0
 21
69.0
 31
0.0
  0
LINE
  8
L-ZISSEN
  6
CONTINUOUS
 62
     7
 10
425.0
 20
252.8
 30
0.0
 11
535.0
 21
252.8
 31
0.0
  0
LINE
  8
L-ZISSEN
  6
CONTINUOUS
 62
     7
 10
535.0
 20
292.8
 30
0.0
 11
425.0
 21
292.8
 31
0.0
  0
LINE
  8
L-ZISSEN
  6
CONTINUOUS
 62
     7
 10
535.0
 20
292.8
 30
0.0
 11
535.0
 21
252.8
 31
0.0
  0
LINE
  8
L-ZISSEN
  6
CONTINUOUS
 62
     7
 10
438.0
 20
347.0
 30
0.0
 11
522.0
 21
347.0
 31
0.0
  0
LINE
  8
L-ZISSEN
 10
457.5
 20
337.8
 30
0.0
 11
457.5
 21
292.8
 31
0.0
  0
LINE
  8
L-ZISSEN
 10
502.5
 20
337.8
 30
0.0
 11
502.5
 21
292.8
 31
0.0
  0
LINE
  8
L-ZISSEN
  6
CONTINUOUS
 62
     7
 10
502.5
 20
337.8
 30
0.0
 11
457.5
 21
337.8
 31
0.0
  0
LINE
  8
L-ZISSEN
  6
CONTINUOUS
 62
     7
 10
346.0
 20
292.8
 30
0.0
 11
346.0
 21
252.8
 31
0.0
  0
CIRCLE
  8
L-ZISSEN
 10
480.0
 20
315.0
 30
0.0
 40
12.0585
  0
CIRCLE
  8
L-ZISSEN
 10
100.0
 20
315.0
 30
0.0
 40
12.0585
  0
SOLID
  8
L-ZISSEN
 10
222.178787
 20
314.108768
 30
0.0
 11
222.566279
 21
313.566279
 31
0.0
 12
224.0
 22
315.0
 32
0.0
 13
224.0
 23
315.0
 33
0.0
  0
LINE
  8
L-ZISSEN
 10
222.372533
 20
313.837524
 30
0.0
 11
210.0
 21
305.0
 31
0.0
  0
LINE
  8
L-ZISSEN
 10
210.0
 20
305.0
 30
0.0
 11
208.0
 21
305.0
 31
0.0
  0
TEXT
  8
L-ZISSEN
 10
200.0
 20
302.75
 30
0.0
 40
4.5
  1
IN
  0
TEXT
  8
L-ZISSEN
 10
185.0
 20
295.0
 30
0.0
 40
4.5
  1
Rc 3/4
  0
TEXT
  8
L-ZISSEN
 10
185.0
 20
285.0
 30
0.0
 40
4.5
  1
Rc 1
  0
TEXT
  8
L-ZISSEN
 10
124.0
 20
513.0
 30
0.0
 40
4.5
  1
6
  0
TEXT
  8
L-ZISSEN
 10
124.0
 20
507.0
 30
0.0
 40
4.5
  1
8
  0
LINE
  8
L-ZISSEN
 10
634.0
 20
45.0
 30
0.0
 11
666.0
 21
45.0
 31
0.0
  0
LINE
  8
L-ZISSEN
 10
642.25
 20
64.0
 30
0.0
 11
642.25
 21
61.0
 31
0.0
  0
LINE
  8
L-ZISSEN
 10
642.25
 20
61.0
 30
0.0
 11
657.75
 21
61.0
 31
0.0
  0
LINE
  8
L-ZISSEN
 10
657.75
 20
61.0
 30
0.0
 11
657.75
 21
64.0
 31
0.0
  0
LINE
  8
L-ZISSEN
 10
643.649147
 20
59.0
 30
0.0
 11
656.350853
 21
59.0
 31
0.0
  0
LINE
  8
L-ZISSEN
 10
645.0
 20
61.0
 30
0.0
 11
645.0
 21
59.0
 31
0.0
  0
LINE
  8
L-ZISSEN
 10
655.0
 20
61.0
 30
0.0
 11
655.0
 21
59.0
 31
0.0
  0
LINE
  8
L-ZISSEN
 10
643.649147
 20
59.0
 30
0.0
 11
643.649147
 21
54.0
 31
0.0
  0
LINE
  8
L-ZISSEN
 10
643.649147
 20
54.0
 30
0.0
 11
656.350853
 21
54.0
 31
0.0
  0
LINE
  8
L-ZISSEN
 10
656.350853
 20
59.0
 30
0.0
 11
656.350853
 21
54.0
 31
0.0
  0
LINE
  8
L-ZISSEN
 10
641.0
 20
46.6
 30
0.0
 11
659.0
 21
46.6
 31
0.0
  0
LINE
  8
L-ZISSEN
 10
655.273519
 20
46.6
 30
0.0
 11
655.273519
 21
45.0
 31
0.0
  0
LINE
  8
L-ZISSEN
 10
653.75
 20
54.0
 30
0.0
 11
653.75
 21
46.6
 31
0.0
  0
LINE
  8
L-ZISSEN
 10
659.0
 20
50.0
 30
0.0
 11
666.0
 21
50.0
 31
0.0
  0
LINE
  8
L-ZISSEN
 10
666.0
 20
45.0
 30
0.0
 11
666.0
 21
50.0
 31
0.0
  0
LINE
  8
L-ZISSEN
 10
659.0
 20
46.6
 30
0.0
 11
659.0
 21
50.0
 31
0.0
  0
LINE
  8
L-ZISSEN
 10
641.0
 20
46.6
 30
0.0
 11
641.0
 21
50.0
 31
0.0
  0
LINE
  8
L-ZISSEN
 10
644.726481
 20
46.6
 30
0.0
 11
644.726481
 21
45.0
 31
0.0
  0
LINE
  8
L-ZISSEN
 10
641.0
 20
50.0
 30
0.0
 11
634.0
 21
50.0
 31
0.0
  0
LINE
  8
L-ZISSEN
 10
634.0
 20
45.0
 30
0.0
 11
634.0
 21
50.0
 31
0.0
  0
LINE
  8
L-ZISSEN
 10
646.25
 20
54.0
 30
0.0
 11
646.25
 21
46.6
 31
0.0
  0
LINE
  8
L-ZISSEN
 10
688.5
 20
45.0
 30
0.0
 11
701.5
 21
45.0
 31
0.0
  0
LINE
  8
L-ZISSEN
 10
688.5
 20
46.6
 30
0.0
 11
690.25
 21
46.6
 31
0.0
  0
LINE
  8
L-ZISSEN
 10
691.25
 20
54.0
 30
0.0
 11
691.25
 21
50.0
 31
0.0
  0
LINE
  8
L-ZISSEN
 10
698.75
 20
54.0
 30
0.0
 11
698.75
 21
50.0
 31
0.0
  0
LINE
  8
L-ZISSEN
 10
698.15
 20
50.0
 30
0.0
 11
699.75
 21
50.0
 31
0.0
  0
LINE
  8
L-ZISSEN
 10
689.5
 20
54.0
 30
0.0
 11
700.5
 21
54.0
 31
0.0
  0
LINE
  8
L-ZISSEN
 10
700.0
 20
61.0
 30
0.0
 11
700.0
 21
59.0
 31
0.0
  0
LINE
  8
L-ZISSEN
 10
690.0
 20
61.0
 30
0.0
 11
690.0
 21
59.0
 31
0.0
  0
LINE
  8
L-ZISSEN
 10
689.5
 20
59.0
 30
0.0
 11
700.5
 21
59.0
 31
0.0
  0
LINE
  8
L-ZISSEN
 10
702.75
 20
61.0
 30
0.0
 11
702.75
 21
64.0
 31
0.0
  0
LINE
  8
L-ZISSEN
 10
687.25
 20
61.0
 30
0.0
 11
702.75
 21
61.0
 31
0.0
  0
LINE
  8
L-ZISSEN
 10
687.25
 20
64.0
 30
0.0
 11
687.25
 21
61.0
 31
0.0
  0
LINE
  8
L-ZISSEN
 10
688.5
 20
45.0
 30
0.0
 11
688.5
 21
46.6
 31
0.0
  0
LINE
  8
L-ZISSEN
 10
701.5
 20
45.0
 30
0.0
 11
701.5
 21
46.6
 31
0.0
  0
LINE
  8
L-ZISSEN
 10
699.75
 20
45.0
 30
0.0
 11
699.75
 21
50.0
 31
0.0
  0
LINE
  8
L-ZISSEN
 10
698.15
 20
46.6
 30
0.0
 11
698.15
 21
50.0
 31
0.0
  0
LINE
  8
L-ZISSEN
 10
699.75
 20
46.6
 30
0.0
 11
701.5
 21
46.6
 31
0.0
  0
LINE
  8
L-ZISSEN
 10
690.25
 20
45.0
 30
0.0
 11
690.25
 21
50.0
 31
0.0
  0
LINE
  8
L-ZISSEN
 10
691.85
 20
46.6
 30
0.0
 11
691.85
 21
50.0
 31
0.0
  0
LINE
  8
L-ZISSEN
 10
691.85
 20
50.0
 30
0.0
 11
690.25
 21
50.0
 31
0.0
  0
LINE
  8
L-ZISSEN
 10
691.85
 20
46.6
 30
0.0
 11
698.15
 21
46.6
 31
0.0
  0
LINE
  8
L-ZISSEN
 10
700.5
 20
59.0
 30
0.0
 11
700.5
 21
54.0
 31
0.0
  0
LINE
  8
L-ZISSEN
 10
689.5
 20
59.0
 30
0.0
 11
689.5
 21
54.0
 31
0.0
  0
LINE
  8
L-ZISSEN
 10
109.5
 20
66.0
 30
0.0
 11
109.5
 21
69.0
 31
0.0
  0
LINE
  8
L-ZISSEN
 10
90.5
 20
69.0
 30
0.0
 11
90.5
 21
66.0
 31
0.0
  0
LINE
  8
L-ZISSEN
 10
94.0
 20
59.0
 30
0.0
 11
94.0
 21
66.0
 31
0.0
  0
LINE
  8
L-ZISSEN
 10
106.0
 20
59.0
 30
0.0
 11
106.0
 21
66.0
 31
0.0
  0
SOLID
  8
L-ZISSEN
 10
481.234671
 20
67.391678
 30
0.0
 11
481.68955
 21
67.879049
 31
0.0
 12
480.0
 22
69.0
 32
0.0
 13
480.0
 23
69.0
 33
0.0
  0
LINE
  8
L-ZISSEN
 10
481.462111
 20
67.635363
 30
0.0
 11
495.0
 21
55.0
 31
0.0
  0
LINE
  8
L-ZISSEN
 10
495.0
 20
55.0
 30
0.0
 11
497.0
 21
55.0
 31
0.0
  0
TEXT
  8
L-ZISSEN
 10
499.0
 20
52.75
 30
0.0
 40
4.5
  1
P.P
  0
SOLID
  8
L-ZISSEN
 10
292.178511
 20
67.350084
 30
0.0
 11
292.649916
 21
67.821489
 31
0.0
 12
291.0
 22
69.0
 32
0.0
 13
291.0
 23
69.0
 33
0.0
  0
LINE
  8
L-ZISSEN
 10
292.414214
 20
67.585786
 30
0.0
 11
305.0
 21
55.0
 31
0.0
  0
LINE
  8
L-ZISSEN
 10
305.0
 20
55.0
 30
0.0
 11
307.0
 21
55.0
 31
0.0
  0
TEXT
  8
L-ZISSEN
 10
309.0
 20
52.75
 30
0.0
 40
4.5
  1
P.P
  0
SOLID
  8
L-ZISSEN
 10
651.591992
 20
65.255656
 30
0.0
 11
651.098699
 21
65.704104
 31
0.0
 12
650.0
 22
64.0
 32
0.0
 13
650.0
 23
64.0
 33
0.0
  0
LINE
  8
L-ZISSEN
 10
651.345346
 20
65.47988
 30
0.0
 11
660.0
 21
75.0
 31
0.0
  0
LINE
  8
L-ZISSEN
 10
660.0
 20
75.0
 30
0.0
 11
662.0
 21
75.0
 31
0.0
  0
TEXT
  8
L-ZISSEN
 10
664.0
 20
72.75
 30
0.0
 40
4.5
  1
P.P
  0
SOLID
  8
L-ZISSEN
 10
696.591992
 20
65.255656
 30
0.0
 11
696.098699
 21
65.704104
 31
0.0
 12
695.0
 22
64.0
 32
0.0
 13
695.0
 23
64.0
 33
0.0
  0
LINE
  8
L-ZISSEN
 10
696.345346
 20
65.47988
 30
0.0
 11
705.0
 21
75.0
 31
0.0
  0
LINE
  8
L-ZISSEN
 10
705.0
 20
75.0
 30
0.0
 11
707.0
 21
75.0
 31
0.0
  0
TEXT
  8
L-ZISSEN
 10
709.0
 20
72.75
 30
0.0
 40
4.5
  1
P.P
  0
TEXT
  8
L-ZISSEN
 10
620.0
 20
110.0
 30
0.0
 40
4.5
  1
MANUAL DRAIN
  0
TEXT
  8
L-ZISSEN
 10
620.0
 20
100.0
 30
0.0
 40
4.5
  1
MODEL No. : F17-*00-M*DB
  0
LINE
  8
L-ZISSEN
 10
802.0
 20
756.0
 30
0.0
 11
777.0
 21
756.0
 31
0.0
  0
LINE
  8
L-ZISSEN
 10
802.0
 20
626.0
 30
0.0
 11
777.0
 21
626.0
 31
0.0
  0
LINE
  8
L-ZISSEN
 10
777.0
 20
626.0
 30
0.0
 11
777.0
 21
756.0
 31
0.0
  0
LINE
  8
L-ZISSEN
 10
802.0
 20
626.0
 30
0.0
 11
802.0
 21
756.0
 31
0.0
  0
LINE
  8
L-TYUSIN
  6
CENTER
 62
     1
 10
789.5
 20
761.0
 30
0.0
 11
789.5
 21
751.0
 31
0.0
  0
CIRCLE
  8
L-ZISSEN
 10
789.5
 20
696.5
 30
0.0
 40
3.5
  0
LINE
  8
L-ZISSEN
 10
786.035898
 20
702.5
 30
0.0
 11
782.571797
 21
696.5
 31
0.0
  0
LINE
  8
L-ZISSEN
 10
782.571797
 20
696.5
 30
0.0
 11
786.035898
 21
690.5
 31
0.0
  0
LINE
  8
L-ZISSEN
 10
786.035898
 20
690.5
 30
0.0
 11
792.964102
 21
690.5
 31
0.0
  0
LINE
  8
L-ZISSEN
 10
792.964102
 20
690.5
 30
0.0
 11
796.428203
 21
696.5
 31
0.0
  0
LINE
  8
L-ZISSEN
 10
796.428203
 20
696.5
 30
0.0
 11
792.964102
 21
702.5
 31
0.0
  0
LINE
  8
L-ZISSEN
 10
792.964102
 20
702.5
 30
0.0
 11
786.035898
 21
702.5
 31
0.0
  0
LINE
  8
L-ZISSEN
 10
781.5
 20
707.0
 30
0.0
 11
781.5
 21
643.0
 31
0.0
  0
LINE
  8
L-ZISSEN
 10
797.5
 20
707.0
 30
0.0
 11
797.5
 21
643.0
 31
0.0
  0
LINE
  8
L-ZISSEN
 10
781.5
 20
707.0
 30
0.0
 11
797.5
 21
707.0
 31
0.0
  0
LINE
  8
L-ZISSEN
 10
781.5
 20
643.0
 30
0.0
 11
797.5
 21
643.0
 31
0.0
  0
LINE
  8
L-ZISSEN
 10
792.964102
 20
647.5
 30
0.0
 11
786.035898
 21
647.5
 31
0.0
  0
LINE
  8
L-ZISSEN
 10
796.428203
 20
653.5
 30
0.0
 11
792.964102
 21
647.5
 31
0.0
  0
LINE
  8
L-ZISSEN
 10
792.964102
 20
659.5
 30
0.0
 11
796.428203
 21
653.5
 31
0.0
  0
LINE
  8
L-ZISSEN
 10
786.035898
 20
659.5
 30
0.0
 11
792.964102
 21
659.5
 31
0.0
  0
LINE
  8
L-ZISSEN
 10
782.571797
 20
653.5
 30
0.0
 11
786.035898
 21
659.5
 31
0.0
  0
LINE
  8
L-ZISSEN
 10
786.035898
 20
647.5
 30
0.0
 11
782.571797
 21
653.5
 31
0.0
  0
CIRCLE
  8
L-ZISSEN
 10
789.5
 20
653.5
 30
0.0
 40
3.5
  0
CIRCLE
  8
L-ZISSEN
 10
639.5
 20
653.5
 30
0.0
 40
3.5
  0
LINE
  8
L-ZISSEN
 10
636.035898
 20
647.5
 30
0.0
 11
632.571797
 21
653.5
 31
0.0
  0
LINE
  8
L-ZISSEN
 10
632.571797
 20
653.5
 30
0.0
 11
636.035898
 21
659.5
 31
0.0
  0
LINE
  8
L-ZISSEN
 10
636.035898
 20
659.5
 30
0.0
 11
642.964102
 21
659.5
 31
0.0
  0
LINE
  8
L-ZISSEN
 10
642.964102
 20
659.5
 30
0.0
 11
646.428203
 21
653.5
 31
0.0
  0
LINE
  8
L-ZISSEN
 10
646.428203
 20
653.5
 30
0.0
 11
642.964102
 21
647.5
 31
0.0
  0
LINE
  8
L-ZISSEN
 10
642.964102
 20
647.5
 30
0.0
 11
636.035898
 21
647.5
 31
0.0
  0
LINE
  8
L-ZISSEN
 10
631.5
 20
643.0
 30
0.0
 11
647.5
 21
643.0
 31
0.0
  0
LINE
  8
L-ZISSEN
 10
631.5
 20
707.0
 30
0.0
 11
647.5
 21
707.0
 31
0.0
  0
LINE
  8
L-ZISSEN
 10
647.5
 20
707.0
 30
0.0
 11
647.5
 21
643.0
 31
0.0
  0
LINE
  8
L-ZISSEN
 10
631.5
 20
707.0
 30
0.0
 11
631.5
 21
643.0
 31
0.0
  0
LINE
  8
L-ZISSEN
 10
642.964102
 20
702.5
 30
0.0
 11
636.035898
 21
702.5
 31
0.0
  0
LINE
  8
L-ZISSEN
 10
646.428203
 20
696.5
 30
0.0
 11
642.964102
 21
702.5
 31
0.0
  0
LINE
  8
L-ZISSEN
 10
642.964102
 20
690.5
 30
0.0
 11
646.428203
 21
696.5
 31
0.0
  0
LINE
  8
L-ZISSEN
 10
636.035898
 20
690.5
 30
0.0
 11
642.964102
 21
690.5
 31
0.0
  0
LINE
  8
L-ZISSEN
 10
632.571797
 20
696.5
 30
0.0
 11
636.035898
 21
690.5
 31
0.0
  0
LINE
  8
L-ZISSEN
 10
636.035898
 20
702.5
 30
0.0
 11
632.571797
 21
696.5
 31
0.0
  0
CIRCLE
  8
L-ZISSEN
 10
639.5
 20
696.5
 30
0.0
 40
3.5
  0
LINE
  8
L-ZISSEN
 10
652.0
 20
626.0
 30
0.0
 11
652.0
 21
756.0
 31
0.0
  0
LINE
  8
L-ZISSEN
 10
627.0
 20
626.0
 30
0.0
 11
627.0
 21
756.0
 31
0.0
  0
LINE
  8
L-ZISSEN
 10
652.0
 20
756.0
 30
0.0
 11
627.0
 21
756.0
 31
0.0
  0
LINE
  8
L-ZISSEN
 10
652.0
 20
626.0
 30
0.0
 11
627.0
 21
626.0
 31
0.0
  0
LINE
  8
L-TYUSIN
  6
CENTER
 62
     1
 10
639.5
 20
761.0
 30
0.0
 11
639.5
 21
751.0
 31
0.0
  0
LINE
  8
L-ZISSEN
 10
777.0
 20
487.6
 30
0.0
 11
777.0
 21
563.6
 31
0.0
  0
LINE
  8
L-ZISSEN
 10
802.0
 20
487.6
 30
0.0
 11
802.0
 21
563.6
 31
0.0
  0
LINE
  8
L-ZISSEN
 10
777.0
 20
558.6
 30
0.0
 11
802.0
 21
558.6
 31
0.0
  0
LINE
  8
L-ZISSEN
 10
777.0
 20
563.6
 30
0.0
 11
802.0
 21
563.6
 31
0.0
  0
LINE
  8
L-ZISSEN
 10
777.0
 20
487.6
 30
0.0
 11
802.0
 21
487.6
 31
0.0
  0
LINE
  8
L-TYUSIN
 10
800.0
 20
504.6
 30
0.0
 11
779.0
 21
504.6
 31
0.0
  0
LINE
  8
L-TYUSIN
 10
789.5
 20
494.1
 30
0.0
 11
789.5
 21
515.1
 31
0.0
  0
CIRCLE
  8
L-ZISSEN
 10
789.5
 20
504.6
 30
0.0
 40
4.3
  0
ARC
  8
L-ZISSEN
 10
789.5
 20
547.6
 30
0.0
 40
4.3
 50
324.484016
 51
35.515984
  0
LINE
  8
L-TYUSIN
 10
800.0
 20
547.6
 30
0.0
 11
779.0
 21
547.6
 31
0.0
  0
LINE
  8
L-TYUSIN
 10
789.5
 20
537.1
 30
0.0
 11
789.5
 21
558.1
 31
0.0
  0
LINE
  8
L-ZISSEN
 10
786.0
 20
596.4
 30
0.0
 11
786.0
 21
572.6
 31
0.0
  0
LINE
  8
L-ZISSEN
 10
793.0
 20
596.4
 30
0.0
 11
793.0
 21
572.6
 31
0.0
  0
ARC
  8
L-ZISSEN
 10
789.5
 20
527.9
 30
0.0
 40
3.5
 50
180.0
 51
0.0
  0
ARC
  8
L-ZISSEN
 10
789.5
 20
547.6
 30
0.0
 40
4.3
 50
144.484016
 51
215.515984
  0
LINE
  8
L-ZISSEN
 10
793.0
 20
596.4
 30
0.0
 11
786.0
 21
596.4
 31
0.0
  0
LINE
  8
L-ZISSEN
 10
781.5
 20
565.6
 30
0.0
 11
797.5
 21
565.6
 31
0.0
  0
LINE
  8
L-ZISSEN
 10
781.5
 20
565.6
 30
0.0
 11
781.5
 21
563.6
 31
0.0
  0
LINE
  8
L-ZISSEN
 10
797.5
 20
565.6
 30
0.0
 11
797.5
 21
563.6
 31
0.0
  0
LINE
  8
L-ZISSEN
 10
782.571797
 20
572.6
 30
0.0
 11
796.428203
 21
572.6
 31
0.0
  0
LINE
  8
L-ZISSEN
 10
782.571797
 20
572.6
 30
0.0
 11
782.571797
 21
565.6
 31
0.0
  0
LINE
  8
L-ZISSEN
 10
796.428203
 20
572.6
 30
0.0
 11
796.428203
 21
565.6
 31
0.0
  0
LINE
  8
L-ZISSEN
 10
793.0
 20
558.6
 30
0.0
 11
793.0
 21
527.9
 31
0.0
  0
LINE
  8
L-ZISSEN
 10
786.0
 20
558.6
 30
0.0
 11
786.0
 21
527.9
 31
0.0
  0
LINE
  8
L-ZISSEN
 10
636.0
 20
558.6
 30
0.0
 11
636.0
 21
527.9
 31
0.0
  0
LINE
  8
L-ZISSEN
 10
643.0
 20
558.6
 30
0.0
 11
643.0
 21
527.9
 31
0.0
  0
LINE
  8
L-ZISSEN
 10
646.428203
 20
572.6
 30
0.0
 11
646.428203
 21
565.6
 31
0.0
  0
LINE
  8
L-ZISSEN
 10
632.571797
 20
572.6
 30
0.0
 11
632.571797
 21
565.6
 31
0.0
  0
LINE
  8
L-ZISSEN
 10
632.571797
 20
572.6
 30
0.0
 11
646.428203
 21
572.6
 31
0.0
  0
LINE
  8
L-ZISSEN
 10
647.5
 20
565.6
 30
0.0
 11
647.5
 21
563.6
 31
0.0
  0
LINE
  8
L-ZISSEN
 10
631.5
 20
565.6
 30
0.0
 11
631.5
 21
563.6
 31
0.0
  0
LINE
  8
L-ZISSEN
 10
631.5
 20
565.6
 30
0.0
 11
647.5
 21
565.6
 31
0.0
  0
LINE
  8
L-ZISSEN
 10
643.0
 20
596.4
 30
0.0
 11
636.0
 21
596.4
 31
0.0
  0
ARC
  8
L-ZISSEN
 10
639.5
 20
547.6
 30
0.0
 40
4.3
 50
144.484016
 51
215.515984
  0
ARC
  8
L-ZISSEN
 10
639.5
 20
527.9
 30
0.0
 40
3.5
 50
180.0
 51
0.0
  0
LINE
  8
L-ZISSEN
 10
643.0
 20
596.4
 30
0.0
 11
643.0
 21
572.6
 31
0.0
  0
LINE
  8
L-ZISSEN
 10
636.0
 20
596.4
 30
0.0
 11
636.0
 21
572.6
 31
0.0
  0
LINE
  8
L-TYUSIN
 10
639.5
 20
537.1
 30
0.0
 11
639.5
 21
558.1
 31
0.0
  0
LINE
  8
L-TYUSIN
 10
650.0
 20
547.6
 30
0.0
 11
629.0
 21
547.6
 31
0.0
  0
ARC
  8
L-ZISSEN
 10
639.5
 20
547.6
 30
0.0
 40
4.3
 50
324.484016
 51
35.515984
  0
CIRCLE
  8
L-ZISSEN
 10
639.5
 20
504.6
 30
0.0
 40
4.3
  0
LINE
  8
L-TYUSIN
 10
639.5
 20
494.1
 30
0.0
 11
639.5
 21
515.1
 31
0.0
  0
LINE
  8
L-TYUSIN
 10
650.0
 20
504.6
 30
0.0
 11
629.0
 21
504.6
 31
0.0
  0
LINE
  8
L-ZISSEN
 10
627.0
 20
487.6
 30
0.0
 11
652.0
 21
487.6
 31
0.0
  0
LINE
  8
L-ZISSEN
 10
627.0
 20
563.6
 30
0.0
 11
652.0
 21
563.6
 31
0.0
  0
LINE
  8
L-ZISSEN
 10
627.0
 20
558.6
 30
0.0
 11
652.0
 21
558.6
 31
0.0
  0
LINE
  8
L-ZISSEN
 10
652.0
 20
487.6
 30
0.0
 11
652.0
 21
563.6
 31
0.0
  0
LINE
  8
L-ZISSEN
 10
627.0
 20
487.6
 30
0.0
 11
627.0
 21
563.6
 31
0.0
  0
LINE
  8
L-ZISSEN
 10
991.0
 20
563.6
 30
0.0
 11
991.0
 21
487.6
 31
0.0
  0
LINE
  8
L-ZISSEN
 10
986.0
 20
487.6
 30
0.0
 11
991.0
 21
487.6
 31
0.0
  0
LINE
  8
L-ZISSEN
 10
986.0
 20
558.6
 30
0.0
 11
986.0
 21
487.6
 31
0.0
  0
LINE
  8
L-ZISSEN
 10
861.0
 20
563.6
 30
0.0
 11
991.0
 21
563.6
 31
0.0
  0
LINE
  8
L-ZISSEN
 10
861.0
 20
558.6
 30
0.0
 11
986.0
 21
558.6
 31
0.0
  0
LINE
  8
L-ZISSEN
 10
861.0
 20
563.6
 30
0.0
 11
861.0
 21
558.6
 31
0.0
  0
LINE
  8
L-ZISSEN
 10
882.5
 20
572.6
 30
0.0
 11
894.5
 21
572.6
 31
0.0
  0
LINE
  8
L-ZISSEN
 10
892.0
 20
596.4
 30
0.0
 11
885.0
 21
596.4
 31
0.0
  0
LINE
  8
L-ZISSEN
 10
892.0
 20
596.4
 30
0.0
 11
892.0
 21
572.6
 31
0.0
  0
LINE
  8
L-ZISSEN
 10
885.0
 20
596.4
 30
0.0
 11
885.0
 21
572.6
 31
0.0
  0
LINE
  8
L-ZISSEN
 10
878.0
 20
565.6
 30
0.0
 11
942.0
 21
565.6
 31
0.0
  0
LINE
  8
L-ZISSEN
 10
878.0
 20
565.6
 30
0.0
 11
878.0
 21
563.6
 31
0.0
  0
LINE
  8
L-ZISSEN
 10
942.0
 20
565.6
 30
0.0
 11
942.0
 21
563.6
 31
0.0
  0
LINE
  8
L-ZISSEN
 10
882.5
 20
572.6
 30
0.0
 11
882.5
 21
565.6
 31
0.0
  0
LINE
  8
L-ZISSEN
 10
894.5
 20
572.6
 30
0.0
 11
894.5
 21
565.6
 31
0.0
  0
LINE
  8
L-ZISSEN
 10
937.5
 20
572.6
 30
0.0
 11
937.5
 21
565.6
 31
0.0
  0
LINE
  8
L-ZISSEN
 10
925.5
 20
572.6
 30
0.0
 11
925.5
 21
565.6
 31
0.0
  0
LINE
  8
L-ZISSEN
 10
935.0
 20
596.4
 30
0.0
 11
928.0
 21
596.4
 31
0.0
  0
LINE
  8
L-ZISSEN
 10
925.5
 20
572.6
 30
0.0
 11
937.5
 21
572.6
 31
0.0
  0
LINE
  8
L-ZISSEN
 10
935.0
 20
596.4
 30
0.0
 11
935.0
 21
572.6
 31
0.0
  0
LINE
  8
L-ZISSEN
 10
928.0
 20
596.4
 30
0.0
 11
928.0
 21
572.6
 31
0.0
  0
ARC
  8
L-ZISSEN
 10
910.0
 20
549.4
 30
0.0
 40
18.0
 50
180.0
 51
0.0
  0
ARC
  8
L-ZISSEN
 10
910.0
 20
549.4
 30
0.0
 40
25.0
 50
180.0
 51
0.0
  0
LINE
  8
L-ZISSEN
 10
885.0
 20
558.6
 30
0.0
 11
885.0
 21
549.4
 31
0.0
  0
LINE
  8
L-ZISSEN
 10
892.0
 20
558.6
 30
0.0
 11
892.0
 21
549.4
 31
0.0
  0
LINE
  8
L-ZISSEN
 10
928.0
 20
558.6
 30
0.0
 11
928.0
 21
549.4
 31
0.0
  0
LINE
  8
L-ZISSEN
 10
935.0
 20
558.6
 30
0.0
 11
935.0
 21
549.4
 31
0.0
  0
LINE
  8
L-TYUSIN
 10
996.0
 20
504.6
 30
0.0
 11
981.0
 21
504.6
 31
0.0
  0
LINE
  8
L-TYUSIN
 10
996.0
 20
547.6
 30
0.0
 11
981.0
 21
547.6
 31
0.0
  0
LINE
  8
L-TYUSIN
 10
996.0
 20
211.0
 30
0.0
 11
981.0
 21
211.0
 31
0.0
  0
LINE
  8
L-TYUSIN
 10
996.0
 20
168.0
 30
0.0
 11
981.0
 21
168.0
 31
0.0
  0
LINE
  8
L-ZISSEN
 10
934.99998
 20
222.0
 30
0.0
 11
934.99998
 21
206.0
 31
0.0
  0
LINE
  8
L-ZISSEN
 10
927.99998
 20
222.0
 30
0.0
 11
927.99998
 21
206.0
 31
0.0
  0
LINE
  8
L-ZISSEN
 10
891.99998
 20
222.0
 30
0.0
 11
891.99998
 21
206.0
 31
0.0
  0
LINE
  8
L-ZISSEN
 10
884.99998
 20
222.0
 30
0.0
 11
884.99998
 21
206.0
 31
0.0
  0
ARC
  8
L-ZISSEN
 10
909.99998
 20
206.0
 30
0.0
 40
25.0
 50
180.0
 51
0.0
  0
ARC
  8
L-ZISSEN
 10
909.99998
 20
206.0
 30
0.0
 40
18.0
 50
180.0
 51
0.0
  0
LINE
  8
L-ZISSEN
 10
927.99998
 20
253.0
 30
0.0
 11
927.99998
 21
236.0
 31
0.0
  0
LINE
  8
L-ZISSEN
 10
934.99998
 20
253.0
 30
0.0
 11
934.99998
 21
236.0
 31
0.0
  0
LINE
  8
L-ZISSEN
 10
925.5
 20
236.0
 30
0.0
 11
937.5
 21
236.0
 31
0.0
  0
LINE
  8
L-ZISSEN
 10
934.99998
 20
253.0
 30
0.0
 11
927.99998
 21
253.0
 31
0.0
  0
LINE
  8
L-ZISSEN
 10
925.5
 20
236.0
 30
0.0
 11
925.5
 21
229.0
 31
0.0
  0
LINE
  8
L-ZISSEN
 10
937.5
 20
236.0
 30
0.0
 11
937.5
 21
229.0
 31
0.0
  0
LINE
  8
L-ZISSEN
 10
894.5
 20
236.0
 30
0.0
 11
894.5
 21
229.0
 31
0.0
  0
LINE
  8
L-ZISSEN
 10
882.5
 20
236.0
 30
0.0
 11
882.5
 21
229.0
 31
0.0
  0
LINE
  8
L-ZISSEN
 10
942.0
 20
229.0
 30
0.0
 11
942.0
 21
227.0
 31
0.0
  0
LINE
  8
L-ZISSEN
 10
878.0
 20
229.0
 30
0.0
 11
878.0
 21
227.0
 31
0.0
  0
LINE
  8
L-ZISSEN
 10
878.0
 20
229.0
 30
0.0
 11
942.0
 21
229.0
 31
0.0
  0
LINE
  8
L-ZISSEN
 10
884.99998
 20
253.0
 30
0.0
 11
884.99998
 21
236.0
 31
0.0
  0
LINE
  8
L-ZISSEN
 10
891.99998
 20
253.0
 30
0.0
 11
891.99998
 21
236.0
 31
0.0
  0
LINE
  8
L-ZISSEN
 10
891.99998
 20
253.0
 30
0.0
 11
884.99998
 21
253.0
 31
0.0
  0
LINE
  8
L-ZISSEN
 10
882.5
 20
236.0
 30
0.0
 11
894.5
 21
236.0
 31
0.0
  0
LINE
  8
L-ZISSEN
 10
861.0
 20
227.0
 30
0.0
 11
861.0
 21
222.0
 31
0.0
  0
LINE
  8
L-ZISSEN
 10
861.0
 20
222.0
 30
0.0
 11
986.0
 21
222.0
 31
0.0
  0
LINE
  8
L-ZISSEN
 10
861.0
 20
227.0
 30
0.0
 11
991.0
 21
227.0
 31
0.0
  0
LINE
  8
L-ZISSEN
 10
986.0
 20
222.0
 30
0.0
 11
986.0
 21
151.0
 31
0.0
  0
LINE
  8
L-ZISSEN
 10
986.0
 20
151.0
 30
0.0
 11
991.0
 21
151.0
 31
0.0
  0
LINE
  8
L-ZISSEN
 10
991.0
 20
227.0
 30
0.0
 11
991.0
 21
151.0
 31
0.0
  0
LINE
  8
L-ZISSEN
 10
786.0
 20
222.0
 30
0.0
 11
786.0
 21
184.5
 31
0.0
  0
LINE
  8
L-ZISSEN
 10
793.0
 20
222.0
 30
0.0
 11
793.0
 21
184.5
 31
0.0
  0
LINE
  8
L-ZISSEN
 10
796.428203
 20
236.0
 30
0.0
 11
796.428203
 21
229.0
 31
0.0
  0
LINE
  8
L-ZISSEN
 10
782.571797
 20
236.0
 30
0.0
 11
782.571797
 21
229.0
 31
0.0
  0
LINE
  8
L-ZISSEN
 10
782.571797
 20
236.0
 30
0.0
 11
796.428203
 21
236.0
 31
0.0
  0
LINE
  8
L-ZISSEN
 10
797.5
 20
229.0
 30
0.0
 11
797.5
 21
227.0
 31
0.0
  0
LINE
  8
L-ZISSEN
 10
781.5
 20
229.0
 30
0.0
 11
781.5
 21
227.0
 31
0.0
  0
LINE
  8
L-ZISSEN
 10
781.5
 20
229.0
 30
0.0
 11
797.5
 21
229.0
 31
0.0
  0
LINE
  8
L-ZISSEN
 10
793.0
 20
253.0
 30
0.0
 11
786.0
 21
253.0
 31
0.0
  0
ARC
  8
L-ZISSEN
 10
789.5
 20
211.0
 30
0.0
 40
4.3
 50
144.484016
 51
215.515984
  0
ARC
  8
L-ZISSEN
 10
789.5
 20
184.5
 30
0.0
 40
3.5
 50
180.0
 51
0.0
  0
LINE
  8
L-ZISSEN
 10
793.0
 20
253.0
 30
0.0
 11
793.0
 21
236.0
 31
0.0
  0
LINE
  8
L-ZISSEN
 10
786.0
 20
253.0
 30
0.0
 11
786.0
 21
236.0
 31
0.0
  0
LINE
  8
L-TYUSIN
 10
789.5
 20
200.5
 30
0.0
 11
789.5
 21
221.5
 31
0.0
  0
LINE
  8
L-TYUSIN
 10
800.0
 20
211.0
 30
0.0
 11
779.0
 21
211.0
 31
0.0
  0
ARC
  8
L-ZISSEN
 10
789.5
 20
211.0
 30
0.0
 40
4.3
 50
324.484016
 51
35.515984
  0
CIRCLE
  8
L-ZISSEN
 10
789.5
 20
168.0
 30
0.0
 40
4.3
  0
LINE
  8
L-TYUSIN
 10
789.5
 20
157.5
 30
0.0
 11
789.5
 21
178.5
 31
0.0
  0
LINE
  8
L-TYUSIN
 10
800.0
 20
168.0
 30
0.0
 11
779.0
 21
168.0
 31
0.0
  0
LINE
  8
L-ZISSEN
 10
777.0
 20
151.0
 30
0.0
 11
802.0
 21
151.0
 31
0.0
  0
LINE
  8
L-ZISSEN
 10
777.0
 20
227.0
 30
0.0
 11
802.0
 21
227.0
 31
0.0
  0
LINE
  8
L-ZISSEN
 10
777.0
 20
222.0
 30
0.0
 11
802.0
 21
222.0
 31
0.0
  0
LINE
  8
L-ZISSEN
 10
802.0
 20
151.0
 30
0.0
 11
802.0
 21
227.0
 31
0.0
  0
LINE
  8
L-ZISSEN
 10
777.0
 20
151.0
 30
0.0
 11
777.0
 21
227.0
 31
0.0
  0
LINE
  8
L-TYUSIN
  6
CENTER
 62
     1
 10
639.5
 20
421.0
 30
0.0
 11
639.5
 21
411.0
 31
0.0
  0
LINE
  8
L-ZISSEN
 10
652.0
 20
286.0
 30
0.0
 11
627.0
 21
286.0
 31
0.0
  0
LINE
  8
L-ZISSEN
 10
652.0
 20
416.0
 30
0.0
 11
627.0
 21
416.0
 31
0.0
  0
LINE
  8
L-ZISSEN
 10
627.0
 20
286.0
 30
0.0
 11
627.0
 21
416.0
 31
0.0
  0
LINE
  8
L-ZISSEN
 10
652.0
 20
286.0
 30
0.0
 11
652.0
 21
416.0
 31
0.0
  0
CIRCLE
  8
L-ZISSEN
 10
639.5
 20
356.5
 30
0.0
 40
3.5
  0
LINE
  8
L-ZISSEN
 10
636.035898
 20
362.5
 30
0.0
 11
632.571797
 21
356.5
 31
0.0
  0
LINE
  8
L-ZISSEN
 10
632.571797
 20
356.5
 30
0.0
 11
636.035898
 21
350.5
 31
0.0
  0
LINE
  8
L-ZISSEN
 10
636.035898
 20
350.5
 30
0.0
 11
642.964102
 21
350.5
 31
0.0
  0
LINE
  8
L-ZISSEN
 10
642.964102
 20
350.5
 30
0.0
 11
646.428203
 21
356.5
 31
0.0
  0
LINE
  8
L-ZISSEN
 10
646.428203
 20
356.5
 30
0.0
 11
642.964102
 21
362.5
 31
0.0
  0
LINE
  8
L-ZISSEN
 10
642.964102
 20
362.5
 30
0.0
 11
636.035898
 21
362.5
 31
0.0
  0
LINE
  8
L-ZISSEN
 10
631.5
 20
367.0
 30
0.0
 11
631.5
 21
303.0
 31
0.0
  0
LINE
  8
L-ZISSEN
 10
647.5
 20
367.0
 30
0.0
 11
647.5
 21
303.0
 31
0.0
  0
LINE
  8
L-ZISSEN
 10
631.5
 20
367.0
 30
0.0
 11
647.5
 21
367.0
 31
0.0
  0
LINE
  8
L-ZISSEN
 10
631.5
 20
303.0
 30
0.0
 11
647.5
 21
303.0
 31
0.0
  0
LINE
  8
L-ZISSEN
 10
642.964102
 20
307.5
 30
0.0
 11
636.035898
 21
307.5
 31
0.0
  0
LINE
  8
L-ZISSEN
 10
646.428203
 20
313.5
 30
0.0
 11
642.964102
 21
307.5
 31
0.0
  0
LINE
  8
L-ZISSEN
 10
642.964102
 20
319.5
 30
0.0
 11
646.428203
 21
313.5
 31
0.0
  0
LINE
  8
L-ZISSEN
 10
636.035898
 20
319.5
 30
0.0
 11
642.964102
 21
319.5
 31
0.0
  0
LINE
  8
L-ZISSEN
 10
632.571797
 20
313.5
 30
0.0
 11
636.035898
 21
319.5
 31
0.0
  0
LINE
  8
L-ZISSEN
 10
636.035898
 20
307.5
 30
0.0
 11
632.571797
 21
313.5
 31
0.0
  0
CIRCLE
  8
L-ZISSEN
 10
639.5
 20
313.5
 30
0.0
 40
3.5
  0
CIRCLE
  8
L-ZISSEN
 10
789.5
 20
313.5
 30
0.0
 40
3.5
  0
LINE
  8
L-ZISSEN
 10
786.035898
 20
307.5
 30
0.0
 11
782.571797
 21
313.5
 31
0.0
  0
LINE
  8
L-ZISSEN
 10
782.571797
 20
313.5
 30
0.0
 11
786.035898
 21
319.5
 31
0.0
  0
LINE
  8
L-ZISSEN
 10
786.035898
 20
319.5
 30
0.0
 11
792.964102
 21
319.5
 31
0.0
  0
LINE
  8
L-ZISSEN
 10
792.964102
 20
319.5
 30
0.0
 11
796.428203
 21
313.5
 31
0.0
  0
LINE
  8
L-ZISSEN
 10
796.428203
 20
313.5
 30
0.0
 11
792.964102
 21
307.5
 31
0.0
  0
LINE
  8
L-ZISSEN
 10
792.964102
 20
307.5
 30
0.0
 11
786.035898
 21
307.5
 31
0.0
  0
LINE
  8
L-ZISSEN
 10
781.5
 20
303.0
 30
0.0
 11
797.5
 21
303.0
 31
0.0
  0
LINE
  8
L-ZISSEN
 10
781.5
 20
367.0
 30
0.0
 11
797.5
 21
367.0
 31
0.0
  0
LINE
  8
L-ZISSEN
 10
797.5
 20
367.0
 30
0.0
 11
797.5
 21
303.0
 31
0.0
  0
LINE
  8
L-ZISSEN
 10
781.5
 20
367.0
 30
0.0
 11
781.5
 21
303.0
 31
0.0
  0
LINE
  8
L-ZISSEN
 10
792.964102
 20
362.5
 30
0.0
 11
786.035898
 21
362.5
 31
0.0
  0
LINE
  8
L-ZISSEN
 10
796.428203
 20
356.5
 30
0.0
 11
792.964102
 21
362.5
 31
0.0
  0
LINE
  8
L-ZISSEN
 10
792.964102
 20
350.5
 30
0.0
 11
796.428203
 21
356.5
 31
0.0
  0
LINE
  8
L-ZISSEN
 10
786.035898
 20
350.5
 30
0.0
 11
792.964102
 21
350.5
 31
0.0
  0
LINE
  8
L-ZISSEN
 10
782.571797
 20
356.5
 30
0.0
 11
786.035898
 21
350.5
 31
0.0
  0
LINE
  8
L-ZISSEN
 10
786.035898
 20
362.5
 30
0.0
 11
782.571797
 21
356.5
 31
0.0
  0
CIRCLE
  8
L-ZISSEN
 10
789.5
 20
356.5
 30
0.0
 40
3.5
  0
LINE
  8
L-TYUSIN
  6
CENTER
 62
     1
 10
789.5
 20
421.0
 30
0.0
 11
789.5
 21
411.0
 31
0.0
  0
LINE
  8
L-ZISSEN
 10
802.0
 20
286.0
 30
0.0
 11
802.0
 21
416.0
 31
0.0
  0
LINE
  8
L-ZISSEN
 10
777.0
 20
286.0
 30
0.0
 11
777.0
 21
416.0
 31
0.0
  0
LINE
  8
L-ZISSEN
 10
802.0
 20
286.0
 30
0.0
 11
777.0
 21
286.0
 31
0.0
  0
LINE
  8
L-ZISSEN
 10
802.0
 20
416.0
 30
0.0
 11
777.0
 21
416.0
 31
0.0
  0
LINE
  8
L-ZISSEN
 10
627.0
 20
151.0
 30
0.0
 11
627.0
 21
227.0
 31
0.0
  0
LINE
  8
L-ZISSEN
 10
652.0
 20
151.0
 30
0.0
 11
652.0
 21
227.0
 31
0.0
  0
LINE
  8
L-ZISSEN
 10
627.0
 20
222.0
 30
0.0
 11
652.0
 21
222.0
 31
0.0
  0
LINE
  8
L-ZISSEN
 10
627.0
 20
227.0
 30
0.0
 11
652.0
 21
227.0
 31
0.0
  0
LINE
  8
L-ZISSEN
 10
627.0
 20
151.0
 30
0.0
 11
652.0
 21
151.0
 31
0.0
  0
LINE
  8
L-TYUSIN
 10
650.0
 20
168.0
 30
0.0
 11
629.0
 21
168.0
 31
0.0
  0
LINE
  8
L-TYUSIN
 10
639.5
 20
157.5
 30
0.0
 11
639.5
 21
178.5
 31
0.0
  0
CIRCLE
  8
L-ZISSEN
 10
639.5
 20
168.0
 30
0.0
 40
4.3
  0
ARC
  8
L-ZISSEN
 10
639.5
 20
211.0
 30
0.0
 40
4.3
 50
324.484016
 51
35.515984
  0
LINE
  8
L-TYUSIN
 10
650.0
 20
211.0
 30
0.0
 11
629.0
 21
211.0
 31
0.0
  0
LINE
  8
L-TYUSIN
 10
639.5
 20
200.5
 30
0.0
 11
639.5
 21
221.5
 31
0.0
  0
LINE
  8
L-ZISSEN
 10
636.0
 20
253.0
 30
0.0
 11
636.0
 21
236.0
 31
0.0
  0
LINE
  8
L-ZISSEN
 10
643.0
 20
253.0
 30
0.0
 11
643.0
 21
236.0
 31
0.0
  0
ARC
  8
L-ZISSEN
 10
639.5
 20
184.5
 30
0.0
 40
3.5
 50
180.0
 51
0.0
  0
ARC
  8
L-ZISSEN
 10
639.5
 20
211.0
 30
0.0
 40
4.3
 50
144.484016
 51
215.515984
  0
LINE
  8
L-ZISSEN
 10
643.0
 20
253.0
 30
0.0
 11
636.0
 21
253.0
 31
0.0
  0
LINE
  8
L-ZISSEN
 10
631.5
 20
229.0
 30
0.0
 11
647.5
 21
229.0
 31
0.0
  0
LINE
  8
L-ZISSEN
 10
631.5
 20
229.0
 30
0.0
 11
631.5
 21
227.0
 31
0.0
  0
LINE
  8
L-ZISSEN
 10
647.5
 20
229.0
 30
0.0
 11
647.5
 21
227.0
 31
0.0
  0
LINE
  8
L-ZISSEN
 10
632.571797
 20
236.0
 30
0.0
 11
646.428203
 21
236.0
 31
0.0
  0
LINE
  8
L-ZISSEN
 10
632.571797
 20
236.0
 30
0.0
 11
632.571797
 21
229.0
 31
0.0
  0
LINE
  8
L-ZISSEN
 10
646.428203
 20
236.0
 30
0.0
 11
646.428203
 21
229.0
 31
0.0
  0
LINE
  8
L-ZISSEN
 10
643.0
 20
222.0
 30
0.0
 11
643.0
 21
184.5
 31
0.0
  0
LINE
  8
L-ZISSEN
 10
636.0
 20
222.0
 30
0.0
 11
636.0
 21
184.5
 31
0.0
  0
SOLID
  8
L-ZISSEN
 10
722.090165
 20
673.290423
 30
0.0
 11
722.585694
 21
673.7364
 31
0.0
 12
721.0
 22
675.0
 32
0.0
 13
721.0
 23
675.0
 33
0.0
  0
LINE
  8
L-ZISSEN
 10
722.337929
 20
673.513412
 30
0.0
 11
730.0
 21
665.0
 31
0.0
  0
LINE
  8
L-ZISSEN
 10
730.0
 20
665.0
 30
0.0
 11
732.0
 21
665.0
 31
0.0
  0
TEXT
  8
L-ZISSEN
 10
734.0
 20
662.75
 30
0.0
 40
4.5
  1
P.P
  0
TEXT
  8
L-ZISSEN
 10
734.0
 20
322.75
 30
0.0
 40
4.5
  1
P.P
  0
LINE
  8
L-ZISSEN
 10
730.0
 20
325.0
 30
0.0
 11
732.0
 21
325.0
 31
0.0
  0
LINE
  8
L-ZISSEN
 10
722.337929
 20
333.513412
 30
0.0
 11
730.0
 21
325.0
 31
0.0
  0
SOLID
  8
L-ZISSEN
 10
722.090165
 20
333.290423
 30
0.0
 11
722.585694
 21
333.7364
 31
0.0
 12
721.0
 22
335.0
 32
0.0
 13
721.0
 23
335.0
 33
0.0
  0
SOLID
  8
L-ZISSEN
 10
292.090165
 20
443.290423
 30
0.0
 11
292.585694
 21
443.7364
 31
0.0
 12
291.0
 22
445.0
 32
0.0
 13
291.0
 23
445.0
 33
0.0
  0
LINE
  8
L-ZISSEN
 10
292.337929
 20
443.513412
 30
0.0
 11
300.0
 21
435.0
 31
0.0
  0
LINE
  8
L-ZISSEN
 10
300.0
 20
435.0
 30
0.0
 11
302.0
 21
435.0
 31
0.0
  0
TEXT
  8
L-ZISSEN
 10
304.0
 20
432.75
 30
0.0
 40
4.5
  1
P.P
  0
SOLID
  8
L-ZISSEN
 10
292.085027
 20
316.712842
 30
0.0
 11
291.470861
 21
316.972156
 31
0.0
 12
291.0
 22
315.0
 32
0.0
 13
291.0
 23
315.0
 33
0.0
  0
LINE
  8
L-ZISSEN
 10
291.777944
 20
316.842499
 30
0.0
 11
310.0
 21
360.0
 31
0.0
  0
LINE
  8
L-ZISSEN
 10
310.0
 20
360.0
 30
0.0
 11
312.0
 21
360.0
 31
0.0
  0
TEXT
  8
L-ZISSEN
 10
314.0
 20
357.75
 30
0.0
 40
4.5
  1
P.P
  0
SOLID
  8
L-ZISSEN
 10
481.116881
 20
316.692244
 30
0.0
 11
480.507673
 21
316.963003
 31
0.0
 12
480.0
 22
315.0
 32
0.0
 13
480.0
 23
315.0
 33
0.0
  0
LINE
  8
L-ZISSEN
 10
480.812277
 20
316.827623
 30
0.0
 11
500.0
 21
360.0
 31
0.0
  0
LINE
  8
L-ZISSEN
 10
500.0
 20
360.0
 30
0.0
 11
502.0
 21
360.0
 31
0.0
  0
TEXT
  8
L-ZISSEN
 10
504.0
 20
357.75
 30
0.0
 40
4.5
  1
P.P
  0
SOLID
  8
L-ZISSEN
 10
722.159206
 20
206.663536
 30
0.0
 11
721.557021
 21
206.949574
 31
0.0
 12
721.0
 22
205.0
 32
0.0
 13
721.0
 23
205.0
 33
0.0
  0
LINE
  8
L-ZISSEN
 10
721.858114
 20
206.806555
 30
0.0
 11
740.0
 21
245.0
 31
0.0
  0
LINE
  8
L-ZISSEN
 10
740.0
 20
245.0
 30
0.0
 11
742.0
 21
245.0
 31
0.0
  0
TEXT
  8
L-ZISSEN
 10
744.0
 20
242.75
 30
0.0
 40
4.5
  1
P.P
  0
SOLID
  8
L-ZISSEN
 10
910.685728
 20
206.908111
 30
0.0
 11
910.029814
 21
207.027368
 31
0.0
 12
910.0
 22
205.0
 32
0.0
 13
910.0
 23
205.0
 33
0.0
  0
LINE
  8
L-ZISSEN
 10
910.357771
 20
206.96774
 30
0.0
 11
920.0
 21
260.0
 31
0.0
  0
LINE
  8
L-ZISSEN
 10
920.0
 20
260.0
 30
0.0
 11
922.0
 21
260.0
 31
0.0
  0
TEXT
  8
L-ZISSEN
 10
924.0
 20
257.75
 30
0.0
 40
4.5
  1
P.P
  0
TEXT
  8
L-ZISSEN
 10
744.0
 20
582.75
 30
0.0
 40
4.5
  1
P.P
  0
LINE
  8
L-ZISSEN
 10
740.0
 20
585.0
 30
0.0
 11
742.0
 21
585.0
 31
0.0
  0
LINE
  8
L-ZISSEN
 10
721.858114
 20
546.806555
 30
0.0
 11
740.0
 21
585.0
 31
0.0
  0
SOLID
  8
L-ZISSEN
 10
722.159206
 20
546.663536
 30
0.0
 11
721.557021
 21
546.949574
 31
0.0
 12
721.0
 22
545.0
 32
0.0
 13
721.0
 23
545.0
 33
0.0
  0
SOLID
  8
L-ZISSEN
 10
910.685728
 20
546.908111
 30
0.0
 11
910.029814
 21
547.027368
 31
0.0
 12
910.0
 22
545.0
 32
0.0
 13
910.0
 23
545.0
 33
0.0
  0
LINE
  8
L-ZISSEN
 10
910.357771
 20
546.96774
 30
0.0
 11
920.0
 21
600.0
 31
0.0
  0
TEXT
  8
L-ZISSEN
 10
924.0
 20
597.75
 30
0.0
 40
4.5
  1
P.P
  0
LINE
  8
L-ZISSEN
 10
920.0
 20
600.0
 30
0.0
 11
922.0
 21
600.0
 31
0.0
  0
LINE
  8
L-TYUSIN
 10
600.0
 20
800.0
 30
0.0
 11
600.0
 21
35.0
 31
0.0
  0
LINE
  8
L-TYUSIN
 10
600.0
 20
465.0
 30
0.0
 11
1010.0
 21
465.0
 31
0.0
  0
LINE
  8
L-TYUSIN
 10
600.0
 20
125.0
 30
0.0
 11
1010.0
 21
125.0
 31
0.0
  0
TEXT
  8
L-ZISSEN
 10
620.0
 20
450.0
 30
0.0
 40
4.5
  1
L TYPE BRACKET
  0
TEXT
  8
L-ZISSEN
 10
620.0
 20
430.0
 30
0.0
 40
4.5
  1
(F17-800)
  0
TEXT
  8
L-ZISSEN
 10
620.0
 20
770.0
 30
0.0
 40
4.5
  1
(F17-600)
  0
TEXT
  8
L-ZISSEN
 10
620.0
 20
790.0
 30
0.0
 40
4.5
  1
L TYPE BRACKET
  0
TEXT
  8
L-ZISSEN
 10
620.0
 20
780.0
 30
0.0
 40
4.5
  1
MODEL No. : 6212-50
  0
TEXT
  8
L-ZISSEN
 10
620.0
 20
440.0
 30
0.0
 40
4.5
  1
MODEL No. : 6212-50
  0
ENDSEC
  0
EOF
