  0
SECTION
  2
HEADER
  9
$ACADVER
  1
AC1006
  9
$INSBASE
 10
0.0
 20
0.0
 30
0.0
  9
$EXTMIN
 10
70.0
 20
10.5
  9
$EXTMAX
 10
1022.0
 20
823.834524
  9
$LIMMIN
 10
0.0
 20
0.0
  9
$LIMMAX
 10
1189.0
 20
841.0
  9
$ORTHOMODE
 70
     0
  9
$REGENMODE
 70
     1
  9
$FILLMODE
 70
     1
  9
$QTEXTMODE
 70
     0
  9
$MIRRTEXT
 70
     1
  9
$DRAGMODE
 70
     2
  9
$LTSCALE
 40
1.0
  9
$OSMODE
 70
     0
  9
$ATTMODE
 70
     1
  9
$TEXTSIZE
 40
4.5
  9
$TRACEWID
 40
0.05
  9
$TEXTSTYLE
  7
STANDARD
  9
$CLAYER
  8
L-ZISSEN
  9
$CELTYPE
  6
BYLAYER
  9
$CECOLOR
 62
   256
  9
$DIMSCALE
 40
1.0
  9
$DIMASZ
 40
2.0
  9
$DIMEXO
 40
1.0
  9
$DIMDLI
 40
0.38
  9
$DIMRND
 40
0.0
  9
$DIMDLE
 40
1.0
  9
$DIMEXE
 40
1.0
  9
$DIMTP
 40
0.0
  9
$DIMTM
 40
0.0
  9
$DIMTXT
 40
4.5
  9
$DIMCEN
 40
0.09
  9
$DIMTSZ
 40
0.0
  9
$DIMTOL
 70
     0
  9
$DIMLIM
 70
     0
  9
$DIMTIH
 70
     0
  9
$DIMTOH
 70
     0
  9
$DIMSE1
 70
     0
  9
$DIMSE2
 70
     0
  9
$DIMTAD
 70
     1
  9
$DIMZIN
 70
     0
  9
$DIMBLK
  1

  9
$DIMASO
 70
     0
  9
$DIMSHO
 70
     0
  9
$DIMPOST
  1

  9
$DIMAPOST
  1

  9
$DIMALT
 70
     0
  9
$DIMALTD
 70
     2
  9
$DIMALTF
 40
25.4
  9
$DIMLFAC
 40
1.0
  9
$DIMTOFL
 70
     1
  9
$DIMTVP
 40
0.0
  9
$DIMTIX
 70
     1
  9
$DIMSOXD
 70
     0
  9
$DIMSAH
 70
     0
  9
$DIMBLK1
  1

  9
$DIMBLK2
  1

  9
$LUNITS
 70
     2
  9
$LUPREC
 70
     4
  9
$AXISMODE
 70
     0
  9
$AXISUNIT
 10
0.0
 20
0.0
  9
$SKETCHINC
 40
0.1
  9
$FILLETRAD
 40
22.5
  9
$AUNITS
 70
     0
  9
$AUPREC
 70
     0
  9
$MENU
  1
acad
  9
$ELEVATION
 40
0.0
  9
$THICKNESS
 40
0.0
  9
$LIMCHECK
 70
     0
  9
$BLIPMODE
 70
     1
  9
$CHAMFERA
 40
0.0
  9
$CHAMFERB
 40
0.0
  9
$SKPOLY
 70
     0
  9
$TDCREATE
 40
2449094.5566075230
  9
$TDUPDATE
 40
2449094.5566075230
  9
$TDINDWG
 40
0.0000000000
  9
$TDUSRTIMER
 40
0.0000000000
  9
$USRTIMER
 70
     1
  9
$ANGBASE
 50
0.0
  9
$ANGDIR
 70
     0
  9
$PDMODE
 70
     0
  9
$PDSIZE
 40
0.0
  9
$PLINEWID
 40
0.0
  9
$COORDS
 70
     2
  9
$SPLFRAME
 70
     0
  9
$SPLINETYPE
 70
     6
  9
$SPLINESEGS
 70
     8
  9
$ATTDIA
 70
     0
  9
$ATTREQ
 70
     1
  9
$HANDLING
 70
     0
  9
$HANDSEED
  5
0
  9
$SURFTAB1
 70
     6
  9
$SURFTAB2
 70
     6
  9
$SURFTYPE
 70
     6
  9
$SURFU
 70
     6
  9
$SURFV
 70
     6
  9
$FLATLAND
 70
     0
  9
$UCSNAME
  2

  9
$UCSORG
 10
0.0
 20
0.0
 30
0.0
  9
$UCSXDIR
 10
1.0
 20
0.0
 30
0.0
  9
$UCSYDIR
 10
0.0
 20
1.0
 30
0.0
  9
$USERI1
 70
     0
  9
$USERI2
 70
     0
  9
$USERI3
 70
     0
  9
$USERI4
 70
     0
  9
$USERI5
 70
     0
  9
$USERR1
 40
0.0
  9
$USERR2
 40
0.0
  9
$USERR3
 40
0.0
  9
$USERR4
 40
0.0
  9
$USERR5
 40
0.0
  9
$WORLDVIEW
 70
     1
  0
ENDSEC
  0
SECTION
  2
TABLES
  0
TABLE
  2
VPORT
 70
     2
  0
VPORT
  2
*ACTIVE
 70
     0
 10
0.0
 20
0.0
 11
1.0
 21
1.0
 12
674.578245
 22
435.577173
 13
0.0
 23
0.0
 14
5.0
 24
5.0
 15
0.0
 25
0.0
 16
0.0
 26
0.0
 36
1.0
 17
0.0
 27
0.0
 37
0.0
 40
871.154346
 41
1.5487
 42
50.0
 43
0.0
 44
0.0
 50
0.0
 51
0.0
 71
     0
 72
   100
 73
     1
 74
     0
 75
     0
 76
     0
 77
     0
 78
     0
  0
ENDTAB
  0
TABLE
  2
LTYPE
 70
     2
  0
LTYPE
  2
CONTINUOUS
 70
    64
  3
Solid line
 72
    65
 73
     0
 40
0.0
  0
LTYPE
  2
CENTER
 70
    64
  3
____ _ ____ _ ____ _ ____ _ 
 72
    65
 73
     4
 40
60.0
 49
45.0
 49
-5.0
 49
5.0
 49
-5.0
  0
ENDTAB
  0
TABLE
  2
LAYER
 70
     3
  0
LAYER
  2
0
 70
     0
 62
     7
  6
CONTINUOUS
  0
LAYER
  2
L-ZISSEN
 70
    64
 62
     7
  6
CONTINUOUS
  0
LAYER
  2
L-TYUSIN
 70
    64
 62
     1
  6
CENTER
  0
ENDTAB
  0
TABLE
  2
STYLE
 70
     1
  0
STYLE
  2
STANDARD
 70
    64
 40
0.0
 41
1.0
 50
0.0
 71
     0
 42
4.5
  3
txt
  4

  0
ENDTAB
  0
TABLE
  2
VIEW
 70
     0
  0
ENDTAB
  0
TABLE
  2
UCS
 70
     0
  0
ENDTAB
  0
TABLE
  2
DWGMGR
 70
     0
  0
ENDTAB
  0
ENDSEC
  0
SECTION
  2
BLOCKS
  0
ENDSEC
  0
SECTION
  2
ENTITIES
  0
LINE
  8
L-ZISSEN
  6
CONTINUOUS
 62
     7
 10
1014.5
 20
150.5
 30
0.0
 11
1014.5
 21
181.706753
 31
0.0
  0
LINE
  8
L-ZISSEN
  6
CONTINUOUS
 62
     7
 10
955.5
 20
150.5
 30
0.0
 11
955.5
 21
181.706753
 31
0.0
  0
LINE
  8
L-ZISSEN
  6
CONTINUOUS
 62
     7
 10
1016.803848
 20
202.0
 30
0.0
 11
953.196152
 21
202.0
 31
0.0
  0
LINE
  8
L-ZISSEN
  6
CONTINUOUS
 62
     7
 10
991.5
 20
236.0
 30
0.0
 11
991.5
 21
232.0
 31
0.0
  0
LINE
  8
L-ZISSEN
  6
CONTINUOUS
 62
     7
 10
978.5
 20
236.0
 30
0.0
 11
978.5
 21
232.0
 31
0.0
  0
LINE
  8
L-TYUSIN
 10
810.0
 20
300.0
 30
0.0
 11
810.0
 21
40.0
 31
0.0
  0
TEXT
  8
L-ZISSEN
 10
830.0
 20
285.0
 30
0.0
 40
4.5
  1
AUTOMATIC DRAIN
  0
TEXT
  8
L-ZISSEN
 10
830.0
 20
275.0
 30
0.0
 40
4.5
  1
MODEL No. : AF-530YD
  0
LINE
  8
L-ZISSEN
  6
CONTINUOUS
 62
     7
 10
992.0
 20
128.0
 30
0.0
 11
978.0
 21
128.0
 31
0.0
  0
ARC
  8
L-ZISSEN
  6
CONTINUOUS
 62
     7
 10
992.0
 20
150.5
 30
0.0
 40
22.5
 50
270.0
 51
0.0
  0
ARC
  8
L-ZISSEN
  6
CONTINUOUS
 62
     7
 10
978.0
 20
150.5
 30
0.0
 40
22.5
 50
180.0
 51
270.0
  0
LINE
  8
L-ZISSEN
  6
CONTINUOUS
 62
     7
 10
1022.0
 20
199.0
 30
0.0
 11
948.0
 21
199.0
 31
0.0
  0
LINE
  8
L-ZISSEN
  6
CONTINUOUS
 62
     7
 10
1022.0
 20
188.0
 30
0.0
 11
948.0
 21
188.0
 31
0.0
  0
LINE
  8
L-ZISSEN
 10
948.0
 20
199.0
 30
0.0
 11
948.0
 21
188.0
 31
0.0
  0
LINE
  8
L-ZISSEN
 10
948.0
 20
188.0
 30
0.0
 11
955.5
 21
181.706753
 31
0.0
  0
LINE
  8
L-ZISSEN
 10
955.5
 20
181.706753
 30
0.0
 11
1014.5
 21
181.706753
 31
0.0
  0
LINE
  8
L-ZISSEN
 10
948.0
 20
199.0
 30
0.0
 11
953.196152
 21
202.0
 31
0.0
  0
LINE
  8
L-ZISSEN
 10
1022.0
 20
199.0
 30
0.0
 11
1016.803848
 21
202.0
 31
0.0
  0
LINE
  8
L-ZISSEN
 10
1022.0
 20
199.0
 30
0.0
 11
1022.0
 21
188.0
 31
0.0
  0
LINE
  8
L-ZISSEN
 10
1022.0
 20
188.0
 30
0.0
 11
1014.5
 21
181.706753
 31
0.0
  0
LINE
  8
L-ZISSEN
  6
CONTINUOUS
 62
     7
 10
1008.339746
 20
208.0
 30
0.0
 11
961.660254
 21
208.0
 31
0.0
  0
LINE
  8
L-ZISSEN
  6
CONTINUOUS
 62
     7
 10
1017.0
 20
203.0
 30
0.0
 11
953.0
 21
203.0
 31
0.0
  0
LINE
  8
L-ZISSEN
 10
953.0
 20
203.0
 30
0.0
 11
961.660254
 21
208.0
 31
0.0
  0
LINE
  8
L-ZISSEN
 10
1017.0
 20
203.0
 30
0.0
 11
1008.339746
 21
208.0
 31
0.0
  0
LINE
  8
L-ZISSEN
 10
953.0
 20
203.0
 30
0.0
 11
953.0
 21
201.886751
 31
0.0
  0
LINE
  8
L-ZISSEN
 10
1017.0
 20
203.0
 30
0.0
 11
1017.0
 21
201.886751
 31
0.0
  0
LINE
  8
L-ZISSEN
  6
CONTINUOUS
 62
     7
 10
1001.0
 20
218.0
 30
0.0
 11
969.0
 21
218.0
 31
0.0
  0
LINE
  8
L-ZISSEN
 10
969.0
 20
218.0
 30
0.0
 11
969.0
 21
208.0
 31
0.0
  0
LINE
  8
L-ZISSEN
 10
1001.0
 20
218.0
 30
0.0
 11
1001.0
 21
208.0
 31
0.0
  0
LINE
  8
L-ZISSEN
 10
976.25
 20
128.068159
 30
0.0
 11
976.25
 21
125.8
 31
0.0
  0
LINE
  8
L-ZISSEN
 10
976.25
 20
125.8
 30
0.0
 11
979.0
 21
124.212287
 31
0.0
  0
LINE
  8
L-ZISSEN
 10
979.0
 20
124.212287
 30
0.0
 11
979.0
 21
113.0
 31
0.0
  0
LINE
  8
L-ZISSEN
 10
993.75
 20
125.8
 30
0.0
 11
991.0
 21
124.212287
 31
0.0
  0
LINE
  8
L-ZISSEN
 10
993.75
 20
128.068159
 30
0.0
 11
993.75
 21
125.8
 31
0.0
  0
LINE
  8
L-ZISSEN
 10
991.0
 20
124.212287
 30
0.0
 11
991.0
 21
113.0
 31
0.0
  0
LINE
  8
L-ZISSEN
 10
993.75
 20
125.8
 30
0.0
 11
976.25
 21
125.8
 31
0.0
  0
LINE
  8
L-ZISSEN
 10
979.0
 20
124.212287
 30
0.0
 11
991.0
 21
124.212287
 31
0.0
  0
LINE
  8
L-ZISSEN
  6
CONTINUOUS
 62
     7
 10
994.814955
 20
90.0
 30
0.0
 11
975.185045
 21
90.0
 31
0.0
  0
LINE
  8
L-ZISSEN
  6
CONTINUOUS
 62
     7
 10
882.0
 20
113.0
 30
0.0
 11
868.0
 21
113.0
 31
0.0
  0
LINE
  8
L-ZISSEN
  6
CONTINUOUS
 62
     7
 10
883.5
 20
106.0
 30
0.0
 11
866.5
 21
106.0
 31
0.0
  0
LINE
  8
L-ZISSEN
  6
CONTINUOUS
 62
     7
 10
883.5
 20
90.0
 30
0.0
 11
866.5
 21
90.0
 31
0.0
  0
LINE
  8
L-ZISSEN
 10
869.0
 20
124.212287
 30
0.0
 11
881.0
 21
124.212287
 31
0.0
  0
LINE
  8
L-ZISSEN
 10
883.75
 20
125.8
 30
0.0
 11
866.25
 21
125.8
 31
0.0
  0
LINE
  8
L-ZISSEN
 10
881.0
 20
124.212287
 30
0.0
 11
881.0
 21
113.0
 31
0.0
  0
LINE
  8
L-ZISSEN
 10
883.75
 20
128.068159
 30
0.0
 11
883.75
 21
125.8
 31
0.0
  0
LINE
  8
L-ZISSEN
 10
883.75
 20
125.8
 30
0.0
 11
881.0
 21
124.212287
 31
0.0
  0
LINE
  8
L-ZISSEN
 10
869.0
 20
124.212287
 30
0.0
 11
869.0
 21
113.0
 31
0.0
  0
LINE
  8
L-ZISSEN
 10
866.25
 20
125.8
 30
0.0
 11
869.0
 21
124.212287
 31
0.0
  0
LINE
  8
L-ZISSEN
 10
866.25
 20
128.068159
 30
0.0
 11
866.25
 21
125.8
 31
0.0
  0
LINE
  8
L-ZISSEN
  6
CONTINUOUS
 62
     7
 10
890.0
 20
218.0
 30
0.0
 11
860.0
 21
218.0
 31
0.0
  0
LINE
  8
L-ZISSEN
 10
907.0
 20
203.0
 30
0.0
 11
907.0
 21
201.886751
 31
0.0
  0
LINE
  8
L-ZISSEN
 10
843.0
 20
203.0
 30
0.0
 11
843.0
 21
201.886751
 31
0.0
  0
LINE
  8
L-ZISSEN
 10
907.0
 20
203.0
 30
0.0
 11
898.339746
 21
208.0
 31
0.0
  0
LINE
  8
L-ZISSEN
 10
843.0
 20
203.0
 30
0.0
 11
851.660254
 21
208.0
 31
0.0
  0
LINE
  8
L-ZISSEN
  6
CONTINUOUS
 62
     7
 10
907.0
 20
203.0
 30
0.0
 11
843.0
 21
203.0
 31
0.0
  0
LINE
  8
L-ZISSEN
  6
CONTINUOUS
 62
     7
 10
898.339746
 20
208.0
 30
0.0
 11
851.660254
 21
208.0
 31
0.0
  0
LINE
  8
L-ZISSEN
 10
912.0
 20
188.0
 30
0.0
 11
904.5
 21
181.706753
 31
0.0
  0
LINE
  8
L-ZISSEN
 10
912.0
 20
199.0
 30
0.0
 11
912.0
 21
188.0
 31
0.0
  0
LINE
  8
L-ZISSEN
 10
912.0
 20
199.0
 30
0.0
 11
906.803848
 21
202.0
 31
0.0
  0
LINE
  8
L-ZISSEN
 10
838.0
 20
199.0
 30
0.0
 11
843.196152
 21
202.0
 31
0.0
  0
LINE
  8
L-ZISSEN
 10
845.5
 20
181.706753
 30
0.0
 11
904.5
 21
181.706753
 31
0.0
  0
LINE
  8
L-ZISSEN
 10
838.0
 20
188.0
 30
0.0
 11
845.5
 21
181.706753
 31
0.0
  0
LINE
  8
L-ZISSEN
 10
838.0
 20
199.0
 30
0.0
 11
838.0
 21
188.0
 31
0.0
  0
LINE
  8
L-ZISSEN
  6
CONTINUOUS
 62
     7
 10
912.0
 20
188.0
 30
0.0
 11
838.0
 21
188.0
 31
0.0
  0
LINE
  8
L-ZISSEN
  6
CONTINUOUS
 62
     7
 10
912.0
 20
199.0
 30
0.0
 11
838.0
 21
199.0
 31
0.0
  0
ARC
  8
L-ZISSEN
  6
CONTINUOUS
 62
     7
 10
868.0
 20
150.5
 30
0.0
 40
22.5
 50
180.0
 51
270.0
  0
ARC
  8
L-ZISSEN
  6
CONTINUOUS
 62
     7
 10
882.0
 20
150.5
 30
0.0
 40
22.5
 50
270.0
 51
0.0
  0
LINE
  8
L-ZISSEN
  6
CONTINUOUS
 62
     7
 10
882.0
 20
128.0
 30
0.0
 11
868.0
 21
128.0
 31
0.0
  0
LINE
  8
L-ZISSEN
  6
CONTINUOUS
 62
     7
 10
868.5
 20
236.0
 30
0.0
 11
868.5
 21
232.0
 31
0.0
  0
LINE
  8
L-ZISSEN
  6
CONTINUOUS
 62
     7
 10
881.5
 20
236.0
 30
0.0
 11
881.5
 21
232.0
 31
0.0
  0
LINE
  8
L-ZISSEN
  6
CONTINUOUS
 62
     7
 10
906.803848
 20
202.0
 30
0.0
 11
843.196152
 21
202.0
 31
0.0
  0
LINE
  8
L-ZISSEN
  6
CONTINUOUS
 62
     7
 10
845.5
 20
150.5
 30
0.0
 11
845.5
 21
181.706753
 31
0.0
  0
LINE
  8
L-ZISSEN
  6
CONTINUOUS
 62
     7
 10
904.5
 20
150.5
 30
0.0
 11
904.5
 21
181.706753
 31
0.0
  0
LINE
  8
L-ZISSEN
 10
866.5
 20
90.0
 30
0.0
 11
866.5
 21
106.0
 31
0.0
  0
LINE
  8
L-ZISSEN
 10
883.5
 20
90.0
 30
0.0
 11
883.5
 21
106.0
 31
0.0
  0
LINE
  8
L-ZISSEN
  6
CONTINUOUS
 62
     7
 10
994.814955
 20
106.0
 30
0.0
 11
975.185045
 21
106.0
 31
0.0
  0
LINE
  8
L-ZISSEN
 10
977.5
 20
113.0
 30
0.0
 11
977.5
 21
106.0
 31
0.0
  0
LINE
  8
L-ZISSEN
 10
992.5
 20
113.0
 30
0.0
 11
992.5
 21
106.0
 31
0.0
  0
LINE
  8
L-ZISSEN
  6
CONTINUOUS
 62
     7
 10
992.5
 20
113.0
 30
0.0
 11
977.5
 21
113.0
 31
0.0
  0
LINE
  8
L-ZISSEN
 10
868.0
 20
113.0
 30
0.0
 11
868.0
 21
106.0
 31
0.0
  0
LINE
  8
L-ZISSEN
 10
882.0
 20
113.0
 30
0.0
 11
882.0
 21
106.0
 31
0.0
  0
LINE
  8
L-ZISSEN
 10
975.185045
 20
90.0
 30
0.0
 11
975.185045
 21
106.0
 31
0.0
  0
LINE
  8
L-ZISSEN
 10
994.814955
 20
90.0
 30
0.0
 11
994.814955
 21
106.0
 31
0.0
  0
LINE
  8
L-ZISSEN
 10
860.0
 20
218.0
 30
0.0
 11
860.0
 21
208.0
 31
0.0
  0
LINE
  8
L-ZISSEN
 10
890.0
 20
218.0
 30
0.0
 11
890.0
 21
208.0
 31
0.0
  0
LINE
  8
L-TYUSIN
 10
100.0
 20
470.0
 30
0.0
 11
440.0
 21
470.0
 31
0.0
  0
LINE
  8
L-TYUSIN
 10
270.0
 20
822.0
 30
0.0
 11
270.0
 21
558.0
 31
0.0
  0
LINE
  8
L-ZISSEN
 10
140.0
 20
532.5
 30
0.0
 11
140.0
 21
407.5
 31
0.0
  0
LINE
  8
L-ZISSEN
 10
143.0
 20
402.5
 30
0.0
 11
397.0
 21
402.5
 31
0.0
  0
LINE
  8
L-ZISSEN
 10
376.0
 20
530.5
 30
0.0
 11
164.0
 21
530.5
 31
0.0
  0
LINE
  8
L-ZISSEN
 10
164.0
 20
532.5
 30
0.0
 11
140.0
 21
532.5
 31
0.0
  0
LINE
  8
L-ZISSEN
 10
143.0
 20
424.5
 30
0.0
 11
399.3
 21
424.5
 31
0.0
  0
LINE
  8
L-ZISSEN
 10
143.0
 20
424.5
 30
0.0
 11
143.0
 21
402.5
 31
0.0
  0
LINE
  8
L-ZISSEN
 10
105.0
 20
532.5
 30
0.0
 11
164.0
 21
532.5
 31
0.0
  0
LINE
  8
L-ZISSEN
 10
164.0
 20
532.5
 30
0.0
 11
164.0
 21
444.1
 31
0.0
  0
LINE
  8
L-TYUSIN
 10
100.0
 20
690.0
 30
0.0
 11
440.0
 21
690.0
 31
0.0
  0
LINE
  8
L-ZISSEN
 10
140.0
 20
627.5
 30
0.0
 11
140.0
 21
752.5
 31
0.0
  0
LINE
  8
L-ZISSEN
 10
164.0
 20
627.5
 30
0.0
 11
164.0
 21
752.5
 31
0.0
  0
ARC
  8
L-ZISSEN
 10
270.0
 20
690.0
 30
0.0
 40
106.0
 50
202.392249
 51
337.607751
  0
ARC
  8
L-ZISSEN
 10
270.0
 20
690.0
 30
0.0
 40
111.0
 50
212.720443
 51
327.279557
  0
LINE
  8
L-ZISSEN
 10
164.0
 20
750.0
 30
0.0
 11
176.613706
 21
750.0
 31
0.0
  0
ARC
  8
L-ZISSEN
 10
169.104734
 20
736.738423
 30
0.0
 40
6.983342
 50
223.030774
 51
294.42769
  0
ARC
  8
L-ZISSEN
 10
172.68431
 20
775.548072
 30
0.0
 40
25.848485
 50
278.743803
 51
296.91735
  0
ARC
  8
L-ZISSEN
 10
367.31569
 20
775.548072
 30
0.0
 40
25.848485
 50
243.08265
 51
261.256197
  0
ARC
  8
L-ZISSEN
 10
370.895266
 20
736.738423
 30
0.0
 40
6.983342
 50
245.57231
 51
316.969226
  0
LINE
  8
L-ZISSEN
 10
376.0
 20
750.0
 30
0.0
 11
363.386294
 21
750.0
 31
0.0
  0
LINE
  8
L-ZISSEN
 10
376.0
 20
627.5
 30
0.0
 11
376.0
 21
752.5
 31
0.0
  0
LINE
  8
L-ZISSEN
 10
176.0
 20
817.0
 30
0.0
 11
216.318143
 21
817.0
 31
0.0
  0
LINE
  8
L-ZISSEN
 10
143.0
 20
784.0
 30
0.0
 11
143.0
 21
754.591735
 31
0.0
  0
ARC
  8
L-ZISSEN
 10
176.0
 20
784.0
 30
0.0
 40
33.0
 50
90.0
 51
180.0
  0
ARC
  8
L-ZISSEN
 10
172.68431
 20
604.451928
 30
0.0
 40
25.848485
 50
63.08265
 51
81.256197
  0
ARC
  8
L-ZISSEN
 10
169.104734
 20
643.261577
 30
0.0
 40
6.983342
 50
65.57231
 51
136.969226
  0
LINE
  8
L-ZISSEN
 10
164.0
 20
630.0
 30
0.0
 11
176.613706
 21
630.0
 31
0.0
  0
ARC
  8
L-ZISSEN
 10
270.0
 20
690.0
 30
0.0
 40
106.0
 50
22.392249
 51
157.607751
  0
LINE
  8
L-ZISSEN
 10
376.0
 20
630.0
 30
0.0
 11
363.386294
 21
630.0
 31
0.0
  0
ARC
  8
L-ZISSEN
 10
370.895266
 20
643.261577
 30
0.0
 40
6.983342
 50
43.030774
 51
114.42769
  0
ARC
  8
L-ZISSEN
 10
367.31569
 20
604.451928
 30
0.0
 40
25.848485
 50
98.743803
 51
116.91735
  0
ARC
  8
L-ZISSEN
 10
270.0
 20
690.0
 30
0.0
 40
111.0
 50
32.720443
 51
147.279557
  0
CIRCLE
  8
L-ZISSEN
 10
176.0
 20
784.0
 30
0.0
 40
9.0
  0
LINE
  8
L-TYUSIN
 10
635.0
 20
537.5
 30
0.0
 11
635.0
 21
10.5
 31
0.0
  0
LINE
  8
L-ZISSEN
 10
635.0
 20
470.0
 30
0.0
 11
635.0
 21
470.0
 31
0.0
  0
LINE
  8
L-ZISSEN
 10
697.5
 20
532.5
 30
0.0
 11
572.5
 21
532.5
 31
0.0
  0
LINE
  8
L-ZISSEN
 10
572.5
 20
532.5
 30
0.0
 11
572.5
 21
407.5
 31
0.0
  0
LINE
  8
L-ZISSEN
 10
572.5
 20
407.5
 30
0.0
 11
697.5
 21
407.5
 31
0.0
  0
LINE
  8
L-ZISSEN
 10
697.5
 20
407.5
 30
0.0
 11
697.5
 21
532.5
 31
0.0
  0
LINE
  8
L-ZISSEN
 10
548.078841
 20
530.5
 30
0.0
 11
572.5
 21
530.5
 31
0.0
  0
LINE
  8
L-ZISSEN
 10
508.0
 20
424.5
 30
0.0
 11
572.5
 21
424.5
 31
0.0
  0
LINE
  8
L-ZISSEN
 10
508.0
 20
402.5
 30
0.0
 11
545.0
 21
402.5
 31
0.0
  0
LINE
  8
L-ZISSEN
 10
508.0
 20
424.5
 30
0.0
 11
508.0
 21
402.5
 31
0.0
  0
LINE
  8
L-ZISSEN
 10
762.0
 20
424.5
 30
0.0
 11
762.0
 21
402.5
 31
0.0
  0
LINE
  8
L-ZISSEN
 10
762.0
 20
402.5
 30
0.0
 11
762.0
 21
404.5
 31
0.0
  0
LINE
  8
L-ZISSEN
 10
528.101054
 20
511.442348
 30
0.0
 11
524.0
 21
424.5
 31
0.0
  0
ARC
  8
L-ZISSEN
 10
548.078841
 20
510.5
 30
0.0
 40
20.0
 50
90.0
 51
177.299371
  0
ARC
  8
L-ZISSEN
 10
721.921159
 20
510.5
 30
0.0
 40
20.0
 50
2.700629
 51
90.0
  0
LINE
  8
L-ZISSEN
 10
741.898946
 20
511.442348
 30
0.0
 11
746.0
 21
424.5
 31
0.0
  0
LINE
  8
L-ZISSEN
 10
697.5
 20
530.5
 30
0.0
 11
721.921159
 21
530.5
 31
0.0
  0
LINE
  8
L-ZISSEN
 10
697.5
 20
424.5
 30
0.0
 11
762.0
 21
424.5
 31
0.0
  0
LINE
  8
L-ZISSEN
 10
105.0
 20
407.5
 30
0.0
 11
143.0
 21
407.5
 31
0.0
  0
LINE
  8
L-ZISSEN
 10
376.0
 20
752.5
 30
0.0
 11
435.0
 21
752.5
 31
0.0
  0
LINE
  8
L-ZISSEN
 10
435.0
 20
627.5
 30
0.0
 11
376.0
 21
627.5
 31
0.0
  0
LINE
  8
L-ZISSEN
 10
105.0
 20
752.5
 30
0.0
 11
105.0
 21
627.5
 31
0.0
  0
LINE
  8
L-ZISSEN
 10
105.0
 20
655.0
 30
0.0
 11
120.0
 21
655.0
 31
0.0
  0
LINE
  8
L-ZISSEN
 10
120.0
 20
655.0
 30
0.0
 11
120.0
 21
627.5
 31
0.0
  0
LINE
  8
L-ZISSEN
 10
120.0
 20
725.0
 30
0.0
 11
120.0
 21
752.5
 31
0.0
  0
LINE
  8
L-ZISSEN
 10
105.0
 20
725.0
 30
0.0
 11
120.0
 21
725.0
 31
0.0
  0
LINE
  8
L-ZISSEN
 10
164.0
 20
752.5
 30
0.0
 11
105.0
 21
752.5
 31
0.0
  0
LINE
  8
L-ZISSEN
 10
105.0
 20
627.5
 30
0.0
 11
164.0
 21
627.5
 31
0.0
  0
LINE
  8
L-TYUSIN
 10
270.0
 20
402.5
 30
0.0
 11
270.0
 21
406.5
 31
0.0
  0
LINE
  8
L-ZISSEN
  6
CONTINUOUS
 62
     7
 10
393.0
 20
96.5
 30
0.0
 11
147.0
 21
96.5
 31
0.0
  0
LINE
  8
L-ZISSEN
  6
CONTINUOUS
 62
     7
 10
167.0
 20
50.5
 30
0.0
 11
167.0
 21
76.9
 31
0.0
  0
LINE
  8
L-ZISSEN
  6
CONTINUOUS
 62
     7
 10
185.0
 20
50.5
 30
0.0
 11
185.0
 21
76.9
 31
0.0
  0
LINE
  8
L-ZISSEN
  6
CONTINUOUS
 62
     7
 10
185.0
 20
470.5
 30
0.0
 11
185.0
 21
444.1
 31
0.0
  0
LINE
  8
L-ZISSEN
  6
CONTINUOUS
 62
     7
 10
167.0
 20
470.5
 30
0.0
 11
167.0
 21
444.1
 31
0.0
  0
LINE
  8
L-ZISSEN
  6
CONTINUOUS
 62
     7
 10
160.411543
 20
91.9
 30
0.0
 11
191.5
 21
91.9
 31
0.0
  0
LINE
  8
L-ZISSEN
  6
CONTINUOUS
 62
     7
 10
191.5
 20
91.9
 30
0.0
 11
191.5
 21
96.5
 31
0.0
  0
LINE
  8
L-ZISSEN
  6
CONTINUOUS
 62
     7
 10
160.5
 20
91.9
 30
0.0
 11
160.5
 21
96.5
 31
0.0
  0
LINE
  8
L-ZISSEN
  6
CONTINUOUS
 62
     7
 10
191.588457
 20
76.9
 30
0.0
 11
191.588457
 21
91.9
 31
0.0
  0
LINE
  8
L-ZISSEN
  6
CONTINUOUS
 62
     7
 10
160.411543
 20
76.9
 30
0.0
 11
160.411543
 21
91.9
 31
0.0
  0
LINE
  8
L-ZISSEN
  6
CONTINUOUS
 62
     7
 10
160.411543
 20
444.1
 30
0.0
 11
160.411543
 21
429.1
 31
0.0
  0
LINE
  8
L-ZISSEN
  6
CONTINUOUS
 62
     7
 10
191.588457
 20
444.1
 30
0.0
 11
191.588457
 21
429.1
 31
0.0
  0
LINE
  8
L-ZISSEN
  6
CONTINUOUS
 62
     7
 10
160.5
 20
429.1
 30
0.0
 11
160.5
 21
424.5
 31
0.0
  0
LINE
  8
L-ZISSEN
  6
CONTINUOUS
 62
     7
 10
191.5
 20
429.1
 30
0.0
 11
191.5
 21
424.5
 31
0.0
  0
LINE
  8
L-ZISSEN
  6
CONTINUOUS
 62
     7
 10
160.411543
 20
429.1
 30
0.0
 11
191.5
 21
429.1
 31
0.0
  0
LINE
  8
L-ZISSEN
  6
CONTINUOUS
 62
     7
 10
393.0
 20
131.5
 30
0.0
 11
147.0
 21
131.5
 31
0.0
  0
LINE
  8
L-ZISSEN
  6
CONTINUOUS
 62
     7
 10
285.0
 20
91.5
 30
0.0
 11
255.0
 21
91.5
 31
0.0
  0
LINE
  8
L-ZISSEN
  6
CONTINUOUS
 62
     7
 10
314.5
 20
96.5
 30
0.0
 11
285.0
 21
91.5
 31
0.0
  0
LINE
  8
L-ZISSEN
  6
CONTINUOUS
 62
     7
 10
225.5
 20
96.5
 30
0.0
 11
255.0
 21
91.5
 31
0.0
  0
LINE
  8
L-ZISSEN
  6
CONTINUOUS
 62
     7
 10
162.7
 20
131.5
 30
0.0
 11
162.7
 21
402.5
 31
0.0
  0
LINE
  8
L-ZISSEN
  6
CONTINUOUS
 62
     7
 10
185.0
 20
131.5
 30
0.0
 11
185.0
 21
402.5
 31
0.0
  0
LINE
  8
L-ZISSEN
  6
CONTINUOUS
 62
     7
 10
167.0
 20
131.5
 30
0.0
 11
167.0
 21
402.5
 31
0.0
  0
LINE
  8
L-ZISSEN
  6
CONTINUOUS
 62
     7
 10
355.0
 20
131.5
 30
0.0
 11
355.0
 21
402.5
 31
0.0
  0
LINE
  8
L-ZISSEN
  6
CONTINUOUS
 62
     7
 10
373.0
 20
131.5
 30
0.0
 11
373.0
 21
402.5
 31
0.0
  0
LINE
  8
L-ZISSEN
  6
CONTINUOUS
 62
     7
 10
377.3
 20
131.5
 30
0.0
 11
377.3
 21
402.5
 31
0.0
  0
LINE
  8
L-ZISSEN
 10
160.411543
 20
76.9
 30
0.0
 11
191.588457
 21
76.9
 31
0.0
  0
LINE
  8
L-ZISSEN
 10
160.411543
 20
444.1
 30
0.0
 11
191.588457
 21
444.1
 31
0.0
  0
LINE
  8
L-ZISSEN
  6
CONTINUOUS
 62
     7
 10
527.7
 20
131.5
 30
0.0
 11
527.7
 21
402.5
 31
0.0
  0
LINE
  8
L-ZISSEN
  6
CONTINUOUS
 62
     7
 10
532.0
 20
131.5
 30
0.0
 11
532.0
 21
402.5
 31
0.0
  0
LINE
  8
L-ZISSEN
  6
CONTINUOUS
 62
     7
 10
550.0
 20
131.5
 30
0.0
 11
550.0
 21
395.0
 31
0.0
  0
LINE
  8
L-ZISSEN
  6
CONTINUOUS
 62
     7
 10
720.0
 20
131.5
 30
0.0
 11
720.0
 21
395.0
 31
0.0
  0
LINE
  8
L-ZISSEN
  6
CONTINUOUS
 62
     7
 10
738.0
 20
131.5
 30
0.0
 11
738.0
 21
402.5
 31
0.0
  0
LINE
  8
L-ZISSEN
  6
CONTINUOUS
 62
     7
 10
742.3
 20
131.5
 30
0.0
 11
742.3
 21
402.5
 31
0.0
  0
LINE
  8
L-ZISSEN
 10
286.165808
 20
61.5
 30
0.0
 11
286.165808
 21
69.5
 31
0.0
  0
ARC
  8
L-ZISSEN
 10
218.030689
 20
45.5
 30
0.0
 40
68.135118
 50
9.290716
 51
13.581455
  0
ARC
  8
L-ZISSEN
 10
218.030689
 20
45.5
 30
0.0
 40
68.135118
 50
346.418545
 51
350.709284
  0
LINE
  8
L-ZISSEN
 10
253.834192
 20
61.5
 30
0.0
 11
253.834192
 21
69.5
 31
0.0
  0
ARC
  8
L-ZISSEN
 10
321.969311
 20
45.5
 30
0.0
 40
68.135118
 50
166.418545
 51
193.581455
  0
LINE
  8
L-ZISSEN
 10
331.0
 20
49.5
 30
0.0
 11
318.0
 21
49.5
 31
0.0
  0
LINE
  8
L-ZISSEN
 10
306.0
 20
53.25857
 30
0.0
 11
298.0
 21
53.25857
 31
0.0
  0
LINE
  8
L-ZISSEN
 10
306.0
 20
37.74143
 30
0.0
 11
298.0
 21
37.74143
 31
0.0
  0
LINE
  8
L-ZISSEN
 10
318.0
 20
34.5
 30
0.0
 11
306.0
 21
34.5
 31
0.0
  0
LINE
  8
L-ZISSEN
 10
298.0
 20
34.5
 30
0.0
 11
285.272004
 21
34.5
 31
0.0
  0
LINE
  8
L-ZISSEN
 10
298.0
 20
56.5
 30
0.0
 11
285.272004
 21
56.5
 31
0.0
  0
LINE
  8
L-ZISSEN
 10
298.0
 20
34.5
 30
0.0
 11
298.0
 21
56.5
 31
0.0
  0
LINE
  8
L-ZISSEN
 10
331.0
 20
41.5
 30
0.0
 11
318.0
 21
41.5
 31
0.0
  0
LINE
  8
L-ZISSEN
 10
306.0
 20
56.5
 30
0.0
 11
306.0
 21
34.5
 31
0.0
  0
LINE
  8
L-ZISSEN
 10
318.0
 20
56.5
 30
0.0
 11
306.0
 21
56.5
 31
0.0
  0
LINE
  8
L-ZISSEN
 10
318.0
 20
45.5
 30
0.0
 11
318.0
 21
56.5
 31
0.0
  0
LINE
  8
L-ZISSEN
 10
318.0
 20
34.5
 30
0.0
 11
318.0
 21
45.5
 31
0.0
  0
LINE
  8
L-ZISSEN
 10
253.834192
 20
61.5
 30
0.0
 11
286.165808
 21
61.5
 31
0.0
  0
LINE
  8
L-ZISSEN
 10
253.834192
 20
29.5
 30
0.0
 11
286.165808
 21
29.5
 31
0.0
  0
LINE
  8
L-ZISSEN
 10
253.834192
 20
21.5
 30
0.0
 11
253.834192
 21
29.5
 31
0.0
  0
LINE
  8
L-ZISSEN
 10
286.165808
 20
21.5
 30
0.0
 11
286.165808
 21
29.5
 31
0.0
  0
LINE
  8
L-ZISSEN
 10
339.0
 20
73.0
 30
0.0
 11
331.0
 21
73.0
 31
0.0
  0
LINE
  8
L-ZISSEN
 10
331.0
 20
18.0
 30
0.0
 11
331.0
 21
73.0
 31
0.0
  0
LINE
  8
L-ZISSEN
 10
339.0
 20
18.0
 30
0.0
 11
331.0
 21
18.0
 31
0.0
  0
LINE
  8
L-ZISSEN
 10
339.0
 20
73.0
 30
0.0
 11
339.0
 21
18.0
 31
0.0
  0
LINE
  8
L-ZISSEN
 10
253.834192
 20
69.5
 30
0.0
 11
286.165808
 21
69.5
 31
0.0
  0
LINE
  8
L-ZISSEN
 10
253.834192
 20
21.5
 30
0.0
 11
286.165808
 21
21.5
 31
0.0
  0
CIRCLE
  8
L-ZISSEN
 10
635.0
 20
45.5
 30
0.0
 40
27.5
  0
LINE
  8
L-ZISSEN
 10
615.554564
 20
26.054564
 30
0.0
 11
654.445436
 21
64.945436
 31
0.0
  0
LINE
  8
L-ZISSEN
 10
654.445436
 20
26.054564
 30
0.0
 11
615.554564
 21
64.945436
 31
0.0
  0
LINE
  8
L-TYUSIN
 10
565.0
 20
470.0
 30
0.0
 11
705.0
 21
470.0
 31
0.0
  0
LINE
  8
L-TYUSIN
 10
270.0
 20
535.5
 30
0.0
 11
270.0
 21
16.5
 31
0.0
  0
LINE
  8
L-ZISSEN
 10
183.794229
 20
797.5
 30
0.0
 11
191.588457
 21
784.0
 31
0.0
  0
LINE
  8
L-ZISSEN
 10
191.588457
 20
784.0
 30
0.0
 11
183.794229
 21
770.5
 31
0.0
  0
LINE
  8
L-ZISSEN
 10
183.794229
 20
770.5
 30
0.0
 11
168.205771
 21
770.5
 31
0.0
  0
LINE
  8
L-ZISSEN
 10
168.205771
 20
770.5
 30
0.0
 11
160.411543
 21
784.0
 31
0.0
  0
LINE
  8
L-ZISSEN
 10
160.411543
 20
784.0
 30
0.0
 11
168.205771
 21
797.5
 31
0.0
  0
LINE
  8
L-ZISSEN
 10
168.205771
 20
797.5
 30
0.0
 11
183.794229
 21
797.5
 31
0.0
  0
LINE
  8
L-ZISSEN
 10
168.205771
 20
582.5
 30
0.0
 11
183.794229
 21
582.5
 31
0.0
  0
LINE
  8
L-ZISSEN
 10
160.411543
 20
596.0
 30
0.0
 11
168.205771
 21
582.5
 31
0.0
  0
LINE
  8
L-ZISSEN
 10
168.205771
 20
609.5
 30
0.0
 11
160.411543
 21
596.0
 31
0.0
  0
LINE
  8
L-ZISSEN
 10
183.794229
 20
609.5
 30
0.0
 11
168.205771
 21
609.5
 31
0.0
  0
LINE
  8
L-ZISSEN
 10
191.588457
 20
596.0
 30
0.0
 11
183.794229
 21
609.5
 31
0.0
  0
LINE
  8
L-ZISSEN
 10
183.794229
 20
582.5
 30
0.0
 11
191.588457
 21
596.0
 31
0.0
  0
CIRCLE
  8
L-ZISSEN
 10
176.0
 20
596.0
 30
0.0
 40
9.0
  0
LINE
  8
L-ZISSEN
 10
371.794229
 20
797.5
 30
0.0
 11
356.205771
 21
797.5
 31
0.0
  0
LINE
  8
L-ZISSEN
 10
379.588457
 20
784.0
 30
0.0
 11
371.794229
 21
797.5
 31
0.0
  0
LINE
  8
L-ZISSEN
 10
371.794229
 20
770.5
 30
0.0
 11
379.588457
 21
784.0
 31
0.0
  0
LINE
  8
L-ZISSEN
 10
356.205771
 20
770.5
 30
0.0
 11
371.794229
 21
770.5
 31
0.0
  0
LINE
  8
L-ZISSEN
 10
348.411543
 20
784.0
 30
0.0
 11
356.205771
 21
770.5
 31
0.0
  0
LINE
  8
L-ZISSEN
 10
356.205771
 20
797.5
 30
0.0
 11
348.411543
 21
784.0
 31
0.0
  0
CIRCLE
  8
L-ZISSEN
 10
364.0
 20
784.0
 30
0.0
 40
9.0
  0
CIRCLE
  8
L-ZISSEN
 10
364.0
 20
596.0
 30
0.0
 40
9.0
  0
LINE
  8
L-ZISSEN
 10
356.205771
 20
582.5
 30
0.0
 11
348.411543
 21
596.0
 31
0.0
  0
LINE
  8
L-ZISSEN
 10
348.411543
 20
596.0
 30
0.0
 11
356.205771
 21
609.5
 31
0.0
  0
LINE
  8
L-ZISSEN
 10
356.205771
 20
609.5
 30
0.0
 11
371.794229
 21
609.5
 31
0.0
  0
LINE
  8
L-ZISSEN
 10
371.794229
 20
609.5
 30
0.0
 11
379.588457
 21
596.0
 31
0.0
  0
LINE
  8
L-ZISSEN
 10
379.588457
 20
596.0
 30
0.0
 11
371.794229
 21
582.5
 31
0.0
  0
LINE
  8
L-ZISSEN
 10
371.794229
 20
582.5
 30
0.0
 11
356.205771
 21
582.5
 31
0.0
  0
LINE
  8
L-ZISSEN
 10
143.0
 20
627.5
 30
0.0
 11
143.0
 21
596.0
 31
0.0
  0
ARC
  8
L-ZISSEN
 10
176.0
 20
596.0
 30
0.0
 40
33.0
 50
180.0
 51
270.0
  0
LINE
  8
L-ZISSEN
 10
176.0
 20
563.0
 30
0.0
 11
364.0
 21
563.0
 31
0.0
  0
ARC
  8
L-ZISSEN
 10
364.0
 20
596.0
 30
0.0
 40
33.0
 50
270.0
 51
0.0
  0
LINE
  8
L-ZISSEN
 10
397.0
 20
596.0
 30
0.0
 11
397.0
 21
627.5
 31
0.0
  0
LINE
  8
L-ZISSEN
 10
397.0
 20
752.5
 30
0.0
 11
397.0
 21
784.0
 31
0.0
  0
ARC
  8
L-ZISSEN
 10
364.0
 20
784.0
 30
0.0
 40
33.0
 50
0.0
 51
90.0
  0
LINE
  8
L-ZISSEN
 10
364.0
 20
817.0
 30
0.0
 11
176.0
 21
817.0
 31
0.0
  0
LINE
  8
L-ZISSEN
 10
143.0
 20
784.0
 30
0.0
 11
143.0
 21
752.5
 31
0.0
  0
LINE
  8
L-ZISSEN
 10
105.0
 20
749.0
 30
0.0
 11
120.0
 21
749.0
 31
0.0
  0
LINE
  8
L-ZISSEN
 10
105.0
 20
731.0
 30
0.0
 11
120.0
 21
731.0
 31
0.0
  0
LINE
  8
L-ZISSEN
 10
105.0
 20
649.0
 30
0.0
 11
120.0
 21
649.0
 31
0.0
  0
LINE
  8
L-ZISSEN
 10
105.0
 20
631.0
 30
0.0
 11
120.0
 21
631.0
 31
0.0
  0
LINE
  8
L-ZISSEN
 10
435.0
 20
631.0
 30
0.0
 11
420.0
 21
631.0
 31
0.0
  0
LINE
  8
L-ZISSEN
 10
435.0
 20
649.0
 30
0.0
 11
420.0
 21
649.0
 31
0.0
  0
LINE
  8
L-ZISSEN
 10
435.0
 20
731.0
 30
0.0
 11
420.0
 21
731.0
 31
0.0
  0
LINE
  8
L-ZISSEN
 10
435.0
 20
749.0
 30
0.0
 11
420.0
 21
749.0
 31
0.0
  0
LINE
  8
L-ZISSEN
 10
435.0
 20
725.0
 30
0.0
 11
420.0
 21
725.0
 31
0.0
  0
LINE
  8
L-ZISSEN
 10
420.0
 20
725.0
 30
0.0
 11
420.0
 21
752.5
 31
0.0
  0
LINE
  8
L-ZISSEN
 10
420.0
 20
655.0
 30
0.0
 11
420.0
 21
627.5
 31
0.0
  0
LINE
  8
L-ZISSEN
 10
435.0
 20
655.0
 30
0.0
 11
420.0
 21
655.0
 31
0.0
  0
LINE
  8
L-ZISSEN
 10
435.0
 20
752.5
 30
0.0
 11
435.0
 21
627.5
 31
0.0
  0
LINE
  8
L-ZISSEN
 10
400.0
 20
627.5
 30
0.0
 11
400.0
 21
752.5
 31
0.0
  0
LINE
  8
L-ZISSEN
 10
105.0
 20
411.0
 30
0.0
 11
120.0
 21
411.0
 31
0.0
  0
LINE
  8
L-ZISSEN
 10
105.0
 20
429.0
 30
0.0
 11
120.0
 21
429.0
 31
0.0
  0
LINE
  8
L-ZISSEN
 10
105.0
 20
511.0
 30
0.0
 11
120.0
 21
511.0
 31
0.0
  0
LINE
  8
L-ZISSEN
 10
105.0
 20
529.0
 30
0.0
 11
120.0
 21
529.0
 31
0.0
  0
LINE
  8
L-ZISSEN
 10
105.0
 20
505.0
 30
0.0
 11
120.0
 21
505.0
 31
0.0
  0
LINE
  8
L-ZISSEN
 10
120.0
 20
505.0
 30
0.0
 11
120.0
 21
532.5
 31
0.0
  0
LINE
  8
L-ZISSEN
 10
120.0
 20
435.0
 30
0.0
 11
120.0
 21
407.5
 31
0.0
  0
LINE
  8
L-ZISSEN
 10
105.0
 20
435.0
 30
0.0
 11
120.0
 21
435.0
 31
0.0
  0
LINE
  8
L-ZISSEN
 10
105.0
 20
532.5
 30
0.0
 11
105.0
 21
407.5
 31
0.0
  0
LINE
  8
L-ZISSEN
 10
376.0
 20
532.5
 30
0.0
 11
376.0
 21
444.1
 31
0.0
  0
LINE
  8
L-ZISSEN
 10
435.0
 20
532.5
 30
0.0
 11
376.0
 21
532.5
 31
0.0
  0
LINE
  8
L-ZISSEN
 10
435.0
 20
532.5
 30
0.0
 11
435.0
 21
407.5
 31
0.0
  0
LINE
  8
L-ZISSEN
 10
435.0
 20
435.0
 30
0.0
 11
420.0
 21
435.0
 31
0.0
  0
LINE
  8
L-ZISSEN
 10
420.0
 20
435.0
 30
0.0
 11
420.0
 21
407.5
 31
0.0
  0
LINE
  8
L-ZISSEN
 10
420.0
 20
505.0
 30
0.0
 11
420.0
 21
532.5
 31
0.0
  0
LINE
  8
L-ZISSEN
 10
435.0
 20
505.0
 30
0.0
 11
420.0
 21
505.0
 31
0.0
  0
LINE
  8
L-ZISSEN
 10
435.0
 20
529.0
 30
0.0
 11
420.0
 21
529.0
 31
0.0
  0
LINE
  8
L-ZISSEN
 10
435.0
 20
511.0
 30
0.0
 11
420.0
 21
511.0
 31
0.0
  0
LINE
  8
L-ZISSEN
 10
435.0
 20
429.0
 30
0.0
 11
420.0
 21
429.0
 31
0.0
  0
LINE
  8
L-ZISSEN
 10
435.0
 20
411.0
 30
0.0
 11
420.0
 21
411.0
 31
0.0
  0
LINE
  8
L-ZISSEN
 10
435.0
 20
407.5
 30
0.0
 11
399.3
 21
407.5
 31
0.0
  0
LINE
  8
L-ZISSEN
 10
397.0
 20
424.5
 30
0.0
 11
397.0
 21
372.5
 31
0.0
  0
LINE
  8
L-ZISSEN
 10
400.0
 20
532.5
 30
0.0
 11
400.0
 21
407.5
 31
0.0
  0
CIRCLE
  8
L-ZISSEN
 10
635.0
 20
470.0
 30
0.0
 40
42.463
  0
ARC
  8
L-ZISSEN
 10
685.0
 20
420.0
 30
0.0
 40
15.0
 50
90.0
 51
180.0
  0
LINE
  8
L-ZISSEN
 10
670.0
 20
420.0
 30
0.0
 11
670.0
 21
407.5
 31
0.0
  0
LINE
  8
L-ZISSEN
 10
685.0
 20
435.0
 30
0.0
 11
697.5
 21
435.0
 31
0.0
  0
CIRCLE
  8
L-ZISSEN
 10
685.0
 20
420.0
 30
0.0
 40
9.0
  0
CIRCLE
  8
L-ZISSEN
 10
585.0
 20
420.0
 30
0.0
 40
9.0
  0
LINE
  8
L-ZISSEN
 10
585.0
 20
435.0
 30
0.0
 11
572.5
 21
435.0
 31
0.0
  0
LINE
  8
L-ZISSEN
 10
600.0
 20
420.0
 30
0.0
 11
600.0
 21
407.5
 31
0.0
  0
ARC
  8
L-ZISSEN
 10
585.0
 20
420.0
 30
0.0
 40
15.0
 50
0.0
 51
90.0
  0
ARC
  8
L-ZISSEN
 10
585.0
 20
520.0
 30
0.0
 40
15.0
 50
270.0
 51
0.0
  0
LINE
  8
L-ZISSEN
 10
600.0
 20
520.0
 30
0.0
 11
600.0
 21
532.5
 31
0.0
  0
LINE
  8
L-ZISSEN
 10
585.0
 20
505.0
 30
0.0
 11
572.5
 21
505.0
 31
0.0
  0
CIRCLE
  8
L-ZISSEN
 10
585.0
 20
520.0
 30
0.0
 40
9.0
  0
CIRCLE
  8
L-ZISSEN
 10
685.0
 20
520.0
 30
0.0
 40
9.0
  0
LINE
  8
L-ZISSEN
 10
685.0
 20
505.0
 30
0.0
 11
697.5
 21
505.0
 31
0.0
  0
LINE
  8
L-ZISSEN
 10
670.0
 20
520.0
 30
0.0
 11
670.0
 21
532.5
 31
0.0
  0
ARC
  8
L-ZISSEN
 10
685.0
 20
520.0
 30
0.0
 40
15.0
 50
180.0
 51
270.0
  0
LINE
  8
L-ZISSEN
 10
147.0
 20
96.5
 30
0.0
 11
147.0
 21
131.5
 31
0.0
  0
LINE
  8
L-ZISSEN
 10
393.0
 20
96.5
 30
0.0
 11
393.0
 21
131.5
 31
0.0
  0
LINE
  8
L-ZISSEN
  6
CONTINUOUS
 62
     7
 10
758.0
 20
96.5
 30
0.0
 11
512.0
 21
96.5
 31
0.0
  0
LINE
  8
L-ZISSEN
  6
CONTINUOUS
 62
     7
 10
590.5
 20
96.5
 30
0.0
 11
620.0
 21
91.5
 31
0.0
  0
LINE
  8
L-ZISSEN
  6
CONTINUOUS
 62
     7
 10
679.5
 20
96.5
 30
0.0
 11
650.0
 21
91.5
 31
0.0
  0
LINE
  8
L-ZISSEN
  6
CONTINUOUS
 62
     7
 10
650.0
 20
91.5
 30
0.0
 11
620.0
 21
91.5
 31
0.0
  0
LINE
  8
L-ZISSEN
  6
CONTINUOUS
 62
     7
 10
758.0
 20
131.5
 30
0.0
 11
675.0
 21
131.5
 31
0.0
  0
LINE
  8
L-ZISSEN
 10
512.0
 20
96.5
 30
0.0
 11
512.0
 21
131.5
 31
0.0
  0
LINE
  8
L-ZISSEN
 10
758.0
 20
96.5
 30
0.0
 11
758.0
 21
131.5
 31
0.0
  0
LINE
  8
L-ZISSEN
 10
167.0
 20
470.5
 30
0.0
 11
185.0
 21
470.5
 31
0.0
  0
LINE
  8
L-ZISSEN
 10
167.0
 20
50.5
 30
0.0
 11
185.0
 21
50.5
 31
0.0
  0
LINE
  8
L-ZISSEN
 10
373.0
 20
470.5
 30
0.0
 11
355.0
 21
470.5
 31
0.0
  0
LINE
  8
L-ZISSEN
 10
379.588457
 20
444.1
 30
0.0
 11
348.411543
 21
444.1
 31
0.0
  0
LINE
  8
L-ZISSEN
  6
CONTINUOUS
 62
     7
 10
379.588457
 20
429.1
 30
0.0
 11
348.5
 21
429.1
 31
0.0
  0
LINE
  8
L-ZISSEN
  6
CONTINUOUS
 62
     7
 10
348.5
 20
429.1
 30
0.0
 11
348.5
 21
424.5
 31
0.0
  0
LINE
  8
L-ZISSEN
  6
CONTINUOUS
 62
     7
 10
379.5
 20
429.1
 30
0.0
 11
379.5
 21
424.5
 31
0.0
  0
LINE
  8
L-ZISSEN
  6
CONTINUOUS
 62
     7
 10
348.411543
 20
444.1
 30
0.0
 11
348.411543
 21
429.1
 31
0.0
  0
LINE
  8
L-ZISSEN
  6
CONTINUOUS
 62
     7
 10
379.588457
 20
444.1
 30
0.0
 11
379.588457
 21
429.1
 31
0.0
  0
LINE
  8
L-ZISSEN
  6
CONTINUOUS
 62
     7
 10
373.0
 20
470.5
 30
0.0
 11
373.0
 21
444.1
 31
0.0
  0
LINE
  8
L-ZISSEN
  6
CONTINUOUS
 62
     7
 10
355.0
 20
470.5
 30
0.0
 11
355.0
 21
444.1
 31
0.0
  0
LINE
  8
L-ZISSEN
 10
373.0
 20
50.5
 30
0.0
 11
355.0
 21
50.5
 31
0.0
  0
LINE
  8
L-ZISSEN
 10
379.588457
 20
76.9
 30
0.0
 11
348.411543
 21
76.9
 31
0.0
  0
LINE
  8
L-ZISSEN
  6
CONTINUOUS
 62
     7
 10
379.588457
 20
76.9
 30
0.0
 11
379.588457
 21
91.9
 31
0.0
  0
LINE
  8
L-ZISSEN
  6
CONTINUOUS
 62
     7
 10
348.411543
 20
76.9
 30
0.0
 11
348.411543
 21
91.9
 31
0.0
  0
LINE
  8
L-ZISSEN
  6
CONTINUOUS
 62
     7
 10
379.5
 20
91.9
 30
0.0
 11
379.5
 21
96.5
 31
0.0
  0
LINE
  8
L-ZISSEN
  6
CONTINUOUS
 62
     7
 10
348.5
 20
91.9
 30
0.0
 11
348.5
 21
96.5
 31
0.0
  0
LINE
  8
L-ZISSEN
  6
CONTINUOUS
 62
     7
 10
379.588457
 20
91.9
 30
0.0
 11
348.5
 21
91.9
 31
0.0
  0
LINE
  8
L-ZISSEN
  6
CONTINUOUS
 62
     7
 10
355.0
 20
50.5
 30
0.0
 11
355.0
 21
76.9
 31
0.0
  0
LINE
  8
L-ZISSEN
  6
CONTINUOUS
 62
     7
 10
373.0
 20
50.5
 30
0.0
 11
373.0
 21
76.9
 31
0.0
  0
LINE
  8
L-ZISSEN
  6
CONTINUOUS
 62
     7
 10
550.0
 20
50.5
 30
0.0
 11
550.0
 21
76.9
 31
0.0
  0
LINE
  8
L-ZISSEN
  6
CONTINUOUS
 62
     7
 10
532.0
 20
50.5
 30
0.0
 11
532.0
 21
76.9
 31
0.0
  0
LINE
  8
L-ZISSEN
 10
550.0
 20
50.5
 30
0.0
 11
532.0
 21
50.5
 31
0.0
  0
LINE
  8
L-ZISSEN
  6
CONTINUOUS
 62
     7
 10
532.0
 20
470.5
 30
0.0
 11
532.0
 21
444.1
 31
0.0
  0
LINE
  8
L-ZISSEN
  6
CONTINUOUS
 62
     7
 10
550.0
 20
470.5
 30
0.0
 11
550.0
 21
444.1
 31
0.0
  0
LINE
  8
L-ZISSEN
  6
CONTINUOUS
 62
     7
 10
556.5
 20
429.1
 30
0.0
 11
556.5
 21
424.5
 31
0.0
  0
LINE
  8
L-ZISSEN
  6
CONTINUOUS
 62
     7
 10
525.5
 20
429.1
 30
0.0
 11
525.5
 21
424.5
 31
0.0
  0
LINE
  8
L-ZISSEN
  6
CONTINUOUS
 62
     7
 10
556.5
 20
429.1
 30
0.0
 11
525.5
 21
429.1
 31
0.0
  0
LINE
  8
L-ZISSEN
 10
554.5
 20
444.1
 30
0.0
 11
527.5
 21
444.1
 31
0.0
  0
LINE
  8
L-ZISSEN
 10
550.0
 20
470.5
 30
0.0
 11
532.0
 21
470.5
 31
0.0
  0
LINE
  8
L-ZISSEN
 10
527.5
 20
444.1
 30
0.0
 11
527.5
 21
429.1
 31
0.0
  0
LINE
  8
L-ZISSEN
 10
554.5
 20
444.1
 30
0.0
 11
554.5
 21
429.1
 31
0.0
  0
LINE
  8
L-ZISSEN
 10
554.5
 20
76.9
 30
0.0
 11
554.5
 21
91.9
 31
0.0
  0
LINE
  8
L-ZISSEN
 10
527.5
 20
76.9
 30
0.0
 11
527.5
 21
91.9
 31
0.0
  0
LINE
  8
L-ZISSEN
 10
554.5
 20
76.9
 30
0.0
 11
527.5
 21
76.9
 31
0.0
  0
LINE
  8
L-ZISSEN
  6
CONTINUOUS
 62
     7
 10
556.588457
 20
91.9
 30
0.0
 11
525.5
 21
91.9
 31
0.0
  0
LINE
  8
L-ZISSEN
  6
CONTINUOUS
 62
     7
 10
525.5
 20
91.9
 30
0.0
 11
525.5
 21
96.5
 31
0.0
  0
LINE
  8
L-ZISSEN
  6
CONTINUOUS
 62
     7
 10
556.5
 20
91.9
 30
0.0
 11
556.5
 21
96.5
 31
0.0
  0
LINE
  8
L-ZISSEN
  6
CONTINUOUS
 62
     7
 10
713.5
 20
91.9
 30
0.0
 11
713.5
 21
96.5
 31
0.0
  0
LINE
  8
L-ZISSEN
  6
CONTINUOUS
 62
     7
 10
744.5
 20
91.9
 30
0.0
 11
744.5
 21
96.5
 31
0.0
  0
LINE
  8
L-ZISSEN
  6
CONTINUOUS
 62
     7
 10
713.411543
 20
91.9
 30
0.0
 11
744.5
 21
91.9
 31
0.0
  0
LINE
  8
L-ZISSEN
 10
715.5
 20
76.9
 30
0.0
 11
742.5
 21
76.9
 31
0.0
  0
LINE
  8
L-ZISSEN
 10
742.5
 20
76.9
 30
0.0
 11
742.5
 21
91.9
 31
0.0
  0
LINE
  8
L-ZISSEN
 10
715.5
 20
76.9
 30
0.0
 11
715.5
 21
91.9
 31
0.0
  0
LINE
  8
L-ZISSEN
 10
720.0
 20
50.5
 30
0.0
 11
738.0
 21
50.5
 31
0.0
  0
LINE
  8
L-ZISSEN
  6
CONTINUOUS
 62
     7
 10
738.0
 20
50.5
 30
0.0
 11
738.0
 21
76.9
 31
0.0
  0
LINE
  8
L-ZISSEN
  6
CONTINUOUS
 62
     7
 10
720.0
 20
50.5
 30
0.0
 11
720.0
 21
76.9
 31
0.0
  0
LINE
  8
L-ZISSEN
 10
715.5
 20
444.1
 30
0.0
 11
715.5
 21
429.1
 31
0.0
  0
LINE
  8
L-ZISSEN
 10
742.5
 20
444.1
 30
0.0
 11
742.5
 21
429.1
 31
0.0
  0
LINE
  8
L-ZISSEN
 10
720.0
 20
470.5
 30
0.0
 11
738.0
 21
470.5
 31
0.0
  0
LINE
  8
L-ZISSEN
 10
715.5
 20
444.1
 30
0.0
 11
742.5
 21
444.1
 31
0.0
  0
LINE
  8
L-ZISSEN
  6
CONTINUOUS
 62
     7
 10
713.5
 20
429.1
 30
0.0
 11
744.5
 21
429.1
 31
0.0
  0
LINE
  8
L-ZISSEN
  6
CONTINUOUS
 62
     7
 10
744.5
 20
429.1
 30
0.0
 11
744.5
 21
424.5
 31
0.0
  0
LINE
  8
L-ZISSEN
  6
CONTINUOUS
 62
     7
 10
713.5
 20
429.1
 30
0.0
 11
713.5
 21
424.5
 31
0.0
  0
LINE
  8
L-ZISSEN
  6
CONTINUOUS
 62
     7
 10
720.0
 20
470.5
 30
0.0
 11
720.0
 21
444.1
 31
0.0
  0
LINE
  8
L-ZISSEN
  6
CONTINUOUS
 62
     7
 10
738.0
 20
470.5
 30
0.0
 11
738.0
 21
444.1
 31
0.0
  0
LINE
  8
L-ZISSEN
 10
865.185045
 20
232.0
 30
0.0
 11
884.814955
 21
232.0
 31
0.0
  0
LINE
  8
L-ZISSEN
 10
865.185045
 20
222.0
 30
0.0
 11
884.814955
 21
222.0
 31
0.0
  0
LINE
  8
L-ZISSEN
 10
865.185045
 20
232.0
 30
0.0
 11
865.185045
 21
222.0
 31
0.0
  0
LINE
  8
L-ZISSEN
 10
870.092523
 20
222.0
 30
0.0
 11
870.092523
 21
232.0
 31
0.0
  0
LINE
  8
L-ZISSEN
  6
CONTINUOUS
 62
     7
 10
868.5
 20
222.0
 30
0.0
 11
868.5
 21
218.0
 31
0.0
  0
LINE
  8
L-ZISSEN
  6
CONTINUOUS
 62
     7
 10
881.5
 20
222.0
 30
0.0
 11
881.5
 21
218.0
 31
0.0
  0
LINE
  8
L-ZISSEN
 10
879.907477
 20
222.0
 30
0.0
 11
879.907477
 21
232.0
 31
0.0
  0
LINE
  8
L-ZISSEN
 10
884.814955
 20
232.0
 30
0.0
 11
884.814955
 21
222.0
 31
0.0
  0
LINE
  8
L-ZISSEN
 10
976.5
 20
222.0
 30
0.0
 11
993.5
 21
222.0
 31
0.0
  0
LINE
  8
L-ZISSEN
 10
976.5
 20
232.0
 30
0.0
 11
993.5
 21
232.0
 31
0.0
  0
LINE
  8
L-ZISSEN
 10
976.5
 20
232.0
 30
0.0
 11
976.5
 21
222.0
 31
0.0
  0
LINE
  8
L-ZISSEN
 10
985.0
 20
232.0
 30
0.0
 11
985.0
 21
222.0
 31
0.0
  0
LINE
  8
L-ZISSEN
 10
993.5
 20
232.0
 30
0.0
 11
993.5
 21
222.0
 31
0.0
  0
LINE
  8
L-ZISSEN
  6
CONTINUOUS
 62
     7
 10
978.5
 20
222.0
 30
0.0
 11
978.5
 21
218.0
 31
0.0
  0
LINE
  8
L-ZISSEN
  6
CONTINUOUS
 62
     7
 10
991.5
 20
222.0
 30
0.0
 11
991.5
 21
218.0
 31
0.0
  0
SOLID
  8
L-ZISSEN
 10
208.633619
 20
97.701
 30
0.0
 11
208.155801
 21
98.165904
 31
0.0
 12
207.0
 22
96.5
 32
0.0
 13
207.0
 23
96.5
 33
0.0
  0
LINE
  8
L-ZISSEN
 10
208.39471
 20
97.933452
 30
0.0
 11
225.0
 21
115.0
 31
0.0
  0
LINE
  8
L-ZISSEN
 10
225.0
 20
115.0
 30
0.0
 11
227.0
 21
115.0
 31
0.0
  0
TEXT
  8
L-ZISSEN
 10
229.0
 20
112.75
 30
0.0
 40
4.5
  1
P.P
  0
LINE
  8
L-ZISSEN
 10
259.15
 20
69.5
 30
0.0
 11
259.15
 21
75.5
 31
0.0
  0
LINE
  8
L-ZISSEN
 10
280.85
 20
69.5
 30
0.0
 11
280.85
 21
75.5
 31
0.0
  0
LINE
  8
L-ZISSEN
 10
254.988893
 20
85.5
 30
0.0
 11
285.011107
 21
85.5
 31
0.0
  0
LINE
  8
L-ZISSEN
 10
254.988893
 20
75.5
 30
0.0
 11
285.011107
 21
75.5
 31
0.0
  0
LINE
  8
L-ZISSEN
 10
254.988893
 20
85.5
 30
0.0
 11
254.988893
 21
75.5
 31
0.0
  0
LINE
  8
L-ZISSEN
 10
259.15
 20
85.5
 30
0.0
 11
259.15
 21
91.5
 31
0.0
  0
LINE
  8
L-ZISSEN
 10
280.85
 20
85.5
 30
0.0
 11
280.85
 21
91.5
 31
0.0
  0
LINE
  8
L-ZISSEN
 10
285.011107
 20
85.5
 30
0.0
 11
285.011107
 21
75.5
 31
0.0
  0
LINE
  8
L-ZISSEN
 10
624.15
 20
70.769102
 30
0.0
 11
624.15
 21
75.5
 31
0.0
  0
LINE
  8
L-ZISSEN
 10
622.0
 20
75.5
 30
0.0
 11
648.0
 21
75.5
 31
0.0
  0
LINE
  8
L-ZISSEN
 10
622.0
 20
85.5
 30
0.0
 11
648.0
 21
85.5
 31
0.0
  0
LINE
  8
L-ZISSEN
 10
624.15
 20
85.5
 30
0.0
 11
624.15
 21
91.5
 31
0.0
  0
LINE
  8
L-ZISSEN
 10
645.85
 20
85.5
 30
0.0
 11
645.85
 21
91.5
 31
0.0
  0
LINE
  8
L-ZISSEN
 10
645.85
 20
70.769102
 30
0.0
 11
645.85
 21
75.5
 31
0.0
  0
LINE
  8
L-ZISSEN
 10
622.0
 20
85.5
 30
0.0
 11
622.0
 21
75.5
 31
0.0
  0
LINE
  8
L-ZISSEN
 10
648.0
 20
85.5
 30
0.0
 11
648.0
 21
75.5
 31
0.0
  0
LINE
  8
L-ZISSEN
 10
377.3
 20
397.25
 30
0.0
 11
387.3
 21
397.25
 31
0.0
  0
LINE
  8
L-ZISSEN
 10
377.3
 20
386.75
 30
0.0
 11
387.3
 21
386.75
 31
0.0
  0
LINE
  8
L-ZISSEN
 10
545.0
 20
397.5
 30
0.0
 11
545.0
 21
424.5
 31
0.0
  0
LINE
  8
L-ZISSEN
 10
595.0
 20
402.5
 30
0.0
 11
595.0
 21
102.5
 31
0.0
  0
LINE
  8
L-ZISSEN
 10
615.0
 20
402.5
 30
0.0
 11
615.0
 21
102.5
 31
0.0
  0
LINE
  8
L-ZISSEN
 10
595.0
 20
372.5
 30
0.0
 11
545.0
 21
397.5
 31
0.0
  0
LINE
  8
L-ZISSEN
 10
565.0
 20
402.5
 30
0.0
 11
565.0
 21
424.5
 31
0.0
  0
LINE
  8
L-ZISSEN
 10
675.0
 20
372.5
 30
0.0
 11
725.0
 21
397.5
 31
0.0
  0
LINE
  8
L-ZISSEN
 10
725.0
 20
397.5
 30
0.0
 11
725.0
 21
424.5
 31
0.0
  0
LINE
  8
L-ZISSEN
 10
705.0
 20
402.5
 30
0.0
 11
705.0
 21
424.5
 31
0.0
  0
LINE
  8
L-ZISSEN
 10
655.0
 20
402.5
 30
0.0
 11
655.0
 21
102.5
 31
0.0
  0
LINE
  8
L-ZISSEN
 10
675.0
 20
402.5
 30
0.0
 11
675.0
 21
102.5
 31
0.0
  0
LINE
  8
L-ZISSEN
 10
565.0
 20
402.5
 30
0.0
 11
705.0
 21
402.5
 31
0.0
  0
LINE
  8
L-ZISSEN
 10
725.0
 20
402.5
 30
0.0
 11
762.0
 21
402.5
 31
0.0
  0
LINE
  8
L-ZISSEN
 10
595.0
 20
102.5
 30
0.0
 11
675.0
 21
102.5
 31
0.0
  0
LINE
  8
L-ZISSEN
  6
CONTINUOUS
 62
     7
 10
595.0
 20
131.5
 30
0.0
 11
512.0
 21
131.5
 31
0.0
  0
LINE
  8
L-ZISSEN
 10
399.3
 20
102.5
 30
0.0
 11
434.3
 21
102.5
 31
0.0
  0
LINE
  8
L-ZISSEN
 10
399.3
 20
402.5
 30
0.0
 11
434.3
 21
402.5
 31
0.0
  0
LINE
  8
L-ZISSEN
 10
434.3
 20
402.5
 30
0.0
 11
434.3
 21
102.5
 31
0.0
  0
LINE
  8
L-ZISSEN
 10
399.3
 20
424.5
 30
0.0
 11
399.3
 21
102.5
 31
0.0
  0
LINE
  8
L-ZISSEN
 10
400.5
 20
402.5
 30
0.0
 11
400.5
 21
102.5
 31
0.0
  0
LINE
  8
L-ZISSEN
 10
399.3
 20
372.5
 30
0.0
 11
397.0
 21
372.5
 31
0.0
  0
LINE
  8
L-ZISSEN
 10
397.0
 20
379.0
 30
0.0
 11
386.3
 21
379.0
 31
0.0
  0
LINE
  8
L-ZISSEN
 10
387.3
 20
402.0
 30
0.0
 11
397.0
 21
402.0
 31
0.0
  0
LINE
  8
L-ZISSEN
 10
387.8
 20
383.0
 30
0.0
 11
387.8
 21
379.0
 31
0.0
  0
LINE
  8
L-ZISSEN
 10
386.3
 20
379.0
 30
0.0
 11
386.3
 21
364.0
 31
0.0
  0
LINE
  8
L-ZISSEN
 10
386.3
 20
364.0
 30
0.0
 11
399.3
 21
364.0
 31
0.0
  0
LINE
  8
L-ZISSEN
 10
387.3
 20
383.0
 30
0.0
 11
397.0
 21
383.0
 31
0.0
  0
LINE
  8
L-ZISSEN
 10
387.3
 20
402.0
 30
0.0
 11
387.3
 21
383.0
 31
0.0
  0
LINE
  8
L-ZISSEN
 10
390.8
 20
364.0
 30
0.0
 11
390.8
 21
170.0
 31
0.0
  0
LINE
  8
L-ZISSEN
 10
386.3
 20
170.0
 30
0.0
 11
399.3
 21
170.0
 31
0.0
  0
LINE
  8
L-ZISSEN
 10
387.3
 20
132.0
 30
0.0
 11
387.3
 21
151.0
 31
0.0
  0
LINE
  8
L-ZISSEN
 10
387.3
 20
151.0
 30
0.0
 11
399.3
 21
151.0
 31
0.0
  0
LINE
  8
L-ZISSEN
 10
387.8
 20
151.0
 30
0.0
 11
387.8
 21
155.0
 31
0.0
  0
LINE
  8
L-ZISSEN
 10
387.3
 20
132.0
 30
0.0
 11
399.3
 21
132.0
 31
0.0
  0
LINE
  8
L-ZISSEN
 10
399.3
 20
155.0
 30
0.0
 11
386.3
 21
155.0
 31
0.0
  0
LINE
  8
L-ZISSEN
 10
377.3
 20
136.75
 30
0.0
 11
387.3
 21
136.75
 31
0.0
  0
LINE
  8
L-ZISSEN
 10
377.3
 20
147.25
 30
0.0
 11
387.3
 21
147.25
 31
0.0
  0
LINE
  8
L-ZISSEN
 10
386.3
 20
155.0
 30
0.0
 11
386.3
 21
170.0
 31
0.0
  0
LINE
  8
L-ZISSEN
 10
399.3
 20
780.0
 30
0.0
 11
399.3
 21
752.5
 31
0.0
  0
LINE
  8
L-ZISSEN
 10
399.3
 20
760.0
 30
0.0
 11
397.0
 21
760.0
 31
0.0
  0
LINE
  8
L-ZISSEN
 10
399.3
 20
780.0
 30
0.0
 11
397.0
 21
780.0
 31
0.0
  0
LINE
  8
L-ZISSEN
 10
399.3
 20
600.0
 30
0.0
 11
397.0
 21
600.0
 31
0.0
  0
LINE
  8
L-ZISSEN
 10
399.3
 20
620.0
 30
0.0
 11
397.0
 21
620.0
 31
0.0
  0
LINE
  8
L-ZISSEN
 10
399.3
 20
627.5
 30
0.0
 11
399.3
 21
600.0
 31
0.0
  0
SOLID
  8
L-ZISSEN
 10
636.591792
 20
95.244091
 30
0.0
 11
636.913071
 21
95.828234
 31
0.0
 12
635.0
 22
96.5
 32
0.0
 13
635.0
 23
96.5
 33
0.0
  0
LINE
  8
L-ZISSEN
 10
636.752432
 20
95.536163
 30
0.0
 11
665.0
 21
80.0
 31
0.0
  0
LINE
  8
L-ZISSEN
 10
665.0
 20
80.0
 30
0.0
 11
667.0
 21
80.0
 31
0.0
  0
TEXT
  8
L-ZISSEN
 10
669.0
 20
77.75
 30
0.0
 40
4.5
  1
P.P
  0
SOLID
  8
L-ZISSEN
 10
876.433721
 20
237.433721
 30
0.0
 11
875.891232
 21
237.821213
 31
0.0
 12
875.0
 22
236.0
 32
0.0
 13
875.0
 23
236.0
 33
0.0
  0
LINE
  8
L-ZISSEN
 10
876.162476
 20
237.627467
 30
0.0
 11
885.0
 21
250.0
 31
0.0
  0
LINE
  8
L-ZISSEN
 10
885.0
 20
250.0
 30
0.0
 11
887.0
 21
250.0
 31
0.0
  0
TEXT
  8
L-ZISSEN
 10
889.0
 20
247.75
 30
0.0
 40
4.5
  1
P.P
  0
SOLID
  8
L-ZISSEN
 10
986.433721
 20
237.433721
 30
0.0
 11
985.891232
 21
237.821213
 31
0.0
 12
985.0
 22
236.0
 32
0.0
 13
985.0
 23
236.0
 33
0.0
  0
LINE
  8
L-ZISSEN
 10
986.162476
 20
237.627467
 30
0.0
 11
995.0
 21
250.0
 31
0.0
  0
LINE
  8
L-ZISSEN
 10
995.0
 20
250.0
 30
0.0
 11
997.0
 21
250.0
 31
0.0
  0
TEXT
  8
L-ZISSEN
 10
999.0
 20
247.75
 30
0.0
 40
4.5
  1
P.P
  0
TEXT
  8
L-ZISSEN
 10
555.0
 20
800.0
 30
0.0
 40
4.5
  1
MODEL No. : AF-530Y
  0
SOLID
  8
L-ZISSEN
 10
103.350084
 20
468.821489
 30
0.0
 11
103.821489
 21
468.350084
 31
0.0
 12
105.0
 22
470.0
 32
0.0
 13
105.0
 23
470.0
 33
0.0
  0
LINE
  8
L-ZISSEN
 10
103.585786
 20
468.585786
 30
0.0
 11
90.0
 21
455.0
 31
0.0
  0
LINE
  8
L-ZISSEN
 10
90.0
 20
455.0
 30
0.0
 11
88.0
 21
455.0
 31
0.0
  0
TEXT
  8
L-ZISSEN
 10
80.0
 20
452.75
 30
0.0
 40
4.5
  1
IN
  0
TEXT
  8
L-ZISSEN
 10
70.0
 20
445.0
 30
0.0
 40
4.5
  1
Rc 3
  0
ENDSEC
  0
EOF
