  0
SECTION
  2
HEADER
  9
$ACADVER
  1
AC1012
  9
$DWGCODEPAGE
  3
dos932
  9
$INSBASE
 10
0.0
 20
0.0
 30
0.0
  9
$EXTMIN
 10
-74.99999999999778
 20
-286.6396806662901
 30
0.0
  9
$EXTMAX
 10
817.3038572218828
 20
343.3603677856383
 30
0.0
  9
$LIMMIN
 10
0.0
 20
0.0
  9
$LIMMAX
 10
12.0
 20
9.0
  9
$ORTHOMODE
 70
     1
  9
$REGENMODE
 70
     1
  9
$FILLMODE
 70
     1
  9
$QTEXTMODE
 70
     0
  9
$MIRRTEXT
 70
     1
  9
$DRAGMODE
 70
     2
  9
$LTSCALE
 40
1.0
  9
$OSMODE
 70
    39
  9
$ATTMODE
 70
     1
  9
$TEXTSIZE
 40
4.5
  9
$TRACEWID
 40
0.05
  9
$TEXTSTYLE
  7
STANDARD
  9
$CLAYER
  8
L-TYUSIN
  9
$CELTYPE
  6
BYLAYER
  9
$CECOLOR
 62
   256
  9
$CELTSCALE
 40
1.0
  9
$DELOBJ
 70
     1
  9
$DISPSILH
 70
     0
  9
$DIMSCALE
 40
0.0
  9
$DIMASZ
 40
2.0
  9
$DIMEXO
 40
1.0
  9
$DIMDLI
 40
8.0
  9
$DIMRND
 40
0.0
  9
$DIMDLE
 40
0.0
  9
$DIMEXE
 40
1.0
  9
$DIMTP
 40
0.0
  9
$DIMTM
 40
0.0
  9
$DIMTXT
 40
4.5
  9
$DIMCEN
 40
1.5
  9
$DIMTSZ
 40
0.0
  9
$DIMTOL
 70
     0
  9
$DIMLIM
 70
     0
  9
$DIMTIH
 70
     0
  9
$DIMTOH
 70
     0
  9
$DIMSE1
 70
     0
  9
$DIMSE2
 70
     0
  9
$DIMTAD
 70
     1
  9
$DIMZIN
 70
     8
  9
$DIMBLK
  1

  9
$DIMASO
 70
     1
  9
$DIMSHO
 70
     0
  9
$DIMPOST
  1

  9
$DIMAPOST
  1

  9
$DIMALT
 70
     0
  9
$DIMALTD
 70
     2
  9
$DIMALTF
 40
25.4
  9
$DIMLFAC
 40
1.0
  9
$DIMTOFL
 70
     1
  9
$DIMTVP
 40
0.0
  9
$DIMTIX
 70
     1
  9
$DIMSOXD
 70
     0
  9
$DIMSAH
 70
     0
  9
$DIMBLK1
  1

  9
$DIMBLK2
  1

  9
$DIMSTYLE
  2
STANDARD
  9
$DIMCLRD
 70
     0
  9
$DIMCLRE
 70
     0
  9
$DIMCLRT
 70
     0
  9
$DIMTFAC
 40
1.0
  9
$DIMGAP
 40
1.399999999999999
  9
$DIMJUST
 70
     0
  9
$DIMSD1
 70
     0
  9
$DIMSD2
 70
     0
  9
$DIMTOLJ
 70
     1
  9
$DIMTZIN
 70
     8
  9
$DIMALTZ
 70
     0
  9
$DIMALTTZ
 70
     0
  9
$DIMFIT
 70
     3
  9
$DIMUPT
 70
     0
  9
$DIMUNIT
 70
     2
  9
$DIMDEC
 70
     4
  9
$DIMTDEC
 70
     4
  9
$DIMALTU
 70
     2
  9
$DIMALTTD
 70
     2
  9
$DIMTXSTY
  7
KANJI
  9
$DIMAUNIT
 70
     0
  9
$LUNITS
 70
     2
  9
$LUPREC
 70
     4
  9
$SKETCHINC
 40
0.1
  9
$FILLETRAD
 40
2.299999999999999
  9
$AUNITS
 70
     0
  9
$AUPREC
 70
     0
  9
$MENU
  1
acad
  9
$ELEVATION
 40
0.0
  9
$PELEVATION
 40
0.0
  9
$THICKNESS
 40
0.0
  9
$LIMCHECK
 70
     0
  9
$BLIPMODE
 70
     0
  9
$CHAMFERA
 40
7.0
  9
$CHAMFERB
 40
7.0
  9
$CHAMFERC
 40
0.0
  9
$CHAMFERD
 40
0.0
  9
$SKPOLY
 70
     0
  9
$TDCREATE
 40
2450178.569598264
  9
$TDUPDATE
 40
2455072.588562453
  9
$TDINDWG
 40
1.4963697338
  9
$TDUSRTIMER
 40
1.4963697338
  9
$USRTIMER
 70
     1
  9
$ANGBASE
 50
0.0
  9
$ANGDIR
 70
     0
  9
$PDMODE
 70
     0
  9
$PDSIZE
 40
0.0
  9
$PLINEWID
 40
0.0
  9
$COORDS
 70
     0
  9
$SPLFRAME
 70
     0
  9
$SPLINETYPE
 70
     6
  9
$SPLINESEGS
 70
     8
  9
$ATTDIA
 70
     0
  9
$ATTREQ
 70
     1
  9
$HANDLING
 70
-16383
  9
$HANDSEED
  5
57A
  9
$SURFTAB1
 70
     6
  9
$SURFTAB2
 70
     6
  9
$SURFTYPE
 70
     6
  9
$SURFU
 70
     6
  9
$SURFV
 70
     6
  9
$UCSNAME
  2

  9
$UCSORG
 10
0.0
 20
0.0
 30
0.0
  9
$UCSXDIR
 10
1.0
 20
0.0
 30
0.0
  9
$UCSYDIR
 10
0.0
 20
1.0
 30
0.0
  9
$PUCSNAME
  2

  9
$PUCSORG
 10
0.0
 20
0.0
 30
0.0
  9
$PUCSXDIR
 10
1.0
 20
0.0
 30
0.0
  9
$PUCSYDIR
 10
0.0
 20
1.0
 30
0.0
  9
$USERI1
 70
     0
  9
$USERI2
 70
     0
  9
$USERI3
 70
     0
  9
$USERI4
 70
     0
  9
$USERI5
 70
     0
  9
$USERR1
 40
0.0
  9
$USERR2
 40
0.0
  9
$USERR3
 40
0.0
  9
$USERR4
 40
0.0
  9
$USERR5
 40
0.0
  9
$WORLDVIEW
 70
     1
  9
$SHADEDGE
 70
     3
  9
$SHADEDIF
 70
    70
  9
$TILEMODE
 70
     1
  9
$MAXACTVP
 70
    16
  9
$PINSBASE
 10
0.0
 20
0.0
 30
0.0
  9
$PLIMCHECK
 70
     0
  9
$PEXTMIN
 10
1.000000000000000E+20
 20
1.000000000000000E+20
 30
1.000000000000000E+20
  9
$PEXTMAX
 10
-1.000000000000000E+20
 20
-1.000000000000000E+20
 30
-1.000000000000000E+20
  9
$PLIMMIN
 10
0.0
 20
0.0
  9
$PLIMMAX
 10
12.0
 20
9.0
  9
$UNITMODE
 70
     0
  9
$VISRETAIN
 70
     0
  9
$PLINEGEN
 70
     0
  9
$PSLTSCALE
 70
     0
  9
$TREEDEPTH
 70
  3020
  9
$PICKSTYLE
 70
     1
  9
$CMLSTYLE
  2
STANDARD
  9
$CMLJUST
 70
     0
  9
$CMLSCALE
 40
1.0
  9
$SAVEIMAGES
 70
     1
  0
ENDSEC
  0
SECTION
  2
CLASSES
  0
CLASS
  1
ACDBDICTIONARYWDFLT
  2
AcDbDictionaryWithDefault
  3
AutoCAD 2000
 90
    32768
280
     0
281
     0
  0
CLASS
  1
ACDBPLACEHOLDER
  2
AcDbPlaceHolder
  3
AutoCAD 2000
 90
    32768
280
     0
281
     0
  0
CLASS
  1
LAYOUT
  2
AcDbLayout
  3
AutoCAD 2000
 90
    32768
280
     0
281
     0
  0
CLASS
  1
LONG_TRANSACTION
  2
AcDbLongTransaction
  3
AutoCAD 2000
 90
    32768
280
     0
281
     0
  0
CLASS
  1
LWPOLYLINE
  2
AcDbPolyline
  3
AutoCAD 2000
 90
    32768
280
     0
281
     1
  0
CLASS
  1
HATCH
  2
AcDbHatch
  3
AutoCAD 2000
 90
    32768
280
     0
281
     1
  0
CLASS
  1
XRECORD
  2
AcDbXrecord
  3
AutoCAD 2000
 90
    32768
280
     0
281
     0
  0
CLASS
  1
LONG_TRANSACTION
  2
AcDbLongTransaction
  3
AutoCAD 2000
 90
    32768
280
     0
281
     0
  0
CLASS
  1
LWPOLYLINE
  2
AcDbPolyline
  3
AutoCAD 2000
 90
    32768
280
     0
281
     1
  0
CLASS
  1
HATCH
  2
AcDbHatch
  3
AutoCAD 2000
 90
    32768
280
     0
281
     1
  0
CLASS
  1
XRECORD
  2
AcDbXrecord
  3
AutoCAD 2000
 90
    32768
280
     0
281
     0
  0
CLASS
  1
LONG_TRANSACTION
  2
AcDbLongTransaction
  3
AutoCAD 2000
 90
    32768
280
     0
281
     0
  0
CLASS
  1
LWPOLYLINE
  2
AcDbPolyline
  3
AutoCAD 2000
 90
    32768
280
     0
281
     1
  0
CLASS
  1
HATCH
  2
AcDbHatch
  3
AutoCAD 2000
 90
    32768
280
     0
281
     1
  0
CLASS
  1
XRECORD
  2
AcDbXrecord
  3
AutoCAD 2000
 90
    32768
280
     0
281
     0
  0
CLASS
  1
LONG_TRANSACTION
  2
AcDbLongTransaction
  3
AutoCAD 2000
 90
    32768
280
     0
281
     0
  0
CLASS
  1
LWPOLYLINE
  2
AcDbPolyline
  3
AutoCAD 2000
 90
    32768
280
     0
281
     1
  0
CLASS
  1
HATCH
  2
AcDbHatch
  3
AutoCAD 2000
 90
    32768
280
     0
281
     1
  0
CLASS
  1
XRECORD
  2
AcDbXrecord
  3
AutoCAD 2000
 90
    32768
280
     0
281
     0
  0
CLASS
  1
LONG_TRANSACTION
  2
AcDbLongTransaction
  3
AutoCAD 2000
 90
    32768
280
     0
281
     0
  0
CLASS
  1
LWPOLYLINE
  2
AcDbPolyline
  3
AutoCAD 2000
 90
    32768
280
     0
281
     1
  0
CLASS
  1
HATCH
  2
AcDbHatch
  3
AutoCAD 2000
 90
    32768
280
     0
281
     1
  0
CLASS
  1
XRECORD
  2
AcDbXrecord
  3
AutoCAD 2000
 90
    32768
280
     0
281
     0
  0
CLASS
  1
LONG_TRANSACTION
  2
AcDbLongTransaction
  3
AutoCAD 2000
 90
    32768
280
     0
281
     0
  0
CLASS
  1
LWPOLYLINE
  2
AcDbPolyline
  3
AutoCAD 2000
 90
    32768
280
     0
281
     1
  0
CLASS
  1
HATCH
  2
AcDbHatch
  3
AutoCAD 2000
 90
    32768
280
     0
281
     1
  0
CLASS
  1
XRECORD
  2
AcDbXrecord
  3
AutoCAD 2000
 90
    32768
280
     0
281
     0
  0
CLASS
  1
LONG_TRANSACTION
  2
AcDbLongTransaction
  3
AutoCAD 2000
 90
    32768
280
     0
281
     0
  0
CLASS
  1
LWPOLYLINE
  2
AcDbPolyline
  3
AutoCAD 2000
 90
    32768
280
     0
281
     1
  0
CLASS
  1
HATCH
  2
AcDbHatch
  3
AutoCAD 2000
 90
    32768
280
     0
281
     1
  0
CLASS
  1
XRECORD
  2
AcDbXrecord
  3
AutoCAD 2000
 90
    32768
280
     0
281
     0
  0
CLASS
  1
LONG_TRANSACTION
  2
AcDbLongTransaction
  3
AutoCAD 2000
 90
    32768
280
     0
281
     0
  0
CLASS
  1
LWPOLYLINE
  2
AcDbPolyline
  3
AutoCAD 2000
 90
    32768
280
     0
281
     1
  0
CLASS
  1
HATCH
  2
AcDbHatch
  3
AutoCAD 2000
 90
    32768
280
     0
281
     1
  0
CLASS
  1
XRECORD
  2
AcDbXrecord
  3
AutoCAD 2000
 90
    32768
280
     0
281
     0
  0
CLASS
  1
LONG_TRANSACTION
  2
AcDbLongTransaction
  3
AutoCAD 2000
 90
    32768
280
     0
281
     0
  0
CLASS
  1
LWPOLYLINE
  2
AcDbPolyline
  3
AutoCAD 2000
 90
    32768
280
     0
281
     1
  0
CLASS
  1
HATCH
  2
AcDbHatch
  3
AutoCAD 2000
 90
    32768
280
     0
281
     1
  0
CLASS
  1
XRECORD
  2
AcDbXrecord
  3
AutoCAD 2000
 90
    32768
280
     0
281
     0
  0
CLASS
  1
LONG_TRANSACTION
  2
AcDbLongTransaction
  3
AutoCAD 2000
 90
    32768
280
     0
281
     0
  0
CLASS
  1
LWPOLYLINE
  2
AcDbPolyline
  3
AutoCAD 2000
 90
    32768
280
     0
281
     1
  0
CLASS
  1
HATCH
  2
AcDbHatch
  3
AutoCAD 2000
 90
    32768
280
     0
281
     1
  0
CLASS
  1
XRECORD
  2
AcDbXrecord
  3
AutoCAD 2000
 90
    32768
280
     0
281
     0
  0
CLASS
  1
LONG_TRANSACTION
  2
AcDbLongTransaction
  3
AutoCAD 2000
 90
    32768
280
     0
281
     0
  0
CLASS
  1
LWPOLYLINE
  2
AcDbPolyline
  3
AutoCAD 2000
 90
    32768
280
     0
281
     1
  0
CLASS
  1
HATCH
  2
AcDbHatch
  3
AutoCAD 2000
 90
    32768
280
     0
281
     1
  0
CLASS
  1
XRECORD
  2
AcDbXrecord
  3
AutoCAD 2000
 90
    32768
280
     0
281
     0
  0
CLASS
  1
LONG_TRANSACTION
  2
AcDbLongTransaction
  3
AutoCAD 2000
 90
    32768
280
     0
281
     0
  0
CLASS
  1
LWPOLYLINE
  2
AcDbPolyline
  3
AutoCAD 2000
 90
    32768
280
     0
281
     1
  0
CLASS
  1
HATCH
  2
AcDbHatch
  3
AutoCAD 2000
 90
    32768
280
     0
281
     1
  0
CLASS
  1
XRECORD
  2
AcDbXrecord
  3
AutoCAD 2000
 90
    32768
280
     0
281
     0
  0
CLASS
  1
LONG_TRANSACTION
  2
AcDbLongTransaction
  3
AutoCAD 2000
 90
    32768
280
     0
281
     0
  0
CLASS
  1
LWPOLYLINE
  2
AcDbPolyline
  3
AutoCAD 2000
 90
    32768
280
     0
281
     1
  0
CLASS
  1
HATCH
  2
AcDbHatch
  3
AutoCAD 2000
 90
    32768
280
     0
281
     1
  0
CLASS
  1
XRECORD
  2
AcDbXrecord
  3
AutoCAD 2000
 90
    32768
280
     0
281
     0
  0
CLASS
  1
LONG_TRANSACTION
  2
AcDbLongTransaction
  3
AutoCAD 2000
 90
    32768
280
     0
281
     0
  0
CLASS
  1
LWPOLYLINE
  2
AcDbPolyline
  3
AutoCAD 2000
 90
    32768
280
     0
281
     1
  0
CLASS
  1
HATCH
  2
AcDbHatch
  3
AutoCAD 2000
 90
    32768
280
     0
281
     1
  0
CLASS
  1
XRECORD
  2
AcDbXrecord
  3
AutoCAD 2000
 90
    32768
280
     0
281
     0
  0
CLASS
  1
LONG_TRANSACTION
  2
AcDbLongTransaction
  3
AutoCAD 2000
 90
    32768
280
     0
281
     0
  0
CLASS
  1
LWPOLYLINE
  2
AcDbPolyline
  3
AutoCAD 2000
 90
    32768
280
     0
281
     1
  0
CLASS
  1
HATCH
  2
AcDbHatch
  3
AutoCAD 2000
 90
    32768
280
     0
281
     1
  0
CLASS
  1
XRECORD
  2
AcDbXrecord
  3
AutoCAD 2000
 90
    32768
280
     0
281
     0
  0
CLASS
  1
LONG_TRANSACTION
  2
AcDbLongTransaction
  3
AutoCAD 2000
 90
    32768
280
     0
281
     0
  0
CLASS
  1
LWPOLYLINE
  2
AcDbPolyline
  3
AutoCAD 2000
 90
    32768
280
     0
281
     1
  0
CLASS
  1
HATCH
  2
AcDbHatch
  3
AutoCAD 2000
 90
    32768
280
     0
281
     1
  0
CLASS
  1
XRECORD
  2
AcDbXrecord
  3
AutoCAD 2000
 90
    32768
280
     0
281
     0
  0
CLASS
  1
LONG_TRANSACTION
  2
AcDbLongTransaction
  3
AutoCAD 2000
 90
    32768
280
     0
281
     0
  0
CLASS
  1
LWPOLYLINE
  2
AcDbPolyline
  3
AutoCAD 2000
 90
    32768
280
     0
281
     1
  0
CLASS
  1
HATCH
  2
AcDbHatch
  3
AutoCAD 2000
 90
    32768
280
     0
281
     1
  0
CLASS
  1
XRECORD
  2
AcDbXrecord
  3
AutoCAD 2000
 90
    32768
280
     0
281
     0
  0
CLASS
  1
LONG_TRANSACTION
  2
AcDbLongTransaction
  3
AutoCAD 2000
 90
    32768
280
     0
281
     0
  0
CLASS
  1
LWPOLYLINE
  2
AcDbPolyline
  3
AutoCAD 2000
 90
    32768
280
     0
281
     1
  0
CLASS
  1
HATCH
  2
AcDbHatch
  3
AutoCAD 2000
 90
    32768
280
     0
281
     1
  0
CLASS
  1
XRECORD
  2
AcDbXrecord
  3
AutoCAD 2000
 90
    32768
280
     0
281
     0
  0
CLASS
  1
LONG_TRANSACTION
  2
AcDbLongTransaction
  3
AutoCAD 2000
 90
    32768
280
     0
281
     0
  0
CLASS
  1
LWPOLYLINE
  2
AcDbPolyline
  3
AutoCAD 2000
 90
    32768
280
     0
281
     1
  0
CLASS
  1
HATCH
  2
AcDbHatch
  3
AutoCAD 2000
 90
    32768
280
     0
281
     1
  0
CLASS
  1
XRECORD
  2
AcDbXrecord
  3
AutoCAD 2000
 90
    32768
280
     0
281
     0
  0
CLASS
  1
LONG_TRANSACTION
  2
AcDbLongTransaction
  3
AutoCAD 2000
 90
    32768
280
     0
281
     0
  0
CLASS
  1
LWPOLYLINE
  2
AcDbPolyline
  3
AutoCAD 2000
 90
    32768
280
     0
281
     1
  0
CLASS
  1
HATCH
  2
AcDbHatch
  3
AutoCAD 2000
 90
    32768
280
     0
281
     1
  0
CLASS
  1
XRECORD
  2
AcDbXrecord
  3
AutoCAD 2000
 90
    32768
280
     0
281
     0
  0
CLASS
  1
LONG_TRANSACTION
  2
AcDbLongTransaction
  3
AutoCAD 2000
 90
    32768
280
     0
281
     0
  0
CLASS
  1
LWPOLYLINE
  2
AcDbPolyline
  3
AutoCAD 2000
 90
    32768
280
     0
281
     1
  0
CLASS
  1
HATCH
  2
AcDbHatch
  3
AutoCAD 2000
 90
    32768
280
     0
281
     1
  0
CLASS
  1
XRECORD
  2
AcDbXrecord
  3
AutoCAD 2000
 90
    32768
280
     0
281
     0
  0
CLASS
  1
LONG_TRANSACTION
  2
AcDbLongTransaction
  3
AutoCAD 2000
 90
    32768
280
     0
281
     0
  0
CLASS
  1
LWPOLYLINE
  2
AcDbPolyline
  3
AutoCAD 2000
 90
    32768
280
     0
281
     1
  0
CLASS
  1
HATCH
  2
AcDbHatch
  3
AutoCAD 2000
 90
    32768
280
     0
281
     1
  0
CLASS
  1
XRECORD
  2
AcDbXrecord
  3
AutoCAD 2000
 90
    32768
280
     0
281
     0
  0
CLASS
  1
LONG_TRANSACTION
  2
AcDbLongTransaction
  3
AutoCAD 2000
 90
    32768
280
     0
281
     0
  0
CLASS
  1
LWPOLYLINE
  2
AcDbPolyline
  3
AutoCAD 2000
 90
    32768
280
     0
281
     1
  0
CLASS
  1
HATCH
  2
AcDbHatch
  3
AutoCAD 2000
 90
    32768
280
     0
281
     1
  0
CLASS
  1
XRECORD
  2
AcDbXrecord
  3
AutoCAD 2000
 90
    32768
280
     0
281
     0
  0
CLASS
  1
LONG_TRANSACTION
  2
AcDbLongTransaction
  3
AutoCAD 2000
 90
    32768
280
     0
281
     0
  0
CLASS
  1
LWPOLYLINE
  2
AcDbPolyline
  3
AutoCAD 2000
 90
    32768
280
     0
281
     1
  0
CLASS
  1
HATCH
  2
AcDbHatch
  3
AutoCAD 2000
 90
    32768
280
     0
281
     1
  0
CLASS
  1
XRECORD
  2
AcDbXrecord
  3
AutoCAD 2000
 90
    32768
280
     0
281
     0
  0
CLASS
  1
LONG_TRANSACTION
  2
AcDbLongTransaction
  3
AutoCAD 2000
 90
    32768
280
     0
281
     0
  0
CLASS
  1
LWPOLYLINE
  2
AcDbPolyline
  3
AutoCAD 2000
 90
    32768
280
     0
281
     1
  0
CLASS
  1
HATCH
  2
AcDbHatch
  3
AutoCAD 2000
 90
    32768
280
     0
281
     1
  0
CLASS
  1
XRECORD
  2
AcDbXrecord
  3
AutoCAD 2000
 90
    32768
280
     0
281
     0
  0
ENDSEC
  0
SECTION
  2
TABLES
  0
TABLE
  2
VPORT
  5
20
330
0
100
AcDbSymbolTable
 70
     2
  0
VPORT
  5
560
330
20
100
AcDbSymbolTableRecord
100
AcDbViewportTableRecord
  2
*ACTIVE
 70
     0
 10
0.0
 20
0.0
 11
1.0
 21
1.0
 12
343.5590639818407
 22
37.91805067475763
 13
0.0
 23
0.0
 14
1.0
 24
1.0
 15
0.0
 25
0.0
 16
0.0
 26
0.0
 36
1.0
 17
0.0
 27
0.0
 37
0.0
 40
717.0371738485908
 41
1.60759493670886
 42
50.0
 43
0.0
 44
0.0
 50
0.0
 51
0.0
 71
     0
 72
   100
 73
     1
 74
     0
 75
     0
 76
     0
 77
     0
 78
     0
  0
ENDTAB
  0
TABLE
  2
LTYPE
  5
1B
330
0
100
AcDbSymbolTable
 70
     3
  0
LTYPE
  5
1C
330
1B
100
AcDbSymbolTableRecord
100
AcDbLinetypeTableRecord
  2
BYBLOCK
 70
     0
  3

 72
    65
 73
     0
 40
0.0
  0
LTYPE
  5
1D
330
1B
100
AcDbSymbolTableRecord
100
AcDbLinetypeTableRecord
  2
BYLAYER
 70
     0
  3

 72
    65
 73
     0
 40
0.0
  0
LTYPE
  5
B
330
1B
100
AcDbSymbolTableRecord
100
AcDbLinetypeTableRecord
  2
CONTINUOUS
 70
     0
  3
Solid line
 72
    65
 73
     0
 40
0.0
  0
LTYPE
  5
29
330
1B
100
AcDbSymbolTableRecord
100
AcDbLinetypeTableRecord
  2
CENTER
 70
     0
  3
----- - ----- - ----- - ----- - -----
 72
    65
 73
     4
 40
35.0
 49
30.0
 74
     0
 49
-1.5
 74
     0
 49
2.0
 74
     0
 49
-1.5
 74
     0
  0
LTYPE
  5
B5
330
1B
100
AcDbSymbolTableRecord
100
AcDbLinetypeTableRecord
  2
PHANTOM
 70
     0
  3
----- - - ----- - - ----- - - ----- - - -----
 72
    65
 73
     6
 40
22.5
 49
15.0
 74
     0
 49
-1.5
 74
     0
 49
1.5
 74
     0
 49
-1.5
 74
     0
 49
1.5
 74
     0
 49
-1.5
 74
     0
  0
ENDTAB
  0
TABLE
  2
LAYER
  5
15
102
{ACAD_XDICTIONARY
360
16
102
}
330
0
100
AcDbSymbolTable
 70
     5
  0
LAYER
  5
7
330
15
100
AcDbSymbolTableRecord
100
AcDbLayerTableRecord
  2
0
 70
     0
 62
     7
  6
CONTINUOUS
  0
LAYER
  5
2E
330
15
100
AcDbSymbolTableRecord
100
AcDbLayerTableRecord
  2
L-ZISSEN
 70
     0
 62
     7
  6
CONTINUOUS
  0
LAYER
  5
28
330
15
100
AcDbSymbolTableRecord
100
AcDbLayerTableRecord
  2
L-TYUSIN
 70
     0
 62
     1
  6
CENTER
  0
LAYER
  5
236
330
15
100
AcDbSymbolTableRecord
100
AcDbLayerTableRecord
  2
L-SAISEN
 70
     0
 62
     6
  6
CONTINUOUS
  0
LAYER
  5
B4
330
15
100
AcDbSymbolTableRecord
100
AcDbLayerTableRecord
  2
L-SOUZOU
 70
     0
 62
     2
  6
PHANTOM
  0
ENDTAB
  0
TABLE
  2
STYLE
  5
18
330
0
100
AcDbSymbolTable
 70
     2
  0
STYLE
  5
19
330
18
100
AcDbSymbolTableRecord
100
AcDbTextStyleTableRecord
  2
STANDARD
 70
     0
 40
0.0
 41
1.0
 50
0.0
 71
     0
 42
4.5
  3
txt.shx
  4

  0
STYLE
  5
2A
330
18
100
AcDbSymbolTableRecord
100
AcDbTextStyleTableRecord
  2
KANJI
 70
     0
 40
0.0
 41
0.8
 50
0.0
 71
     0
 42
1.5
  3
C:\Program Files\AutoCAD LT\ROMANS
  4
BIGFONT
  0
ENDTAB
  0
TABLE
  2
VIEW
  5
1E
330
0
100
AcDbSymbolTable
 70
     0
  0
ENDTAB
  0
TABLE
  2
UCS
  5
1F
330
0
100
AcDbSymbolTable
 70
     0
  0
ENDTAB
  0
TABLE
  2
APPID
  5
22
330
0
100
AcDbSymbolTable
 70
     1
  0
APPID
  5
5
330
22
100
AcDbSymbolTableRecord
100
AcDbRegAppTableRecord
  2
ACAD
 70
     0
  0
ENDTAB
  0
TABLE
  2
DIMSTYLE
  5
23
330
0
100
AcDbSymbolTable
 70
     1
  0
DIMSTYLE
105
2C
330
23
100
AcDbSymbolTableRecord
100
AcDbDimStyleTableRecord
  2
STANDARD
 70
     0
  3

  4

  5

  6

  7

 40
1.0
 41
0.18
 42
0.0625
 43
0.38
 44
0.18
 45
0.0
 46
0.0
 47
0.0
 48
0.0
140
0.18
141
0.09
142
0.0
143
25.4
144
1.0
145
0.0
146
1.0
147
0.09
 71
     0
 72
     0
 73
     1
 74
     1
 75
     0
 76
     0
 77
     0
 78
     0
170
     0
171
     2
172
     0
173
     0
174
     0
175
     0
176
     0
177
     0
178
     0
270
     2
271
     4
272
     4
273
     2
274
     2
340
19
275
     0
280
     0
281
     0
282
     0
283
     1
284
     0
285
     0
286
     0
287
     3
288
     0
  0
ENDTAB
  0
TABLE
  2
BLOCK_RECORD
  5
1
330
0
100
AcDbSymbolTable
 70
     0
  0
BLOCK_RECORD
  5
2
102
{ACAD_XDICTIONARY
360
3
102
}
330
1
100
AcDbSymbolTableRecord
100
AcDbBlockTableRecord
  2
*MODEL_SPACE
  0
BLOCK_RECORD
  5
F
102
{ACAD_XDICTIONARY
360
10
102
}
330
1
100
AcDbSymbolTableRecord
100
AcDbBlockTableRecord
  2
*PAPER_SPACE
  0
ENDTAB
  0
ENDSEC
  0
SECTION
  2
BLOCKS
  0
BLOCK
  5
6
330
2
100
AcDbEntity
  8
0
100
AcDbBlockBegin
  2
*MODEL_SPACE
 70
     0
 10
0.0
 20
0.0
 30
0.0
  3
*MODEL_SPACE
  1

  0
ENDBLK
  5
C
330
2
100
AcDbEntity
  8
0
100
AcDbBlockEnd
  0
BLOCK
  5
12
330
F
100
AcDbEntity
 67
     1
  8
0
100
AcDbBlockBegin
  2
*PAPER_SPACE
 70
     0
 10
0.0
 20
0.0
 30
0.0
  3
*PAPER_SPACE
  1

  0
ENDBLK
  5
13
330
F
100
AcDbEntity
 67
     1
  8
0
100
AcDbBlockEnd
  0
ENDSEC
  0
SECTION
  2
ENTITIES
  0
LINE
  5
2D
330
2
100
AcDbEntity
  8
L-ZISSEN
100
AcDbLine
 10
253.5007109294485
 20
1.732292899570438
 30
0.0
 11
293.3578026598211
 21
70.80542144514367
 31
0.0
  0
LINE
  5
2F
330
2
100
AcDbEntity
  8
L-ZISSEN
100
AcDbLine
 10
-69.99999999999772
 20
63.0
 30
0.0
 11
-69.99999999999772
 21
-62.99999999999989
 31
0.0
  0
LINE
  5
30
330
2
100
AcDbEntity
  8
L-ZISSEN
100
AcDbLine
 10
-59.99999999999795
 20
-62.99999999999989
 30
0.0
 11
-59.99999999999778
 21
63.00000000000022
 31
0.0
  0
LINE
  5
31
330
2
100
AcDbEntity
  8
L-ZISSEN
100
AcDbLine
 10
241.0
 20
16.07459064444628
 30
0.0
 11
241.0
 21
32.00000000000091
 31
0.0
  0
LINE
  5
32
330
2
100
AcDbEntity
  8
L-ZISSEN
100
AcDbLine
 10
264.4999999999948
 20
24.00000000000023
 30
0.0
 11
264.4999999999948
 21
63.00000000000011
 31
0.0
  0
LINE
  5
33
330
2
100
AcDbEntity
  8
L-ZISSEN
100
AcDbLine
 10
310.1961524227015
 20
30.30000000000097
 30
0.0
 11
310.1961524227015
 21
26.80000000000097
 31
0.0
  0
LINE
  5
34
330
2
100
AcDbEntity
  8
L-ZISSEN
100
AcDbLine
 10
299.8038475772884
 20
30.30000000000097
 30
0.0
 11
299.8038475772884
 21
26.80000000000097
 31
0.0
  0
LINE
  5
35
330
2
100
AcDbEntity
  8
L-ZISSEN
100
AcDbLine
 10
294.9999999999947
 20
26.80000000000097
 30
0.0
 11
294.9999999999947
 21
30.30000000000097
 31
0.0
  0
LINE
  5
36
330
2
100
AcDbEntity
  8
L-ZISSEN
100
AcDbLine
 10
326.9999999999947
 20
31.50000000000011
 30
0.0
 11
326.9999999999947
 21
23.99999999999977
 31
0.0
  0
LINE
  5
37
330
2
100
AcDbEntity
  8
L-ZISSEN
100
AcDbLine
 10
310.9999999999952
 20
31.50000000000011
 30
0.0
 11
310.9999999999952
 21
23.99999999999977
 31
0.0
  0
LINE
  5
38
330
2
100
AcDbEntity
  8
L-TYUSIN
100
AcDbLine
 10
304.9999999999947
 20
52.26294754735352
 30
0.0
 11
304.9999999999947
 21
-217.0329315571168
 31
0.0
  0
LINE
  5
39
330
2
100
AcDbEntity
  8
L-ZISSEN
100
AcDbLine
 10
245.0
 20
32.00000000000091
 30
0.0
 11
245.0
 21
28.00000000000091
 31
0.0
  0
LINE
  5
3A
330
2
100
AcDbEntity
  8
L-ZISSEN
100
AcDbLine
 10
236.0
 20
17.0
 30
0.0
 11
236.0
 21
32.00000000000091
 31
0.0
  0
LINE
  5
3B
330
2
100
AcDbEntity
  8
L-ZISSEN
100
AcDbLine
 10
155.0
 20
28.00000000000091
 30
0.0
 11
155.0
 21
32.00000000000091
 31
0.0
  0
LINE
  5
3C
330
2
100
AcDbEntity
  8
L-ZISSEN
100
AcDbLine
 10
158.9999999999981
 20
17.0
 30
0.0
 11
158.9999999999981
 21
32.00000000000091
 31
0.0
  0
LINE
  5
3D
330
2
100
AcDbEntity
  8
L-ZISSEN
100
AcDbLine
 10
163.9999999999981
 20
17.0
 30
0.0
 11
163.9999999999981
 21
32.00000000000091
 31
0.0
  0
TEXT
  5
3E
330
2
100
AcDbEntity
  8
L-ZISSEN
100
AcDbText
 10
114.6387382303419
 20
26.10109309179256
 30
0.0
 40
4.5
  1
IN
100
AcDbText
  0
LINE
  5
3F
330
2
100
AcDbEntity
  8
L-ZISSEN
100
AcDbLine
 10
45.0
 20
18.50000000000091
 30
0.0
 11
45.0
 21
32.00000000000091
 31
0.0
  0
LINE
  5
40
330
2
100
AcDbEntity
  8
L-ZISSEN
100
AcDbLine
 10
-45.0
 20
18.50000000000091
 30
0.0
 11
-45.0
 21
32.00000000000091
 31
0.0
  0
LINE
  5
41
330
2
100
AcDbEntity
  8
L-ZISSEN
100
AcDbLine
 10
158.9999999999981
 20
-45.99999999999909
 30
0.0
 11
158.9999999999981
 21
32.00000000000091
 31
0.0
  0
LINE
  5
42
330
2
100
AcDbEntity
  8
L-TYUSIN
100
AcDbLine
 10
200.0
 20
-224.0000000000009
 30
0.0
 11
200.0
 21
125.0426939671806
 31
0.0
  0
LINE
  5
43
330
2
100
AcDbEntity
  8
L-ZISSEN
100
AcDbLine
 10
-27.0
 20
-45.99999999999909
 30
0.0
 11
-27.0
 21
32.00000000000091
 31
0.0
  0
LINE
  5
44
330
2
100
AcDbEntity
  8
L-ZISSEN
100
AcDbLine
 10
27.0
 20
-45.99999999999909
 30
0.0
 11
27.0
 21
32.00000000000091
 31
0.0
  0
LINE
  5
45
330
2
100
AcDbEntity
  8
L-TYUSIN
100
AcDbLine
 10
0.0
 20
-224.0000000000009
 30
0.0
 11
0.0
 21
125.104516656148
 31
0.0
  0
LINE
  5
46
330
2
100
AcDbEntity
  8
L-ZISSEN
100
AcDbLine
 10
16.84999999999718
 20
-116.3387389116328
 30
0.0
 11
16.84999999999718
 21
-184.3387389116319
 31
0.0
  0
LINE
  5
47
330
2
100
AcDbEntity
  8
L-ZISSEN
100
AcDbLine
 10
25.2800000000002
 20
-116.3387389116328
 30
0.0
 11
25.27999999999792
 21
-184.3387389116319
 31
0.0
  0
LINE
  5
48
330
2
100
AcDbEntity
  8
L-ZISSEN
100
AcDbLine
 10
29.99999999999772
 20
-192.4036840439894
 30
0.0
 11
30.0
 21
-106.0000000000004
 31
0.0
  0
LINE
  5
49
330
2
100
AcDbEntity
  8
L-ZISSEN
100
AcDbLine
 10
-25.28000000000247
 20
-116.3387389116328
 30
0.0
 11
-25.2800000000002
 21
-184.3387389116319
 31
0.0
  0
LINE
  5
4A
330
2
100
AcDbEntity
  8
L-ZISSEN
100
AcDbLine
 10
-16.84999999999945
 20
-116.3387389116328
 30
0.0
 11
-16.84999999999945
 21
-184.3387389116319
 31
0.0
  0
LINE
  5
4B
330
2
100
AcDbEntity
  8
L-ZISSEN
100
AcDbLine
 10
-30.00000000000227
 20
-192.4036840439894
 30
0.0
 11
-30.0
 21
-106.0000000000004
 31
0.0
  0
LINE
  5
4C
330
2
100
AcDbEntity
  8
L-ZISSEN
100
AcDbLine
 10
21.06500000000096
 20
-186.3387389116328
 30
0.0
 11
25.27999999999792
 21
-184.3387389116319
 31
0.0
  0
ARC
  5
4D
330
2
100
AcDbEntity
  8
L-ZISSEN
100
AcDbCircle
 10
0.000000000003638
 20
-103.5472889185175
 30
0.0
 40
99.53938471878515
100
AcDbArc
 50
275.3320776948647
 51
283.906237065043
  0
LINE
  5
4E
330
2
100
AcDbEntity
  8
L-ZISSEN
100
AcDbLine
 10
5.99999999999909
 20
-209.4411654104924
 30
0.0
 11
5.99999999999909
 21
-218.7000000000011
 31
0.0
  0
LINE
  5
4F
330
2
100
AcDbEntity
  8
L-ZISSEN
100
AcDbLine
 10
-5.999999999999204
 20
-218.7000000000011
 30
0.0
 11
-5.99999999999909
 21
-209.4411654104924
 31
0.0
  0
LINE
  5
50
330
2
100
AcDbEntity
  8
L-ZISSEN
100
AcDbLine
 10
5.000000000002273
 20
-208.9411654104924
 30
0.0
 11
5.00000000000432
 21
-219.0000000000009
 31
0.0
  0
LINE
  5
51
330
2
100
AcDbEntity
  8
L-ZISSEN
100
AcDbLine
 10
4.000000000003183
 20
-208.9411654104924
 30
0.0
 11
4.000000000003296
 21
-219.0000000000009
 31
0.0
  0
LINE
  5
52
330
2
100
AcDbEntity
  8
L-ZISSEN
100
AcDbLine
 10
2.999999999999545
 20
-208.9411654104924
 30
0.0
 11
2.999999999999545
 21
-219.0000000000009
 31
0.0
  0
LINE
  5
53
330
2
100
AcDbEntity
  8
L-ZISSEN
100
AcDbLine
 10
2.000000000000454
 20
-208.9411654104924
 30
0.0
 11
2.000000000000568
 21
-219.0000000000009
 31
0.0
  0
LINE
  5
54
330
2
100
AcDbEntity
  8
L-ZISSEN
100
AcDbLine
 10
1.000000000001364
 20
-208.9411654104924
 30
0.0
 11
1.000000000001477
 21
-219.0000000000009
 31
0.0
  0
LINE
  5
55
330
2
100
AcDbEntity
  8
L-ZISSEN
100
AcDbLine
 10
-5.0
 20
-208.9411654104924
 30
0.0
 11
-4.999999999999886
 21
-219.0000000000009
 31
0.0
  0
LINE
  5
56
330
2
100
AcDbEntity
  8
L-ZISSEN
100
AcDbLine
 10
-4.000000000000909
 20
-208.9411654104924
 30
0.0
 11
-4.000000000000909
 21
-219.0000000000009
 31
0.0
  0
LINE
  5
57
330
2
100
AcDbEntity
  8
L-ZISSEN
100
AcDbLine
 10
-2.999999999999545
 20
-208.9411654104924
 30
0.0
 11
-2.999999999999431
 21
-219.0000000000009
 31
0.0
  0
LINE
  5
58
330
2
100
AcDbEntity
  8
L-ZISSEN
100
AcDbLine
 10
0.0000000000022737
 20
-208.9411654104924
 30
0.0
 11
0.0000000000023874
 21
-219.0000000000009
 31
0.0
  0
LINE
  5
59
330
2
100
AcDbEntity
  8
L-ZISSEN
100
AcDbLine
 10
-0.9999999999990905
 20
-208.9411654104924
 30
0.0
 11
-0.9999999999989768
 21
-219.0000000000009
 31
0.0
  0
LINE
  5
5A
330
2
100
AcDbEntity
  8
L-ZISSEN
100
AcDbLine
 10
-1.999999999998181
 20
-208.9411654104924
 30
0.0
 11
-1.999999999998067
 21
-219.0000000000009
 31
0.0
  0
LINE
  5
5B
330
2
100
AcDbEntity
  8
L-ZISSEN
100
AcDbLine
 10
5.699999999999363
 20
-219.0000000000009
 30
0.0
 11
-5.699999999999363
 21
-219.0000000000009
 31
0.0
  0
LINE
  5
5C
330
2
100
AcDbEntity
  8
L-ZISSEN
100
AcDbLine
 10
-5.699999999999363
 20
-219.0000000000009
 30
0.0
 11
-5.99999999999909
 21
-218.7000000000011
 31
0.0
  0
LINE
  5
5D
330
2
100
AcDbEntity
  8
L-ZISSEN
100
AcDbLine
 10
5.699999999999363
 20
-219.0000000000009
 30
0.0
 11
5.99999999999909
 21
-218.7000000000011
 31
0.0
  0
ARC
  5
5E
330
2
100
AcDbEntity
  8
L-ZISSEN
100
AcDbCircle
 10
0.000000000003638
 20
-103.5472889185175
 30
0.0
 40
99.53938471878538
100
AcDbArc
 50
256.0937629349506
 51
264.6679223051352
  0
ARC
  5
5F
330
2
100
AcDbEntity
  8
L-ZISSEN
100
AcDbCircle
 10
-21.9999999999909
 20
-192.4036840439894
 30
0.0
 40
8.000000000000113
100
AcDbArc
 50
180.0
 51
256.0937629347642
  0
LINE
  5
60
330
2
100
AcDbEntity
  8
L-ZISSEN
100
AcDbLine
 10
-21.06500000000096
 20
-186.3387389116328
 30
0.0
 11
-25.2800000000002
 21
-184.3387389116319
 31
0.0
  0
LINE
  5
61
330
2
100
AcDbEntity
  8
L-ZISSEN
100
AcDbLine
 10
-16.84999999999945
 20
-184.3387389116319
 30
0.0
 11
-21.06500000000096
 21
-186.3387389116328
 31
0.0
  0
LINE
  5
62
330
2
100
AcDbEntity
  8
L-ZISSEN
100
AcDbLine
 10
2.999999999999545
 20
-208.9411654104924
 30
0.0
 11
5.499999999999545
 21
-208.9411654104924
 31
0.0
  0
LINE
  5
63
330
2
100
AcDbEntity
  8
L-ZISSEN
100
AcDbLine
 10
4.999999999999545
 20
-208.9411654104924
 30
0.0
 11
5.49999999999909
 21
-208.4411654104924
 31
0.0
  0
LINE
  5
64
330
2
100
AcDbEntity
  8
L-ZISSEN
100
AcDbLine
 10
-6.85923419779192
 20
-204.0000000000008
 30
0.0
 11
6.000000000000454
 21
-204.0000000000008
 31
0.0
  0
LINE
  5
65
330
2
100
AcDbEntity
  8
L-ZISSEN
100
AcDbLine
 10
6.000000000000454
 20
-203.8595512005649
 30
0.0
 11
-8.999999999999545
 21
-203.8595512005649
 31
0.0
  0
LINE
  5
66
330
2
100
AcDbEntity
  8
L-ZISSEN
100
AcDbLine
 10
6.000000000000454
 20
-203.8595512005649
 30
0.0
 11
-8.999999999999545
 21
-203.8595512005649
 31
0.0
  0
LINE
  5
67
330
2
100
AcDbEntity
  8
L-ZISSEN
100
AcDbLine
 10
-6.778315616504642
 20
-207.0006211148206
 30
0.0
 11
6.712718059993676
 21
-207.0014178845922
 31
0.0
  0
LINE
  5
68
330
2
100
AcDbEntity
  8
L-ZISSEN
100
AcDbLine
 10
9.000000000002273
 20
-202.6559495400515
 30
0.0
 11
-9.249999999998181
 21
-202.6559495400515
 31
0.0
  0
ARC
  5
69
330
2
100
AcDbEntity
  8
L-ZISSEN
100
AcDbCircle
 10
6.712718059993676
 20
-201.7300877142206
 30
0.0
 40
5.271330170371532
100
AcDbArc
 50
244.7408933165762
 51
295.7116451148668
  0
ARC
  5
6A
330
2
100
AcDbEntity
  8
L-ZISSEN
100
AcDbCircle
 10
6.71271805999504
 20
-209.2699122857816
 30
0.0
 40
5.271330170371789
100
AcDbArc
 50
64.28835488513318
 51
115.2591066834237
  0
LINE
  5
6B
330
2
100
AcDbEntity
  8
L-ZISSEN
100
AcDbLine
 10
4.463375637018543
 20
-204.5025880436873
 30
0.0
 11
4.463375637018543
 21
-206.4974119563153
 31
0.0
  0
LINE
  5
6C
330
2
100
AcDbEntity
  8
L-ZISSEN
100
AcDbLine
 10
-8.999643620082679
 20
-204.4902672699445
 30
0.0
 11
-8.999643620082679
 21
-206.5097327300573
 31
0.0
  0
LINE
  5
6D
330
2
100
AcDbEntity
  8
L-ZISSEN
100
AcDbLine
 10
-4.529536318017107
 20
-204.50311915795
 30
0.0
 11
-4.529536318010286
 21
-206.496880842053
 31
0.0
  0
LINE
  5
6E
330
2
100
AcDbEntity
  8
L-ZISSEN
100
AcDbLine
 10
-5.500000000001818
 20
-208.9411654104924
 30
0.0
 11
2.999999999999545
 21
-208.9411654104924
 31
0.0
  0
ARC
  5
6F
330
2
100
AcDbEntity
  8
L-ZISSEN
100
AcDbCircle
 10
0.0
 20
-186.3589373260838
 30
0.0
 40
20.64106267391694
100
AcDbArc
 50
257.3236813122678
 51
282.494419518429
  0
ARC
  5
70
330
2
100
AcDbEntity
  8
L-ZISSEN
100
AcDbCircle
 10
-6.778315616504642
 20
-201.72929094445
 30
0.0
 40
5.271330170370607
100
AcDbArc
 50
245.0771192748311
 51
295.2523389966485
  0
LINE
  5
71
330
2
100
AcDbEntity
  8
L-ZISSEN
100
AcDbLine
 10
-5.000000000001818
 20
-208.9411654104924
 30
0.0
 11
-5.49999999999909
 21
-208.4411654104924
 31
0.0
  0
LINE
  5
72
330
2
100
AcDbEntity
  8
L-ZISSEN
100
AcDbLine
 10
-5.49999999999909
 20
-208.4411654104924
 30
0.0
 11
-5.49999999999909
 21
-207.0000000000009
 31
0.0
  0
LINE
  5
73
330
2
100
AcDbEntity
  8
L-ZISSEN
100
AcDbLine
 10
-4.999999999997612
 20
-207.0006966111291
 30
0.0
 11
-5.000000000001818
 21
-208.9411654104924
 31
0.0
  0
LINE
  5
74
330
2
100
AcDbEntity
  8
L-ZISSEN
100
AcDbLine
 10
-5.500000000001818
 20
-208.9411654104924
 30
0.0
 11
-5.99999999999909
 21
-209.4411654104924
 31
0.0
  0
LINE
  5
75
330
2
100
AcDbEntity
  8
L-ZISSEN
100
AcDbLine
 10
5.000000000003751
 20
-207.0013462624233
 30
0.0
 11
4.999999999999545
 21
-208.9411654104924
 31
0.0
  0
ARC
  5
76
330
2
100
AcDbEntity
  8
L-ZISSEN
100
AcDbCircle
 10
0.0000000000013642
 20
-224.641062673918
 30
0.0
 40
20.64106267391679
100
AcDbArc
 50
77.50558048157102
 51
102.6763186877385
  0
ARC
  5
77
330
2
100
AcDbEntity
  8
L-ZISSEN
100
AcDbCircle
 10
-6.778315616503277
 20
-209.2707090555522
 30
0.0
 40
5.271330170370607
100
AcDbArc
 50
64.74766100340973
 51
114.9228807251688
  0
LINE
  5
78
330
2
100
AcDbEntity
  8
L-ZISSEN
100
AcDbLine
 10
-8.999999999999545
 20
-203.8595512005649
 30
0.0
 11
-8.999999999999545
 21
-202.6559495400515
 31
0.0
  0
LINE
  5
79
330
2
100
AcDbEntity
  8
L-ZISSEN
100
AcDbLine
 10
3.000000000000909
 20
-204.0000000000008
 30
0.0
 11
3.000000000000909
 21
-203.8595512005649
 31
0.0
  0
LINE
  5
7A
330
2
100
AcDbEntity
  8
L-ZISSEN
100
AcDbLine
 10
-3.000000000000909
 20
-204.0000000000008
 30
0.0
 11
-3.000000000000909
 21
-203.8595512005649
 31
0.0
  0
LINE
  5
7B
330
2
100
AcDbEntity
  8
L-ZISSEN
100
AcDbLine
 10
8.999643620087681
 20
-204.5205025069067
 30
0.0
 11
8.999643620087681
 21
-206.4794974930946
 31
0.0
  0
LINE
  5
7C
330
2
100
AcDbEntity
  8
L-ZISSEN
100
AcDbLine
 10
5.499999999999204
 20
-208.4411654104919
 30
0.0
 11
5.49999999999909
 21
-207.0000000000009
 31
0.0
  0
LINE
  5
7D
330
2
100
AcDbEntity
  8
L-ZISSEN
100
AcDbLine
 10
5.499999999999545
 20
-208.9411654104924
 30
0.0
 11
5.99999999999909
 21
-209.4411654104924
 31
0.0
  0
LINE
  5
7E
330
2
100
AcDbEntity
  8
L-ZISSEN
100
AcDbLine
 10
9.250000000003183
 20
-202.6559495400515
 30
0.0
 11
9.000000000002273
 21
-202.6559495400515
 31
0.0
  0
LINE
  5
7F
330
2
100
AcDbEntity
  8
L-ZISSEN
100
AcDbLine
 10
8.999999999999545
 20
-203.8595512005649
 30
0.0
 11
8.999999999999545
 21
-202.6559495400515
 31
0.0
  0
LINE
  5
80
330
2
100
AcDbEntity
  8
L-ZISSEN
100
AcDbLine
 10
6.000000000000454
 20
-204.0000000000008
 30
0.0
 11
6.834972979096619
 21
-204.0000000000008
 31
0.0
  0
LINE
  5
81
330
2
100
AcDbEntity
  8
L-ZISSEN
100
AcDbLine
 10
9.000000000002273
 20
-203.8595512005649
 30
0.0
 11
6.000000000000454
 21
-203.8595512005649
 31
0.0
  0
LINE
  5
82
330
2
100
AcDbEntity
  8
L-ZISSEN
100
AcDbLine
 10
16.84999999999718
 20
-184.3387389116319
 30
0.0
 11
21.06500000000096
 21
-186.3387389116328
 31
0.0
  0
ARC
  5
83
330
2
100
AcDbEntity
  8
L-ZISSEN
100
AcDbCircle
 10
22.00000000000773
 20
-192.4036840439894
 30
0.0
 40
8.000000000000113
100
AcDbArc
 50
283.9062370650493
 51
0.0
  0
LINE
  5
84
330
2
100
AcDbEntity
  8
L-ZISSEN
100
AcDbLine
 10
-59.99999999999784
 20
25.68253884000307
 30
0.0
 11
-44.99999999999954
 21
17.00000000000102
 31
0.0
  0
LINE
  5
85
330
2
100
AcDbEntity
  8
L-ZISSEN
100
AcDbLine
 10
-59.99999999999772
 20
-25.46983416222474
 30
0.0
 11
-44.99999999999954
 21
-17.0
 31
0.0
  0
LINE
  5
86
330
2
100
AcDbEntity
  8
L-ZISSEN
100
AcDbLine
 10
-47.02424605812836
 20
-139.5954716127576
 30
0.0
 11
-49.02424605812837
 21
-139.5954716127576
 31
0.0
  0
TEXT
  5
87
330
2
100
AcDbEntity
  8
L-ZISSEN
100
AcDbText
 10
-59.89463512603163
 20
-141.8421458407083
 30
0.0
 40
4.5
  1
P.P
100
AcDbText
  0
LINE
  5
88
330
2
100
AcDbEntity
  8
L-TYUSIN
100
AcDbLine
 10
-74.99999999999778
 20
-49.99999999999977
 30
0.0
 11
-54.99999999999795
 21
-50.0
 31
0.0
  0
LINE
  5
89
330
2
100
AcDbEntity
  8
L-ZISSEN
100
AcDbLine
 10
-69.99999999999772
 20
-62.99999999999989
 30
0.0
 11
-59.99999999999772
 21
-62.99999999999989
 31
0.0
  0
LINE
  5
8A
330
2
100
AcDbEntity
  8
L-ZISSEN
100
AcDbLine
 10
-37.58326108942355
 20
-104.0017338538155
 30
0.0
 11
-40.00000000000227
 21
-45.99999999999909
 31
0.0
  0
LINE
  5
8B
330
2
100
AcDbEntity
  8
L-ZISSEN
100
AcDbLine
 10
37.58326108942355
 20
-104.0017338538155
 30
0.0
 11
40.0
 21
-45.99999999999909
 31
0.0
  0
LINE
  5
8C
330
2
100
AcDbEntity
  8
L-ZISSEN
100
AcDbLine
 10
25.2800000000002
 20
-116.3387389116328
 30
0.0
 11
16.84999999999718
 21
-116.3387389116328
 31
0.0
  0
LINE
  5
8D
330
2
100
AcDbEntity
  8
L-ZISSEN
100
AcDbLine
 10
37.58326108942355
 20
-104.0017338538155
 30
0.0
 11
-37.58326108942355
 21
-104.0017338538155
 31
0.0
  0
LINE
  5
8E
330
2
100
AcDbEntity
  8
L-ZISSEN
100
AcDbLine
 10
35.49999999999954
 20
-106.0000000000013
 30
0.0
 11
-35.49999999999954
 21
-106.0000000000013
 31
0.0
  0
LINE
  5
8F
330
2
100
AcDbEntity
  8
L-ZISSEN
100
AcDbLine
 10
-1.627356869252025
 20
-107.1626304744422
 30
0.0
 11
-47.02424605812836
 21
-139.5954716127576
 31
0.0
  0
LINE
  5
90
330
2
100
AcDbEntity
  8
L-ZISSEN
100
AcDbLine
 10
-35.49999999999954
 20
-106.0000000000013
 30
0.0
 11
-37.58326108942355
 21
-104.0017338538155
 31
0.0
  0
LINE
  5
91
330
2
100
AcDbEntity
  8
L-ZISSEN
100
AcDbLine
 10
-25.28000000000247
 20
-116.3387389116328
 30
0.0
 11
-16.84999999999945
 21
-116.3387389116328
 31
0.0
  0
SOLID
  5
92
330
2
100
AcDbEntity
  8
L-ZISSEN
100
AcDbTrace
 10
-1.821128614992176
 20
-106.8914043295667
 30
0.0
 11
-1.433585123511875
 21
-107.4338566193173
 31
0.0
 12
0.0
 22
-106.0000000000013
 32
0.0
 13
0.0
 23
-106.0000000000013
 33
0.0
  0
LINE
  5
93
330
2
100
AcDbEntity
  8
L-ZISSEN
100
AcDbLine
 10
33.31409532455154
 20
-133.8894859020115
 30
0.0
 11
33.31409532455154
 21
-106.0000000000013
 31
0.0
  0
LINE
  5
94
330
2
100
AcDbEntity
  8
L-ZISSEN
100
AcDbLine
 10
35.0
 20
-106.0000000000013
 30
0.0
 11
35.0
 21
-127.0000000000004
 31
0.0
  0
LINE
  5
95
330
2
100
AcDbEntity
  8
L-ZISSEN
100
AcDbLine
 10
30.0
 20
-106.0000000000004
 30
0.0
 11
30.0
 21
-147.3239944541997
 31
0.0
  0
LINE
  5
96
330
2
100
AcDbEntity
  8
L-ZISSEN
100
AcDbLine
 10
38.99999999999863
 20
-127.6649378057832
 30
0.0
 11
38.99999999999863
 21
-131.9491067883814
 31
0.0
  0
LINE
  5
97
330
2
100
AcDbEntity
  8
L-ZISSEN
100
AcDbLine
 10
33.31409532455154
 20
-131.9935065380164
 30
0.0
 11
33.31409532455154
 21
-129.8070222970814
 31
0.0
  0
LINE
  5
98
330
2
100
AcDbEntity
  8
L-ZISSEN
100
AcDbLine
 10
30.06383735002373
 20
-139.122966514637
 30
0.0
 11
31.82751149379555
 21
-131.6429907671931
 31
0.0
  0
LINE
  5
99
330
2
100
AcDbEntity
  8
L-ZISSEN
100
AcDbLine
 10
31.55042118077972
 20
-139.4734822854602
 30
0.0
 11
30.0
 21
-139.4734822854602
 31
0.0
  0
LINE
  5
9A
330
2
100
AcDbEntity
  8
L-ZISSEN
100
AcDbLine
 10
33.50000000000136
 20
-133.8894859020115
 30
0.0
 11
33.31409532455154
 21
-133.8894859020115
 31
0.0
  0
LINE
  5
9B
330
2
100
AcDbEntity
  8
L-ZISSEN
100
AcDbLine
 10
38.99999999999863
 20
-131.9491067883814
 30
0.0
 11
33.50000000000136
 21
-133.8894859020115
 31
0.0
  0
LINE
  5
9C
330
2
100
AcDbEntity
  8
L-ZISSEN
100
AcDbLine
 10
31.55042118077972
 20
-139.4734822854602
 30
0.0
 11
33.31409532455154
 21
-131.9935065380164
 31
0.0
  0
LINE
  5
9D
330
2
100
AcDbEntity
  8
L-ZISSEN
100
AcDbLine
 10
33.31409532455154
 20
-129.8070222970814
 30
0.0
 11
30.0
 21
-129.8070222970814
 31
0.0
  0
LINE
  5
9E
330
2
100
AcDbEntity
  8
L-ZISSEN
100
AcDbLine
 10
35.0
 20
-127.0000000000004
 30
0.0
 11
38.99999999999863
 21
-127.6649378057832
 31
0.0
  0
LINE
  5
9F
330
2
100
AcDbEntity
  8
L-ZISSEN
100
AcDbLine
 10
31.82751149379555
 20
-129.8070222970823
 30
0.0
 11
31.82751149379555
 21
-131.6429907671931
 31
0.0
  0
LINE
  5
A0
330
2
100
AcDbEntity
  8
L-ZISSEN
100
AcDbLine
 10
32.25002613954302
 20
-106.0000000000013
 30
0.0
 11
31.05002613954184
 21
-106.0000000000013
 31
0.0
  0
LINE
  5
A1
330
2
100
AcDbEntity
  8
L-ZISSEN
100
AcDbLine
 10
31.05002613954184
 20
-106.0000000000013
 30
0.0
 11
28.94997386045588
 21
-106.0000000000013
 31
0.0
  0
LINE
  5
A2
330
2
100
AcDbEntity
  8
L-ZISSEN
100
AcDbLine
 10
35.49999999999954
 20
-106.0000000000013
 30
0.0
 11
37.58326108942355
 21
-104.0017338538155
 31
0.0
  0
LINE
  5
A3
330
2
100
AcDbEntity
  8
L-ZISSEN
100
AcDbLine
 10
-27.0
 20
-23.99999999999988
 30
0.0
 11
27.0
 21
-23.99999999999988
 31
0.0
  0
LINE
  5
A4
330
2
100
AcDbEntity
  8
L-ZISSEN
100
AcDbLine
 10
-27.0
 20
-28.00000000000079
 30
0.0
 11
27.0
 21
-28.00000000000079
 31
0.0
  0
LINE
  5
A5
330
2
100
AcDbEntity
  8
L-ZISSEN
100
AcDbLine
 10
-27.0
 20
28.00000000000091
 30
0.0
 11
27.0
 21
28.00000000000091
 31
0.0
  0
LINE
  5
A6
330
2
100
AcDbEntity
  8
L-ZISSEN
100
AcDbLine
 10
-27.0
 20
24.0
 30
0.0
 11
27.0
 21
24.0
 31
0.0
  0
LINE
  5
A7
330
2
100
AcDbEntity
  8
L-ZISSEN
100
AcDbLine
 10
-45.0
 20
-31.0
 30
0.0
 11
45.0
 21
-31.0
 31
0.0
  0
LINE
  5
A8
330
2
100
AcDbEntity
  8
L-ZISSEN
100
AcDbLine
 10
44.99999999999772
 20
-45.99999999999909
 30
0.0
 11
-44.99999999999994
 21
-45.99999999999909
 31
0.0
  0
LINE
  5
A9
330
2
100
AcDbEntity
  8
L-TYUSIN
100
AcDbLine
 10
-42.00000000000182
 20
0.0000000000001137
 30
0.0
 11
79.0
 21
-0.0000000000001137
 31
0.0
  0
LINE
  5
AA
330
2
100
AcDbEntity
  8
L-ZISSEN
100
AcDbLine
 10
-45.00000000000011
 20
-17.0
 30
0.0
 11
-44.99999999999994
 21
-45.99999999999909
 31
0.0
  0
CIRCLE
  5
AB
330
2
100
AcDbEntity
  8
L-ZISSEN
100
AcDbCircle
 10
0.0
 20
0.0
 30
0.0
 40
15.14499999999999
  0
LINE
  5
AC
330
2
100
AcDbEntity
  8
L-ZISSEN
100
AcDbLine
 10
-44.99999999999954
 20
17.00000000000102
 30
0.0
 11
-44.99999999999943
 21
-17.0
 31
0.0
  0
LINE
  5
AD
330
2
100
AcDbEntity
  8
L-ZISSEN
100
AcDbLine
 10
-37.00000000000187
 20
-17.0
 30
0.0
 11
-37.00000000000182
 21
17.0
 31
0.0
  0
LINE
  5
AE
330
2
100
AcDbEntity
  8
L-ZISSEN
100
AcDbLine
 10
-27.0
 20
-17.0
 30
0.0
 11
-35.5
 21
-17.0
 31
0.0
  0
LINE
  5
AF
330
2
100
AcDbEntity
  8
L-ZISSEN
100
AcDbLine
 10
-27.0
 20
-17.0
 30
0.0
 11
-45.00000000000011
 21
-17.0
 31
0.0
  0
LINE
  5
B0
330
2
100
AcDbEntity
  8
L-ZISSEN
100
AcDbLine
 10
-27.0
 20
17.0
 30
0.0
 11
-43.5
 21
17.0
 31
0.0
  0
LINE
  5
B1
330
2
100
AcDbEntity
  8
L-ZISSEN
100
AcDbLine
 10
-44.99999999999954
 20
17.00000000000102
 30
0.0
 11
-36.99999999999818
 21
17.00000000000102
 31
0.0
  0
ARC
  5
B2
330
2
100
AcDbEntity
  8
L-ZISSEN
100
AcDbCircle
 10
-43.5
 20
18.50000000000091
 30
0.0
 40
1.500000000000909
100
AcDbArc
 50
180.0
 51
270.0
  0
ARC
  5
B3
330
2
100
AcDbEntity
  8
L-SOUZOU
100
AcDbCircle
 10
72.5
 20
-19.5
 30
0.0
 40
1.5
100
AcDbArc
 50
270.0
 51
0.0
  0
LINE
  5
B6
330
2
100
AcDbEntity
  8
L-ZISSEN
100
AcDbLine
 10
45.00000000000011
 20
-17.0
 30
0.0
 11
44.99999999999994
 21
-45.99999999999909
 31
0.0
  0
LINE
  5
B7
330
2
100
AcDbEntity
  8
L-SOUZOU
100
AcDbLine
 10
65.0
 20
21.0
 30
0.0
 11
65.0
 21
-21.0
 31
0.0
  0
LINE
  5
B8
330
2
100
AcDbEntity
  8
L-SOUZOU
100
AcDbLine
 10
65.0
 20
-21.0
 30
0.0
 11
72.5
 21
-21.0
 31
0.0
  0
LINE
  5
B9
330
2
100
AcDbEntity
  8
L-SOUZOU
100
AcDbLine
 10
50.5
 20
20.40000000000009
 30
0.0
 11
65.0
 21
20.40000000000009
 31
0.0
  0
LINE
  5
BA
330
2
100
AcDbEntity
  8
L-SOUZOU
100
AcDbLine
 10
50.5
 20
-20.40000000000009
 30
0.0
 11
65.0
 21
-20.40000000000009
 31
0.0
  0
LINE
  5
BB
330
2
100
AcDbEntity
  8
L-SOUZOU
100
AcDbLine
 10
41.5
 20
6.799999999999954
 30
0.0
 11
41.5
 21
-6.800000000000181
 31
0.0
  0
LINE
  5
BC
330
2
100
AcDbEntity
  8
L-SOUZOU
100
AcDbLine
 10
40.0
 20
6.734445292903501
 30
0.0
 11
40.00000000000011
 21
-6.734445292903728
 31
0.0
  0
LINE
  5
BD
330
2
100
AcDbEntity
  8
L-ZISSEN
100
AcDbLine
 10
37.0
 20
-17.0
 30
0.0
 11
37.0
 21
17.0
 31
0.0
  0
LINE
  5
BE
330
2
100
AcDbEntity
  8
L-SOUZOU
100
AcDbLine
 10
49.0
 20
18.90000000000009
 30
0.0
 11
49.0
 21
-18.90000000000009
 31
0.0
  0
LINE
  5
BF
330
2
100
AcDbEntity
  8
L-SOUZOU
100
AcDbLine
 10
37.0
 20
-6.640690607791611
 30
0.0
 11
41.49999999999988
 21
-6.781322635460128
 31
0.0
  0
LINE
  5
C0
330
2
100
AcDbEntity
  8
L-SOUZOU
100
AcDbLine
 10
37.0
 20
-5.784690607791389
 30
0.0
 11
40.0
 21
-5.878445292903734
 31
0.0
  0
LINE
  5
C1
330
2
100
AcDbEntity
  8
L-ZISSEN
100
AcDbLine
 10
27.0
 20
-17.0
 30
0.0
 11
45.00000000000011
 21
-17.0
 31
0.0
  0
ARC
  5
C2
330
2
100
AcDbEntity
  8
L-SOUZOU
100
AcDbCircle
 10
50.5
 20
-18.90000000000009
 30
0.0
 40
1.5
100
AcDbArc
 50
180.0
 51
270.0
  0
LINE
  5
C3
330
2
100
AcDbEntity
  8
L-SOUZOU
100
AcDbLine
 10
41.5
 20
-6.799999999999954
 30
0.0
 11
49.0
 21
-6.800000000000181
 31
0.0
  0
LINE
  5
C4
330
2
100
AcDbEntity
  8
L-SOUZOU
100
AcDbLine
 10
40.0
 20
-5.878445292903734
 30
0.0
 11
40.88361432768431
 21
-6.762059620587933
 31
0.0
  0
LINE
  5
C5
330
2
100
AcDbEntity
  8
L-ZISSEN
100
AcDbLine
 10
27.0
 20
17.0
 30
0.0
 11
43.49999999999818
 21
17.0
 31
0.0
  0
LINE
  5
C6
330
2
100
AcDbEntity
  8
L-SOUZOU
100
AcDbLine
 10
37.0
 20
5.784690607791162
 30
0.0
 11
40.0
 21
5.878445292903506
 31
0.0
  0
LINE
  5
C7
330
2
100
AcDbEntity
  8
L-SOUZOU
100
AcDbLine
 10
37.0
 20
6.640690607791157
 30
0.0
 11
41.49999999999988
 21
6.781322635459673
 31
0.0
  0
LINE
  5
C8
330
2
100
AcDbEntity
  8
L-SOUZOU
100
AcDbLine
 10
41.5
 20
6.799999999999954
 30
0.0
 11
49.0
 21
6.800000000000181
 31
0.0
  0
LINE
  5
C9
330
2
100
AcDbEntity
  8
L-SOUZOU
100
AcDbLine
 10
40.0
 20
5.878445292903506
 30
0.0
 11
40.88361432768431
 21
6.762059620587933
 31
0.0
  0
ARC
  5
CA
330
2
100
AcDbEntity
  8
L-ZISSEN
100
AcDbCircle
 10
43.49999999999818
 20
18.50000000000091
 30
0.0
 40
1.500000000000909
100
AcDbArc
 50
270.0
 51
0.0
  0
ARC
  5
CB
330
2
100
AcDbEntity
  8
L-SOUZOU
100
AcDbCircle
 10
50.5
 20
18.90000000000009
 30
0.0
 40
1.5
100
AcDbArc
 50
90.0
 51
180.0
  0
LINE
  5
CC
330
2
100
AcDbEntity
  8
L-SOUZOU
100
AcDbLine
 10
74.0
 20
19.5
 30
0.0
 11
74.0
 21
-19.5
 31
0.0
  0
LINE
  5
CD
330
2
100
AcDbEntity
  8
L-SOUZOU
100
AcDbLine
 10
65.0
 20
21.0
 30
0.0
 11
72.5
 21
21.0
 31
0.0
  0
ARC
  5
CE
330
2
100
AcDbEntity
  8
L-SOUZOU
100
AcDbCircle
 10
72.5
 20
19.5
 30
0.0
 40
1.5
100
AcDbArc
 50
0.0
 51
90.0
  0
LINE
  5
CF
330
2
100
AcDbEntity
  8
L-ZISSEN
100
AcDbLine
 10
321.8499999999942
 20
-116.3387389116326
 30
0.0
 11
321.8499999999942
 21
-184.3387389116326
 31
0.0
  0
LINE
  5
D0
330
2
100
AcDbEntity
  8
L-ZISSEN
100
AcDbLine
 10
334.9999999999925
 20
-192.4036840439905
 30
0.0
 11
334.9999999999947
 21
-106.0000000000002
 31
0.0
  0
LINE
  5
D1
330
2
100
AcDbEntity
  8
L-ZISSEN
100
AcDbLine
 10
288.1499999999953
 20
-116.3387389116326
 30
0.0
 11
288.1499999999953
 21
-184.3387389116326
 31
0.0
  0
LINE
  5
D2
330
2
100
AcDbEntity
  8
L-ZISSEN
100
AcDbLine
 10
279.7199999999945
 20
-116.3387389116326
 30
0.0
 11
279.7199999999945
 21
-184.3387389116321
 31
0.0
  0
LINE
  5
D3
330
2
100
AcDbEntity
  8
L-ZISSEN
100
AcDbLine
 10
274.9999999999947
 20
-192.4036840439891
 30
0.0
 11
274.9999999999947
 21
-106.0000000000016
 31
0.0
  0
LINE
  5
D4
330
2
100
AcDbEntity
  8
L-ZISSEN
100
AcDbLine
 10
330.2799999999949
 20
-116.3387389116326
 30
0.0
 11
330.2799999999949
 21
-184.3387389116321
 31
0.0
  0
LINE
  5
D5
330
2
100
AcDbEntity
  8
L-ZISSEN
100
AcDbLine
 10
170.0
 20
-192.4036840439894
 30
0.0
 11
170.0
 21
-106.0000000000018
 31
0.0
  0
LINE
  5
D6
330
2
100
AcDbEntity
  8
L-ZISSEN
100
AcDbLine
 10
174.7199999999998
 20
-116.3387389116328
 30
0.0
 11
174.7199999999998
 21
-184.3387389116323
 31
0.0
  0
LINE
  5
D7
330
2
100
AcDbEntity
  8
L-ZISSEN
100
AcDbLine
 10
216.8499999999994
 20
-116.3387389116328
 30
0.0
 11
216.8499999999994
 21
-184.3387389116328
 31
0.0
  0
LINE
  5
D8
330
2
100
AcDbEntity
  8
L-ZISSEN
100
AcDbLine
 10
225.2800000000001
 20
-116.3387389116328
 30
0.0
 11
225.2800000000001
 21
-184.3387389116323
 31
0.0
  0
LINE
  5
D9
330
2
100
AcDbEntity
  8
L-ZISSEN
100
AcDbLine
 10
229.9999999999977
 20
-192.4036840439907
 30
0.0
 11
230.0
 21
-106.0000000000004
 31
0.0
  0
LINE
  5
DA
330
2
100
AcDbEntity
  8
L-ZISSEN
100
AcDbLine
 10
183.1500000000005
 20
-116.3387389116328
 30
0.0
 11
183.1500000000005
 21
-184.3387389116328
 31
0.0
  0
LINE
  5
DB
330
2
100
AcDbEntity
  8
L-ZISSEN
100
AcDbLine
 10
205.999999999999
 20
-209.4411654104928
 30
0.0
 11
205.999999999999
 21
-218.7000000000016
 31
0.0
  0
LINE
  5
DC
330
2
100
AcDbEntity
  8
L-ZISSEN
100
AcDbLine
 10
194.0000000000008
 20
-218.7000000000016
 30
0.0
 11
194.0000000000009
 21
-209.4411654104928
 31
0.0
  0
LINE
  5
DD
330
2
100
AcDbEntity
  8
L-ZISSEN
100
AcDbLine
 10
202.0000000000004
 20
-208.9411654104929
 30
0.0
 11
202.0000000000005
 21
-219.0000000000013
 31
0.0
  0
LINE
  5
DE
330
2
100
AcDbEntity
  8
L-ZISSEN
100
AcDbLine
 10
201.0000000000013
 20
-208.9411654104929
 30
0.0
 11
201.0000000000014
 21
-219.0000000000013
 31
0.0
  0
LINE
  5
DF
330
2
100
AcDbEntity
  8
L-ZISSEN
100
AcDbLine
 10
200.0000000000022
 20
-208.9411654104929
 30
0.0
 11
200.0000000000023
 21
-219.0000000000013
 31
0.0
  0
LINE
  5
E0
330
2
100
AcDbEntity
  8
L-ZISSEN
100
AcDbLine
 10
205.0000000000022
 20
-208.9411654104929
 30
0.0
 11
205.0000000000043
 21
-219.0000000000013
 31
0.0
  0
LINE
  5
E1
330
2
100
AcDbEntity
  8
L-ZISSEN
100
AcDbLine
 10
204.0000000000032
 20
-208.9411654104929
 30
0.0
 11
204.0000000000032
 21
-219.0000000000013
 31
0.0
  0
LINE
  5
E2
330
2
100
AcDbEntity
  8
L-ZISSEN
100
AcDbLine
 10
202.9999999999995
 20
-208.9411654104929
 30
0.0
 11
202.9999999999995
 21
-219.0000000000013
 31
0.0
  0
LINE
  5
E3
330
2
100
AcDbEntity
  8
L-ZISSEN
100
AcDbLine
 10
199.0000000000009
 20
-208.9411654104929
 30
0.0
 11
199.000000000001
 21
-219.0000000000013
 31
0.0
  0
LINE
  5
E4
330
2
100
AcDbEntity
  8
L-ZISSEN
100
AcDbLine
 10
198.0000000000018
 20
-208.9411654104929
 30
0.0
 11
198.0000000000019
 21
-219.0000000000013
 31
0.0
  0
LINE
  5
E5
330
2
100
AcDbEntity
  8
L-ZISSEN
100
AcDbLine
 10
195.999999999999
 20
-208.9411654104929
 30
0.0
 11
195.999999999999
 21
-219.0000000000013
 31
0.0
  0
LINE
  5
E6
330
2
100
AcDbEntity
  8
L-ZISSEN
100
AcDbLine
 10
195.0
 20
-208.9411654104929
 30
0.0
 11
195.0000000000001
 21
-219.0000000000013
 31
0.0
  0
LINE
  5
E7
330
2
100
AcDbEntity
  8
L-ZISSEN
100
AcDbLine
 10
197.0000000000004
 20
-208.9411654104929
 30
0.0
 11
197.0000000000005
 21
-219.0000000000013
 31
0.0
  0
LINE
  5
E8
330
2
100
AcDbEntity
  8
L-ZISSEN
100
AcDbLine
 10
205.6999999999993
 20
-219.0000000000013
 30
0.0
 11
194.3000000000006
 21
-219.0000000000013
 31
0.0
  0
LINE
  5
E9
330
2
100
AcDbEntity
  8
L-ZISSEN
100
AcDbLine
 10
194.3000000000006
 20
-219.0000000000013
 30
0.0
 11
194.0000000000009
 21
-218.7000000000016
 31
0.0
  0
LINE
  5
EA
330
2
100
AcDbEntity
  8
L-ZISSEN
100
AcDbLine
 10
205.6999999999993
 20
-219.0000000000013
 30
0.0
 11
205.999999999999
 21
-218.7000000000016
 31
0.0
  0
LINE
  5
EB
330
2
100
AcDbEntity
  8
L-ZISSEN
100
AcDbLine
 10
209.0000000000022
 20
-202.6559495400524
 30
0.0
 11
190.7499999999972
 21
-202.6559495400519
 31
0.0
  0
LINE
  5
EC
330
2
100
AcDbEntity
  8
L-ZISSEN
100
AcDbLine
 10
206.0000000000004
 20
-203.8595512005654
 30
0.0
 11
191.0000000000004
 21
-203.8595512005654
 31
0.0
  0
LINE
  5
ED
330
2
100
AcDbEntity
  8
L-ZISSEN
100
AcDbLine
 10
193.1407658022081
 20
-204.0000000000013
 30
0.0
 11
206.0000000000004
 21
-204.0000000000013
 31
0.0
  0
LINE
  5
EE
330
2
100
AcDbEntity
  8
L-ZISSEN
100
AcDbLine
 10
206.0000000000004
 20
-203.8595512005654
 30
0.0
 11
191.0000000000004
 21
-203.8595512005654
 31
0.0
  0
LINE
  5
EF
330
2
100
AcDbEntity
  8
L-ZISSEN
100
AcDbLine
 10
193.2216843834953
 20
-207.0006211148211
 30
0.0
 11
206.7127180599936
 21
-207.0014178845926
 31
0.0
  0
ARC
  5
F0
330
2
100
AcDbEntity
  8
L-ZISSEN
100
AcDbCircle
 10
200.0000000000013
 20
-224.6410626739184
 30
0.0
 40
20.64106267391679
100
AcDbArc
 50
77.50558048157102
 51
102.6763186877385
  0
LINE
  5
F1
330
2
100
AcDbEntity
  8
L-ZISSEN
100
AcDbLine
 10
194.4999999999981
 20
-208.9411654104929
 30
0.0
 11
202.9999999999995
 21
-208.9411654104929
 31
0.0
  0
ARC
  5
F2
330
2
100
AcDbEntity
  8
L-ZISSEN
100
AcDbCircle
 10
200.0
 20
-186.3589373260842
 30
0.0
 40
20.64106267391694
100
AcDbArc
 50
257.3236813122678
 51
282.494419518429
  0
ARC
  5
F3
330
2
100
AcDbEntity
  8
L-ZISSEN
100
AcDbCircle
 10
178.0000000000009
 20
-192.4036840439894
 30
0.0
 40
8.000000000000113
100
AcDbArc
 50
180.0
 51
256.0937629349506
  0
ARC
  5
F4
330
2
100
AcDbEntity
  8
L-ZISSEN
100
AcDbCircle
 10
200.0000000000013
 20
-103.5472889185189
 30
0.0
 40
99.53938471878538
100
AcDbArc
 50
256.093762934957
 51
264.6679223051352
  0
LINE
  5
F5
330
2
100
AcDbEntity
  8
L-ZISSEN
100
AcDbLine
 10
191.0003563799173
 20
-204.4902672699449
 30
0.0
 11
191.0003563799173
 21
-206.5097327300577
 31
0.0
  0
LINE
  5
F6
330
2
100
AcDbEntity
  8
L-ZISSEN
100
AcDbLine
 10
195.4704636819828
 20
-204.5031191579505
 30
0.0
 11
195.4704636819897
 21
-206.4968808420535
 31
0.0
  0
ARC
  5
F7
330
2
100
AcDbEntity
  8
L-ZISSEN
100
AcDbCircle
 10
193.2216843834953
 20
-201.7292909444504
 30
0.0
 40
5.271330170370607
100
AcDbArc
 50
245.0771192748311
 51
295.2523389966485
  0
LINE
  5
F8
330
2
100
AcDbEntity
  8
L-ZISSEN
100
AcDbLine
 10
194.9999999999981
 20
-208.9411654104929
 30
0.0
 11
194.5000000000009
 21
-208.4411654104928
 31
0.0
  0
LINE
  5
F9
330
2
100
AcDbEntity
  8
L-ZISSEN
100
AcDbLine
 10
194.5000000000009
 20
-208.4411654104928
 30
0.0
 11
194.5000000000009
 21
-207.0000000000013
 31
0.0
  0
LINE
  5
FA
330
2
100
AcDbEntity
  8
L-ZISSEN
100
AcDbLine
 10
195.0000000000023
 20
-207.0006966111295
 30
0.0
 11
194.9999999999981
 21
-208.9411654104929
 31
0.0
  0
LINE
  5
FB
330
2
100
AcDbEntity
  8
L-ZISSEN
100
AcDbLine
 10
194.4999999999981
 20
-208.9411654104929
 30
0.0
 11
194.0000000000009
 21
-209.4411654104928
 31
0.0
  0
ARC
  5
FC
330
2
100
AcDbEntity
  8
L-ZISSEN
100
AcDbCircle
 10
193.2216843834967
 20
-209.2707090555527
 30
0.0
 40
5.271330170370607
100
AcDbArc
 50
64.74766100340973
 51
114.9228807251688
  0
LINE
  5
FD
330
2
100
AcDbEntity
  8
L-ZISSEN
100
AcDbLine
 10
191.0000000000004
 20
-203.8595512005654
 30
0.0
 11
191.0000000000004
 21
-202.6559495400519
 31
0.0
  0
LINE
  5
FE
330
2
100
AcDbEntity
  8
L-ZISSEN
100
AcDbLine
 10
191.0000000000004
 20
-203.8595512005654
 30
0.0
 11
191.0000000000004
 21
-202.6559495400519
 31
0.0
  0
LINE
  5
FF
330
2
100
AcDbEntity
  8
L-ZISSEN
100
AcDbLine
 10
183.1500000000005
 20
-184.3387389116328
 30
0.0
 11
178.934999999999
 21
-186.3387389116328
 31
0.0
  0
LINE
  5
100
330
2
100
AcDbEntity
  8
L-ZISSEN
100
AcDbLine
 10
178.934999999999
 20
-186.3387389116328
 30
0.0
 11
174.7199999999998
 21
-184.3387389116323
 31
0.0
  0
ARC
  5
101
330
2
100
AcDbEntity
  8
L-ZISSEN
100
AcDbCircle
 10
221.9999999999995
 20
-192.4036840439907
 30
0.0
 40
8.000000000000113
100
AcDbArc
 50
283.906237065242
 51
0.0
  0
ARC
  5
102
330
2
100
AcDbEntity
  8
L-ZISSEN
100
AcDbCircle
 10
200.0000000000013
 20
-103.5472889185189
 30
0.0
 40
99.53938471878553
100
AcDbArc
 50
275.3320776948647
 51
283.9062370650493
  0
LINE
  5
103
330
2
100
AcDbEntity
  8
L-ZISSEN
100
AcDbLine
 10
208.9996436200876
 20
-204.5205025069071
 30
0.0
 11
208.9996436200876
 21
-206.4794974930951
 31
0.0
  0
LINE
  5
104
330
2
100
AcDbEntity
  8
L-ZISSEN
100
AcDbLine
 10
204.4633756370185
 20
-204.5025880436878
 30
0.0
 11
204.4633756370185
 21
-206.4974119563157
 31
0.0
  0
ARC
  5
105
330
2
100
AcDbEntity
  8
L-ZISSEN
100
AcDbCircle
 10
206.7127180599936
 20
-201.730087714221
 30
0.0
 40
5.271330170371532
100
AcDbArc
 50
244.7408933165762
 51
295.7116451148668
  0
LINE
  5
106
330
2
100
AcDbEntity
  8
L-ZISSEN
100
AcDbLine
 10
205.4999999999995
 20
-208.9411654104929
 30
0.0
 11
205.999999999999
 21
-209.4411654104928
 31
0.0
  0
LINE
  5
107
330
2
100
AcDbEntity
  8
L-ZISSEN
100
AcDbLine
 10
202.9999999999995
 20
-208.9411654104929
 30
0.0
 11
205.4999999999995
 21
-208.9411654104929
 31
0.0
  0
LINE
  5
108
330
2
100
AcDbEntity
  8
L-ZISSEN
100
AcDbLine
 10
205.4999999999992
 20
-208.4411654104924
 30
0.0
 11
205.499999999999
 21
-207.0000000000013
 31
0.0
  0
LINE
  5
109
330
2
100
AcDbEntity
  8
L-ZISSEN
100
AcDbLine
 10
205.0000000000037
 20
-207.0013462624237
 30
0.0
 11
204.9999999999995
 21
-208.9411654104929
 31
0.0
  0
LINE
  5
10A
330
2
100
AcDbEntity
  8
L-ZISSEN
100
AcDbLine
 10
204.9999999999995
 20
-208.9411654104929
 30
0.0
 11
205.499999999999
 21
-208.4411654104928
 31
0.0
  0
ARC
  5
10B
330
2
100
AcDbEntity
  8
L-ZISSEN
100
AcDbCircle
 10
206.712718059995
 20
-209.269912285782
 30
0.0
 40
5.271330170371789
100
AcDbArc
 50
64.28835488513318
 51
115.2591066834237
  0
LINE
  5
10C
330
2
100
AcDbEntity
  8
L-ZISSEN
100
AcDbLine
 10
203.0000000000009
 20
-204.0000000000013
 30
0.0
 11
203.0000000000009
 21
-203.8595512005654
 31
0.0
  0
LINE
  5
10D
330
2
100
AcDbEntity
  8
L-ZISSEN
100
AcDbLine
 10
209.2500000000054
 20
-202.6559495400519
 30
0.0
 11
209.0000000000022
 21
-202.6559495400524
 31
0.0
  0
LINE
  5
10E
330
2
100
AcDbEntity
  8
L-ZISSEN
100
AcDbLine
 10
209.0000000000022
 20
-203.8595512005654
 30
0.0
 11
209.0000000000022
 21
-202.6559495400524
 31
0.0
  0
LINE
  5
10F
330
2
100
AcDbEntity
  8
L-ZISSEN
100
AcDbLine
 10
209.0000000000022
 20
-203.8595512005654
 30
0.0
 11
209.0000000000022
 21
-202.6559495400524
 31
0.0
  0
LINE
  5
110
330
2
100
AcDbEntity
  8
L-ZISSEN
100
AcDbLine
 10
206.0000000000004
 20
-204.0000000000013
 30
0.0
 11
206.8349729790966
 21
-204.0000000000013
 31
0.0
  0
LINE
  5
111
330
2
100
AcDbEntity
  8
L-ZISSEN
100
AcDbLine
 10
209.0000000000022
 20
-203.8595512005654
 30
0.0
 11
206.0000000000004
 21
-203.8595512005654
 31
0.0
  0
LINE
  5
112
330
2
100
AcDbEntity
  8
L-ZISSEN
100
AcDbLine
 10
209.0000000000022
 20
-203.8595512005654
 30
0.0
 11
206.0000000000004
 21
-203.8595512005654
 31
0.0
  0
LINE
  5
113
330
2
100
AcDbEntity
  8
L-ZISSEN
100
AcDbLine
 10
221.0650000000009
 20
-186.3387389116328
 30
0.0
 11
225.2800000000001
 21
-184.3387389116323
 31
0.0
  0
LINE
  5
114
330
2
100
AcDbEntity
  8
L-ZISSEN
100
AcDbLine
 10
216.8499999999994
 20
-184.3387389116328
 30
0.0
 11
221.0650000000009
 21
-186.3387389116328
 31
0.0
  0
LINE
  5
115
330
2
100
AcDbEntity
  8
L-ZISSEN
100
AcDbLine
 10
314.2500000000004
 20
-202.6559495400522
 30
0.0
 11
295.7499999999884
 21
-202.6559495400517
 31
0.0
  0
LINE
  5
116
330
2
100
AcDbEntity
  8
L-ZISSEN
100
AcDbLine
 10
313.999999999997
 20
-210.5000003877973
 30
0.0
 11
295.9999999999952
 21
-210.5000003877973
 31
0.0
  0
ARC
  5
117
330
2
100
AcDbEntity
  8
L-ZISSEN
100
AcDbCircle
 10
282.9999999999957
 20
-192.4036840439891
 30
0.0
 40
8.000000000000113
100
AcDbArc
 50
180.0
 51
256.0937629349451
  0
ARC
  5
118
330
2
100
AcDbEntity
  8
L-ZISSEN
100
AcDbCircle
 10
304.9999999999961
 20
-103.5472889185186
 30
0.0
 40
99.53938471878538
100
AcDbArc
 50
256.0937629349554
 51
264.6679223051358
  0
LINE
  5
119
330
2
100
AcDbEntity
  8
L-ZISSEN
100
AcDbLine
 10
295.9999999999952
 20
-210.5000003877978
 30
0.0
 11
295.9999999999952
 21
-202.6559495400517
 31
0.0
  0
LINE
  5
11A
330
2
100
AcDbEntity
  8
L-ZISSEN
100
AcDbLine
 10
288.1499999999953
 20
-184.3387389116326
 30
0.0
 11
283.9349999999938
 21
-186.3387389116326
 31
0.0
  0
LINE
  5
11B
330
2
100
AcDbEntity
  8
L-ZISSEN
100
AcDbLine
 10
283.9349999999938
 20
-186.3387389116326
 30
0.0
 11
279.7199999999945
 21
-184.3387389116321
 31
0.0
  0
ARC
  5
11C
330
2
100
AcDbEntity
  8
L-ZISSEN
100
AcDbCircle
 10
326.9999999999943
 20
-192.4036840439905
 30
0.0
 40
8.000000000000113
100
AcDbArc
 50
283.906237065246
 51
0.0
  0
ARC
  5
11D
330
2
100
AcDbEntity
  8
L-ZISSEN
100
AcDbCircle
 10
304.9999999999961
 20
-103.5472889185186
 30
0.0
 40
99.53938471878553
100
AcDbArc
 50
275.3320776948641
 51
283.9062370650548
  0
LINE
  5
11E
330
2
100
AcDbEntity
  8
L-ZISSEN
100
AcDbLine
 10
313.999999999997
 20
-210.5000003877978
 30
0.0
 11
313.999999999997
 21
-202.6559495400522
 31
0.0
  0
LINE
  5
11F
330
2
100
AcDbEntity
  8
L-ZISSEN
100
AcDbLine
 10
326.0649999999957
 20
-186.3387389116326
 30
0.0
 11
330.2799999999949
 21
-184.3387389116321
 31
0.0
  0
LINE
  5
120
330
2
100
AcDbEntity
  8
L-ZISSEN
100
AcDbLine
 10
321.8499999999942
 20
-184.3387389116326
 30
0.0
 11
326.0649999999957
 21
-186.3387389116326
 31
0.0
  0
LINE
  5
121
330
2
100
AcDbEntity
  8
L-ZISSEN
100
AcDbLine
 10
279.5011303623599
 20
-16.00575108397185
 30
0.0
 11
225.5011303623612
 21
-16.00575108397185
 31
0.0
  0
LINE
  5
122
330
2
100
AcDbEntity
  8
L-ZISSEN
100
AcDbLine
 10
225.5011303623613
 20
16.07459064444628
 30
0.0
 11
279.5011303623598
 21
16.0745906444464
 31
0.0
  0
LINE
  5
123
330
2
100
AcDbEntity
  8
L-ZISSEN
100
AcDbLine
 10
158.9999999999981
 20
17.0
 30
0.0
 11
241.0
 21
17.0
 31
0.0
  0
LINE
  5
124
330
2
100
AcDbEntity
  8
L-ZISSEN
100
AcDbLine
 10
158.9999999999981
 20
-16.00575108397174
 30
0.0
 11
241.0
 21
-16.00575108397174
 31
0.0
  0
LINE
  5
125
330
2
100
AcDbEntity
  8
L-ZISSEN
100
AcDbLine
 10
155.0
 20
-31.0
 30
0.0
 11
245.0
 21
-31.0
 31
0.0
  0
LINE
  5
126
330
2
100
AcDbEntity
  8
L-ZISSEN
100
AcDbLine
 10
245.0
 20
-45.99999999999909
 30
0.0
 11
155.0
 21
-45.99999999999909
 31
0.0
  0
LINE
  5
127
330
2
100
AcDbEntity
  8
L-ZISSEN
100
AcDbLine
 10
164.5000000000004
 20
-106.0000000000013
 30
0.0
 11
235.4999999999995
 21
-106.0000000000013
 31
0.0
  0
LINE
  5
128
330
2
100
AcDbEntity
  8
L-ZISSEN
100
AcDbLine
 10
237.5832610894235
 20
-104.0017338538155
 30
0.0
 11
162.4167389105764
 21
-104.0017338538155
 31
0.0
  0
LINE
  5
129
330
2
100
AcDbEntity
  8
L-TYUSIN
100
AcDbLine
 10
359.9999999999947
 20
0.0
 30
0.0
 11
145.0
 21
0.0
 31
0.0
  0
LINE
  5
12A
330
2
100
AcDbEntity
  8
L-ZISSEN
100
AcDbLine
 10
162.4167389105764
 20
-104.0017338538155
 30
0.0
 11
159.9999999999977
 21
-45.99999999999909
 31
0.0
  0
LINE
  5
12B
330
2
100
AcDbEntity
  8
L-ZISSEN
100
AcDbLine
 10
213.1249999999977
 20
-106.0000000000018
 30
0.0
 11
213.1249999999977
 21
-130.3750000000018
 31
0.0
  0
LINE
  5
12C
330
2
100
AcDbEntity
  8
L-ZISSEN
100
AcDbLine
 10
214.0624999999977
 20
-106.0000000000018
 30
0.0
 11
214.0624999999977
 21
-129.7892753671344
 31
0.0
  0
LINE
  5
12D
330
2
100
AcDbEntity
  8
L-ZISSEN
100
AcDbLine
 10
186.8749999999977
 20
-106.0000000000018
 30
0.0
 11
186.8749999999977
 21
-130.3750000000018
 31
0.0
  0
LINE
  5
12E
330
2
100
AcDbEntity
  8
L-ZISSEN
100
AcDbLine
 10
185.9374999999977
 20
-106.0000000000018
 30
0.0
 11
185.9374999999977
 21
-129.7892753671344
 31
0.0
  0
LINE
  5
12F
330
2
100
AcDbEntity
  8
L-ZISSEN
100
AcDbLine
 10
198.7500000000022
 20
-109.7500000000004
 30
0.0
 11
198.7500000000022
 21
-119.7500000000004
 31
0.0
  0
LINE
  5
130
330
2
100
AcDbEntity
  8
L-ZISSEN
100
AcDbLine
 10
198.7500000000022
 20
-109.7500000000004
 30
0.0
 11
198.7500000000022
 21
-119.7500000000004
 31
0.0
  0
LINE
  5
131
330
2
100
AcDbEntity
  8
L-ZISSEN
100
AcDbLine
 10
201.2500000000022
 20
-109.7500000000004
 30
0.0
 11
201.2500000000022
 21
-119.7500000000004
 31
0.0
  0
LINE
  5
132
330
2
100
AcDbEntity
  8
L-ZISSEN
100
AcDbLine
 10
201.2500000000022
 20
-109.7500000000004
 30
0.0
 11
201.2500000000022
 21
-119.7500000000004
 31
0.0
  0
LINE
  5
133
330
2
100
AcDbEntity
  8
L-ZISSEN
100
AcDbLine
 10
214.0624999999977
 20
-106.0000000000018
 30
0.0
 11
214.0624999999977
 21
-144.7500000000018
 31
0.0
  0
LINE
  5
134
330
2
100
AcDbEntity
  8
L-ZISSEN
100
AcDbLine
 10
185.9374999999977
 20
-106.0000000000018
 30
0.0
 11
185.9374999999977
 21
-144.7500000000018
 31
0.0
  0
LINE
  5
135
330
2
100
AcDbEntity
  8
L-ZISSEN
100
AcDbLine
 10
196.2500000000022
 20
-119.7500000000004
 30
0.0
 11
200.0000000000022
 21
-126.0000000000004
 31
0.0
  0
LINE
  5
136
330
2
100
AcDbEntity
  8
L-ZISSEN
100
AcDbLine
 10
198.7500000000022
 20
-119.7500000000004
 30
0.0
 11
196.2500000000022
 21
-119.7500000000004
 31
0.0
  0
LINE
  5
137
330
2
100
AcDbEntity
  8
L-ZISSEN
100
AcDbLine
 10
200.0
 20
-132.2500000000018
 30
0.0
 11
186.8749999999977
 21
-130.3750000000018
 31
0.0
  0
LINE
  5
138
330
2
100
AcDbEntity
  8
L-ZISSEN
100
AcDbLine
 10
200.0
 20
-133.0811722572289
 30
0.0
 11
188.0855668651656
 21
-131.3791103808243
 31
0.0
  0
LINE
  5
139
330
2
100
AcDbEntity
  8
L-ZISSEN
100
AcDbLine
 10
188.0855668651656
 20
-135.9420255110462
 30
0.0
 11
200.0
 21
-138.4363834854771
 31
0.0
  0
LINE
  5
13A
330
2
100
AcDbEntity
  8
L-ZISSEN
100
AcDbLine
 10
200.0
 20
-141.0000000000018
 30
0.0
 11
185.9374999999977
 21
-137.2500000000018
 31
0.0
  0
LINE
  5
13B
330
2
100
AcDbEntity
  8
L-ZISSEN
100
AcDbLine
 10
187.1875
 20
-146.0000000000018
 30
0.0
 11
212.8124999999999
 21
-146.0000000000018
 31
0.0
  0
LINE
  5
13C
330
2
100
AcDbEntity
  8
L-ZISSEN
100
AcDbLine
 10
190.625
 20
-138.5000000000009
 30
0.0
 11
190.6249999999977
 21
-146.0000000000018
 31
0.0
  0
ARC
  5
13D
330
2
100
AcDbEntity
  8
L-ZISSEN
100
AcDbCircle
 10
187.1875
 20
-144.7500000000018
 30
0.0
 40
1.250000000000568
100
AcDbArc
 50
180.0
 51
270.0
  0
LINE
  5
13E
330
2
100
AcDbEntity
  8
L-ZISSEN
100
AcDbLine
 10
188.0855668651656
 20
-131.3791103808243
 30
0.0
 11
188.0855668651656
 21
-135.9420255110462
 31
0.0
  0
LINE
  5
13F
330
2
100
AcDbEntity
  8
L-ZISSEN
100
AcDbLine
 10
185.9374999999977
 20
-137.2500000000018
 30
0.0
 11
188.0855668651656
 21
-135.9420255110462
 31
0.0
  0
LINE
  5
140
330
2
100
AcDbEntity
  8
L-ZISSEN
100
AcDbLine
 10
188.0855668651656
 20
-130.5479381235968
 30
0.0
 11
186.8749999999977
 21
-130.3750000000018
 31
0.0
  0
LINE
  5
141
330
2
100
AcDbEntity
  8
L-ZISSEN
100
AcDbLine
 10
188.0855668651656
 20
-131.3791103808243
 30
0.0
 11
186.8749999999977
 21
-130.3750000000018
 31
0.0
  0
LINE
  5
142
330
2
100
AcDbEntity
  8
L-ZISSEN
100
AcDbLine
 10
209.3749999999977
 20
-138.5000000000018
 30
0.0
 11
209.3749999999977
 21
-146.0000000000018
 31
0.0
  0
ARC
  5
143
330
2
100
AcDbEntity
  8
L-ZISSEN
100
AcDbCircle
 10
212.8124999999999
 20
-144.7500000000018
 30
0.0
 40
1.249999999999715
100
AcDbArc
 50
270.0
 51
0.0
  0
LINE
  5
144
330
2
100
AcDbEntity
  8
L-ZISSEN
100
AcDbLine
 10
200.0
 20
-132.2500000000018
 30
0.0
 11
213.1249999999977
 21
-130.3750000000018
 31
0.0
  0
LINE
  5
145
330
2
100
AcDbEntity
  8
L-ZISSEN
100
AcDbLine
 10
200.0
 20
-133.0811722572289
 30
0.0
 11
211.9144331348343
 21
-131.3791103808243
 31
0.0
  0
LINE
  5
146
330
2
100
AcDbEntity
  8
L-ZISSEN
100
AcDbLine
 10
211.9144331348343
 20
-131.3791103808243
 30
0.0
 11
211.9144331348343
 21
-135.9420255110462
 31
0.0
  0
LINE
  5
147
330
2
100
AcDbEntity
  8
L-ZISSEN
100
AcDbLine
 10
200.0
 20
-141.0000000000018
 30
0.0
 11
214.0624999999977
 21
-137.2500000000018
 31
0.0
  0
LINE
  5
148
330
2
100
AcDbEntity
  8
L-ZISSEN
100
AcDbLine
 10
211.9144331348343
 20
-135.9420255110462
 30
0.0
 11
200.0
 21
-138.4363834854771
 31
0.0
  0
LINE
  5
149
330
2
100
AcDbEntity
  8
L-ZISSEN
100
AcDbLine
 10
200.0
 20
-132.2500000000018
 30
0.0
 11
200.0
 21
-133.0811722572289
 31
0.0
  0
LINE
  5
14A
330
2
100
AcDbEntity
  8
L-ZISSEN
100
AcDbLine
 10
200.0
 20
-141.0000000000018
 30
0.0
 11
200.0
 21
-138.4363834854771
 31
0.0
  0
ARC
  5
14B
330
2
100
AcDbEntity
  8
L-ZISSEN
100
AcDbCircle
 10
200.0
 20
-142.2500000000018
 30
0.0
 40
1.250000000000568
100
AcDbArc
 50
180.0
 51
0.0
  0
LINE
  5
14C
330
2
100
AcDbEntity
  8
L-ZISSEN
100
AcDbLine
 10
198.7499999999977
 20
-140.6666666666674
 30
0.0
 11
198.75
 21
-142.2500000000018
 31
0.0
  0
LINE
  5
14D
330
2
100
AcDbEntity
  8
L-ZISSEN
100
AcDbLine
 10
201.25
 20
-140.6666666666678
 30
0.0
 11
201.25
 21
-142.2500000000018
 31
0.0
  0
LINE
  5
14E
330
2
100
AcDbEntity
  8
L-TYUSIN
100
AcDbLine
 10
197.8132064374449
 20
-135.996454701175
 30
0.0
 11
202.0079864123567
 21
-135.996454701175
 31
0.0
  0
CIRCLE
  5
14F
330
2
100
AcDbEntity
  8
L-ZISSEN
100
AcDbCircle
 10
200.0
 20
-135.996454701175
 30
0.0
 40
1.25
  0
LINE
  5
150
330
2
100
AcDbEntity
  8
L-ZISSEN
100
AcDbLine
 10
214.0624999999977
 20
-137.2500000000018
 30
0.0
 11
211.9144331348343
 21
-135.9420255110462
 31
0.0
  0
LINE
  5
151
330
2
100
AcDbEntity
  8
L-ZISSEN
100
AcDbLine
 10
203.7500000000022
 20
-119.7500000000004
 30
0.0
 11
200.0000000000022
 21
-126.0000000000004
 31
0.0
  0
LINE
  5
152
330
2
100
AcDbEntity
  8
L-ZISSEN
100
AcDbLine
 10
201.2500000000022
 20
-119.7500000000004
 30
0.0
 11
203.7500000000022
 21
-119.7500000000004
 31
0.0
  0
LINE
  5
153
330
2
100
AcDbEntity
  8
L-ZISSEN
100
AcDbLine
 10
211.9144331348343
 20
-131.3791103808243
 30
0.0
 11
213.1249999999977
 21
-130.3750000000018
 31
0.0
  0
LINE
  5
154
330
2
100
AcDbEntity
  8
L-ZISSEN
100
AcDbLine
 10
211.9144331348343
 20
-130.5479381235968
 30
0.0
 11
213.1249999999977
 21
-130.3750000000018
 31
0.0
  0
LINE
  5
155
330
2
100
AcDbEntity
  8
L-ZISSEN
100
AcDbLine
 10
196.875
 20
-113.5000000000018
 30
0.0
 11
191.875
 21
-113.5000000000018
 31
0.0
  0
LINE
  5
156
330
2
100
AcDbEntity
  8
L-ZISSEN
100
AcDbLine
 10
196.875
 20
-113.5000000000018
 30
0.0
 11
191.875
 21
-113.5000000000018
 31
0.0
  0
LINE
  5
157
330
2
100
AcDbEntity
  8
L-ZISSEN
100
AcDbLine
 10
196.875
 20
-112.2500000000018
 30
0.0
 11
191.875
 21
-112.2500000000018
 31
0.0
  0
LINE
  5
158
330
2
100
AcDbEntity
  8
L-ZISSEN
100
AcDbLine
 10
196.875
 20
-112.2500000000018
 30
0.0
 11
191.875
 21
-112.2500000000018
 31
0.0
  0
LINE
  5
159
330
2
100
AcDbEntity
  8
L-ZISSEN
100
AcDbLine
 10
174.7199999999998
 20
-116.3387389116328
 30
0.0
 11
183.1500000000005
 21
-116.3387389116328
 31
0.0
  0
LINE
  5
15A
330
2
100
AcDbEntity
  8
L-ZISSEN
100
AcDbLine
 10
164.5000000000004
 20
-106.0000000000013
 30
0.0
 11
162.4167389105764
 21
-104.0017338538155
 31
0.0
  0
LINE
  5
15B
330
2
100
AcDbEntity
  8
L-ZISSEN
100
AcDbLine
 10
191.875
 20
-113.5000000000018
 30
0.0
 11
191.875
 21
-114.7500000000018
 31
0.0
  0
LINE
  5
15C
330
2
100
AcDbEntity
  8
L-ZISSEN
100
AcDbLine
 10
191.875
 20
-112.2500000000018
 30
0.0
 11
191.875
 21
-111.0000000000018
 31
0.0
  0
LINE
  5
15D
330
2
100
AcDbEntity
  8
L-ZISSEN
100
AcDbLine
 10
191.875
 20
-111.0000000000018
 30
0.0
 11
188.75
 21
-112.8750000000018
 31
0.0
  0
LINE
  5
15E
330
2
100
AcDbEntity
  8
L-ZISSEN
100
AcDbLine
 10
191.875
 20
-114.7500000000018
 30
0.0
 11
188.75
 21
-112.8750000000018
 31
0.0
  0
LINE
  5
15F
330
2
100
AcDbEntity
  8
L-ZISSEN
100
AcDbLine
 10
203.125
 20
-113.5000000000009
 30
0.0
 11
208.1249999999999
 21
-113.5000000000009
 31
0.0
  0
LINE
  5
160
330
2
100
AcDbEntity
  8
L-ZISSEN
100
AcDbLine
 10
203.125
 20
-113.5000000000009
 30
0.0
 11
208.1249999999999
 21
-113.5000000000009
 31
0.0
  0
LINE
  5
161
330
2
100
AcDbEntity
  8
L-ZISSEN
100
AcDbLine
 10
203.125
 20
-112.2500000000009
 30
0.0
 11
208.1249999999999
 21
-112.2500000000009
 31
0.0
  0
LINE
  5
162
330
2
100
AcDbEntity
  8
L-ZISSEN
100
AcDbLine
 10
203.125
 20
-112.2500000000009
 30
0.0
 11
208.1249999999999
 21
-112.2500000000009
 31
0.0
  0
LINE
  5
163
330
2
100
AcDbEntity
  8
L-ZISSEN
100
AcDbLine
 10
203.125
 20
-112.2500000000009
 30
0.0
 11
203.125
 21
-113.5000000000009
 31
0.0
  0
LINE
  5
164
330
2
100
AcDbEntity
  8
L-ZISSEN
100
AcDbLine
 10
201.2500000000022
 20
-109.7500000000004
 30
0.0
 11
198.7500000000022
 21
-109.7500000000004
 31
0.0
  0
LINE
  5
165
330
2
100
AcDbEntity
  8
L-ZISSEN
100
AcDbLine
 10
196.875
 20
-112.2500000000018
 30
0.0
 11
196.875
 21
-113.5000000000018
 31
0.0
  0
LINE
  5
166
330
2
100
AcDbEntity
  8
L-ZISSEN
100
AcDbLine
 10
208.1249999999999
 20
-111.0000000000009
 30
0.0
 11
211.2499999999999
 21
-112.8750000000009
 31
0.0
  0
LINE
  5
167
330
2
100
AcDbEntity
  8
L-ZISSEN
100
AcDbLine
 10
208.1249999999999
 20
-114.7500000000009
 30
0.0
 11
211.2499999999999
 21
-112.8750000000009
 31
0.0
  0
LINE
  5
168
330
2
100
AcDbEntity
  8
L-ZISSEN
100
AcDbLine
 10
208.1249999999999
 20
-113.5000000000009
 30
0.0
 11
208.1249999999999
 21
-114.7500000000009
 31
0.0
  0
LINE
  5
169
330
2
100
AcDbEntity
  8
L-ZISSEN
100
AcDbLine
 10
208.1249999999999
 20
-112.2500000000009
 30
0.0
 11
208.1249999999999
 21
-111.0000000000009
 31
0.0
  0
LINE
  5
16A
330
2
100
AcDbEntity
  8
L-ZISSEN
100
AcDbLine
 10
225.2800000000001
 20
-116.3387389116328
 30
0.0
 11
216.8499999999994
 21
-116.3387389116328
 31
0.0
  0
LINE
  5
16B
330
2
100
AcDbEntity
  8
L-ZISSEN
100
AcDbLine
 10
155.0
 20
-23.99999999999988
 30
0.0
 11
155.0
 21
24.0
 31
0.0
  0
LINE
  5
16C
330
2
100
AcDbEntity
  8
L-ZISSEN
100
AcDbLine
 10
155.0
 20
-45.99999999999909
 30
0.0
 11
155.0
 21
-28.00000000000079
 31
0.0
  0
LINE
  5
16D
330
2
100
AcDbEntity
  8
L-ZISSEN
100
AcDbLine
 10
155.0
 20
-23.99999999999977
 30
0.0
 11
158.0
 21
-23.99999999999977
 31
0.0
  0
LINE
  5
16E
330
2
100
AcDbEntity
  8
L-ZISSEN
100
AcDbLine
 10
158.0
 20
-28.00000000000068
 30
0.0
 11
155.0
 21
-28.00000000000068
 31
0.0
  0
LINE
  5
16F
330
2
100
AcDbEntity
  8
L-ZISSEN
100
AcDbLine
 10
158.0
 20
-23.99999999999977
 30
0.0
 11
158.0
 21
-28.00000000000068
 31
0.0
  0
LINE
  5
170
330
2
100
AcDbEntity
  8
L-ZISSEN
100
AcDbLine
 10
137.2961537181422
 20
25.06235821536666
 30
0.0
 11
114.0014260869181
 21
25.06235821536666
 31
0.0
  0
TEXT
  5
171
330
2
100
AcDbEntity
  8
L-ZISSEN
100
AcDbText
 10
114.6387382303419
 20
18.60109309179256
 30
0.0
 40
4.5
  1
Rc3/4
100
AcDbText
  0
TEXT
  5
172
330
2
100
AcDbEntity
  8
L-ZISSEN
100
AcDbText
 10
114.6387382303419
 20
11.10109309179256
 30
0.0
 40
4.5
  1
Rc1
100
AcDbText
  0
LINE
  5
173
330
2
100
AcDbEntity
  8
L-ZISSEN
100
AcDbLine
 10
153.8460781433713
 20
1.633543494613604
 30
0.0
 11
137.2961537181422
 21
25.06235821536666
 31
0.0
  0
LINE
  5
174
330
2
100
AcDbEntity
  8
L-ZISSEN
100
AcDbLine
 10
160.2499999999981
 20
-16.00575108397174
 30
0.0
 11
160.2499999999981
 21
17.0
 31
0.0
  0
SOLID
  5
175
330
2
100
AcDbEntity
  8
L-ZISSEN
100
AcDbTrace
 10
153.573820894269
 20
1.441223185175545
 30
0.0
 11
154.1183353924735
 21
1.825863804051778
 31
0.0
 12
155.0
 22
0.0
 32
0.0
 13
155.0
 23
0.0
 33
0.0
  0
LINE
  5
176
330
2
100
AcDbEntity
  8
L-ZISSEN
100
AcDbLine
 10
155.0
 20
28.00000000000091
 30
0.0
 11
158.0
 21
28.00000000000091
 31
0.0
  0
LINE
  5
177
330
2
100
AcDbEntity
  8
L-ZISSEN
100
AcDbLine
 10
158.0
 20
24.0
 30
0.0
 11
155.0
 21
24.0
 31
0.0
  0
LINE
  5
178
330
2
100
AcDbEntity
  8
L-ZISSEN
100
AcDbLine
 10
158.0
 20
28.00000000000091
 30
0.0
 11
158.0
 21
24.0
 31
0.0
  0
LINE
  5
179
330
2
100
AcDbEntity
  8
L-ZISSEN
100
AcDbLine
 10
163.9999999999981
 20
-45.99999999999909
 30
0.0
 11
163.9999999999982
 21
-16.00575108397174
 31
0.0
  0
CIRCLE
  5
17A
330
2
100
AcDbEntity
  8
L-SOUZOU
100
AcDbCircle
 10
200.0
 20
0.0
 30
0.0
 40
21.0
  0
LINE
  5
17B
330
2
100
AcDbEntity
  8
L-SOUZOU
100
AcDbLine
 10
198.1215999999956
 20
-0.6856000000000222
 30
0.0
 11
188.6687999999965
 21
-10.74799999999959
 31
0.0
  0
LINE
  5
17C
330
2
100
AcDbEntity
  8
L-SOUZOU
100
AcDbLine
 10
199.3143999999971
 20
-1.878400000000056
 30
0.0
 11
189.251999999996
 21
-11.33119999999985
 31
0.0
  0
LINE
  5
17D
330
2
100
AcDbEntity
  8
L-TYUSIN
100
AcDbLine
 10
208.4215999999956
 20
8.421600000000125
 30
0.0
 11
187.6983999999938
 21
-12.30159999999955
 31
0.0
  0
CIRCLE
  5
17E
330
2
100
AcDbEntity
  8
L-ZISSEN
100
AcDbCircle
 10
200.0
 20
0.0
 30
0.0
 40
5.724999999999999
  0
CIRCLE
  5
17F
330
2
100
AcDbEntity
  8
L-SOUZOU
100
AcDbCircle
 10
200.0
 20
0.0
 30
0.0
 40
18.0
  0
LINE
  5
180
330
2
100
AcDbEntity
  8
L-ZISSEN
100
AcDbLine
 10
177.4999999999981
 20
-16.00575108397174
 30
0.0
 11
177.4999999999981
 21
17.0
 31
0.0
  0
LINE
  5
181
330
2
100
AcDbEntity
  8
L-ZISSEN
100
AcDbLine
 10
173.0
 20
-16.00575108397174
 30
0.0
 11
173.0
 21
17.0
 31
0.0
  0
ARC
  5
182
330
2
100
AcDbEntity
  8
L-SOUZOU
100
AcDbCircle
 10
188.9607999999949
 20
-15.02239999999938
 30
0.0
 40
0.4
100
AcDbArc
 50
136.7899999998952
 51
225.0000000001013
  0
ARC
  5
183
330
2
100
AcDbEntity
  8
L-SOUZOU
100
AcDbCircle
 10
188.9775999999953
 20
-15.03919999999902
 30
0.0
 40
0.4
100
AcDbArc
 50
225.0000000001013
 51
313.209999999828
  0
LINE
  5
184
330
2
100
AcDbEntity
  8
L-SOUZOU
100
AcDbLine
 10
188.6863999999943
 20
-15.31359999999904
 30
0.0
 11
188.6951999999931
 21
-15.32239999999933
 31
0.0
  0
LINE
  5
185
330
2
100
AcDbEntity
  8
L-SOUZOU
100
AcDbLine
 10
188.6863999999943
 20
-15.31359999999904
 30
0.0
 11
188.6775999999954
 21
-15.30479999999852
 31
0.0
  0
LINE
  5
186
330
2
100
AcDbEntity
  8
L-ZISSEN
100
AcDbLine
 10
225.5011303623612
 20
-15.99999999999806
 30
0.0
 11
225.5011303623612
 21
16.07459064444628
 31
0.0
  0
LINE
  5
187
330
2
100
AcDbEntity
  8
L-SOUZOU
100
AcDbLine
 10
207.6367999999959
 20
5.940000000000054
 30
0.0
 11
201.9175999999977
 21
0.5671999999999571
 31
0.0
  0
LINE
  5
188
330
2
100
AcDbEntity
  8
L-SOUZOU
100
AcDbLine
 10
205.9399999999965
 20
7.636800000000221
 30
0.0
 11
200.5671999999961
 21
1.917599999999993
 31
0.0
  0
LINE
  5
189
330
2
100
AcDbEntity
  8
L-ZISSEN
100
AcDbLine
 10
222.5
 20
-16.00575108397174
 30
0.0
 11
222.5
 21
17.0
 31
0.0
  0
CIRCLE
  5
18A
330
2
100
AcDbEntity
  8
L-SOUZOU
100
AcDbCircle
 10
200.0
 20
0.0
 30
0.0
 40
1.2
  0
ARC
  5
18B
330
2
100
AcDbEntity
  8
L-SOUZOU
100
AcDbCircle
 10
200.0
 20
0.0
 30
0.0
 40
2.0
100
AcDbArc
 50
73.51949999986479
 51
200.0599999999725
  0
ARC
  5
18C
330
2
100
AcDbEntity
  8
L-SOUZOU
100
AcDbCircle
 10
200.0
 20
0.0
 30
0.0
 40
2.0
100
AcDbArc
 50
249.939999999777
 51
16.4805000000672
  0
LINE
  5
18D
330
2
100
AcDbEntity
  8
L-SOUZOU
100
AcDbLine
 10
205.9399999999965
 20
7.636800000000221
 30
0.0
 11
207.6367999999959
 21
5.940000000000054
 31
0.0
  0
LINE
  5
18E
330
2
100
AcDbEntity
  8
L-ZISSEN
100
AcDbLine
 10
227.0000000000018
 20
16.07459064444628
 30
0.0
 11
227.0000000000018
 21
17.0
 31
0.0
  0
LINE
  5
18F
330
2
100
AcDbEntity
  8
L-ZISSEN
100
AcDbLine
 10
267.3750722439046
 20
-104.0017338538157
 30
0.0
 11
264.9999999999948
 21
-46.99999999999841
 31
0.0
  0
LINE
  5
190
330
2
100
AcDbEntity
  8
L-ZISSEN
100
AcDbLine
 10
342.624927756085
 20
-104.0017338538157
 30
0.0
 11
344.9999999999947
 21
-46.99999999999841
 31
0.0
  0
LINE
  5
191
330
2
100
AcDbEntity
  8
L-ZISSEN
100
AcDbLine
 10
237.5832610894235
 20
-104.0017338538155
 30
0.0
 11
240.0
 21
-45.99999999999909
 31
0.0
  0
LINE
  5
192
330
2
100
AcDbEntity
  8
L-ZISSEN
100
AcDbLine
 10
301.8749999999947
 20
-112.2500000000016
 30
0.0
 11
296.8749999999947
 21
-112.2500000000016
 31
0.0
  0
LINE
  5
193
330
2
100
AcDbEntity
  8
L-ZISSEN
100
AcDbLine
 10
301.8749999999947
 20
-112.2500000000016
 30
0.0
 11
296.8749999999947
 21
-112.2500000000016
 31
0.0
  0
LINE
  5
194
330
2
100
AcDbEntity
  8
L-ZISSEN
100
AcDbLine
 10
301.8749999999947
 20
-113.5000000000015
 30
0.0
 11
296.8749999999947
 21
-113.5000000000015
 31
0.0
  0
LINE
  5
195
330
2
100
AcDbEntity
  8
L-ZISSEN
100
AcDbLine
 10
301.8749999999947
 20
-113.5000000000015
 30
0.0
 11
296.8749999999947
 21
-113.5000000000015
 31
0.0
  0
LINE
  5
196
330
2
100
AcDbEntity
  8
L-ZISSEN
100
AcDbLine
 10
342.624927756085
 20
-104.0017338538153
 30
0.0
 11
267.3750722439046
 21
-104.0017338538156
 31
0.0
  0
LINE
  5
197
330
2
100
AcDbEntity
  8
L-ZISSEN
100
AcDbLine
 10
340.4999999999943
 20
-106.0000000000013
 30
0.0
 11
269.4999999999953
 21
-106.0000000000013
 31
0.0
  0
LINE
  5
198
330
2
100
AcDbEntity
  8
L-ZISSEN
100
AcDbLine
 10
269.4583333333286
 20
-106.0000000000016
 30
0.0
 11
340.4999999999943
 21
-106.0000000000013
 31
0.0
  0
LINE
  5
199
330
2
100
AcDbEntity
  8
L-ZISSEN
100
AcDbLine
 10
303.749999999997
 20
-119.7500000000002
 30
0.0
 11
301.249999999997
 21
-119.7500000000002
 31
0.0
  0
LINE
  5
19A
330
2
100
AcDbEntity
  8
L-ZISSEN
100
AcDbLine
 10
301.249999999997
 20
-119.7500000000002
 30
0.0
 11
304.999999999997
 21
-126.0000000000002
 31
0.0
  0
LINE
  5
19B
330
2
100
AcDbEntity
  8
L-ZISSEN
100
AcDbLine
 10
304.9999999999947
 20
-133.0811722572286
 30
0.0
 11
293.0855668651604
 21
-131.3791103808241
 31
0.0
  0
LINE
  5
19C
330
2
100
AcDbEntity
  8
L-ZISSEN
100
AcDbLine
 10
293.0855668651604
 20
-135.942025511046
 30
0.0
 11
304.9999999999947
 21
-138.4363834854768
 31
0.0
  0
LINE
  5
19D
330
2
100
AcDbEntity
  8
L-ZISSEN
100
AcDbLine
 10
304.9999999999947
 20
-141.0000000000015
 30
0.0
 11
290.9374999999925
 21
-137.2500000000016
 31
0.0
  0
LINE
  5
19E
330
2
100
AcDbEntity
  8
L-ZISSEN
100
AcDbLine
 10
304.9999999999947
 20
-132.2500000000015
 30
0.0
 11
291.8749999999925
 21
-130.3750000000015
 31
0.0
  0
LINE
  5
19F
330
2
100
AcDbEntity
  8
L-ZISSEN
100
AcDbLine
 10
292.1874999999947
 20
-146.0000000000015
 30
0.0
 11
317.8124999999947
 21
-146.0000000000015
 31
0.0
  0
LINE
  5
1A0
330
2
100
AcDbEntity
  8
L-ZISSEN
100
AcDbLine
 10
290.9374999999925
 20
-106.0000000000016
 30
0.0
 11
290.9374999999925
 21
-144.7500000000015
 31
0.0
  0
LINE
  5
1A1
330
2
100
AcDbEntity
  8
L-ZISSEN
100
AcDbLine
 10
291.8749999999925
 20
-106.0000000000016
 30
0.0
 11
291.8749999999925
 21
-130.3750000000015
 31
0.0
  0
LINE
  5
1A2
330
2
100
AcDbEntity
  8
L-ZISSEN
100
AcDbLine
 10
290.9374999999925
 20
-106.0000000000016
 30
0.0
 11
290.9374999999925
 21
-129.7892753671342
 31
0.0
  0
LINE
  5
1A3
330
2
100
AcDbEntity
  8
L-ZISSEN
100
AcDbLine
 10
295.6249999999947
 20
-138.5000000000006
 30
0.0
 11
295.6249999999925
 21
-146.0000000000015
 31
0.0
  0
ARC
  5
1A4
330
2
100
AcDbEntity
  8
L-ZISSEN
100
AcDbCircle
 10
292.1874999999947
 20
-144.7500000000015
 30
0.0
 40
1.250000000000568
100
AcDbArc
 50
180.0
 51
270.0
  0
LINE
  5
1A5
330
2
100
AcDbEntity
  8
L-ZISSEN
100
AcDbLine
 10
293.0855668651604
 20
-131.3791103808241
 30
0.0
 11
293.0855668651604
 21
-135.942025511046
 31
0.0
  0
LINE
  5
1A6
330
2
100
AcDbEntity
  8
L-ZISSEN
100
AcDbLine
 10
290.9374999999925
 20
-137.2500000000016
 30
0.0
 11
293.0855668651604
 21
-135.942025511046
 31
0.0
  0
LINE
  5
1A7
330
2
100
AcDbEntity
  8
L-ZISSEN
100
AcDbLine
 10
293.0855668651604
 20
-130.5479381235966
 30
0.0
 11
291.8749999999925
 21
-130.3750000000015
 31
0.0
  0
LINE
  5
1A8
330
2
100
AcDbEntity
  8
L-ZISSEN
100
AcDbLine
 10
293.0855668651604
 20
-131.3791103808241
 30
0.0
 11
291.8749999999925
 21
-130.3750000000015
 31
0.0
  0
LINE
  5
1A9
330
2
100
AcDbEntity
  8
L-ZISSEN
100
AcDbLine
 10
235.4999999999995
 20
-106.0000000000013
 30
0.0
 11
237.5832610894235
 21
-104.0017338538155
 31
0.0
  0
LINE
  5
1AA
330
2
100
AcDbEntity
  8
L-ZISSEN
100
AcDbLine
 10
279.7199999999945
 20
-116.3387389116326
 30
0.0
 11
288.1499999999953
 21
-116.3387389116326
 31
0.0
  0
LINE
  5
1AB
330
2
100
AcDbEntity
  8
L-ZISSEN
100
AcDbLine
 10
269.4583333333287
 20
-106.0000000000014
 30
0.0
 11
267.3750722439046
 21
-104.0017338538156
 31
0.0
  0
LINE
  5
1AC
330
2
100
AcDbEntity
  8
L-ZISSEN
100
AcDbLine
 10
296.8749999999947
 20
-113.5000000000015
 30
0.0
 11
296.8749999999947
 21
-114.7500000000015
 31
0.0
  0
LINE
  5
1AD
330
2
100
AcDbEntity
  8
L-ZISSEN
100
AcDbLine
 10
296.8749999999947
 20
-112.2500000000016
 30
0.0
 11
296.8749999999947
 21
-111.0000000000015
 31
0.0
  0
LINE
  5
1AE
330
2
100
AcDbEntity
  8
L-ZISSEN
100
AcDbLine
 10
296.8749999999947
 20
-114.7500000000015
 30
0.0
 11
293.7499999999947
 21
-112.8750000000015
 31
0.0
  0
LINE
  5
1AF
330
2
100
AcDbEntity
  8
L-ZISSEN
100
AcDbLine
 10
296.8749999999947
 20
-111.0000000000015
 30
0.0
 11
293.7499999999947
 21
-112.8750000000015
 31
0.0
  0
LINE
  5
1B0
330
2
100
AcDbEntity
  8
L-ZISSEN
100
AcDbLine
 10
306.249999999997
 20
-109.7500000000002
 30
0.0
 11
306.249999999997
 21
-119.7500000000002
 31
0.0
  0
LINE
  5
1B1
330
2
100
AcDbEntity
  8
L-ZISSEN
100
AcDbLine
 10
306.249999999997
 20
-109.7500000000002
 30
0.0
 11
306.249999999997
 21
-119.7500000000002
 31
0.0
  0
LINE
  5
1B2
330
2
100
AcDbEntity
  8
L-ZISSEN
100
AcDbLine
 10
303.749999999997
 20
-109.7500000000002
 30
0.0
 11
303.749999999997
 21
-119.7500000000002
 31
0.0
  0
LINE
  5
1B3
330
2
100
AcDbEntity
  8
L-ZISSEN
100
AcDbLine
 10
303.749999999997
 20
-109.7500000000002
 30
0.0
 11
303.749999999997
 21
-119.7500000000002
 31
0.0
  0
LINE
  5
1B4
330
2
100
AcDbEntity
  8
L-ZISSEN
100
AcDbLine
 10
319.0624999999925
 20
-106.0000000000016
 30
0.0
 11
319.0624999999925
 21
-144.7500000000015
 31
0.0
  0
LINE
  5
1B5
330
2
100
AcDbEntity
  8
L-ZISSEN
100
AcDbLine
 10
319.0624999999925
 20
-106.0000000000016
 30
0.0
 11
319.0624999999925
 21
-129.7892753671342
 31
0.0
  0
LINE
  5
1B6
330
2
100
AcDbEntity
  8
L-ZISSEN
100
AcDbLine
 10
318.1249999999924
 20
-106.0000000000016
 30
0.0
 11
318.1249999999924
 21
-130.3750000000015
 31
0.0
  0
LINE
  5
1B7
330
2
100
AcDbEntity
  8
L-ZISSEN
100
AcDbLine
 10
314.3749999999925
 20
-138.5000000000015
 30
0.0
 11
314.3749999999925
 21
-146.0000000000015
 31
0.0
  0
ARC
  5
1B8
330
2
100
AcDbEntity
  8
L-ZISSEN
100
AcDbCircle
 10
317.8124999999947
 20
-144.7500000000015
 30
0.0
 40
1.249999999999715
100
AcDbArc
 50
270.0
 51
0.0
  0
LINE
  5
1B9
330
2
100
AcDbEntity
  8
L-ZISSEN
100
AcDbLine
 10
319.0624999999925
 20
-137.2500000000016
 30
0.0
 11
316.9144331348291
 21
-135.942025511046
 31
0.0
  0
LINE
  5
1BA
330
2
100
AcDbEntity
  8
L-ZISSEN
100
AcDbLine
 10
304.9999999999947
 20
-141.0000000000015
 30
0.0
 11
319.0624999999925
 21
-137.2500000000016
 31
0.0
  0
LINE
  5
1BB
330
2
100
AcDbEntity
  8
L-ZISSEN
100
AcDbLine
 10
316.9144331348291
 20
-131.3791103808241
 30
0.0
 11
316.9144331348291
 21
-135.942025511046
 31
0.0
  0
LINE
  5
1BC
330
2
100
AcDbEntity
  8
L-ZISSEN
100
AcDbLine
 10
304.9999999999947
 20
-132.2500000000015
 30
0.0
 11
318.1249999999924
 21
-130.3750000000015
 31
0.0
  0
LINE
  5
1BD
330
2
100
AcDbEntity
  8
L-ZISSEN
100
AcDbLine
 10
304.9999999999947
 20
-133.0811722572286
 30
0.0
 11
316.9144331348291
 21
-131.3791103808241
 31
0.0
  0
LINE
  5
1BE
330
2
100
AcDbEntity
  8
L-ZISSEN
100
AcDbLine
 10
316.9144331348291
 20
-135.942025511046
 30
0.0
 11
304.9999999999947
 21
-138.4363834854768
 31
0.0
  0
LINE
  5
1BF
330
2
100
AcDbEntity
  8
L-ZISSEN
100
AcDbLine
 10
304.9999999999947
 20
-132.2500000000015
 30
0.0
 11
304.9999999999947
 21
-133.0811722572286
 31
0.0
  0
LINE
  5
1C0
330
2
100
AcDbEntity
  8
L-TYUSIN
100
AcDbLine
 10
302.8132064374397
 20
-135.9964547011748
 30
0.0
 11
307.0079864123515
 21
-135.9964547011748
 31
0.0
  0
CIRCLE
  5
1C1
330
2
100
AcDbEntity
  8
L-ZISSEN
100
AcDbCircle
 10
304.9999999999947
 20
-135.9964547011748
 30
0.0
 40
1.25
  0
LINE
  5
1C2
330
2
100
AcDbEntity
  8
L-ZISSEN
100
AcDbLine
 10
306.2499999999947
 20
-140.6666666666676
 30
0.0
 11
306.2499999999947
 21
-142.2500000000015
 31
0.0
  0
LINE
  5
1C3
330
2
100
AcDbEntity
  8
L-ZISSEN
100
AcDbLine
 10
303.7499999999925
 20
-140.6666666666672
 30
0.0
 11
303.7499999999947
 21
-142.2500000000015
 31
0.0
  0
ARC
  5
1C4
330
2
100
AcDbEntity
  8
L-ZISSEN
100
AcDbCircle
 10
304.9999999999947
 20
-142.2500000000015
 30
0.0
 40
1.250000000000568
100
AcDbArc
 50
180.0
 51
0.0
  0
LINE
  5
1C5
330
2
100
AcDbEntity
  8
L-ZISSEN
100
AcDbLine
 10
304.9999999999947
 20
-141.0000000000015
 30
0.0
 11
304.9999999999947
 21
-138.4363834854768
 31
0.0
  0
LINE
  5
1C6
330
2
100
AcDbEntity
  8
L-ZISSEN
100
AcDbLine
 10
306.249999999997
 20
-119.7500000000002
 30
0.0
 11
308.749999999997
 21
-119.7500000000002
 31
0.0
  0
LINE
  5
1C7
330
2
100
AcDbEntity
  8
L-ZISSEN
100
AcDbLine
 10
308.749999999997
 20
-119.7500000000002
 30
0.0
 11
304.999999999997
 21
-126.0000000000002
 31
0.0
  0
LINE
  5
1C8
330
2
100
AcDbEntity
  8
L-ZISSEN
100
AcDbLine
 10
316.9144331348291
 20
-130.5479381235966
 30
0.0
 11
318.1249999999924
 21
-130.3750000000015
 31
0.0
  0
LINE
  5
1C9
330
2
100
AcDbEntity
  8
L-ZISSEN
100
AcDbLine
 10
316.9144331348291
 20
-131.3791103808241
 30
0.0
 11
318.1249999999924
 21
-130.3750000000015
 31
0.0
  0
LINE
  5
1CA
330
2
100
AcDbEntity
  8
L-ZISSEN
100
AcDbLine
 10
308.1249999999947
 20
-112.2500000000006
 30
0.0
 11
313.1249999999947
 21
-112.2500000000006
 31
0.0
  0
LINE
  5
1CB
330
2
100
AcDbEntity
  8
L-ZISSEN
100
AcDbLine
 10
308.1249999999947
 20
-112.2500000000006
 30
0.0
 11
313.1249999999947
 21
-112.2500000000006
 31
0.0
  0
LINE
  5
1CC
330
2
100
AcDbEntity
  8
L-ZISSEN
100
AcDbLine
 10
308.1249999999947
 20
-113.5000000000006
 30
0.0
 11
313.1249999999947
 21
-113.5000000000006
 31
0.0
  0
LINE
  5
1CD
330
2
100
AcDbEntity
  8
L-ZISSEN
100
AcDbLine
 10
308.1249999999947
 20
-113.5000000000006
 30
0.0
 11
313.1249999999947
 21
-113.5000000000006
 31
0.0
  0
LINE
  5
1CE
330
2
100
AcDbEntity
  8
L-ZISSEN
100
AcDbLine
 10
308.1249999999947
 20
-112.2500000000006
 30
0.0
 11
308.1249999999947
 21
-113.5000000000006
 31
0.0
  0
LINE
  5
1CF
330
2
100
AcDbEntity
  8
L-ZISSEN
100
AcDbLine
 10
301.8749999999947
 20
-112.2500000000016
 30
0.0
 11
301.8749999999947
 21
-113.5000000000015
 31
0.0
  0
LINE
  5
1D0
330
2
100
AcDbEntity
  8
L-ZISSEN
100
AcDbLine
 10
306.249999999997
 20
-109.7500000000002
 30
0.0
 11
303.749999999997
 21
-109.7500000000002
 31
0.0
  0
LINE
  5
1D1
330
2
100
AcDbEntity
  8
L-ZISSEN
100
AcDbLine
 10
313.1249999999947
 20
-114.7500000000006
 30
0.0
 11
316.2499999999947
 21
-112.8750000000006
 31
0.0
  0
LINE
  5
1D2
330
2
100
AcDbEntity
  8
L-ZISSEN
100
AcDbLine
 10
313.1249999999947
 20
-113.5000000000006
 30
0.0
 11
313.1249999999947
 21
-114.7500000000006
 31
0.0
  0
LINE
  5
1D3
330
2
100
AcDbEntity
  8
L-ZISSEN
100
AcDbLine
 10
313.1249999999947
 20
-111.0000000000006
 30
0.0
 11
316.2499999999947
 21
-112.8750000000006
 31
0.0
  0
LINE
  5
1D4
330
2
100
AcDbEntity
  8
L-ZISSEN
100
AcDbLine
 10
313.1249999999947
 20
-112.2500000000006
 30
0.0
 11
313.1249999999947
 21
-111.0000000000006
 31
0.0
  0
LINE
  5
1D5
330
2
100
AcDbEntity
  8
L-ZISSEN
100
AcDbLine
 10
330.2799999999949
 20
-116.3387389116326
 30
0.0
 11
321.8499999999942
 21
-116.3387389116326
 31
0.0
  0
LINE
  5
1D6
330
2
100
AcDbEntity
  8
L-ZISSEN
100
AcDbLine
 10
340.541666666661
 20
-106.0000000000012
 30
0.0
 11
342.624927756085
 21
-104.0017338538153
 31
0.0
  0
LINE
  5
1D7
330
2
100
AcDbEntity
  8
L-ZISSEN
100
AcDbLine
 10
310.9999999999952
 20
26.80000000000075
 30
0.0
 11
294.7499999999947
 21
26.80000000000052
 31
0.0
  0
LINE
  5
1D8
330
2
100
AcDbEntity
  8
L-ZISSEN
100
AcDbLine
 10
310.9999999999952
 20
26.80000000000097
 30
0.0
 11
294.9999999999947
 21
26.80000000000097
 31
0.0
  0
LINE
  5
1D9
330
2
100
AcDbEntity
  8
L-ZISSEN
100
AcDbLine
 10
310.9999999999952
 20
26.80000000000075
 30
0.0
 11
294.7499999999947
 21
26.80000000000052
 31
0.0
  0
LINE
  5
1DA
330
2
100
AcDbEntity
  8
L-ZISSEN
100
AcDbLine
 10
293.9999999999947
 20
26.80000000000097
 30
0.0
 11
310.9999999999952
 21
26.80000000000097
 31
0.0
  0
LINE
  5
1DB
330
2
100
AcDbEntity
  8
L-ZISSEN
100
AcDbLine
 10
293.9999999999947
 20
26.80000000000075
 30
0.0
 11
310.9999999999952
 21
26.80000000000075
 31
0.0
  0
LINE
  5
1DC
330
2
100
AcDbEntity
  8
L-ZISSEN
100
AcDbLine
 10
265.2499999999935
 20
20.99999999999977
 30
0.0
 11
306.4999999999934
 21
20.99999999999977
 31
0.0
  0
LINE
  5
1DD
330
2
100
AcDbEntity
  8
L-ZISSEN
100
AcDbLine
 10
310.9999999999938
 20
17.00000000000159
 30
0.0
 11
277.9999999999943
 21
17.00000000000159
 31
0.0
  0
LINE
  5
1DE
330
2
100
AcDbEntity
  8
L-ZISSEN
100
AcDbLine
 10
336.4999999999934
 20
-46.99999999999841
 30
0.0
 11
273.4999999999938
 21
-46.99999999999841
 31
0.0
  0
LINE
  5
1DF
330
2
100
AcDbEntity
  8
L-ZISSEN
100
AcDbLine
 10
331.9999999999952
 20
-46.99999999999841
 30
0.0
 11
277.9999999999943
 21
-46.99999999999841
 31
0.0
  0
LINE
  5
1E0
330
2
100
AcDbEntity
  8
L-ZISSEN
100
AcDbLine
 10
349.9999999999947
 20
-46.99999999999852
 30
0.0
 11
259.9999999999949
 21
-46.99999999999841
 31
0.0
  0
LINE
  5
1E1
330
2
100
AcDbEntity
  8
L-ZISSEN
100
AcDbLine
 10
263.4999999999934
 20
-16.00575108396947
 30
0.0
 11
346.499999999996
 21
-16.00575108396992
 31
0.0
  0
LINE
  5
1E2
330
2
100
AcDbEntity
  8
L-ZISSEN
100
AcDbLine
 10
259.9999999999949
 20
-31.99999999999931
 30
0.0
 11
349.9999999999947
 21
-31.99999999999931
 31
0.0
  0
LINE
  5
1E3
330
2
100
AcDbEntity
  8
L-ZISSEN
100
AcDbLine
 10
349.9999999999947
 20
24.00000000000068
 30
0.0
 11
259.9999999999949
 21
24.00000000000068
 31
0.0
  0
LINE
  5
1E4
330
2
100
AcDbEntity
  8
L-ZISSEN
100
AcDbLine
 10
259.9999999999949
 20
-31.99999999999931
 30
0.0
 11
349.9999999999947
 21
-31.99999999999931
 31
0.0
  0
LINE
  5
1E5
330
2
100
AcDbEntity
  8
L-ZISSEN
100
AcDbLine
 10
259.9999999999949
 20
-16.00575108397174
 30
0.0
 11
259.9999999999949
 21
-24.00000000000011
 31
0.0
  0
LINE
  5
1E6
330
2
100
AcDbEntity
  8
L-ZISSEN
100
AcDbLine
 10
245.0
 20
-16.00575108397185
 30
0.0
 11
245.0
 21
-24.00000000000023
 31
0.0
  0
LINE
  5
1E7
330
2
100
AcDbEntity
  8
L-ZISSEN
100
AcDbLine
 10
269.4999999999935
 20
-16.00575108396958
 30
0.0
 11
269.4999999999935
 21
-31.99999999999931
 31
0.0
  0
LINE
  5
1E8
330
2
100
AcDbEntity
  8
L-ZISSEN
100
AcDbLine
 10
264.2499999999933
 20
-16.00575108396958
 30
0.0
 11
264.2499999999935
 21
-31.99999999999931
 31
0.0
  0
LINE
  5
1E9
330
2
100
AcDbEntity
  8
L-ZISSEN
100
AcDbLine
 10
236.0
 20
-45.99999999999909
 30
0.0
 11
236.0
 21
-16.00575108397174
 31
0.0
  0
LINE
  5
1EA
330
2
100
AcDbEntity
  8
L-ZISSEN
100
AcDbLine
 10
241.0
 20
-45.99999999999909
 30
0.0
 11
241.0
 21
-16.00575108397185
 31
0.0
  0
LINE
  5
1EB
330
2
100
AcDbEntity
  8
L-ZISSEN
100
AcDbLine
 10
245.0
 20
-27.99999999999988
 30
0.0
 11
245.0
 21
-45.99999999999909
 31
0.0
  0
LINE
  5
1EC
330
2
100
AcDbEntity
  8
L-ZISSEN
100
AcDbLine
 10
259.9999999999949
 20
-31.99999999999931
 30
0.0
 11
259.9999999999949
 21
-46.99999999999852
 31
0.0
  0
LINE
  5
1ED
330
2
100
AcDbEntity
  8
L-TYUSIN
100
AcDbLine
 10
252.4999999999944
 20
-60.47500553292263
 30
0.0
 11
252.4999999999944
 21
-39.52499446707713
 31
0.0
  0
LINE
  5
1EE
330
2
100
AcDbEntity
  8
L-TYUSIN
100
AcDbLine
 10
252.4999999999944
 20
-39.52499446707713
 30
0.0
 11
252.4999999999944
 21
-60.47500553292263
 31
0.0
  0
ARC
  5
1EF
330
2
100
AcDbEntity
  8
L-ZISSEN
100
AcDbCircle
 10
252.4988696376275
 20
-51.99748565438483
 30
0.0
 40
6.502511452774129
100
AcDbArc
 50
178.0823193444422
 51
1.180907304195713
  0
ARC
  5
1F0
330
2
100
AcDbEntity
  8
L-ZISSEN
100
AcDbCircle
 10
252.4988696376275
 20
-48.02319766880316
 30
0.0
 40
6.523174687348231
100
AcDbArc
 50
355.2882861395763
 51
184.9475628706162
  0
LINE
  5
1F1
330
2
100
AcDbEntity
  8
L-TYUSIN
100
AcDbLine
 10
244.4430054839575
 20
-49.99999999999989
 30
0.0
 11
260.5569945160313
 21
-49.99999999999989
 31
0.0
  0
LINE
  5
1F2
330
2
100
AcDbEntity
  8
L-ZISSEN
100
AcDbLine
 10
240.4999999999962
 20
-62.99999999999977
 30
0.0
 11
264.4999999999948
 21
-62.99999999999977
 31
0.0
  0
LINE
  5
1F3
330
2
100
AcDbEntity
  8
L-ZISSEN
100
AcDbLine
 10
240.4999999999962
 20
-45.99999999999909
 30
0.0
 11
240.4999999999961
 21
-62.99999999999977
 31
0.0
  0
LINE
  5
1F4
330
2
100
AcDbEntity
  8
L-ZISSEN
100
AcDbLine
 10
245.9999999999944
 20
-51.77988825892668
 30
0.0
 11
245.9999999999944
 21
-48.58578227107376
 31
0.0
  0
LINE
  5
1F5
330
2
100
AcDbEntity
  8
L-ZISSEN
100
AcDbLine
 10
264.4999999999948
 20
-46.99999999999852
 30
0.0
 11
264.4999999999948
 21
-62.99999999999966
 31
0.0
  0
LINE
  5
1F6
330
2
100
AcDbEntity
  8
L-ZISSEN
100
AcDbLine
 10
258.9999999999942
 20
-51.86347369606676
 30
0.0
 11
258.9999999999944
 21
-48.55902601181345
 31
0.0
  0
LINE
  5
1F7
330
2
100
AcDbEntity
  8
L-ZISSEN
100
AcDbLine
 10
263.0011303623612
 20
-24.00000000000011
 30
0.0
 11
242.0000000000018
 21
-24.00000000000011
 31
0.0
  0
LINE
  5
1F8
330
2
100
AcDbEntity
  8
L-ZISSEN
100
AcDbLine
 10
242.0000000000018
 20
-28.00000000000011
 30
0.0
 11
263.0011303623612
 21
-28.00000000000011
 31
0.0
  0
LINE
  5
1F9
330
2
100
AcDbEntity
  8
L-ZISSEN
100
AcDbLine
 10
242.0000000000018
 20
-23.99999999999977
 30
0.0
 11
242.0000000000018
 21
-28.00000000000068
 31
0.0
  0
LINE
  5
1FA
330
2
100
AcDbEntity
  8
L-ZISSEN
100
AcDbLine
 10
263.0011303623612
 20
-28.00000000000011
 30
0.0
 11
263.0011303623612
 21
-24.00000000000057
 31
0.0
  0
LINE
  5
1FB
330
2
100
AcDbEntity
  8
L-ZISSEN
100
AcDbLine
 10
259.9999999999949
 20
-28.00000000000011
 30
0.0
 11
259.9999999999949
 21
-31.99999999999931
 31
0.0
  0
LINE
  5
1FC
330
2
100
AcDbEntity
  8
L-ZISSEN
100
AcDbLine
 10
269.4999999999935
 20
-31.99999999999931
 30
0.0
 11
269.4999999999935
 21
-46.99999999999841
 31
0.0
  0
LINE
  5
1FD
330
2
100
AcDbEntity
  8
L-TYUSIN
100
AcDbLine
 10
252.5011303623616
 20
18.29754232612413
 30
0.0
 11
252.5011303623616
 21
-18.29754232612413
 31
0.0
  0
CIRCLE
  5
1FE
330
2
100
AcDbEntity
  8
L-ZISSEN
100
AcDbCircle
 10
252.5011303623616
 20
8.769234043836263
 30
0.0
 40
6.099999999999567
  0
LINE
  5
1FF
330
2
100
AcDbEntity
  8
L-TYUSIN
100
AcDbLine
 10
244.4758768041517
 20
-8.295038792843456
 30
0.0
 11
260.7145310416674
 21
-8.295038792843456
 31
0.0
  0
CIRCLE
  5
200
330
2
100
AcDbEntity
  8
L-ZISSEN
100
AcDbCircle
 10
252.5011303623616
 20
-8.295038792843456
 30
0.0
 40
6.099999999999567
  0
CIRCLE
  5
201
330
2
100
AcDbEntity
  8
L-ZISSEN
100
AcDbCircle
 10
252.5011303623616
 20
-8.295038792843456
 30
0.0
 40
3.249999999999886
  0
SOLID
  5
202
330
2
100
AcDbEntity
  8
L-ZISSEN
100
AcDbTrace
 10
253.2119954461869
 20
1.898889660751478
 30
0.0
 11
253.7894264127104
 21
1.565696138389284
 31
0.0
 12
252.5011303623616
 22
0.0
 32
0.0
 13
252.5011303623616
 23
0.0
 33
0.0
  0
LINE
  5
203
330
2
100
AcDbEntity
  8
L-TYUSIN
100
AcDbLine
 10
244.4758768041517
 20
8.769234043836263
 30
0.0
 11
260.7145310416674
 21
8.769234043836263
 31
0.0
  0
LINE
  5
204
330
2
100
AcDbEntity
  8
L-ZISSEN
100
AcDbLine
 10
263.0011303623612
 20
24.00000000000011
 30
0.0
 11
242.0011303623598
 21
24.00000000000011
 31
0.0
  0
LINE
  5
205
330
2
100
AcDbEntity
  8
L-ZISSEN
100
AcDbLine
 10
242.0011303623598
 20
28.00000000000022
 30
0.0
 11
263.0011303623612
 21
28.00000000000011
 31
0.0
  0
LINE
  5
206
330
2
100
AcDbEntity
  8
L-ZISSEN
100
AcDbLine
 10
239.7499999999999
 20
16.07459064444628
 30
0.0
 11
239.7499999999999
 21
17.0
 31
0.0
  0
LINE
  5
207
330
2
100
AcDbEntity
  8
L-ZISSEN
100
AcDbLine
 10
242.0000000000018
 20
28.00000000000091
 30
0.0
 11
242.0000000000018
 21
24.0
 31
0.0
  0
LINE
  5
208
330
2
100
AcDbEntity
  8
L-ZISSEN
100
AcDbLine
 10
245.0
 20
24.0
 30
0.0
 11
245.0
 21
16.07459064444628
 31
0.0
  0
CIRCLE
  5
209
330
2
100
AcDbEntity
  8
L-ZISSEN
100
AcDbCircle
 10
252.5011303623616
 20
8.769234043836263
 30
0.0
 40
3.249999999999886
  0
LINE
  5
20A
330
2
100
AcDbEntity
  8
L-ZISSEN
100
AcDbLine
 10
265.2499999999935
 20
20.99999999999977
 30
0.0
 11
265.2499999999934
 21
16.0745906444464
 31
0.0
  0
LINE
  5
20B
330
2
100
AcDbEntity
  8
L-ZISSEN
100
AcDbLine
 10
259.9999999999949
 20
24.00000000000068
 30
0.0
 11
259.9999999999949
 21
16.07459064444651
 31
0.0
  0
LINE
  5
20C
330
2
100
AcDbEntity
  8
L-ZISSEN
100
AcDbLine
 10
263.0011303623612
 20
28.00000000000011
 30
0.0
 11
263.0011303623612
 21
24.00000000000057
 31
0.0
  0
LINE
  5
20D
330
2
100
AcDbEntity
  8
L-ZISSEN
100
AcDbLine
 10
265.2499999999935
 20
20.99999999999977
 30
0.0
 11
263.5261067255495
 21
16.07459064444606
 31
0.0
  0
LINE
  5
20E
330
2
100
AcDbEntity
  8
L-ZISSEN
100
AcDbLine
 10
279.5011303623598
 20
16.07459064444651
 30
0.0
 11
279.5011303623598
 21
-16.00575108397185
 31
0.0
  0
LINE
  5
20F
330
2
100
AcDbEntity
  8
L-ZISSEN
100
AcDbLine
 10
282.9999999999947
 20
17.00000000000159
 30
0.0
 11
282.9999999999947
 21
-16.00575108396958
 31
0.0
  0
LINE
  5
210
330
2
100
AcDbEntity
  8
L-ZISSEN
100
AcDbLine
 10
277.9999999999943
 20
17.00000000000159
 30
0.0
 11
277.9999999999943
 21
16.07459064444651
 31
0.0
  0
LINE
  5
211
330
2
100
AcDbEntity
  8
L-ZISSEN
100
AcDbLine
 10
293.9999999999947
 20
24.00000000000068
 30
0.0
 11
293.9999999999947
 21
26.80000000000075
 31
0.0
  0
LINE
  5
212
330
2
100
AcDbEntity
  8
L-ZISSEN
100
AcDbLine
 10
349.9999999999947
 20
24.00000000000068
 30
0.0
 11
349.9999999999947
 21
-24.00000000000045
 31
0.0
  0
LINE
  5
213
330
2
100
AcDbEntity
  8
L-ZISSEN
100
AcDbLine
 10
340.4999999999961
 20
-16.00575108397004
 30
0.0
 11
340.4999999999961
 21
-31.99999999999931
 31
0.0
  0
LINE
  5
214
330
2
100
AcDbEntity
  8
L-ZISSEN
100
AcDbLine
 10
345.749999999996
 20
-16.00575108397004
 30
0.0
 11
345.7499999999961
 21
-31.99999999999931
 31
0.0
  0
LINE
  5
215
330
2
100
AcDbEntity
  8
L-ZISSEN
100
AcDbLine
 10
349.9999999999947
 20
-31.99999999999931
 30
0.0
 11
349.9999999999947
 21
-46.99999999999852
 31
0.0
  0
LINE
  5
216
330
2
100
AcDbEntity
  8
L-ZISSEN
100
AcDbLine
 10
349.9999999999947
 20
-28.00000000000011
 30
0.0
 11
349.9999999999947
 21
-31.99999999999931
 31
0.0
  0
LINE
  5
217
330
2
100
AcDbEntity
  8
L-ZISSEN
100
AcDbLine
 10
346.2999999999949
 20
-24.00000000000102
 30
0.0
 11
346.2999999999949
 21
-28.00000000000057
 31
0.0
  0
LINE
  5
218
330
2
100
AcDbEntity
  8
L-ZISSEN
100
AcDbLine
 10
349.999999999995
 20
-28.00000000000011
 30
0.0
 11
346.2999999999949
 21
-28.00000000000011
 31
0.0
  0
LINE
  5
219
330
2
100
AcDbEntity
  8
L-ZISSEN
100
AcDbLine
 10
346.2999999999949
 20
-24.00000000000057
 30
0.0
 11
349.9999999999947
 21
-24.00000000000057
 31
0.0
  0
LINE
  5
21A
330
2
100
AcDbEntity
  8
L-ZISSEN
100
AcDbLine
 10
331.9999999999952
 20
20.99999999999977
 30
0.0
 11
344.7499999999938
 21
20.99999999999977
 31
0.0
  0
LINE
  5
21B
330
2
100
AcDbEntity
  8
L-ZISSEN
100
AcDbLine
 10
331.9999999999952
 20
24.00000000000068
 30
0.0
 11
331.9999999999952
 21
-16.00575108396981
 31
0.0
  0
LINE
  5
21C
330
2
100
AcDbEntity
  8
L-ZISSEN
100
AcDbLine
 10
326.9999999999947
 20
24.00000000000068
 30
0.0
 11
326.9999999999947
 21
-16.00575108396981
 31
0.0
  0
LINE
  5
21D
330
2
100
AcDbEntity
  8
L-ZISSEN
100
AcDbLine
 10
306.4999999999934
 20
24.00000000000068
 30
0.0
 11
306.4999999999934
 21
17.00000000000159
 31
0.0
  0
LINE
  5
21E
330
2
100
AcDbEntity
  8
L-ZISSEN
100
AcDbLine
 10
310.9999999999938
 20
24.00000000000068
 30
0.0
 11
310.9999999999938
 21
17.00000000000159
 31
0.0
  0
LINE
  5
21F
330
2
100
AcDbEntity
  8
L-ZISSEN
100
AcDbLine
 10
344.7499999999961
 20
20.99999999999977
 30
0.0
 11
344.7499999999962
 21
-16.00575108396981
 31
0.0
  0
LINE
  5
220
330
2
100
AcDbEntity
  8
L-ZISSEN
100
AcDbLine
 10
346.4999999999961
 20
16.00000000000068
 30
0.0
 11
346.4999999999961
 21
-16.00575108396981
 31
0.0
  0
LINE
  5
221
330
2
100
AcDbEntity
  8
L-ZISSEN
100
AcDbLine
 10
344.7499999999961
 20
20.99999999999977
 30
0.0
 11
346.4999999999961
 21
16.00000000000068
 31
0.0
  0
LINE
  5
222
330
2
100
AcDbEntity
  8
L-ZISSEN
100
AcDbLine
 10
349.9999999999947
 20
16.00000000000068
 30
0.0
 11
346.4999999999961
 21
16.00000000000068
 31
0.0
  0
TEXT
  5
223
330
2
100
AcDbEntity
  8
L-ZISSEN
100
AcDbText
 10
-50.58738220710893
 20
216.4898759065804
 30
0.0
 40
4.5
  1
MODEL NO. CJ8- 00-*01*
100
AcDbText
  0
LINE
  5
224
330
2
100
AcDbEntity
  8
L-TYUSIN
100
AcDbLine
 10
-74.99999999999767
 20
50.00000000000023
 30
0.0
 11
-54.99999999999778
 21
50.00000000000011
 31
0.0
  0
LINE
  5
225
330
2
100
AcDbEntity
  8
L-ZISSEN
100
AcDbLine
 10
-69.99999999999772
 20
63.0
 30
0.0
 11
-59.99999999999772
 21
63.0
 31
0.0
  0
LINE
  5
226
330
2
100
AcDbEntity
  8
L-ZISSEN
100
AcDbLine
 10
23.99999999999636
 20
117.6000000000008
 30
0.0
 11
22.0
 21
120.0000000000009
 31
0.0
  0
ARC
  5
227
330
2
100
AcDbEntity
  8
L-ZISSEN
100
AcDbCircle
 10
22.43941013578069
 20
70.30000000000109
 30
0.0
 40
2.299999999999999
100
AcDbArc
 50
270.0
 51
0.8959352773338501
  0
ARC
  5
228
330
2
100
AcDbEntity
  8
L-ZISSEN
100
AcDbCircle
 10
21.21320343559637
 20
17.86804538251362
 30
0.0
 40
34.1319546174875
100
AcDbArc
 50
75.08201763927131
 51
104.9179823607286
  0
ARC
  5
229
330
2
100
AcDbEntity
  8
L-ZISSEN
100
AcDbCircle
 10
21.21320343559637
 20
80.13195461748864
 30
0.0
 40
34.1319546174875
100
AcDbArc
 50
255.0820176392713
 51
284.9179823607286
  0
LINE
  5
22A
330
2
100
AcDbEntity
  8
L-ZISSEN
100
AcDbLine
 10
-24.31134127319819
 20
57.00000000000091
 30
0.0
 11
24.31134127319273
 21
57.00000000000091
 31
0.0
  0
LINE
  5
22B
330
2
100
AcDbEntity
  8
L-ZISSEN
100
AcDbLine
 10
-34.99999999999818
 20
44.0000000000009
 30
0.0
 11
34.99999999999818
 21
44.0000000000009
 31
0.0
  0
LINE
  5
22C
330
2
100
AcDbEntity
  8
L-ZISSEN
100
AcDbLine
 10
-35.00000000000182
 20
32.00000000000091
 30
0.0
 11
34.99999999999818
 21
32.00000000000091
 31
0.0
  0
LINE
  5
22D
330
2
100
AcDbEntity
  8
L-ZISSEN
100
AcDbLine
 10
-45.0
 20
32.00000000000091
 30
0.0
 11
45.0
 21
32.00000000000091
 31
0.0
  0
LINE
  5
22E
330
2
100
AcDbEntity
  8
L-ZISSEN
100
AcDbLine
 10
-24.00000000000364
 20
117.6000000000008
 30
0.0
 11
-24.7391289476468
 21
70.33596368143162
 31
0.0
  0
ARC
  5
22F
330
2
100
AcDbEntity
  8
L-ZISSEN
100
AcDbCircle
 10
0.0
 20
113.6887061056481
 30
0.0
 40
67.68870610564736
100
AcDbArc
 50
259.4215471024334
 51
280.5784528975665
  0
ARC
  5
230
330
2
100
AcDbEntity
  8
L-ZISSEN
100
AcDbCircle
 10
0.0
 20
-15.68870610564636
 30
0.0
 40
67.68870610564736
100
AcDbArc
 50
79.42154710243348
 51
100.5784528975665
  0
LINE
  5
231
330
2
100
AcDbEntity
  8
L-ZISSEN
100
AcDbLine
 10
21.21320343559637
 20
46.00000000000091
 30
0.0
 11
-21.21320343559637
 21
46.00000000000091
 31
0.0
  0
LINE
  5
232
330
2
100
AcDbEntity
  8
L-ZISSEN
100
AcDbLine
 10
21.21320343559637
 20
52.00000000000091
 30
0.0
 11
-21.21320343559637
 21
52.00000000000091
 31
0.0
  0
LINE
  5
233
330
2
100
AcDbEntity
  8
L-ZISSEN
100
AcDbLine
 10
-21.49999999999999
 20
66.00000000000091
 30
0.0
 11
21.49999999999999
 21
66.00000000000091
 31
0.0
  0
LINE
  5
234
330
2
100
AcDbEntity
  8
L-ZISSEN
100
AcDbLine
 10
22.43941013578069
 20
68.00000000000091
 30
0.0
 11
-22.43941013578796
 21
68.00000000000091
 31
0.0
  0
LINE
  5
235
330
2
100
AcDbEntity
  8
L-SAISEN
100
AcDbLine
 10
-24.31134127319819
 20
57.01627979932573
 30
0.0
 11
-24.31134127319819
 21
51.8591010876462
 31
0.0
  0
LINE
  5
237
330
2
100
AcDbEntity
  8
L-ZISSEN
100
AcDbLine
 10
-26.0
 20
56.28484194029216
 30
0.0
 11
-26.0
 21
51.66267372284664
 31
0.0
  0
ARC
  5
238
330
2
100
AcDbEntity
  8
L-ZISSEN
100
AcDbCircle
 10
-21.21320343559637
 20
17.86804538251362
 30
0.0
 40
34.1319546174875
100
AcDbArc
 50
75.08201763927131
 51
104.9179823607286
  0
LINE
  5
239
330
2
100
AcDbEntity
  8
L-ZISSEN
100
AcDbLine
 10
-29.35410801316175
 20
41.10366223340816
 30
0.0
 11
-30.56901756977095
 21
41.10366223340816
 31
0.0
  0
LINE
  5
23A
330
2
100
AcDbEntity
  8
L-ZISSEN
100
AcDbLine
 10
-24.92312558293269
 20
37.98939319219016
 30
0.0
 11
-35.0
 21
37.98939319219016
 31
0.0
  0
LINE
  5
23B
330
2
100
AcDbEntity
  8
L-ZISSEN
100
AcDbLine
 10
-26.59042817520639
 20
37.98939319219016
 30
0.0
 11
-33.3326974077263
 21
37.98939319219016
 31
0.0
  0
LINE
  5
23C
330
2
100
AcDbEntity
  8
L-ZISSEN
100
AcDbLine
 10
-33.3326974077263
 20
39.13252710029382
 30
0.0
 11
-26.59042817520639
 21
39.13252710029337
 31
0.0
  0
ARC
  5
23D
330
2
100
AcDbEntity
  8
L-ZISSEN
100
AcDbCircle
 10
-21.21320343559637
 20
80.13195461748864
 30
0.0
 40
34.1319546174875
100
AcDbArc
 50
255.0820176392713
 51
284.9179823607286
  0
ARC
  5
23E
330
2
100
AcDbEntity
  8
L-ZISSEN
100
AcDbCircle
 10
-30.62793680934919
 20
39.37381361188499
 30
0.0
 40
2.715501624969762
100
AcDbArc
 50
88.75673479219141
 51
185.097752531711
  0
LINE
  5
23F
330
2
100
AcDbEntity
  8
L-ZISSEN
100
AcDbLine
 10
-34.99999999999818
 20
32.00000000000091
 30
0.0
 11
-34.99999999999818
 21
44.0000000000009
 31
0.0
  0
LINE
  5
240
330
2
100
AcDbEntity
  8
L-ZISSEN
100
AcDbLine
 10
-33.3326974077263
 20
37.98939319219016
 30
0.0
 11
-33.3326974077263
 21
39.13252710029382
 31
0.0
  0
LINE
  5
241
330
2
100
AcDbEntity
  8
L-ZISSEN
100
AcDbLine
 10
-30.56901756977095
 20
41.10366223340816
 30
0.0
 11
-30.56901756977095
 21
42.08867596537811
 31
0.0
  0
LINE
  5
242
330
2
100
AcDbEntity
  8
L-ZISSEN
100
AcDbLine
 10
-30.0
 20
50.84959374134587
 30
0.0
 11
-30.0
 21
47.15040625865595
 31
0.0
  0
LINE
  5
243
330
2
100
AcDbEntity
  8
L-ZISSEN
100
AcDbLine
 10
-24.92312558293269
 20
44.0000000000009
 30
0.0
 11
-24.92312558293269
 21
37.98939319219016
 31
0.0
  0
ARC
  5
244
330
2
100
AcDbEntity
  8
L-ZISSEN
100
AcDbCircle
 10
-29.29518877358168
 20
39.37381361188499
 30
0.0
 40
2.715501624969247
100
AcDbArc
 50
354.9022474682889
 51
91.2432652078086
  0
LINE
  5
245
330
2
100
AcDbEntity
  8
L-ZISSEN
100
AcDbLine
 10
-26.59042817520639
 20
39.13252710029337
 30
0.0
 11
-26.59042817520639
 21
37.98939319219016
 31
0.0
  0
LINE
  5
246
330
2
100
AcDbEntity
  8
L-SAISEN
100
AcDbLine
 10
-24.31134127319819
 20
46.14089891235562
 30
0.0
 11
-24.31134127319819
 21
44.0000000000009
 31
0.0
  0
LINE
  5
247
330
2
100
AcDbEntity
  8
L-ZISSEN
100
AcDbLine
 10
-26.0
 20
46.33732627715517
 30
0.0
 11
-26.0
 21
44.0000000000009
 31
0.0
  0
LINE
  5
248
330
2
100
AcDbEntity
  8
L-ZISSEN
100
AcDbLine
 10
-29.35410801316175
 20
42.08867596537811
 30
0.0
 11
-29.35410801316175
 21
41.10366223340816
 31
0.0
  0
LINE
  5
249
330
2
100
AcDbEntity
  8
L-ZISSEN
100
AcDbLine
 10
-12.42640687119274
 20
50.84959374134587
 30
0.0
 11
-12.42640687119274
 21
47.15040625865595
 31
0.0
  0
LINE
  5
24A
330
2
100
AcDbEntity
  8
L-ZISSEN
100
AcDbLine
 10
-21.49999999999999
 20
66.00000000000091
 30
0.0
 11
-21.49999999999999
 21
57.01627979932573
 31
0.0
  0
LINE
  5
24B
330
2
100
AcDbEntity
  8
L-ZISSEN
100
AcDbLine
 10
-24.31134127319819
 20
57.00000000000091
 30
0.0
 11
-26.0
 21
56.26856214096733
 31
0.0
  0
ARC
  5
24C
330
2
100
AcDbEntity
  8
L-ZISSEN
100
AcDbCircle
 10
-22.43941013578796
 20
70.30000000000109
 30
0.0
 40
2.299999999999999
100
AcDbArc
 50
179.1040647226661
 51
270.0
  0
LINE
  5
24D
330
2
100
AcDbEntity
  8
L-ZISSEN
100
AcDbLine
 10
-20.25000000000364
 20
68.00000000000091
 30
0.0
 11
-20.25000000000364
 21
66.00000000000091
 31
0.0
  0
LINE
  5
24E
330
2
100
AcDbEntity
  8
L-ZISSEN
100
AcDbLine
 10
12.42640687119274
 20
50.84959374134587
 30
0.0
 11
12.42640687119274
 21
47.15040625865595
 31
0.0
  0
LINE
  5
24F
330
2
100
AcDbEntity
  8
L-ZISSEN
100
AcDbLine
 10
21.49999999999999
 20
66.00000000000091
 30
0.0
 11
21.49999999999999
 21
57.01627979932573
 31
0.0
  0
LINE
  5
250
330
2
100
AcDbEntity
  8
L-ZISSEN
100
AcDbLine
 10
20.24999999999636
 20
68.00000000000091
 30
0.0
 11
20.24999999999636
 21
66.00000000000091
 31
0.0
  0
LINE
  5
251
330
2
100
AcDbEntity
  8
L-ZISSEN
100
AcDbLine
 10
22.0
 20
120.0000000000009
 30
0.0
 11
-22.00000000000181
 21
120.0000000000009
 31
0.0
  0
LINE
  5
252
330
2
100
AcDbEntity
  8
L-ZISSEN
100
AcDbLine
 10
-24.00000000000364
 20
117.6000000000008
 30
0.0
 11
-22.00000000000181
 21
120.0000000000009
 31
0.0
  0
LINE
  5
253
330
2
100
AcDbEntity
  8
L-ZISSEN
100
AcDbLine
 10
23.99999999999636
 20
117.6000000000008
 30
0.0
 11
24.73912894763953
 21
70.33596368143162
 31
0.0
  0
LINE
  5
254
330
2
100
AcDbEntity
  8
L-ZISSEN
100
AcDbLine
 10
26.0
 20
56.26856214096733
 30
0.0
 11
26.0
 21
51.66267372284664
 31
0.0
  0
LINE
  5
255
330
2
100
AcDbEntity
  8
L-SAISEN
100
AcDbLine
 10
24.31134127319273
 20
57.00000000000091
 30
0.0
 11
24.31134127319273
 21
51.85910108764665
 31
0.0
  0
LINE
  5
256
330
2
100
AcDbEntity
  8
L-ZISSEN
100
AcDbLine
 10
35.0
 20
37.98939319219016
 30
0.0
 11
35.0
 21
42.99999999999681
 31
0.0
  0
LINE
  5
257
330
2
100
AcDbEntity
  8
L-ZISSEN
100
AcDbLine
 10
34.99999999999818
 20
32.00000000000091
 30
0.0
 11
34.99999999999818
 21
44.0000000000009
 31
0.0
  0
ARC
  5
258
330
2
100
AcDbEntity
  8
L-ZISSEN
100
AcDbCircle
 10
29.2951887735835
 20
39.37381361188499
 30
0.0
 40
2.715501624970328
100
AcDbArc
 50
88.75673479219141
 51
185.097752531711
  0
LINE
  5
259
330
2
100
AcDbEntity
  8
L-ZISSEN
100
AcDbLine
 10
24.92312558293451
 20
44.0000000000009
 30
0.0
 11
24.92312558293451
 21
37.98939319219016
 31
0.0
  0
ARC
  5
25A
330
2
100
AcDbEntity
  8
L-ZISSEN
100
AcDbCircle
 10
30.62793680934919
 20
39.37381361188499
 30
0.0
 40
2.715501624969247
100
AcDbArc
 50
354.9022474682889
 51
91.2432652078086
  0
LINE
  5
25B
330
2
100
AcDbEntity
  8
L-ZISSEN
100
AcDbLine
 10
24.92312558293451
 20
37.98939319219016
 30
0.0
 11
35.0
 21
37.98939319219016
 31
0.0
  0
LINE
  5
25C
330
2
100
AcDbEntity
  8
L-ZISSEN
100
AcDbLine
 10
33.33269740772812
 20
37.98939319219016
 30
0.0
 11
26.59042817520457
 21
37.98939319219016
 31
0.0
  0
LINE
  5
25D
330
2
100
AcDbEntity
  8
L-ZISSEN
100
AcDbLine
 10
26.59042817520457
 20
39.13252710029382
 30
0.0
 11
33.33269740772812
 21
39.13252710029337
 31
0.0
  0
LINE
  5
25E
330
2
100
AcDbEntity
  8
L-ZISSEN
100
AcDbLine
 10
26.59042817520457
 20
37.98939319219016
 30
0.0
 11
26.59042817520457
 21
39.13252710029382
 31
0.0
  0
LINE
  5
25F
330
2
100
AcDbEntity
  8
L-ZISSEN
100
AcDbLine
 10
33.33269740772812
 20
39.13252710029337
 30
0.0
 11
33.33269740772812
 21
37.98939319219016
 31
0.0
  0
LINE
  5
260
330
2
100
AcDbEntity
  8
L-ZISSEN
100
AcDbLine
 10
30.56901756977095
 20
41.10366223340816
 30
0.0
 11
29.35410801316356
 21
41.10366223340816
 31
0.0
  0
LINE
  5
261
330
2
100
AcDbEntity
  8
L-ZISSEN
100
AcDbLine
 10
29.35410801316356
 20
41.10366223340816
 30
0.0
 11
29.35410801316356
 21
42.08867596537811
 31
0.0
  0
LINE
  5
262
330
2
100
AcDbEntity
  8
L-ZISSEN
100
AcDbLine
 10
30.56901756977095
 20
42.08867596537811
 30
0.0
 11
30.56901756977095
 21
41.10366223340816
 31
0.0
  0
LINE
  5
263
330
2
100
AcDbEntity
  8
L-ZISSEN
100
AcDbLine
 10
26.0
 20
46.33732627715517
 30
0.0
 11
26.0
 21
44.0000000000009
 31
0.0
  0
LINE
  5
264
330
2
100
AcDbEntity
  8
L-SAISEN
100
AcDbLine
 10
24.31134127319819
 20
46.14089891235562
 30
0.0
 11
24.31134127319819
 21
44.0000000000009
 31
0.0
  0
LINE
  5
265
330
2
100
AcDbEntity
  8
L-ZISSEN
100
AcDbLine
 10
30.0
 20
50.84959374134587
 30
0.0
 11
30.0
 21
47.15040625865595
 31
0.0
  0
LINE
  5
266
330
2
100
AcDbEntity
  8
L-ZISSEN
100
AcDbLine
 10
24.31134127319273
 20
57.00000000000091
 30
0.0
 11
26.0
 21
56.26856214096733
 31
0.0
  0
TEXT
  5
267
330
2
100
AcDbEntity
  8
L-ZISSEN
100
AcDbText
 10
9.511550501194051
 20
219.3183268764869
 30
0.0
 40
4.5
  1
6
100
AcDbText
  0
TEXT
  5
268
330
2
100
AcDbEntity
  8
L-ZISSEN
100
AcDbText
 10
9.511550501194051
 20
213.3354572733947
 30
0.0
 40
4.5
  1
8
100
AcDbText
  0
LINE
  5
269
330
2
100
AcDbEntity
  8
L-TYUSIN
100
AcDbLine
 10
304.9999999999932
 20
220.9999999999985
 30
0.0
 11
304.9999999999932
 21
320.9999999999985
 31
0.0
  0
LINE
  5
26A
330
2
100
AcDbEntity
  8
L-SOUZOU
100
AcDbLine
 10
206.8000000000001
 20
225.9999999999985
 30
0.0
 11
206.8000000000003
 21
221.9999999999985
 31
0.0
  0
LINE
  5
26B
330
2
100
AcDbEntity
  8
L-SOUZOU
100
AcDbLine
 10
193.2
 20
225.9999999999985
 30
0.0
 11
193.1999999999999
 21
221.9999999999985
 31
0.0
  0
LINE
  5
26C
330
2
100
AcDbEntity
  8
L-TYUSIN
100
AcDbLine
 10
200.0
 20
191.9999999999985
 30
0.0
 11
200.0
 21
320.9999999999985
 31
0.0
  0
LINE
  5
26D
330
2
100
AcDbEntity
  8
L-ZISSEN
100
AcDbLine
 10
218.4615627914681
 20
37.98939319219016
 30
0.0
 11
235.0
 21
37.98939319219016
 31
0.0
  0
LINE
  5
26E
330
2
100
AcDbEntity
  8
L-ZISSEN
100
AcDbLine
 10
155.0
 20
32.00000000000091
 30
0.0
 11
245.0
 21
32.00000000000091
 31
0.0
  0
LINE
  5
26F
330
2
100
AcDbEntity
  8
L-ZISSEN
100
AcDbLine
 10
235.0
 20
44.0000000000009
 30
0.0
 11
165.0
 21
44.0000000000009
 31
0.0
  0
LINE
  5
270
330
2
100
AcDbEntity
  8
L-ZISSEN
100
AcDbLine
 10
165.0
 20
32.00000000000091
 30
0.0
 11
235.0
 21
32.00000000000091
 31
0.0
  0
LINE
  5
271
330
2
100
AcDbEntity
  8
L-ZISSEN
100
AcDbLine
 10
175.9999999999963
 20
117.6000000000008
 30
0.0
 11
175.2608710523531
 21
70.33596368143162
 31
0.0
  0
LINE
  5
272
330
2
100
AcDbEntity
  8
L-ZISSEN
100
AcDbLine
 10
223.9999999999963
 20
117.6000000000008
 30
0.0
 11
224.7391289476395
 21
70.33596368143162
 31
0.0
  0
ARC
  5
273
330
2
100
AcDbEntity
  8
L-ZISSEN
100
AcDbCircle
 10
200.0
 20
-15.68870610564636
 30
0.0
 40
67.68870610564736
100
AcDbArc
 50
79.42154710243348
 51
100.5784528975665
  0
ARC
  5
274
330
2
100
AcDbEntity
  8
L-ZISSEN
100
AcDbCircle
 10
200.0
 20
113.6887061056481
 30
0.0
 40
67.68870610564736
100
AcDbArc
 50
259.4215471024334
 51
280.5784528975665
  0
LINE
  5
275
330
2
100
AcDbEntity
  8
L-ZISSEN
100
AcDbLine
 10
221.2132034355963
 20
52.00000000000091
 30
0.0
 11
178.7867965644036
 21
52.00000000000091
 31
0.0
  0
LINE
  5
276
330
2
100
AcDbEntity
  8
L-ZISSEN
100
AcDbLine
 10
221.2132034355963
 20
46.00000000000091
 30
0.0
 11
178.7867965644036
 21
46.00000000000091
 31
0.0
  0
LINE
  5
277
330
2
100
AcDbEntity
  8
L-ZISSEN
100
AcDbLine
 10
177.560589864212
 20
68.00000000000091
 30
0.0
 11
222.4394101357806
 21
68.00000000000091
 31
0.0
  0
LINE
  5
278
330
2
100
AcDbEntity
  8
L-ZISSEN
100
AcDbLine
 10
178.5
 20
66.00000000000091
 30
0.0
 11
221.5000000000018
 21
66.00000000000091
 31
0.0
  0
LINE
  5
279
330
2
100
AcDbEntity
  8
L-ZISSEN
100
AcDbLine
 10
175.6886587268054
 20
55.99999999999727
 30
0.0
 11
224.3113412731945
 21
55.99999999999727
 31
0.0
  0
LINE
  5
27A
330
2
100
AcDbEntity
  8
L-ZISSEN
100
AcDbLine
 10
174.0000000000018
 20
55.26856214096233
 30
0.0
 11
174.0000000000018
 21
51.66267372284664
 31
0.0
  0
ARC
  5
27B
330
2
100
AcDbEntity
  8
L-ZISSEN
100
AcDbCircle
 10
178.7867965644036
 20
17.86804538251362
 30
0.0
 40
34.1319546174875
100
AcDbArc
 50
75.08201763927131
 51
104.9179823607286
  0
ARC
  5
27C
330
2
100
AcDbEntity
  8
L-ZISSEN
100
AcDbCircle
 10
177.1663740178828
 20
39.37381361188499
 30
0.0
 40
2.715501624970328
100
AcDbArc
 50
354.9022474682889
 51
91.2432652078086
  0
LINE
  5
27D
330
2
100
AcDbEntity
  8
L-ZISSEN
100
AcDbLine
 10
179.8711346162617
 20
39.13252710029382
 30
0.0
 11
173.1288653837382
 21
39.13252710029337
 31
0.0
  0
LINE
  5
27E
330
2
100
AcDbEntity
  8
L-ZISSEN
100
AcDbLine
 10
173.1288653837382
 20
37.98939319219016
 30
0.0
 11
179.8711346162617
 21
37.98939319219016
 31
0.0
  0
LINE
  5
27F
330
2
100
AcDbEntity
  8
L-ZISSEN
100
AcDbLine
 10
181.5384372085318
 20
37.98939319219016
 30
0.0
 11
165.0
 21
37.98939319219016
 31
0.0
  0
ARC
  5
280
330
2
100
AcDbEntity
  8
L-ZISSEN
100
AcDbCircle
 10
178.7867965644036
 20
80.13195461748864
 30
0.0
 40
34.1319546174875
100
AcDbArc
 50
255.0820176392713
 51
284.9179823607286
  0
ARC
  5
281
330
2
100
AcDbEntity
  8
L-ZISSEN
100
AcDbCircle
 10
175.8336259821171
 20
39.37381361188499
 30
0.0
 40
2.715501624969247
100
AcDbArc
 50
88.75673479219141
 51
185.097752531711
  0
LINE
  5
282
330
2
100
AcDbEntity
  8
L-ZISSEN
100
AcDbLine
 10
164.9999999999997
 20
44.0000000000009
 30
0.0
 11
165.0
 21
32.00000000000091
 31
0.0
  0
LINE
  5
283
330
2
100
AcDbEntity
  8
L-ZISSEN
100
AcDbLine
 10
173.1288653837382
 20
39.13252710029337
 30
0.0
 11
173.1288653837382
 21
37.98939319219016
 31
0.0
  0
LINE
  5
284
330
2
100
AcDbEntity
  8
L-ZISSEN
100
AcDbLine
 10
170.0
 20
50.84959374134587
 30
0.0
 11
170.0
 21
47.15040625865595
 31
0.0
  0
LINE
  5
285
330
2
100
AcDbEntity
  8
L-ZISSEN
100
AcDbLine
 10
175.8925452216953
 20
41.10366223340816
 30
0.0
 11
177.1074547783027
 21
41.10366223340816
 31
0.0
  0
LINE
  5
286
330
2
100
AcDbEntity
  8
L-ZISSEN
100
AcDbLine
 10
175.8925452216953
 20
42.08867596537811
 30
0.0
 11
175.8925452216953
 21
41.10366223340816
 31
0.0
  0
LINE
  5
287
330
2
100
AcDbEntity
  8
L-ZISSEN
100
AcDbLine
 10
177.1074547783027
 20
41.10366223340816
 30
0.0
 11
177.1074547783027
 21
42.08867596537811
 31
0.0
  0
LINE
  5
288
330
2
100
AcDbEntity
  8
L-ZISSEN
100
AcDbLine
 10
174.0
 20
46.33732627715517
 30
0.0
 11
174.0
 21
44.0000000000009
 31
0.0
  0
LINE
  5
289
330
2
100
AcDbEntity
  8
L-ZISSEN
100
AcDbLine
 10
181.5384372085318
 20
44.0000000000009
 30
0.0
 11
181.5384372085318
 21
37.98939319219016
 31
0.0
  0
LINE
  5
28A
330
2
100
AcDbEntity
  8
L-ZISSEN
100
AcDbLine
 10
179.8711346162617
 20
37.98939319219016
 30
0.0
 11
179.8711346162617
 21
39.13252710029382
 31
0.0
  0
LINE
  5
28B
330
2
100
AcDbEntity
  8
L-ZISSEN
100
AcDbLine
 10
187.5735931288072
 20
50.84959374134587
 30
0.0
 11
187.5735931288072
 21
47.15040625865595
 31
0.0
  0
LINE
  5
28C
330
2
100
AcDbEntity
  8
L-ZISSEN
100
AcDbLine
 10
178.5
 20
65.99999999999636
 30
0.0
 11
178.5
 21
55.99999999999727
 31
0.0
  0
LINE
  5
28D
330
2
100
AcDbEntity
  8
L-ZISSEN
100
AcDbLine
 10
175.6886587268054
 20
55.99999999999727
 30
0.0
 11
174.0000000000018
 21
55.26856214096233
 31
0.0
  0
ARC
  5
28E
330
2
100
AcDbEntity
  8
L-ZISSEN
100
AcDbCircle
 10
177.560589864212
 20
70.30000000000109
 30
0.0
 40
2.299999999999999
100
AcDbArc
 50
179.1040647226661
 51
270.0
  0
LINE
  5
28F
330
2
100
AcDbEntity
  8
L-ZISSEN
100
AcDbLine
 10
179.7500000000018
 20
68.00000000000091
 30
0.0
 11
179.7500000000018
 21
65.99999999999636
 31
0.0
  0
LINE
  5
290
330
2
100
AcDbEntity
  8
L-ZISSEN
100
AcDbLine
 10
226.0
 20
55.26856214096233
 30
0.0
 11
226.0
 21
51.66267372284664
 31
0.0
  0
ARC
  5
291
330
2
100
AcDbEntity
  8
L-ZISSEN
100
AcDbCircle
 10
221.2132034355963
 20
17.86804538251362
 30
0.0
 40
34.1319546174875
100
AcDbArc
 50
75.08201763927131
 51
104.9179823607286
  0
ARC
  5
292
330
2
100
AcDbEntity
  8
L-ZISSEN
100
AcDbCircle
 10
221.2132034355963
 20
80.13195461748864
 30
0.0
 40
34.1319546174875
100
AcDbArc
 50
255.0820176392713
 51
284.9179823607286
  0
LINE
  5
293
330
2
100
AcDbEntity
  8
L-ZISSEN
100
AcDbLine
 10
212.4264068711927
 20
50.84959374134587
 30
0.0
 11
212.4264068711927
 21
47.15040625865595
 31
0.0
  0
ARC
  5
294
330
2
100
AcDbEntity
  8
L-ZISSEN
100
AcDbCircle
 10
222.8336259821171
 20
39.37381361188499
 30
0.0
 40
2.715501624970328
100
AcDbArc
 50
88.75673479219141
 51
185.097752531711
  0
LINE
  5
295
330
2
100
AcDbEntity
  8
L-ZISSEN
100
AcDbLine
 10
218.4615627914681
 20
44.0000000000009
 30
0.0
 11
218.4615627914681
 21
37.98939319219016
 31
0.0
  0
ARC
  5
296
330
2
100
AcDbEntity
  8
L-ZISSEN
100
AcDbCircle
 10
224.1663740178828
 20
39.37381361188499
 30
0.0
 40
2.715501624969247
100
AcDbArc
 50
354.9022474682889
 51
91.2432652078086
  0
LINE
  5
297
330
2
100
AcDbEntity
  8
L-ZISSEN
100
AcDbLine
 10
226.8711346162617
 20
37.98939319219016
 30
0.0
 11
220.1288653837382
 21
37.98939319219016
 31
0.0
  0
LINE
  5
298
330
2
100
AcDbEntity
  8
L-ZISSEN
100
AcDbLine
 10
220.1288653837382
 20
39.13252710029382
 30
0.0
 11
226.8711346162617
 21
39.13252710029337
 31
0.0
  0
LINE
  5
299
330
2
100
AcDbEntity
  8
L-ZISSEN
100
AcDbLine
 10
220.1288653837382
 20
37.98939319219016
 30
0.0
 11
220.1288653837382
 21
39.13252710029382
 31
0.0
  0
LINE
  5
29A
330
2
100
AcDbEntity
  8
L-ZISSEN
100
AcDbLine
 10
226.8711346162617
 20
39.13252710029337
 30
0.0
 11
226.8711346162617
 21
37.98939319219016
 31
0.0
  0
LINE
  5
29B
330
2
100
AcDbEntity
  8
L-ZISSEN
100
AcDbLine
 10
224.1074547783046
 20
41.10366223340816
 30
0.0
 11
222.8925452216972
 21
41.10366223340816
 31
0.0
  0
LINE
  5
29C
330
2
100
AcDbEntity
  8
L-ZISSEN
100
AcDbLine
 10
222.8925452216972
 20
41.10366223340816
 30
0.0
 11
222.8925452216972
 21
42.08867596537811
 31
0.0
  0
LINE
  5
29D
330
2
100
AcDbEntity
  8
L-ZISSEN
100
AcDbLine
 10
226.0
 20
46.33732627715517
 30
0.0
 11
226.0
 21
44.0000000000009
 31
0.0
  0
LINE
  5
29E
330
2
100
AcDbEntity
  8
L-ZISSEN
100
AcDbLine
 10
224.1074547783046
 20
42.08867596537811
 30
0.0
 11
224.1074547783046
 21
41.10366223340816
 31
0.0
  0
LINE
  5
29F
330
2
100
AcDbEntity
  8
L-ZISSEN
100
AcDbLine
 10
230.0
 20
50.84959374134587
 30
0.0
 11
230.0
 21
47.15040625865595
 31
0.0
  0
LINE
  5
2A0
330
2
100
AcDbEntity
  8
L-ZISSEN
100
AcDbLine
 10
221.5000000000018
 20
65.99999999999636
 30
0.0
 11
221.5000000000018
 21
55.99999999999727
 31
0.0
  0
LINE
  5
2A1
330
2
100
AcDbEntity
  8
L-ZISSEN
100
AcDbLine
 10
224.3113412731945
 20
55.99999999999727
 30
0.0
 11
226.0
 21
55.26856214096233
 31
0.0
  0
ARC
  5
2A2
330
2
100
AcDbEntity
  8
L-ZISSEN
100
AcDbCircle
 10
222.4394101357806
 20
70.30000000000109
 30
0.0
 40
2.299999999999999
100
AcDbArc
 50
270.0
 51
0.8959352773338501
  0
LINE
  5
2A3
330
2
100
AcDbEntity
  8
L-ZISSEN
100
AcDbLine
 10
220.2500000000018
 20
68.00000000000091
 30
0.0
 11
220.2500000000018
 21
65.99999999999636
 31
0.0
  0
LINE
  5
2A4
330
2
100
AcDbEntity
  8
L-ZISSEN
100
AcDbLine
 10
222.0
 20
120.0000000000009
 30
0.0
 11
177.9999999999981
 21
120.0000000000009
 31
0.0
  0
LINE
  5
2A5
330
2
100
AcDbEntity
  8
L-ZISSEN
100
AcDbLine
 10
175.9999999999963
 20
117.6000000000008
 30
0.0
 11
177.9999999999981
 21
120.0000000000009
 31
0.0
  0
LINE
  5
2A6
330
2
100
AcDbEntity
  8
L-ZISSEN
100
AcDbLine
 10
223.9999999999963
 20
117.6000000000008
 30
0.0
 11
222.0
 21
120.0000000000009
 31
0.0
  0
LINE
  5
2A7
330
2
100
AcDbEntity
  8
L-SOUZOU
100
AcDbLine
 10
221.0000000000001
 20
205.9999999999985
 30
0.0
 11
179.0000000000001
 21
205.9999999999985
 31
0.0
  0
LINE
  5
2A8
330
2
100
AcDbEntity
  8
L-SOUZOU
100
AcDbLine
 10
219.5000000000001
 20
196.9999999999985
 30
0.0
 11
180.5000000000001
 21
196.9999999999985
 31
0.0
  0
LINE
  5
2A9
330
2
100
AcDbEntity
  8
L-SOUZOU
100
AcDbLine
 10
218.9000000000002
 20
221.9999999999985
 30
0.0
 11
181.1
 21
221.9999999999985
 31
0.0
  0
LINE
  5
2AA
330
2
100
AcDbEntity
  8
L-SOUZOU
100
AcDbLine
 10
179.0000000000001
 20
205.9999999999985
 30
0.0
 11
179.0000000000001
 21
198.4999999999985
 31
0.0
  0
ARC
  5
2AB
330
2
100
AcDbEntity
  8
L-SOUZOU
100
AcDbCircle
 10
180.5000000000001
 20
198.4999999999985
 30
0.0
 40
1.5
100
AcDbArc
 50
180.0
 51
270.0
  0
ARC
  5
2AC
330
2
100
AcDbEntity
  8
L-SOUZOU
100
AcDbCircle
 10
181.1
 20
220.4999999999985
 30
0.0
 40
1.5
100
AcDbArc
 50
89.99999999999998
 51
180.0
  0
LINE
  5
2AD
330
2
100
AcDbEntity
  8
L-SOUZOU
100
AcDbLine
 10
179.6
 20
220.4999999999985
 30
0.0
 11
179.6
 21
205.9999999999985
 31
0.0
  0
LINE
  5
2AE
330
2
100
AcDbEntity
  8
L-SOUZOU
100
AcDbLine
 10
221.0000000000001
 20
205.9999999999985
 30
0.0
 11
221.0000000000001
 21
198.4999999999985
 31
0.0
  0
ARC
  5
2AF
330
2
100
AcDbEntity
  8
L-SOUZOU
100
AcDbCircle
 10
219.5000000000001
 20
198.4999999999985
 30
0.0
 40
1.5
100
AcDbArc
 50
270.0
 51
0.0
  0
LINE
  5
2B0
330
2
100
AcDbEntity
  8
L-SOUZOU
100
AcDbLine
 10
220.4000000000001
 20
220.4999999999985
 30
0.0
 11
220.4000000000001
 21
205.9999999999985
 31
0.0
  0
ARC
  5
2B1
330
2
100
AcDbEntity
  8
L-SOUZOU
100
AcDbCircle
 10
218.9000000000002
 20
220.4999999999985
 30
0.0
 40
1.5
100
AcDbArc
 50
0.0
 51
89.99999999999998
  0
TEXT
  5
2B2
330
2
100
AcDbEntity
  8
L-ZISSEN
100
AcDbText
 10
297.5159285612042
 20
68.55874721719283
 30
0.0
 40
4.5
  1
P.P
100
AcDbText
  0
LINE
  5
2B3
330
2
100
AcDbEntity
  8
L-ZISSEN
100
AcDbLine
 10
311.9999999999947
 20
45.30000000000097
 30
0.0
 11
297.9999999999947
 21
45.30000000000097
 31
0.0
  0
LINE
  5
2B4
330
2
100
AcDbEntity
  8
L-ZISSEN
100
AcDbLine
 10
294.9999999999947
 20
30.30000000000143
 30
0.0
 11
310.9999999999952
 21
30.3000000000012
 31
0.0
  0
ARC
  5
2B5
330
2
100
AcDbEntity
  8
L-ZISSEN
100
AcDbCircle
 10
252.4988696376275
 20
48.00251434561516
 30
0.0
 40
6.502511452774129
100
AcDbArc
 50
178.0823193444422
 51
1.180907304195713
  0
LINE
  5
2B6
330
2
100
AcDbEntity
  8
L-TYUSIN
100
AcDbLine
 10
252.4999999999944
 20
39.5249944670769
 30
0.0
 11
252.4999999999944
 21
60.47500553292241
 31
0.0
  0
LINE
  5
2B7
330
2
100
AcDbEntity
  8
L-TYUSIN
100
AcDbLine
 10
252.4999999999944
 20
39.50087472087227
 30
0.0
 11
252.4999999999944
 21
60.45088578671777
 31
0.0
  0
ARC
  5
2B8
330
2
100
AcDbEntity
  8
L-ZISSEN
100
AcDbCircle
 10
252.4988696376275
 20
51.97680233119683
 30
0.0
 40
6.523174687348231
100
AcDbArc
 50
355.2882861395763
 51
184.9475628706162
  0
LINE
  5
2B9
330
2
100
AcDbEntity
  8
L-ZISSEN
100
AcDbLine
 10
240.4999999999962
 20
32.00000000000102
 30
0.0
 11
240.4999999999962
 21
63.00000000000011
 31
0.0
  0
LINE
  5
2BA
330
2
100
AcDbEntity
  8
L-TYUSIN
100
AcDbLine
 10
244.4430054839575
 20
50.00000000000011
 30
0.0
 11
260.5569945160313
 21
50.00000000000011
 31
0.0
  0
LINE
  5
2BB
330
2
100
AcDbEntity
  8
L-ZISSEN
100
AcDbLine
 10
235.0
 20
42.99999999999681
 30
0.0
 11
235.0
 21
32.00000000000091
 31
0.0
  0
LINE
  5
2BC
330
2
100
AcDbEntity
  8
L-ZISSEN
100
AcDbLine
 10
245.9999999999944
 20
48.22011174107195
 30
0.0
 11
245.9999999999944
 21
51.41421772892783
 31
0.0
  0
LINE
  5
2BD
330
2
100
AcDbEntity
  8
L-ZISSEN
100
AcDbLine
 10
258.9999999999944
 20
48.13652630392937
 30
0.0
 11
258.9999999999944
 21
51.44097398818747
 31
0.0
  0
LINE
  5
2BE
330
2
100
AcDbEntity
  8
L-ZISSEN
100
AcDbLine
 10
240.4999999999961
 20
63.00000000000011
 30
0.0
 11
264.4999999999948
 21
63.00000000000011
 31
0.0
  0
LINE
  5
2BF
330
2
100
AcDbEntity
  8
L-ZISSEN
100
AcDbLine
 10
297.9999999999947
 20
30.30000000000097
 30
0.0
 11
297.9999999999947
 21
45.30000000000097
 31
0.0
  0
LINE
  5
2C0
330
2
100
AcDbEntity
  8
L-ZISSEN
100
AcDbLine
 10
295.357802659821
 20
70.80542144514357
 30
0.0
 11
293.357802659821
 21
70.80542144514357
 31
0.0
  0
LINE
  5
2C1
330
2
100
AcDbEntity
  8
L-ZISSEN
100
AcDbLine
 10
310.9999999999947
 20
31.50000000000011
 30
0.0
 11
326.9999999999947
 21
31.50000000000011
 31
0.0
  0
LINE
  5
2C2
330
2
100
AcDbEntity
  8
L-ZISSEN
100
AcDbLine
 10
315.7320508075638
 20
38.00000000000193
 30
0.0
 11
322.2679491924259
 21
38.00000000000148
 31
0.0
  0
LINE
  5
2C3
330
2
100
AcDbEntity
  8
L-ZISSEN
100
AcDbLine
 10
311.9999999999947
 20
31.50000000000011
 30
0.0
 11
311.9999999999947
 21
45.30000000000097
 31
0.0
  0
LINE
  5
2C4
330
2
100
AcDbEntity
  8
L-ZISSEN
100
AcDbLine
 10
313.9999999999949
 20
35.00000000000147
 30
0.0
 11
315.7320508075636
 21
38.00000000000148
 31
0.0
  0
LINE
  5
2C5
330
2
100
AcDbEntity
  8
L-ZISSEN
100
AcDbLine
 10
313.9999999999949
 20
31.50000000000011
 30
0.0
 11
313.9999999999949
 21
35.00000000000147
 31
0.0
  0
LINE
  5
2C6
330
2
100
AcDbEntity
  8
L-ZISSEN
100
AcDbLine
 10
323.999999999995
 20
35.00000000000147
 30
0.0
 11
322.2679491924263
 21
38.00000000000148
 31
0.0
  0
LINE
  5
2C7
330
2
100
AcDbEntity
  8
L-ZISSEN
100
AcDbLine
 10
323.9999999999947
 20
35.00000000000102
 30
0.0
 11
323.9999999999947
 21
31.50000000000011
 31
0.0
  0
LINE
  5
2C8
330
2
100
AcDbEntity
  8
L-TYUSIN
100
AcDbLine
 10
359.9999999999932
 20
270.9999999999986
 30
0.0
 11
144.9999999999965
 21
270.9999999999985
 31
0.0
  0
LINE
  5
2C9
330
2
100
AcDbEntity
  8
L-ZISSEN
100
AcDbLine
 10
234.9999999999986
 20
252.9999999999985
 30
0.0
 11
231.4999999999991
 21
252.9999999999985
 31
0.0
  0
LINE
  5
2CA
330
2
100
AcDbEntity
  8
L-ZISSEN
100
AcDbLine
 10
231.4999999999991
 20
288.9999999999985
 30
0.0
 11
234.9999999999986
 21
288.9999999999985
 31
0.0
  0
LINE
  5
2CB
330
2
100
AcDbEntity
  8
L-ZISSEN
100
AcDbLine
 10
162.9905039275709
 20
225.9999999999985
 30
0.0
 11
237.0094960724311
 21
225.9999999999985
 31
0.0
  0
LINE
  5
2CC
330
2
100
AcDbEntity
  8
L-ZISSEN
100
AcDbLine
 10
237.0094960724311
 20
315.9999999999985
 30
0.0
 11
162.9905039275709
 21
315.9999999999985
 31
0.0
  0
LINE
  5
2CD
330
2
100
AcDbEntity
  8
L-ZISSEN
100
AcDbLine
 10
162.9905039275709
 20
225.9999999999985
 30
0.0
 11
158.999999999998
 21
243.9999999999985
 31
0.0
  0
LINE
  5
2CE
330
2
100
AcDbEntity
  8
L-ZISSEN
100
AcDbLine
 10
162.9905039275709
 20
315.9999999999985
 30
0.0
 11
158.999999999998
 21
297.9999999999985
 31
0.0
  0
LINE
  5
2CF
330
2
100
AcDbEntity
  8
L-ZISSEN
100
AcDbLine
 10
154.9999999999965
 20
243.9999999999985
 30
0.0
 11
154.9999999999964
 21
297.9999999999985
 31
0.0
  0
LINE
  5
2D0
330
2
100
AcDbEntity
  8
L-ZISSEN
100
AcDbLine
 10
154.9999999999965
 20
243.9999999999985
 30
0.0
 11
158.9999999999965
 21
243.9999999999985
 31
0.0
  0
LINE
  5
2D1
330
2
100
AcDbEntity
  8
L-ZISSEN
100
AcDbLine
 10
158.9999999999965
 20
297.9999999999985
 30
0.0
 11
154.9999999999965
 21
297.9999999999985
 31
0.0
  0
LINE
  5
2D2
330
2
100
AcDbEntity
  8
L-ZISSEN
100
AcDbLine
 10
164.9999999999986
 20
288.9999999999985
 30
0.0
 11
164.9999999999991
 21
252.9999999999985
 31
0.0
  0
CIRCLE
  5
2D3
330
2
100
AcDbEntity
  8
L-ZISSEN
100
AcDbCircle
 10
200.0
 20
270.9999999999985
 30
0.0
 40
24.77565943703641
  0
CIRCLE
  5
2D4
330
2
100
AcDbEntity
  8
L-ZISSEN
100
AcDbCircle
 10
200.0
 20
270.9999999999985
 30
0.0
 40
23.96246809175248
  0
CIRCLE
  5
2D5
330
2
100
AcDbEntity
  8
L-ZISSEN
100
AcDbCircle
 10
200.0
 20
270.9999999999985
 30
0.0
 40
30.0
  0
POLYLINE
  5
2D6
330
2
100
AcDbEntity
  8
L-ZISSEN
100
AcDb2dPolyline
 66
     1
 10
0.0
 20
0.0
 30
0.0
 70
     1
  0
VERTEX
  5
563
330
2D6
100
AcDbEntity
  8
L-ZISSEN
100
AcDbVertex
100
AcDb2dVertex
 10
230.0
 20
283.4264068711912
 30
0.0
  0
VERTEX
  5
564
330
2D6
100
AcDbEntity
  8
L-ZISSEN
100
AcDbVertex
100
AcDb2dVertex
 10
212.4264068711927
 20
300.9999999999985
 30
0.0
  0
VERTEX
  5
565
330
2D6
100
AcDbEntity
  8
L-ZISSEN
100
AcDbVertex
100
AcDb2dVertex
 10
187.5735931288072
 20
300.9999999999985
 30
0.0
  0
VERTEX
  5
566
330
2D6
100
AcDbEntity
  8
L-ZISSEN
100
AcDbVertex
100
AcDb2dVertex
 10
170.0
 20
283.4264068711915
 30
0.0
  0
VERTEX
  5
567
330
2D6
100
AcDbEntity
  8
L-ZISSEN
100
AcDbVertex
100
AcDb2dVertex
 10
170.0
 20
258.5735931288057
 30
0.0
  0
VERTEX
  5
568
330
2D6
100
AcDbEntity
  8
L-ZISSEN
100
AcDbVertex
100
AcDb2dVertex
 10
187.5735931288072
 20
240.9999999999985
 30
0.0
  0
VERTEX
  5
569
330
2D6
100
AcDbEntity
  8
L-ZISSEN
100
AcDbVertex
100
AcDb2dVertex
 10
212.4264068711927
 20
240.9999999999985
 30
0.0
  0
VERTEX
  5
56A
330
2D6
100
AcDbEntity
  8
L-ZISSEN
100
AcDbVertex
100
AcDb2dVertex
 10
230.0
 20
258.5735931288055
 30
0.0
  0
SEQEND
  5
56B
330
2D6
100
AcDbEntity
  8
L-ZISSEN
  0
LINE
  5
2D7
330
2
100
AcDbEntity
  8
L-ZISSEN
100
AcDbLine
 10
172.2688092649291
 20
235.9999999999985
 30
0.0
 11
227.731190735069
 21
235.9999999999985
 31
0.0
  0
LINE
  5
2D8
330
2
100
AcDbEntity
  8
L-ZISSEN
100
AcDbLine
 10
168.499999999999
 20
252.9999999999985
 30
0.0
 11
172.2688092649291
 21
235.9999999999985
 31
0.0
  0
CIRCLE
  5
2D9
330
2
100
AcDbEntity
  8
L-ZISSEN
100
AcDbCircle
 10
176.4999999999995
 20
240.9999999999985
 30
0.0
 40
4.45
  0
LINE
  5
2DA
330
2
100
AcDbEntity
  8
L-ZISSEN
100
AcDbLine
 10
168.499999999999
 20
252.9999999999985
 30
0.0
 11
164.9999999999991
 21
252.9999999999985
 31
0.0
  0
LINE
  5
2DB
330
2
100
AcDbEntity
  8
L-ZISSEN
100
AcDbLine
 10
231.4999999999991
 20
252.9999999999985
 30
0.0
 11
227.731190735069
 21
235.9999999999985
 31
0.0
  0
CIRCLE
  5
2DC
330
2
100
AcDbEntity
  8
L-ZISSEN
100
AcDbCircle
 10
223.5000000000031
 20
240.9999999999985
 30
0.0
 40
4.45
  0
LINE
  5
2DD
330
2
100
AcDbEntity
  8
L-ZISSEN
100
AcDbLine
 10
227.731190735069
 20
305.9999999999985
 30
0.0
 11
172.2688092649291
 21
305.9999999999985
 31
0.0
  0
LINE
  5
2DE
330
2
100
AcDbEntity
  8
L-ZISSEN
100
AcDbLine
 10
168.499999999999
 20
288.9999999999985
 30
0.0
 11
172.2688092649291
 21
305.9999999999985
 31
0.0
  0
CIRCLE
  5
2DF
330
2
100
AcDbEntity
  8
L-ZISSEN
100
AcDbCircle
 10
176.4999999999995
 20
300.9999999999985
 30
0.0
 40
4.45
  0
LINE
  5
2E0
330
2
100
AcDbEntity
  8
L-ZISSEN
100
AcDbLine
 10
164.9999999999986
 20
288.9999999999985
 30
0.0
 11
168.499999999999
 21
288.9999999999985
 31
0.0
  0
CIRCLE
  5
2E1
330
2
100
AcDbEntity
  8
L-ZISSEN
100
AcDbCircle
 10
223.5000000000031
 20
300.9999999999985
 30
0.0
 40
4.45
  0
LINE
  5
2E2
330
2
100
AcDbEntity
  8
L-ZISSEN
100
AcDbLine
 10
231.4999999999991
 20
288.9999999999985
 30
0.0
 11
227.731190735069
 21
305.9999999999985
 31
0.0
  0
LINE
  5
2E3
330
2
100
AcDbEntity
  8
L-ZISSEN
100
AcDbLine
 10
264.4999999999955
 20
306.4999999999973
 30
0.0
 11
264.4999999999955
 21
340.9999999999982
 31
0.0
  0
LINE
  5
2E4
330
2
100
AcDbEntity
  8
L-ZISSEN
100
AcDbLine
 10
240.4999999999954
 20
340.9999999999982
 30
0.0
 11
240.4999999999954
 21
306.4999999999973
 31
0.0
  0
LINE
  5
2E5
330
2
100
AcDbEntity
  8
L-ZISSEN
100
AcDbLine
 10
282.9999999999937
 20
307.4999999999985
 30
0.0
 11
326.9999999999928
 21
307.4999999999985
 31
0.0
  0
LINE
  5
2E6
330
2
100
AcDbEntity
  8
L-ZISSEN
100
AcDbLine
 10
269.4999999999932
 20
315.9999999999985
 30
0.0
 11
340.4999999999932
 21
315.9999999999985
 31
0.0
  0
CIRCLE
  5
2E7
330
2
100
AcDbEntity
  8
L-ZISSEN
100
AcDbCircle
 10
304.9999999999932
 20
270.9999999999987
 30
0.0
 40
7.0
  0
CIRCLE
  5
2E8
330
2
100
AcDbEntity
  8
L-ZISSEN
100
AcDbCircle
 10
304.9999999999932
 20
270.9999999999987
 30
0.0
 40
11.0
  0
CIRCLE
  5
2E9
330
2
100
AcDbEntity
  8
L-ZISSEN
100
AcDbCircle
 10
304.9999999999932
 20
270.9999999999987
 30
0.0
 40
10.25
  0
LINE
  5
2EA
330
2
100
AcDbEntity
  8
L-ZISSEN
100
AcDbLine
 10
264.9999999999927
 20
292.4999999999987
 30
0.0
 11
306.4999999999936
 21
292.4999999999987
 31
0.0
  0
LINE
  5
2EB
330
2
100
AcDbEntity
  8
L-ZISSEN
100
AcDbLine
 10
259.9999999999932
 20
289.4999999999999
 30
0.0
 11
305.599999999994
 21
289.4999999999999
 31
0.0
  0
LINE
  5
2EC
330
2
100
AcDbEntity
  8
L-ZISSEN
100
AcDbLine
 10
282.9999999999937
 20
234.4999999999987
 30
0.0
 11
326.9999999999928
 21
234.4999999999987
 31
0.0
  0
LINE
  5
2ED
330
2
100
AcDbEntity
  8
L-ZISSEN
100
AcDbLine
 10
340.4999999999932
 20
225.999999999999
 30
0.0
 11
269.4999999999932
 21
225.9999999999985
 31
0.0
  0
LINE
  5
2EE
330
2
100
AcDbEntity
  8
L-ZISSEN
100
AcDbLine
 10
306.4999999999932
 20
249.4999999999985
 30
0.0
 11
264.9999999999923
 21
249.4999999999985
 31
0.0
  0
LINE
  5
2EF
330
2
100
AcDbEntity
  8
L-ZISSEN
100
AcDbLine
 10
259.9999999999932
 20
252.4999999999976
 30
0.0
 11
305.5999999999936
 21
252.4999999999971
 31
0.0
  0
LINE
  5
2F0
330
2
100
AcDbEntity
  8
L-ZISSEN
100
AcDbLine
 10
261.9999999999955
 20
288.9999999999987
 30
0.0
 11
261.9999999999955
 21
252.9999999999987
 31
0.0
  0
LINE
  5
2F1
330
2
100
AcDbEntity
  8
L-ZISSEN
100
AcDbLine
 10
245.0000000000041
 20
244.4999999999986
 30
0.0
 11
245.0000000000041
 21
297.4999999999988
 31
0.0
  0
LINE
  5
2F2
330
2
100
AcDbEntity
  8
L-ZISSEN
100
AcDbLine
 10
234.9999999999986
 20
252.9999999999985
 30
0.0
 11
234.9999999999986
 21
288.9999999999985
 31
0.0
  0
LINE
  5
2F3
330
2
100
AcDbEntity
  8
L-ZISSEN
100
AcDbLine
 10
280.4999999999956
 20
235.4999999999987
 30
0.0
 11
239.115595367539
 21
235.4999999999987
 31
0.0
  0
LINE
  5
2F4
330
2
100
AcDbEntity
  8
L-ZISSEN
100
AcDbLine
 10
259.9999999999927
 20
244.4999999999976
 30
0.0
 11
259.9999999999929
 21
252.9999999999987
 31
0.0
  0
LINE
  5
2F5
330
2
100
AcDbEntity
  8
L-ZISSEN
100
AcDbLine
 10
244.9999999999969
 20
244.4999999999987
 30
0.0
 11
244.999999999997
 21
252.9999999999987
 31
0.0
  0
LINE
  5
2F6
330
2
100
AcDbEntity
  8
L-ZISSEN
100
AcDbLine
 10
259.9999999999937
 20
244.5000000000001
 30
0.0
 11
244.9999999999969
 21
244.4999999999987
 31
0.0
  0
LINE
  5
2F7
330
2
100
AcDbEntity
  8
L-ZISSEN
100
AcDbLine
 10
263.4999999999954
 20
243.9999999999987
 30
0.0
 11
241.4999999999955
 21
243.9999999999987
 31
0.0
  0
LINE
  5
2F8
330
2
100
AcDbEntity
  8
L-ZISSEN
100
AcDbLine
 10
237.0094960724311
 20
225.9999999999985
 30
0.0
 11
241.1108473313254
 21
244.4999999999987
 31
0.0
  0
LINE
  5
2F9
330
2
100
AcDbEntity
  8
L-ZISSEN
100
AcDbLine
 10
241.1108473313182
 20
244.4999999999987
 30
0.0
 11
244.9999999999969
 21
244.4999999999987
 31
0.0
  0
LINE
  5
2FA
330
2
100
AcDbEntity
  8
L-ZISSEN
100
AcDbLine
 10
244.9999999999969
 20
244.4999999999987
 30
0.0
 11
241.3181818181775
 21
244.4999999999987
 31
0.0
  0
LINE
  5
2FB
330
2
100
AcDbEntity
  8
L-ZISSEN
100
AcDbLine
 10
245.0000000000041
 20
243.9999999999985
 30
0.0
 11
241.0000000000039
 21
243.9999999999985
 31
0.0
  0
LINE
  5
2FC
330
2
100
AcDbEntity
  8
L-ZISSEN
100
AcDbLine
 10
264.9999999999927
 20
249.4999999999985
 30
0.0
 11
263.4999999999937
 21
244.4999999999976
 31
0.0
  0
LINE
  5
2FD
330
2
100
AcDbEntity
  8
L-ZISSEN
100
AcDbLine
 10
259.9999999999932
 20
244.4999999999976
 30
0.0
 11
263.6818181818132
 21
244.4999999999976
 31
0.0
  0
LINE
  5
2FE
330
2
100
AcDbEntity
  8
L-ZISSEN
100
AcDbLine
 10
263.4999999999954
 20
243.9999999999987
 30
0.0
 11
265.4999999999954
 21
249.4999999999987
 31
0.0
  0
LINE
  5
2FF
330
2
100
AcDbEntity
  8
L-ZISSEN
100
AcDbLine
 10
261.9999999999955
 20
252.9999999999987
 30
0.0
 11
245.0000000000041
 21
252.9999999999987
 31
0.0
  0
LINE
  5
300
330
2
100
AcDbEntity
  8
L-ZISSEN
100
AcDbLine
 10
277.4999999999955
 20
249.4999999999987
 30
0.0
 11
280.4999999999955
 21
235.4999999999988
 31
0.0
  0
LINE
  5
301
330
2
100
AcDbEntity
  8
L-ZISSEN
100
AcDbLine
 10
282.9999999999932
 20
234.4999999999985
 30
0.0
 11
278.4999999999932
 21
249.4999999999985
 31
0.0
  0
ARC
  5
302
330
2
100
AcDbEntity
  8
L-ZISSEN
100
AcDbCircle
 10
274.9999999999932
 20
233.4999999999987
 30
0.0
 40
2.5
100
AcDbArc
 50
126.8698976458419
 51
53.13010235415806
  0
LINE
  5
303
330
2
100
AcDbEntity
  8
L-ZISSEN
100
AcDbLine
 10
266.804054054047
 20
235.4999999999987
 30
0.0
 11
269.4999999999932
 21
225.9999999999985
 31
0.0
  0
LINE
  5
304
330
2
100
AcDbEntity
  8
L-ZISSEN
100
AcDbLine
 10
280.4999999999955
 20
306.4999999999973
 30
0.0
 11
239.1155953675393
 21
306.4999999999973
 31
0.0
  0
LINE
  5
305
330
2
100
AcDbEntity
  8
L-ZISSEN
100
AcDbLine
 10
265.4999999999954
 20
293.4999999999973
 30
0.0
 11
277.4999999999955
 21
293.4999999999973
 31
0.0
  0
LINE
  5
306
330
2
100
AcDbEntity
  8
L-ZISSEN
100
AcDbLine
 10
237.0094960724311
 20
315.9999999999985
 30
0.0
 11
241.1108473313253
 21
297.4999999999988
 31
0.0
  0
LINE
  5
307
330
2
100
AcDbEntity
  8
L-ZISSEN
100
AcDbLine
 10
259.9999999999937
 20
297.4999999999973
 30
0.0
 11
244.9999999999969
 21
297.4999999999987
 31
0.0
  0
LINE
  5
308
330
2
100
AcDbEntity
  8
L-ZISSEN
100
AcDbLine
 10
244.999999999997
 20
288.9999999999987
 30
0.0
 11
261.9999999999955
 21
288.9999999999987
 31
0.0
  0
LINE
  5
309
330
2
100
AcDbEntity
  8
L-ZISSEN
100
AcDbLine
 10
245.4999999999955
 20
297.4999999999973
 30
0.0
 11
245.4999999999955
 21
298.4999999999974
 31
0.0
  0
LINE
  5
30A
330
2
100
AcDbEntity
  8
L-ZISSEN
100
AcDbLine
 10
244.999999999997
 20
288.9999999999987
 30
0.0
 11
244.999999999997
 21
297.4999999999987
 31
0.0
  0
LINE
  5
30B
330
2
100
AcDbEntity
  8
L-SOUZOU
100
AcDbLine
 10
241.1069792018287
 20
297.5174480045806
 30
0.0
 11
241.1108473313184
 21
297.4999999999987
 31
0.0
  0
LINE
  5
30C
330
2
100
AcDbEntity
  8
L-ZISSEN
100
AcDbLine
 10
241.1069792018287
 20
297.5174480045806
 30
0.0
 11
241.4999999999955
 21
298.4999999999974
 31
0.0
  0
LINE
  5
30D
330
2
100
AcDbEntity
  8
L-ZISSEN
100
AcDbLine
 10
245.4999999999955
 20
298.4999999999974
 30
0.0
 11
241.4999999999955
 21
298.4999999999974
 31
0.0
  0
LINE
  5
30E
330
2
100
AcDbEntity
  8
L-ZISSEN
100
AcDbLine
 10
241.1108473313182
 20
297.4999999999987
 30
0.0
 11
244.9999999999969
 21
297.4999999999987
 31
0.0
  0
LINE
  5
30F
330
2
100
AcDbEntity
  8
L-ZISSEN
100
AcDbLine
 10
259.4999999999955
 20
297.4999999999973
 30
0.0
 11
259.4999999999955
 21
298.4999999999974
 31
0.0
  0
LINE
  5
310
330
2
100
AcDbEntity
  8
L-ZISSEN
100
AcDbLine
 10
259.4999999999955
 20
298.4999999999974
 30
0.0
 11
263.4999999999954
 21
298.4999999999974
 31
0.0
  0
LINE
  5
311
330
2
100
AcDbEntity
  8
L-ZISSEN
100
AcDbLine
 10
259.9999999999937
 20
297.4999999999973
 30
0.0
 11
263.8999999999956
 21
297.4999999999971
 31
0.0
  0
LINE
  5
312
330
2
100
AcDbEntity
  8
L-ZISSEN
100
AcDbLine
 10
259.9999999999939
 20
288.9999999999989
 30
0.0
 11
259.9999999999941
 21
297.4999999999973
 31
0.0
  0
LINE
  5
313
330
2
100
AcDbEntity
  8
L-ZISSEN
100
AcDbLine
 10
264.9999999999927
 20
292.4999999999985
 30
0.0
 11
263.4999999999937
 21
297.4999999999996
 31
0.0
  0
LINE
  5
314
330
2
100
AcDbEntity
  8
L-ZISSEN
100
AcDbLine
 10
265.4999999999954
 20
293.4999999999973
 30
0.0
 11
263.4999999999954
 21
298.4999999999974
 31
0.0
  0
LINE
  5
315
330
2
100
AcDbEntity
  8
L-ZISSEN
100
AcDbLine
 10
277.4999999999955
 20
293.4999999999973
 30
0.0
 11
280.4999999999955
 21
306.4999999999973
 31
0.0
  0
LINE
  5
316
330
2
100
AcDbEntity
  8
L-ZISSEN
100
AcDbLine
 10
282.9999999999932
 20
307.4999999999985
 30
0.0
 11
278.4999999999932
 21
292.4999999999987
 31
0.0
  0
LINE
  5
317
330
2
100
AcDbEntity
  8
L-ZISSEN
100
AcDbLine
 10
266.8040540540468
 20
306.4999999999973
 30
0.0
 11
269.4999999999932
 21
315.9999999999987
 31
0.0
  0
ARC
  5
318
330
2
100
AcDbEntity
  8
L-ZISSEN
100
AcDbCircle
 10
274.9999999999932
 20
308.4999999999987
 30
0.0
 40
2.5
100
AcDbArc
 50
306.8698976457939
 51
233.130102354206
  0
LINE
  5
319
330
2
100
AcDbEntity
  8
L-ZISSEN
100
AcDbLine
 10
349.9999999999936
 20
244.4999999999976
 30
0.0
 11
349.9999999999923
 21
297.4999999999973
 31
0.0
  0
LINE
  5
31A
330
2
100
AcDbEntity
  8
L-ZISSEN
100
AcDbLine
 10
349.9999999999936
 20
297.4999999999971
 30
0.0
 11
349.9999999999928
 21
244.4999999999976
 31
0.0
  0
LINE
  5
31B
330
2
100
AcDbEntity
  8
L-ZISSEN
100
AcDbLine
 10
344.9999999999941
 20
249.4999999999985
 30
0.0
 11
331.4999999999928
 21
249.4999999999985
 31
0.0
  0
CIRCLE
  5
31C
330
2
100
AcDbEntity
  8
L-ZISSEN
100
AcDbCircle
 10
334.9999999999932
 20
233.4999999999987
 30
0.0
 40
2.5
  0
LINE
  5
31D
330
2
100
AcDbEntity
  8
L-ZISSEN
100
AcDbLine
 10
332.3999999999924
 20
252.4999999999971
 30
0.0
 11
349.9999999999932
 21
252.4999999999973
 31
0.0
  0
LINE
  5
31E
330
2
100
AcDbEntity
  8
L-ZISSEN
100
AcDbLine
 10
326.9999999999932
 20
234.4999999999985
 30
0.0
 11
332.3999999999928
 21
252.4999999999971
 31
0.0
  0
LINE
  5
31F
330
2
100
AcDbEntity
  8
L-ZISSEN
100
AcDbLine
 10
310.9999999999932
 20
234.4999999999985
 30
0.0
 11
305.5999999999936
 21
252.4999999999973
 31
0.0
  0
CIRCLE
  5
320
330
2
100
AcDbEntity
  8
L-ZISSEN
100
AcDbCircle
 10
318.9999999999932
 20
248.4999999999987
 30
0.0
 40
8.0
  0
LINE
  5
321
330
2
100
AcDbEntity
  8
L-ZISSEN
100
AcDbLine
 10
345.7499999999932
 20
244.4999999999976
 30
0.0
 11
340.4999999999932
 21
225.9999999999985
 31
0.0
  0
LINE
  5
322
330
2
100
AcDbEntity
  8
L-ZISSEN
100
AcDbLine
 10
344.9999999999937
 20
249.4999999999985
 30
0.0
 11
346.4999999999927
 21
244.4999999999976
 31
0.0
  0
LINE
  5
323
330
2
100
AcDbEntity
  8
L-ZISSEN
100
AcDbLine
 10
349.9999999999932
 20
244.4999999999976
 30
0.0
 11
345.7499999999936
 21
244.4999999999976
 31
0.0
  0
CIRCLE
  5
324
330
2
100
AcDbEntity
  8
L-ZISSEN
100
AcDbCircle
 10
334.9999999999932
 20
308.4999999999987
 30
0.0
 40
2.5
  0
LINE
  5
325
330
2
100
AcDbEntity
  8
L-ZISSEN
100
AcDbLine
 10
331.4999999999932
 20
292.4999999999987
 30
0.0
 11
344.9999999999937
 21
292.4999999999987
 31
0.0
  0
LINE
  5
326
330
2
100
AcDbEntity
  8
L-ZISSEN
100
AcDbLine
 10
332.3999999999928
 20
289.4999999999999
 30
0.0
 11
349.9999999999932
 21
289.4999999999999
 31
0.0
  0
CIRCLE
  5
327
330
2
100
AcDbEntity
  8
L-ZISSEN
100
AcDbCircle
 10
318.9999999999932
 20
295.4999999999985
 30
0.0
 40
5.0
  0
LINE
  5
328
330
2
100
AcDbEntity
  8
L-ZISSEN
100
AcDbLine
 10
310.9999999999932
 20
307.4999999999985
 30
0.0
 11
305.599999999994
 21
289.4999999999999
 31
0.0
  0
LINE
  5
329
330
2
100
AcDbEntity
  8
L-ZISSEN
100
AcDbLine
 10
326.9999999999932
 20
307.4999999999985
 30
0.0
 11
332.3999999999928
 21
289.4999999999999
 31
0.0
  0
CIRCLE
  5
32A
330
2
100
AcDbEntity
  8
L-ZISSEN
100
AcDbCircle
 10
318.9999999999932
 20
295.4999999999985
 30
0.0
 40
3.267949192431018
  0
LINE
  5
32B
330
2
100
AcDbEntity
  8
L-ZISSEN
100
AcDbLine
 10
345.7499999999932
 20
297.4999999999996
 30
0.0
 11
340.4999999999932
 21
315.9999999999987
 31
0.0
  0
LINE
  5
32C
330
2
100
AcDbEntity
  8
L-ZISSEN
100
AcDbLine
 10
344.9999999999937
 20
292.4999999999985
 30
0.0
 11
346.4999999999927
 21
297.4999999999996
 31
0.0
  0
LINE
  5
32D
330
2
100
AcDbEntity
  8
L-ZISSEN
100
AcDbLine
 10
349.9999999999928
 20
297.4999999999973
 30
0.0
 11
345.7499999999946
 21
297.4999999999973
 31
0.0
  0
LINE
  5
32E
330
2
100
AcDbEntity
  8
L-ZISSEN
100
AcDbLine
 10
264.4999999999955
 20
340.9999999999985
 30
0.0
 11
240.4999999999954
 21
340.9999999999985
 31
0.0
  0
LINE
  5
32F
330
2
100
AcDbEntity
  8
L-ZISSEN
100
AcDbLine
 10
264.4999999999955
 20
329.9999999999985
 30
0.0
 11
240.4999999999954
 21
329.9999999999985
 31
0.0
  0
LINE
  5
330
330
2
100
AcDbEntity
  8
L-ZISSEN
100
AcDbLine
 10
662.3038572218831
 20
24.7187846388864
 30
0.0
 11
662.3038572218831
 21
38.2187846388864
 31
0.0
  0
LINE
  5
331
330
2
100
AcDbEntity
  8
L-ZISSEN
100
AcDbLine
 10
642.3038572218831
 20
24.7187846388864
 30
0.0
 11
642.3038572218831
 21
38.2187846388864
 31
0.0
  0
LINE
  5
332
330
2
100
AcDbEntity
  8
L-ZISSEN
100
AcDbLine
 10
512.3038572218831
 20
24.71878463888595
 30
0.0
 11
512.3038572218831
 21
38.21878463888594
 31
0.0
  0
LINE
  5
333
330
2
100
AcDbEntity
  8
L-ZISSEN
100
AcDbLine
 10
492.3038572218831
 20
24.71878463888595
 30
0.0
 11
492.3038572218831
 21
38.21878463888594
 31
0.0
  0
LINE
  5
334
330
2
100
AcDbEntity
  8
L-TYUSIN
100
AcDbLine
 10
447.3038572218829
 20
-286.6396806662901
 30
0.0
 11
447.3038572218829
 21
343.3603677856383
 31
0.0
  0
LINE
  5
335
330
2
100
AcDbEntity
  8
L-ZISSEN
100
AcDbLine
 10
643.155955460957
 20
-167.3740833899628
 30
0.0
 11
652.3038572218829
 21
-169.2892514427308
 31
0.0
  0
LINE
  5
336
330
2
100
AcDbEntity
  8
L-ZISSEN
100
AcDbLine
 10
652.3038572218829
 20
-171.2575962025825
 30
0.0
 11
641.5066697218811
 21
-168.3783462025826
 31
0.0
  0
LINE
  5
337
330
2
100
AcDbEntity
  8
L-ZISSEN
100
AcDbLine
 10
652.3038572218829
 20
-164.5393462025826
 30
0.0
 11
642.226482221881
 21
-163.0997212025827
 31
0.0
  0
LINE
  5
338
330
2
100
AcDbEntity
  8
L-ZISSEN
100
AcDbLine
 10
652.3038572218829
 20
-165.1775202616818
 30
0.0
 11
643.155955460957
 21
-163.8706771529782
 31
0.0
  0
LINE
  5
339
330
2
100
AcDbEntity
  8
L-ZISSEN
100
AcDbLine
 10
649.4246072218845
 20
-154.941846202582
 30
0.0
 11
652.3038572218845
 21
-159.7405962025819
 31
0.0
  0
LINE
  5
33A
330
2
100
AcDbEntity
  8
L-ZISSEN
100
AcDbLine
 10
651.3441072218845
 20
-154.941846202582
 30
0.0
 11
649.4246072218845
 21
-154.941846202582
 31
0.0
  0
CIRCLE
  5
33B
330
2
100
AcDbEntity
  8
L-ZISSEN
100
AcDbCircle
 10
648.0538572218827
 20
-178.7575962025826
 30
0.0
 40
2.0
  0
LINE
  5
33C
330
2
100
AcDbEntity
  8
L-TYUSIN
100
AcDbLine
 10
447.3038572218829
 20
-4.483712273011065
 30
0.0
 11
817.3038572218828
 21
-4.483712273011065
 31
0.0
  0
LINE
  5
33D
330
2
100
AcDbEntity
  8
L-ZISSEN
100
AcDbLine
 10
658.0366560001384
 20
-266.6586157022884
 30
0.0
 11
646.6366560001397
 21
-266.6586157022884
 31
0.0
  0
ARC
  5
33E
330
2
100
AcDbEntity
  8
L-ZISSEN
100
AcDbCircle
 10
652.3366560001391
 20
-272.2996783762055
 30
0.0
 40
20.64106267391679
100
AcDbArc
 50
77.50558048157261
 51
102.6763186877408
  0
ARC
  5
33F
330
2
100
AcDbEntity
  8
L-ZISSEN
100
AcDbCircle
 10
652.3366560001391
 20
-234.0175530283713
 30
0.0
 40
20.64106267391694
100
AcDbArc
 50
257.3236813122694
 51
282.4944195184274
  0
LINE
  5
340
330
2
100
AcDbEntity
  8
L-ZISSEN
100
AcDbLine
 10
646.8366560001372
 20
-256.5997811127799
 30
0.0
 11
655.3366560001386
 21
-256.5997811127799
 31
0.0
  0
LINE
  5
341
330
2
100
AcDbEntity
  8
L-ZISSEN
100
AcDbLine
 10
645.5583403836344
 20
-251.65799458747
 30
0.0
 11
659.0493740601328
 21
-251.6571978176985
 31
0.0
  0
LINE
  5
342
330
2
100
AcDbEntity
  8
L-ZISSEN
100
AcDbLine
 10
645.5583403836344
 20
-254.6592368171082
 30
0.0
 11
659.0493740601328
 21
-254.6600335868797
 31
0.0
  0
LINE
  5
343
330
2
100
AcDbEntity
  8
L-ZISSEN
100
AcDbLine
 10
642.8686899536653
 20
-251.657596202584
 30
0.0
 11
661.7390244901023
 21
-251.657596202584
 31
0.0
  0
LINE
  5
344
330
2
100
AcDbEntity
  8
L-ZISSEN
100
AcDbLine
 10
642.8686899536649
 20
-248.157596202584
 30
0.0
 11
661.7390244901023
 21
-248.157596202584
 31
0.0
  0
LINE
  5
345
330
2
100
AcDbEntity
  8
L-ZISSEN
100
AcDbLine
 10
644.7038572218832
 20
-183.2575962025826
 30
0.0
 11
659.903857221883
 21
-183.2575962025826
 31
0.0
  0
LINE
  5
346
330
2
100
AcDbEntity
  8
L-ZISSEN
100
AcDbLine
 10
644.7038572218832
 20
-182.2575962025825
 30
0.0
 11
659.903857221883
 21
-182.2575962025825
 31
0.0
  0
LINE
  5
347
330
2
100
AcDbEntity
  8
L-TYUSIN
100
AcDbLine
 10
644.7038572218832
 20
-178.7575962025826
 30
0.0
 11
659.903857221883
 21
-178.7575962025826
 31
0.0
  0
LINE
  5
348
330
2
100
AcDbEntity
  8
L-ZISSEN
100
AcDbLine
 10
642.7038572218832
 20
-185.2575962025835
 30
0.0
 11
661.9038572218831
 21
-185.2575962025835
 31
0.0
  0
LINE
  5
349
330
2
100
AcDbEntity
  8
L-ZISSEN
100
AcDbLine
 10
642.3038572218827
 20
-188.2575962025826
 30
0.0
 11
662.3038572218827
 21
-188.2575962025826
 31
0.0
  0
LINE
  5
34A
330
2
100
AcDbEntity
  8
L-ZISSEN
100
AcDbLine
 10
664.3038572218829
 20
-144.9575962025829
 30
0.0
 11
640.3038572218829
 21
-144.9575962025829
 31
0.0
  0
LINE
  5
34B
330
2
100
AcDbEntity
  8
L-ZISSEN
100
AcDbLine
 10
642.3038572218831
 20
24.7187846388864
 30
0.0
 11
662.3038572218831
 21
24.7187846388864
 31
0.0
  0
LINE
  5
34C
330
2
100
AcDbEntity
  8
L-ZISSEN
100
AcDbLine
 10
608.6592663415165
 20
-165.964220529609
 30
0.0
 11
608.6592663415163
 21
-168.8509718755572
 31
0.0
  0
LINE
  5
34D
330
2
100
AcDbEntity
  8
L-ZISSEN
100
AcDbLine
 10
620.0592663415161
 20
-162.1575962025831
 30
0.0
 11
620.059266341518
 21
-239.1575962025831
 31
0.0
  0
LINE
  5
34E
330
2
100
AcDbEntity
  8
L-ZISSEN
 48
0.3
100
AcDbLine
 10
625.1570495370331
 20
-239.1575962025831
 30
0.0
 11
625.1570495370331
 21
-162.1575962025831
 31
0.0
  0
LINE
  5
34F
330
2
100
AcDbEntity
  8
L-ZISSEN
100
AcDbLine
 10
610.5592663415161
 20
-162.1575962025831
 30
0.0
 11
610.559266341518
 21
-239.1575962025831
 31
0.0
  0
LINE
  5
350
330
2
100
AcDbEntity
  8
L-ZISSEN
100
AcDbLine
 10
541.9079856315534
 20
-165.0330481063547
 30
0.0
 11
541.9079856315534
 21
-169.3172170889524
 31
0.0
  0
LINE
  5
351
330
2
100
AcDbEntity
  8
L-ZISSEN
100
AcDbLine
 10
532.7079856315536
 20
-174.2575962025844
 30
0.0
 11
532.7079856315536
 21
-168.4575962025828
 31
0.0
  0
LINE
  5
352
330
2
100
AcDbEntity
  8
L-ZISSEN
100
AcDbLine
 10
533.9079856315533
 20
-171.257596202583
 30
0.0
 11
533.9079856315533
 21
-158.1575962025823
 31
0.0
  0
LINE
  5
353
330
2
100
AcDbEntity
  8
L-ZISSEN
100
AcDbLine
 10
533.9079856315529
 20
-185.2575962025839
 30
0.0
 11
533.9079856315538
 21
-161.9386407863239
 31
0.0
  0
POLYLINE
  5
354
330
2
100
AcDbEntity
  8
L-ZISSEN
100
AcDb2dPolyline
 66
     1
 10
0.0
 20
0.0
 30
0.0
 70
     1
  0
VERTEX
  5
56C
330
354
100
AcDbEntity
  8
L-ZISSEN
100
AcDbVertex
100
AcDb2dVertex
 10
501.0538572218831
 20
-168.1292840390701
 30
0.0
  0
VERTEX
  5
56D
330
354
100
AcDbEntity
  8
L-ZISSEN
100
AcDbVertex
100
AcDb2dVertex
 10
502.3038572218831
 20
-168.8509718755572
 30
0.0
  0
VERTEX
  5
56E
330
354
100
AcDbEntity
  8
L-ZISSEN
100
AcDbVertex
100
AcDb2dVertex
 10
503.5538572218832
 20
-168.1292840390701
 30
0.0
  0
VERTEX
  5
56F
330
354
100
AcDbEntity
  8
L-ZISSEN
100
AcDbVertex
100
AcDb2dVertex
 10
503.5538572218832
 20
-166.6859083660961
 30
0.0
  0
VERTEX
  5
570
330
354
100
AcDbEntity
  8
L-ZISSEN
100
AcDbVertex
100
AcDb2dVertex
 10
502.3038572218831
 20
-165.964220529609
 30
0.0
  0
VERTEX
  5
571
330
354
100
AcDbEntity
  8
L-ZISSEN
100
AcDbVertex
100
AcDb2dVertex
 10
501.0538572218831
 20
-166.6859083660961
 30
0.0
  0
SEQEND
  5
572
330
354
100
AcDbEntity
  8
L-ZISSEN
  0
CIRCLE
  5
355
330
2
100
AcDbEntity
  8
L-ZISSEN
100
AcDbCircle
 10
502.3038572218831
 20
-167.4075962025831
 30
0.0
 40
3.75
  0
LINE
  5
356
330
2
100
AcDbEntity
  8
L-ZISSEN
100
AcDbLine
 10
493.5538572218829
 20
-162.1575962025835
 30
0.0
 11
493.5538572218847
 21
-239.1575962025835
 31
0.0
  0
LINE
  5
357
330
2
100
AcDbEntity
  8
L-ZISSEN
100
AcDbLine
 10
511.0538572218829
 20
-162.1575962025835
 30
0.0
 11
511.0538572218847
 21
-239.1575962025835
 31
0.0
  0
LINE
  5
358
330
2
100
AcDbEntity
  8
L-ZISSEN
100
AcDbLine
 10
531.5597242833644
 20
-158.1575962025837
 30
0.0
 11
529.8438632813876
 21
-237.4031895335229
 31
0.0
  0
LINE
  5
359
330
2
100
AcDbEntity
  8
L-ZISSEN
100
AcDbLine
 10
473.0479901604019
 20
-158.1575962025837
 30
0.0
 11
474.7638511623786
 21
-237.4031895335229
 31
0.0
  0
LINE
  5
35A
330
2
100
AcDbEntity
  8
L-ZISSEN
100
AcDbLine
 10
641.3038572218827
 20
-144.9575962025829
 30
0.0
 11
641.3038572218827
 21
-173.7575962025835
 31
0.0
  0
LINE
  5
35B
330
2
100
AcDbEntity
  8
L-ZISSEN
100
AcDbLine
 10
492.8686899536642
 20
-251.6575962025845
 30
0.0
 11
511.7390244901023
 21
-251.6575962025845
 31
0.0
  0
LINE
  5
35C
330
2
100
AcDbEntity
  8
L-ZISSEN
100
AcDbLine
 10
492.8686899536637
 20
-248.1575962025845
 30
0.0
 11
511.7390244901023
 21
-248.1575962025845
 31
0.0
  0
LINE
  5
35D
330
2
100
AcDbEntity
  8
L-ZISSEN
100
AcDbLine
 10
493.5538572218829
 20
-239.1575962025835
 30
0.0
 11
511.0538572218829
 21
-239.157596202584
 31
0.0
  0
LINE
  5
35E
330
2
100
AcDbEntity
  8
L-ZISSEN
100
AcDbLine
 10
499.8038572218829
 20
-227.6575962025836
 30
0.0
 11
499.8038572218829
 21
-173.6575962025835
 31
0.0
  0
LINE
  5
35F
330
2
100
AcDbEntity
  8
L-ZISSEN
100
AcDbLine
 10
504.8038572218829
 20
-173.6575962025835
 30
0.0
 11
504.8038572218829
 21
-227.6575962025836
 31
0.0
  0
ARC
  5
360
330
2
100
AcDbEntity
  8
L-ZISSEN
100
AcDbCircle
 10
484.7605115706237
 20
-237.1447699479076
 30
0.0
 40
10.0
100
AcDbArc
 50
181.0000000000278
 51
265.1315559371166
  0
LINE
  5
361
330
2
100
AcDbEntity
  8
L-ZISSEN
100
AcDbLine
 10
492.8686899536639
 20
-248.1575962025845
 30
0.0
 11
483.9118298900666
 21
-247.1086918366563
 31
0.0
  0
LINE
  5
362
330
2
100
AcDbEntity
  8
L-ZISSEN
100
AcDbLine
 10
492.8686899536639
 20
-248.1575962025845
 30
0.0
 11
492.8686899536642
 21
-251.6575962025845
 31
0.0
  0
LINE
  5
363
330
2
100
AcDbEntity
  8
L-ZISSEN
100
AcDbLine
 10
507.8366560001382
 20
-256.0997811127799
 30
0.0
 11
507.8366560001382
 21
-254.6586157022888
 31
0.0
  0
LINE
  5
364
330
2
100
AcDbEntity
  8
L-ZISSEN
100
AcDbLine
 10
507.3366560001427
 20
-254.6599619647108
 30
0.0
 11
507.3366560001386
 21
-256.5997811127804
 31
0.0
  0
LINE
  5
365
330
2
100
AcDbEntity
  8
L-ZISSEN
100
AcDbLine
 10
496.83665600014
 20
-256.0997811127804
 30
0.0
 11
496.83665600014
 21
-254.6586157022888
 31
0.0
  0
LINE
  5
366
330
2
100
AcDbEntity
  8
L-ZISSEN
100
AcDbLine
 10
497.3366560001413
 20
-254.659312313417
 30
0.0
 11
497.3366560001372
 21
-256.5997811127804
 31
0.0
  0
LINE
  5
367
330
2
100
AcDbEntity
  8
L-ZISSEN
100
AcDbLine
 10
496.8366560001372
 20
-256.5997811127804
 30
0.0
 11
505.3366560001386
 21
-256.5997811127804
 31
0.0
  0
LINE
  5
368
330
2
100
AcDbEntity
  8
L-ZISSEN
100
AcDbLine
 10
508.0366560001384
 20
-266.6586157022889
 30
0.0
 11
496.6366560001397
 21
-266.6586157022889
 31
0.0
  0
LINE
  5
369
330
2
100
AcDbEntity
  8
L-ZISSEN
100
AcDbLine
 10
496.8366560001372
 20
-256.5997811127804
 30
0.0
 11
496.33665600014
 21
-257.0997811127804
 31
0.0
  0
LINE
  5
36A
330
2
100
AcDbEntity
  8
L-ZISSEN
100
AcDbLine
 10
497.3366560001372
 20
-256.5997811127804
 30
0.0
 11
496.83665600014
 21
-256.0997811127804
 31
0.0
  0
LINE
  5
36B
330
2
100
AcDbEntity
  8
L-ZISSEN
100
AcDbLine
 10
496.6366560001397
 20
-266.6586157022889
 30
0.0
 11
496.33665600014
 21
-266.3586157022887
 31
0.0
  0
LINE
  5
36C
330
2
100
AcDbEntity
  8
L-ZISSEN
100
AcDbLine
 10
499.3366560001395
 20
-256.5997811127804
 30
0.0
 11
499.3366560001395
 21
-266.6586157022889
 31
0.0
  0
LINE
  5
36D
330
2
100
AcDbEntity
  8
L-ZISSEN
100
AcDbLine
 10
498.3366560001382
 20
-256.5997811127804
 30
0.0
 11
498.3366560001382
 21
-266.6586157022889
 31
0.0
  0
LINE
  5
36E
330
2
100
AcDbEntity
  8
L-ZISSEN
100
AcDbLine
 10
500.3366560001409
 20
-256.5997811127804
 30
0.0
 11
500.3366560001409
 21
-266.6586157022889
 31
0.0
  0
LINE
  5
36F
330
2
100
AcDbEntity
  8
L-ZISSEN
100
AcDbLine
 10
497.3366560001391
 20
-256.5997811127804
 30
0.0
 11
497.3366560001391
 21
-266.6586157022889
 31
0.0
  0
LINE
  5
370
330
2
100
AcDbEntity
  8
L-ZISSEN
100
AcDbLine
 10
496.33665600014
 20
-266.3586157022887
 30
0.0
 11
496.33665600014
 21
-257.0997811127804
 31
0.0
  0
LINE
  5
371
330
2
100
AcDbEntity
  8
L-ZISSEN
100
AcDbLine
 10
501.33665600014
 20
-256.5997811127804
 30
0.0
 11
501.33665600014
 21
-266.6586157022889
 31
0.0
  0
LINE
  5
372
330
2
100
AcDbEntity
  8
L-ZISSEN
100
AcDbLine
 10
507.8366560001386
 20
-256.5997811127804
 30
0.0
 11
508.3366560001381
 21
-257.0997811127804
 31
0.0
  0
LINE
  5
373
330
2
100
AcDbEntity
  8
L-ZISSEN
100
AcDbLine
 10
507.3366560001386
 20
-256.5997811127804
 30
0.0
 11
507.8366560001382
 21
-256.0997811127804
 31
0.0
  0
LINE
  5
374
330
2
100
AcDbEntity
  8
L-ZISSEN
100
AcDbLine
 10
505.3366560001386
 20
-256.5997811127804
 30
0.0
 11
507.8366560001386
 21
-256.5997811127804
 31
0.0
  0
LINE
  5
375
330
2
100
AcDbEntity
  8
L-ZISSEN
100
AcDbLine
 10
508.0366560001384
 20
-266.6586157022889
 30
0.0
 11
508.3366560001381
 21
-266.3586157022887
 31
0.0
  0
LINE
  5
376
330
2
100
AcDbEntity
  8
L-ZISSEN
100
AcDbLine
 10
508.3366560001381
 20
-257.0997811127804
 30
0.0
 11
508.3366560001381
 21
-266.3586157022887
 31
0.0
  0
LINE
  5
377
330
2
100
AcDbEntity
  8
L-ZISSEN
100
AcDbLine
 10
507.3366560001414
 20
-256.5997811127804
 30
0.0
 11
507.3366560001434
 21
-266.6586157022889
 31
0.0
  0
LINE
  5
378
330
2
100
AcDbEntity
  8
L-ZISSEN
100
AcDbLine
 10
505.3366560001386
 20
-256.5997811127804
 30
0.0
 11
505.3366560001386
 21
-266.6586157022889
 31
0.0
  0
LINE
  5
379
330
2
100
AcDbEntity
  8
L-ZISSEN
100
AcDbLine
 10
504.3366560001395
 20
-256.5997811127804
 30
0.0
 11
504.3366560001395
 21
-266.6586157022889
 31
0.0
  0
LINE
  5
37A
330
2
100
AcDbEntity
  8
L-ZISSEN
100
AcDbLine
 10
503.3366560001404
 20
-256.5997811127804
 30
0.0
 11
503.3366560001404
 21
-266.6586157022889
 31
0.0
  0
LINE
  5
37B
330
2
100
AcDbEntity
  8
L-ZISSEN
100
AcDbLine
 10
502.3366560001413
 20
-256.5997811127804
 30
0.0
 11
502.3366560001413
 21
-266.6586157022889
 31
0.0
  0
LINE
  5
37C
330
2
100
AcDbEntity
  8
L-ZISSEN
100
AcDbLine
 10
506.3366560001423
 20
-256.5997811127804
 30
0.0
 11
506.3366560001423
 21
-266.6586157022889
 31
0.0
  0
ARC
  5
37D
330
2
100
AcDbEntity
  8
L-ZISSEN
100
AcDbCircle
 10
498.3827556184009
 20
-239.5214489520653
 30
0.0
 40
15.15026028548078
100
AcDbArc
 50
255.189247992802
 51
284.999709110692
  0
ARC
  5
37E
330
2
100
AcDbEntity
  8
L-ZISSEN
100
AcDbCircle
 10
498.3821508505889
 20
-267.1625388372708
 30
0.0
 40
15.50496374778473
100
AcDbArc
 50
75.34890043484998
 51
104.4621424617041
  0
LINE
  5
37F
330
2
100
AcDbEntity
  8
L-ZISSEN
100
AcDbLine
 10
497.7685928622445
 20
-254.659255623666
 30
0.0
 11
506.8372167199806
 21
-254.6593327866144
 31
0.0
  0
LINE
  5
380
330
2
100
AcDbEntity
  8
L-ZISSEN
100
AcDbLine
 10
494.509937221883
 20
-252.1488829722325
 30
0.0
 11
494.509937221883
 21
-254.1683484323452
 31
0.0
  0
LINE
  5
381
330
2
100
AcDbEntity
  8
L-ZISSEN
100
AcDbLine
 10
510.0977772218841
 20
-252.1488829722325
 30
0.0
 11
510.0977772218841
 21
-254.1683484323452
 31
0.0
  0
LINE
  5
382
330
2
100
AcDbEntity
  8
L-ZISSEN
100
AcDbLine
 10
502.3038572218836
 20
-252.1617348602349
 30
0.0
 11
502.3038572218836
 21
-254.1565587728628
 31
0.0
  0
LINE
  5
383
330
2
100
AcDbEntity
  8
L-ZISSEN
100
AcDbLine
 10
502.3038572218836
 20
-252.1617348602349
 30
0.0
 11
502.3038572218836
 21
-254.1565587728628
 31
0.0
  0
LINE
  5
384
330
2
100
AcDbEntity
  8
L-ZISSEN
100
AcDbLine
 10
502.3038572218836
 20
-252.1617348602349
 30
0.0
 11
502.3038572218836
 21
-254.1565587728628
 31
0.0
  0
LINE
  5
385
330
2
100
AcDbEntity
  8
L-ZISSEN
100
AcDbLine
 10
502.3038572218836
 20
-252.1617348602349
 30
0.0
 11
502.3038572218836
 21
-254.1565587728628
 31
0.0
  0
ARC
  5
386
330
2
100
AcDbEntity
  8
L-ZISSEN
100
AcDbCircle
 10
506.2255635931783
 20
-267.1625388372708
 30
0.0
 40
15.50496374778473
100
AcDbArc
 50
75.53785753829584
 51
104.65109956515
  0
ARC
  5
387
330
2
100
AcDbEntity
  8
L-ZISSEN
100
AcDbCircle
 10
506.2249588253662
 20
-239.5214489520653
 30
0.0
 40
15.15026028548078
100
AcDbArc
 50
255.0002908893079
 51
284.8107520071978
  0
LINE
  5
388
330
2
100
AcDbEntity
  8
L-TYUSIN
100
AcDbLine
 10
508.5538572218831
 20
-233.907596202584
 30
0.0
 11
496.0538572218831
 21
-233.907596202584
 31
0.0
  0
CIRCLE
  5
389
330
2
100
AcDbEntity
  8
L-ZISSEN
100
AcDbCircle
 10
502.3038572218831
 20
-233.907596202584
 30
0.0
 40
3.75
  0
POLYLINE
  5
38A
330
2
100
AcDbEntity
  8
L-ZISSEN
100
AcDb2dPolyline
 66
     1
 10
0.0
 20
0.0
 30
0.0
 70
     1
  0
VERTEX
  5
573
330
38A
100
AcDbEntity
  8
L-ZISSEN
100
AcDbVertex
100
AcDb2dVertex
 10
501.0538572218831
 20
-233.185908366097
 30
0.0
  0
VERTEX
  5
574
330
38A
100
AcDbEntity
  8
L-ZISSEN
100
AcDbVertex
100
AcDb2dVertex
 10
502.3038572218831
 20
-232.4642205296099
 30
0.0
  0
VERTEX
  5
575
330
38A
100
AcDbEntity
  8
L-ZISSEN
100
AcDbVertex
100
AcDb2dVertex
 10
503.5538572218832
 20
-233.185908366097
 30
0.0
  0
VERTEX
  5
576
330
38A
100
AcDbEntity
  8
L-ZISSEN
100
AcDbVertex
100
AcDb2dVertex
 10
503.5538572218832
 20
-234.629284039071
 30
0.0
  0
VERTEX
  5
577
330
38A
100
AcDbEntity
  8
L-ZISSEN
100
AcDbVertex
100
AcDb2dVertex
 10
502.3038572218831
 20
-235.3509718755581
 30
0.0
  0
VERTEX
  5
578
330
38A
100
AcDbEntity
  8
L-ZISSEN
100
AcDbVertex
100
AcDb2dVertex
 10
501.0538572218831
 20
-234.629284039071
 30
0.0
  0
SEQEND
  5
579
330
38A
100
AcDbEntity
  8
L-ZISSEN
  0
LINE
  5
38B
330
2
100
AcDbEntity
  8
L-ZISSEN
100
AcDbLine
 10
504.8038572218829
 20
-227.6575962025836
 30
0.0
 11
499.8038572218829
 21
-227.6575962025836
 31
0.0
  0
LINE
  5
38C
330
2
100
AcDbEntity
  8
L-ZISSEN
100
AcDbLine
 10
499.8038572218829
 20
-173.6575962025835
 30
0.0
 11
504.8038572218829
 21
-173.6575962025835
 31
0.0
  0
ARC
  5
38D
330
2
100
AcDbEntity
  8
L-ZISSEN
100
AcDbCircle
 10
519.8472028731425
 20
-237.1447699479076
 30
0.0
 40
10.0
100
AcDbArc
 50
274.8684440628817
 51
358.9999999999721
  0
LINE
  5
38E
330
2
100
AcDbEntity
  8
L-ZISSEN
100
AcDbLine
 10
511.7390244901023
 20
-248.1575962025845
 30
0.0
 11
520.6958845536997
 21
-247.1086918366563
 31
0.0
  0
LINE
  5
38F
330
2
100
AcDbEntity
  8
L-ZISSEN
100
AcDbLine
 10
511.7390244901023
 20
-248.1575962025845
 30
0.0
 11
511.7390244901021
 21
-251.6575962025845
 31
0.0
  0
LINE
  5
390
330
2
100
AcDbEntity
  8
L-ZISSEN
100
AcDbLine
 10
530.9079856315529
 20
-188.257596202583
 30
0.0
 11
533.9079856315529
 21
-185.2575962025839
 31
0.0
  0
LINE
  5
391
330
2
100
AcDbEntity
  8
L-ZISSEN
100
AcDbLine
 10
541.9079856315534
 20
-169.3172170889524
 30
0.0
 11
533.9079856315533
 21
-171.257596202583
 31
0.0
  0
LINE
  5
392
330
2
100
AcDbEntity
  8
L-ZISSEN
100
AcDbLine
 10
531.2111198882093
 20
-174.2575962025844
 30
0.0
 11
533.9079856315538
 21
-174.2575962025844
 31
0.0
  0
ARC
  5
393
330
2
100
AcDbEntity
  8
L-ZISSEN
100
AcDbCircle
 10
533.1398038133711
 20
-178.757596202583
 30
0.0
 40
2.368181818181991
100
AcDbArc
 50
302.3784125140453
 51
57.62158748595464
  0
LINE
  5
394
330
2
100
AcDbEntity
  8
L-ZISSEN
100
AcDbLine
 10
533.9079856315533
 20
-180.757596202583
 30
0.0
 11
534.4079856315533
 21
-180.757596202583
 31
0.0
  0
LINE
  5
395
330
2
100
AcDbEntity
  8
L-ZISSEN
100
AcDbLine
 10
533.9079856315533
 20
-176.757596202583
 30
0.0
 11
534.4079856315533
 21
-176.757596202583
 31
0.0
  0
LINE
  5
396
330
2
100
AcDbEntity
  8
L-TYUSIN
100
AcDbLine
 10
626.7001420507329
 20
-234.1575962025831
 30
0.0
 11
603.6592663415165
 21
-234.1575962025831
 31
0.0
  0
LINE
  5
397
330
2
100
AcDbEntity
  8
L-ZISSEN
100
AcDbLine
 10
610.5592663415161
 20
-239.1575962025831
 30
0.0
 11
620.0592663415161
 21
-239.1575962025835
 31
0.0
  0
ARC
  5
398
330
2
100
AcDbEntity
  8
L-ZISSEN
100
AcDbCircle
 10
610.9712689092937
 20
-232.4328096867661
 30
0.0
 40
2.312215931624567
100
AcDbArc
 50
100.2640683722056
 51
180.7783719766075
  0
ARC
  5
399
330
2
100
AcDbEntity
  8
L-ZISSEN
100
AcDbCircle
 10
610.9712689092937
 20
-235.3823827184019
 30
0.0
 40
2.312215931624567
100
AcDbArc
 50
179.2216280233924
 51
259.7359316277934
  0
LINE
  5
39A
330
2
100
AcDbEntity
  8
L-ZISSEN
100
AcDbLine
 10
608.6592663415165
 20
-235.3509718755576
 30
0.0
 11
608.6592663415163
 21
-232.4642205296099
 31
0.0
  0
ARC
  5
39B
330
2
100
AcDbEntity
  8
L-ZISSEN
100
AcDbCircle
 10
634.7605115706235
 20
-237.1447699479072
 30
0.0
 40
10.0
100
AcDbArc
 50
191.6119735011068
 51
265.1315559371166
  0
LINE
  5
39C
330
2
100
AcDbEntity
  8
L-ZISSEN
100
AcDbLine
 10
647.3366560001416
 20
-254.6593123134166
 30
0.0
 11
647.3366560001372
 21
-256.5997811127799
 31
0.0
  0
LINE
  5
39D
330
2
100
AcDbEntity
  8
L-ZISSEN
100
AcDbLine
 10
646.83665600014
 20
-256.0997811127799
 30
0.0
 11
646.83665600014
 21
-254.6586157022884
 31
0.0
  0
LINE
  5
39E
330
2
100
AcDbEntity
  8
L-ZISSEN
100
AcDbLine
 10
646.8366560001372
 20
-256.5997811127799
 30
0.0
 11
646.33665600014
 21
-257.0997811127799
 31
0.0
  0
LINE
  5
39F
330
2
100
AcDbEntity
  8
L-ZISSEN
100
AcDbLine
 10
647.3366560001372
 20
-256.5997811127799
 30
0.0
 11
646.83665600014
 21
-256.0997811127799
 31
0.0
  0
LINE
  5
3A0
330
2
100
AcDbEntity
  8
L-ZISSEN
100
AcDbLine
 10
646.6366560001397
 20
-266.6586157022884
 30
0.0
 11
646.33665600014
 21
-266.3586157022887
 31
0.0
  0
LINE
  5
3A1
330
2
100
AcDbEntity
  8
L-ZISSEN
100
AcDbLine
 10
648.3366560001382
 20
-256.5997811127799
 30
0.0
 11
648.3366560001382
 21
-266.6586157022884
 31
0.0
  0
LINE
  5
3A2
330
2
100
AcDbEntity
  8
L-ZISSEN
100
AcDbLine
 10
647.3366560001391
 20
-256.5997811127799
 30
0.0
 11
647.3366560001393
 21
-266.6586157022884
 31
0.0
  0
LINE
  5
3A3
330
2
100
AcDbEntity
  8
L-ZISSEN
100
AcDbLine
 10
646.3366560001397
 20
-266.3586157022887
 30
0.0
 11
646.33665600014
 21
-257.0997811127799
 31
0.0
  0
LINE
  5
3A4
330
2
100
AcDbEntity
  8
L-ZISSEN
100
AcDbLine
 10
649.3366560001395
 20
-256.5997811127799
 30
0.0
 11
649.3366560001398
 21
-266.6586157022884
 31
0.0
  0
LINE
  5
3A5
330
2
100
AcDbEntity
  8
L-ZISSEN
100
AcDbLine
 10
642.8686899536639
 20
-248.157596202584
 30
0.0
 11
633.9118298900664
 21
-247.1086918366558
 31
0.0
  0
ARC
  5
3A6
330
2
100
AcDbEntity
  8
L-ZISSEN
100
AcDbCircle
 10
645.5583403836344
 20
-256.9293247578398
 30
0.0
 40
5.271330170370607
100
AcDbArc
 50
64.74766100340899
 51
114.9228807251711
  0
LINE
  5
3A7
330
2
100
AcDbEntity
  8
L-ZISSEN
100
AcDbLine
 10
647.8071196821206
 20
-252.1617348602376
 30
0.0
 11
647.8071196821274
 21
-254.1554965443406
 31
0.0
  0
LINE
  5
3A8
330
2
100
AcDbEntity
  8
L-ZISSEN
100
AcDbLine
 10
643.337012380055
 20
-252.148882972232
 30
0.0
 11
643.337012380055
 21
-254.1683484323448
 31
0.0
  0
ARC
  5
3A9
330
2
100
AcDbEntity
  8
L-ZISSEN
100
AcDbCircle
 10
645.5583403836344
 20
-249.3879066467375
 30
0.0
 40
5.271330170370607
100
AcDbArc
 50
245.0771192748288
 51
295.25233899665
  0
LINE
  5
3AA
330
2
100
AcDbEntity
  8
L-ZISSEN
100
AcDbLine
 10
642.8686899536649
 20
-248.157596202584
 30
0.0
 11
642.8686899536653
 21
-251.657596202584
 31
0.0
  0
LINE
  5
3AB
330
2
100
AcDbEntity
  8
L-ZISSEN
100
AcDbLine
 10
620.059266341518
 20
-239.1575962025831
 30
0.0
 11
623.8570495370329
 21
-239.1575962025831
 31
0.0
  0
LINE
  5
3AC
330
2
100
AcDbEntity
  8
L-ZISSEN
 48
0.3
100
AcDbLine
 10
623.8570495370329
 20
-239.1575962025831
 30
0.0
 11
625.1570495370331
 21
-239.1575962025831
 31
0.0
  0
ARC
  5
3AD
330
2
100
AcDbEntity
  8
L-ZISSEN
100
AcDbCircle
 10
610.9712689092937
 20
-168.882382718401
 30
0.0
 40
2.312215931624567
100
AcDbArc
 50
179.2216280233924
 51
259.7359316277934
  0
LINE
  5
3AE
330
2
100
AcDbEntity
  8
L-TYUSIN
100
AcDbLine
 10
648.0538572218827
 20
-175.5075962025825
 30
0.0
 11
648.0538572218827
 21
-182.0075962025826
 31
0.0
  0
LINE
  5
3AF
330
2
100
AcDbEntity
  8
L-ZISSEN
100
AcDbLine
 10
642.7038572218823
 20
-174.2575962025825
 30
0.0
 11
642.7038572218832
 21
-185.2575962025825
 31
0.0
  0
LINE
  5
3B0
330
2
100
AcDbEntity
  8
L-ZISSEN
100
AcDbLine
 10
644.7038572218827
 20
-169.2309295359168
 30
0.0
 11
644.7038572218832
 21
-183.2575962025826
 31
0.0
  0
LINE
  5
3B1
330
2
100
AcDbEntity
  8
L-ZISSEN
100
AcDbLine
 10
642.3038572218827
 20
-174.2575962025825
 30
0.0
 11
642.3038572218827
 21
-188.2575962025826
 31
0.0
  0
LINE
  5
3B2
330
2
100
AcDbEntity
  8
L-ZISSEN
100
AcDbLine
 10
642.7038572218832
 20
-185.2575962025825
 30
0.0
 11
642.3038572218827
 21
-188.2575962025826
 31
0.0
  0
ARC
  5
3B3
330
2
100
AcDbEntity
  8
L-ZISSEN
100
AcDbCircle
 10
641.8038572218827
 20
-173.7575962025835
 30
0.0
 40
0.5
100
AcDbArc
 50
180.0
 51
270.0
  0
LINE
  5
3B4
330
2
100
AcDbEntity
  8
L-ZISSEN
100
AcDbLine
 10
641.8038572218827
 20
-174.2575962025834
 30
0.0
 11
644.7038572218827
 21
-174.2575962025839
 31
0.0
  0
LINE
  5
3B5
330
2
100
AcDbEntity
  8
L-ZISSEN
100
AcDbLine
 10
492.3038572218831
 20
24.71878463888595
 30
0.0
 11
512.3038572218831
 21
24.71878463888595
 31
0.0
  0
TEXT
  5
3B6
330
2
100
AcDbEntity
  8
L-ZISSEN
100
AcDbText
 10
469.2127735231126
 20
-25.83133715911947
 30
0.0
 40
4.5
  1
MODEL NO. CJ8- 00-*04*
100
AcDbText
  0
LINE
  5
3B7
330
2
100
AcDbEntity
  8
L-ZISSEN
100
AcDbLine
 10
493.5538572218829
 20
-162.1575962025835
 30
0.0
 11
511.0538572218829
 21
-162.1575962025831
 31
0.0
  0
LINE
  5
3B8
330
2
100
AcDbEntity
  8
L-ZISSEN
100
AcDbLine
 10
520.8038572218836
 20
-158.1575962025818
 30
0.0
 11
506.0538572218824
 21
-158.1575962025837
 31
0.0
  0
TEXT
  5
3B9
330
2
100
AcDbEntity
  8
L-ZISSEN
100
AcDbText
 10
474.3038572218831
 20
-134.408615702289
 30
0.0
 40
4.5
  1
P.P
100
AcDbText
  0
LINE
  5
3BA
330
2
100
AcDbEntity
  8
L-ZISSEN
100
AcDbLine
 10
472.347872621656
 20
-158.1575962025837
 30
0.0
 11
475.8038572218835
 21
-158.1575962025837
 31
0.0
  0
LINE
  5
3BB
330
2
100
AcDbEntity
  8
L-ZISSEN
100
AcDbLine
 10
472.100486286849
 20
-144.658615702289
 30
0.0
 11
472.347872621656
 21
-158.1575962025837
 31
0.0
  0
SOLID
  5
3BC
330
2
100
AcDbEntity
  8
L-ZISSEN
100
AcDbTrace
 10
500.5540198628
 20
-143.6343206628258
 30
0.0
 11
500.9808094625761
 21
-143.1221731430943
 31
0.0
 12
502.3038572218829
 22
-144.658615702289
 32
0.0
 13
502.3038572218829
 23
-144.658615702289
 33
0.0
  0
LINE
  5
3BD
330
2
100
AcDbEntity
  8
L-ZISSEN
100
AcDbLine
 10
483.8038572218835
 20
-158.1575962025828
 30
0.0
 11
498.5538572218829
 21
-158.1575962025828
 31
0.0
  0
LINE
  5
3BE
330
2
100
AcDbEntity
  8
L-ZISSEN
100
AcDbLine
 10
475.8038572218835
 20
-148.1575962025846
 30
0.0
 11
475.8038572218835
 21
-158.1575962025837
 31
0.0
  0
LINE
  5
3BF
330
2
100
AcDbEntity
  8
L-ZISSEN
100
AcDbLine
 10
483.8038572218835
 20
-148.1575962025846
 30
0.0
 11
483.8038572218835
 21
-158.1575962025837
 31
0.0
  0
LINE
  5
3C0
330
2
100
AcDbEntity
  8
L-ZISSEN
100
AcDbLine
 10
475.8038572218835
 20
-148.1575962025846
 30
0.0
 11
483.8038572218835
 21
-148.1575962025846
 31
0.0
  0
LINE
  5
3C1
330
2
100
AcDbEntity
  8
L-ZISSEN
100
AcDbLine
 10
498.5538572218829
 20
-148.1575962025841
 30
0.0
 11
498.5538572218829
 21
-158.1575962025828
 31
0.0
  0
LINE
  5
3C2
330
2
100
AcDbEntity
  8
L-ZISSEN
100
AcDbLine
 10
506.0538572218827
 20
-148.1575962025841
 30
0.0
 11
506.0538572218824
 21
-158.1575962025828
 31
0.0
  0
LINE
  5
3C3
330
2
100
AcDbEntity
  8
L-TYUSIN
100
AcDbLine
 10
508.5538572218831
 20
-167.4075962025831
 30
0.0
 11
496.0538572218831
 21
-167.4075962025831
 31
0.0
  0
LINE
  5
3C4
330
2
100
AcDbEntity
  8
L-ZISSEN
100
AcDbLine
 10
506.0538572218829
 20
-148.1575962025841
 30
0.0
 11
498.5538572218829
 21
-148.1575962025841
 31
0.0
  0
LINE
  5
3C5
330
2
100
AcDbEntity
  8
L-ZISSEN
100
AcDbLine
 10
500.767414662688
 20
-143.3782469029598
 30
0.0
 11
487.3038572218831
 21
-132.158615702289
 31
0.0
  0
LINE
  5
3C6
330
2
100
AcDbEntity
  8
L-ZISSEN
100
AcDbLine
 10
487.3038572218831
 20
-132.158615702289
 30
0.0
 11
485.3038572218832
 21
-132.158615702289
 31
0.0
  0
LINE
  5
3C7
330
2
100
AcDbEntity
  8
L-ZISSEN
100
AcDbLine
 10
526.3152116601411
 20
-158.1575962025818
 30
0.0
 11
531.5597242833644
 21
-158.1575962025818
 31
0.0
  0
LINE
  5
3C8
330
2
100
AcDbEntity
  8
L-ZISSEN
100
AcDbLine
 10
520.8038572218836
 20
-148.1575962025828
 30
0.0
 11
520.8038572218836
 21
-158.1575962025818
 31
0.0
  0
LINE
  5
3C9
330
2
100
AcDbEntity
  8
L-ZISSEN
100
AcDbLine
 10
526.3152116601411
 20
-148.1575962025846
 30
0.0
 11
526.3152116601411
 21
-158.1575962025818
 31
0.0
  0
LINE
  5
3CA
330
2
100
AcDbEntity
  8
L-ZISSEN
100
AcDbLine
 10
520.8038572218827
 20
-148.1575962025828
 30
0.0
 11
526.3152116601411
 21
-148.1575962025846
 31
0.0
  0
LINE
  5
3CB
330
2
100
AcDbEntity
  8
L-ZISSEN
100
AcDbLine
 10
534.3958733172473
 20
-149.6575962025846
 30
0.0
 11
534.3958733172473
 21
-158.1575962025828
 31
0.0
  0
LINE
  5
3CC
330
2
100
AcDbEntity
  8
L-ZISSEN
100
AcDbLine
 10
532.3733716830617
 20
-149.6575962025846
 30
0.0
 11
532.3733716830617
 21
-158.1575962025828
 31
0.0
  0
LINE
  5
3CD
330
2
100
AcDbEntity
  8
L-ZISSEN
100
AcDbLine
 10
536.1079856315536
 20
-144.9575962025834
 30
0.0
 11
536.1079856315536
 21
-164.4222497139794
 31
0.0
  0
LINE
  5
3CE
330
2
100
AcDbEntity
  8
L-ZISSEN
100
AcDbLine
 10
536.1079856315536
 20
-164.4222497139794
 30
0.0
 11
541.9079856315534
 21
-165.0330481063547
 31
0.0
  0
LINE
  5
3CF
330
2
100
AcDbEntity
  8
L-ZISSEN
100
AcDbLine
 10
534.3958733172473
 20
-158.1575962025828
 30
0.0
 11
531.733133715679
 21
-158.1575962025828
 31
0.0
  0
LINE
  5
3D0
330
2
100
AcDbEntity
  8
L-ZISSEN
100
AcDbLine
 10
533.9079856315533
 20
-168.4575962025833
 30
0.0
 11
531.7784446500864
 21
-168.4575962025828
 31
0.0
  0
LINE
  5
3D1
330
2
100
AcDbEntity
  8
L-ZISSEN
100
AcDbLine
 10
531.5597242833644
 20
-158.1575962025837
 30
0.0
 11
532.2598418221103
 21
-158.1575962025837
 31
0.0
  0
LINE
  5
3D2
330
2
100
AcDbEntity
  8
L-ZISSEN
100
AcDbLine
 10
531.7784446500864
 20
-168.4575962025833
 30
0.0
 11
531.7784446500864
 21
-158.1575962025837
 31
0.0
  0
LINE
  5
3D3
330
2
100
AcDbEntity
  8
L-ZISSEN
100
AcDbLine
 10
531.7784446500857
 20
-167.1751325976529
 30
0.0
 11
531.7784446500864
 21
-158.1575962025837
 31
0.0
  0
LINE
  5
3D4
330
2
100
AcDbEntity
  8
L-ZISSEN
100
AcDbLine
 10
533.9079856315533
 20
-144.658615702289
 30
0.0
 11
533.9079856315533
 21
-144.9575962025829
 31
0.0
  0
LINE
  5
3D5
330
2
100
AcDbEntity
  8
L-ZISSEN
100
AcDbLine
 10
536.1079856315536
 20
-144.9575962025834
 30
0.0
 11
533.9079856315533
 21
-144.9575962025834
 31
0.0
  0
LINE
  5
3D6
330
2
100
AcDbEntity
  8
L-ZISSEN
100
AcDbLine
 10
534.3958733172473
 20
-149.6575962025846
 30
0.0
 11
532.3733716830617
 21
-149.6575962025846
 31
0.0
  0
LINE
  5
3D7
330
2
100
AcDbEntity
  8
L-ZISSEN
100
AcDbLine
 10
533.9079856315533
 20
-149.6575962025846
 30
0.0
 11
533.9079856315533
 21
-144.9575962025829
 31
0.0
  0
LINE
  5
3D8
330
2
100
AcDbEntity
  8
L-ZISSEN
100
AcDbLine
 10
610.5592663415161
 20
-162.1575962025831
 30
0.0
 11
620.0592663415161
 21
-162.1575962025831
 31
0.0
  0
LINE
  5
3D9
330
2
100
AcDbEntity
  8
L-TYUSIN
100
AcDbLine
 10
603.6592663415165
 20
-167.1575962025835
 30
0.0
 11
628.1809410511666
 21
-167.1575962025831
 31
0.0
  0
ARC
  5
3DA
330
2
100
AcDbEntity
  8
L-ZISSEN
100
AcDbCircle
 10
610.9712689092937
 20
-165.9328096867652
 30
0.0
 40
2.312215931624567
100
AcDbArc
 50
100.2640683722056
 51
180.7783719766075
  0
LINE
  5
3DB
330
2
100
AcDbEntity
  8
L-ZISSEN
100
AcDbLine
 10
625.8038572218836
 20
-148.1575962025841
 30
0.0
 11
633.8038572218835
 21
-148.1575962025841
 31
0.0
  0
LINE
  5
3DC
330
2
100
AcDbEntity
  8
L-ZISSEN
100
AcDbLine
 10
625.8038572218836
 20
-148.1575962025841
 30
0.0
 11
625.8038572218836
 21
-158.1575962025832
 31
0.0
  0
LINE
  5
3DD
330
2
100
AcDbEntity
  8
L-ZISSEN
100
AcDbLine
 10
622.1004862868491
 20
-144.658615702289
 30
0.0
 11
622.347872621656
 21
-158.1575962025832
 31
0.0
  0
LINE
  5
3DE
330
2
100
AcDbEntity
  8
L-ZISSEN
100
AcDbLine
 10
622.347872621656
 20
-158.1575962025832
 30
0.0
 11
625.8038572218836
 21
-158.1575962025832
 31
0.0
  0
LINE
  5
3DF
330
2
100
AcDbEntity
  8
L-ZISSEN
 48
0.3
100
AcDbLine
 10
625.1570495370331
 20
-162.1575962025831
 30
0.0
 11
623.1593838802625
 21
-162.1575962025831
 31
0.0
  0
LINE
  5
3E0
330
2
100
AcDbEntity
  8
L-ZISSEN
100
AcDbLine
 10
618.347872621656
 20
-162.1575962025831
 30
0.0
 11
621.8038572218836
 21
-162.1575962025831
 31
0.0
  0
LINE
  5
3E1
330
2
100
AcDbEntity
  8
L-ZISSEN
100
AcDbLine
 10
623.0479901604028
 20
-158.1575962025832
 30
0.0
 11
623.085843959091
 21
-162.1575962025831
 31
0.0
  0
LINE
  5
3E2
330
2
100
AcDbEntity
  8
L-ZISSEN
100
AcDbLine
 10
620.0592663415161
 20
-162.1575962025831
 30
0.0
 11
623.1593838802625
 21
-162.1575962025831
 31
0.0
  0
LINE
  5
3E3
330
2
100
AcDbEntity
  8
L-ZISSEN
100
AcDbLine
 10
640.0038572218834
 20
-149.6575962025841
 30
0.0
 11
640.0038572218834
 21
-158.1575962025823
 31
0.0
  0
LINE
  5
3E4
330
2
100
AcDbEntity
  8
L-ZISSEN
100
AcDbLine
 10
633.8038572218835
 20
-148.1575962025841
 30
0.0
 11
633.8038572218835
 21
-158.1575962025832
 31
0.0
  0
LINE
  5
3E5
330
2
100
AcDbEntity
  8
L-ZISSEN
100
AcDbLine
 10
642.226482221881
 20
-144.9575962025829
 30
0.0
 11
642.226482221881
 21
-163.0997212025827
 31
0.0
  0
LINE
  5
3E6
330
2
100
AcDbEntity
  8
L-ZISSEN
100
AcDbLine
 10
641.5066697218812
 20
-144.9575962025829
 30
0.0
 11
641.5066697218811
 21
-168.3783462025826
 31
0.0
  0
LINE
  5
3E7
330
2
100
AcDbEntity
  8
L-ZISSEN
100
AcDbLine
 10
640.0038572218834
 20
-158.1575962025823
 30
0.0
 11
641.3038572218827
 21
-158.1575962025823
 31
0.0
  0
LINE
  5
3E8
330
2
100
AcDbEntity
  8
L-ZISSEN
100
AcDbLine
 10
633.8038572218835
 20
-158.1575962025823
 30
0.0
 11
640.8038572218836
 21
-158.1575962025823
 31
0.0
  0
LINE
  5
3E9
330
2
100
AcDbEntity
  8
L-ZISSEN
100
AcDbLine
 10
643.155955460957
 20
-163.2325030938791
 30
0.0
 11
642.226482221881
 21
-163.0997212025827
 31
0.0
  0
LINE
  5
3EA
330
2
100
AcDbEntity
  8
L-ZISSEN
100
AcDbLine
 10
643.155955460957
 20
-163.8706771529782
 30
0.0
 11
642.226482221881
 21
-163.0997212025827
 31
0.0
  0
LINE
  5
3EB
330
2
100
AcDbEntity
  8
L-ZISSEN
100
AcDbLine
 10
641.5066697218811
 20
-168.3783462025826
 30
0.0
 11
643.155955460957
 21
-167.3740833899628
 31
0.0
  0
LINE
  5
3EC
330
2
100
AcDbEntity
  8
L-ZISSEN
100
AcDbLine
 10
643.155955460957
 20
-163.8706771529782
 30
0.0
 11
643.155955460957
 21
-167.3740833899628
 31
0.0
  0
LINE
  5
3ED
330
2
100
AcDbEntity
  8
L-ZISSEN
100
AcDbLine
 10
640.0038572218834
 20
-149.6575962025841
 30
0.0
 11
641.3038572218827
 21
-149.6575962025841
 31
0.0
  0
LINE
  5
3EE
330
2
100
AcDbEntity
  8
L-ZISSEN
100
AcDbLine
 10
640.3038572218831
 20
-144.658615702289
 30
0.0
 11
640.3038572218829
 21
-144.9575962025829
 31
0.0
  0
LINE
  5
3EF
330
2
100
AcDbEntity
  8
L-ZISSEN
100
AcDbLine
 10
649.9044822218829
 20
-150.143096202583
 30
0.0
 11
646.0654822218828
 21
-150.143096202583
 31
0.0
  0
LINE
  5
3F0
330
2
100
AcDbEntity
  8
L-ZISSEN
100
AcDbLine
 10
649.9044822218829
 20
-150.143096202583
 30
0.0
 11
646.0654822218828
 21
-150.143096202583
 31
0.0
  0
LINE
  5
3F1
330
2
100
AcDbEntity
  8
L-ZISSEN
100
AcDbLine
 10
649.9044822218829
 20
-149.183346202583
 30
0.0
 11
646.0654822218828
 21
-149.183346202583
 31
0.0
  0
LINE
  5
3F2
330
2
100
AcDbEntity
  8
L-ZISSEN
100
AcDbLine
 10
649.9044822218829
 20
-149.183346202583
 30
0.0
 11
646.0654822218828
 21
-149.183346202583
 31
0.0
  0
LINE
  5
3F3
330
2
100
AcDbEntity
  8
L-ZISSEN
100
AcDbLine
 10
646.0654822218828
 20
-151.102846202583
 30
0.0
 11
643.6661072218828
 21
-149.663221202583
 31
0.0
  0
LINE
  5
3F4
330
2
100
AcDbEntity
  8
L-ZISSEN
100
AcDbLine
 10
646.0654822218828
 20
-150.143096202583
 30
0.0
 11
646.0654822218828
 21
-151.102846202583
 31
0.0
  0
LINE
  5
3F5
330
2
100
AcDbEntity
  8
L-ZISSEN
100
AcDbLine
 10
649.9044822218829
 20
-149.183346202583
 30
0.0
 11
649.9044822218829
 21
-150.143096202583
 31
0.0
  0
LINE
  5
3F6
330
2
100
AcDbEntity
  8
L-ZISSEN
100
AcDbLine
 10
646.0654822218828
 20
-148.223596202583
 30
0.0
 11
643.6661072218828
 21
-149.663221202583
 31
0.0
  0
LINE
  5
3F7
330
2
100
AcDbEntity
  8
L-ZISSEN
100
AcDbLine
 10
646.0654822218828
 20
-149.183346202583
 30
0.0
 11
646.0654822218828
 21
-148.223596202583
 31
0.0
  0
TEXT
  5
3F8
330
2
100
AcDbEntity
  8
L-ZISSEN
100
AcDbText
 10
529.3327076754942
 20
-22.54236335011285
 30
0.0
 40
4.5
  1
6
100
AcDbText
  0
TEXT
  5
3F9
330
2
100
AcDbEntity
  8
L-ZISSEN
100
AcDbText
 10
529.3327076754942
 20
-28.89938163614635
 30
0.0
 40
4.5
  1
8
100
AcDbText
  0
LINE
  5
3FA
330
2
100
AcDbEntity
  8
L-ZISSEN
100
AcDbLine
 10
786.5597242833635
 20
-158.1575962025832
 30
0.0
 11
784.8438632813866
 21
-237.4031895335224
 31
0.0
  0
LINE
  5
3FB
330
2
100
AcDbEntity
  8
L-ZISSEN
100
AcDbLine
 10
766.451758982808
 20
-167.3740833899628
 30
0.0
 11
757.3038572218822
 21
-169.2892514427308
 31
0.0
  0
LINE
  5
3FC
330
2
100
AcDbEntity
  8
L-ZISSEN
100
AcDbLine
 10
757.3038572218822
 20
-171.2575962025825
 30
0.0
 11
768.1010447218802
 21
-168.3783462025826
 31
0.0
  0
LINE
  5
3FD
330
2
100
AcDbEntity
  8
L-ZISSEN
100
AcDbLine
 10
748.1559554609564
 20
-167.3740833899628
 30
0.0
 11
757.3038572218822
 21
-169.2892514427308
 31
0.0
  0
LINE
  5
3FE
330
2
100
AcDbEntity
  8
L-ZISSEN
100
AcDbLine
 10
757.3038572218822
 20
-171.2575962025825
 30
0.0
 11
746.5066697218802
 21
-168.3783462025826
 31
0.0
  0
LINE
  5
3FF
330
2
100
AcDbEntity
  8
L-ZISSEN
100
AcDbLine
 10
713.6592663415155
 20
-165.964220529609
 30
0.0
 11
713.6592663415155
 21
-168.8509718755572
 31
0.0
  0
LINE
  5
400
330
2
100
AcDbEntity
  8
L-ZISSEN
100
AcDbLine
 10
715.5592663415152
 20
-162.1575962025831
 30
0.0
 11
715.559266341517
 21
-239.1575962025831
 31
0.0
  0
LINE
  5
401
330
2
100
AcDbEntity
  8
L-ZISSEN
 48
0.3
100
AcDbLine
 10
730.1570495370322
 20
-239.1575962025831
 30
0.0
 11
730.1570495370322
 21
-162.1575962025831
 31
0.0
  0
LINE
  5
402
330
2
100
AcDbEntity
  8
L-ZISSEN
100
AcDbLine
 10
725.0592663415152
 20
-162.1575962025831
 30
0.0
 11
725.059266341517
 21
-239.1575962025831
 31
0.0
  0
LINE
  5
403
330
2
100
AcDbEntity
  8
L-ZISSEN
100
AcDbLine
 10
681.5597242833644
 20
-158.1575962025832
 30
0.0
 11
679.8438632813875
 21
-237.4031895335224
 31
0.0
  0
LINE
  5
404
330
2
100
AcDbEntity
  8
L-ZISSEN
100
AcDbLine
 10
663.3038572218826
 20
-144.9575962025829
 30
0.0
 11
663.3038572218826
 21
-173.7575962025835
 31
0.0
  0
LINE
  5
405
330
2
100
AcDbEntity
  8
L-ZISSEN
100
AcDbLine
 10
768.3038572218817
 20
-144.9575962025829
 30
0.0
 11
768.3038572218817
 21
-173.7575962025835
 31
0.0
  0
LINE
  5
406
330
2
100
AcDbEntity
  8
L-ZISSEN
100
AcDbLine
 10
746.3038572218818
 20
-144.9575962025829
 30
0.0
 11
746.3038572218818
 21
-173.7575962025835
 31
0.0
  0
LINE
  5
407
330
2
100
AcDbEntity
  8
L-ZISSEN
100
AcDbLine
 10
652.3038572218829
 20
-171.2575962025825
 30
0.0
 11
663.1010447218812
 21
-168.3783462025826
 31
0.0
  0
LINE
  5
408
330
2
100
AcDbEntity
  8
L-ZISSEN
100
AcDbLine
 10
661.4517589828087
 20
-167.3740833899628
 30
0.0
 11
652.3038572218829
 21
-169.2892514427308
 31
0.0
  0
LINE
  5
409
330
2
100
AcDbEntity
  8
L-ZISSEN
100
AcDbLine
 10
715.5592663415152
 20
-239.1575962025831
 30
0.0
 11
725.0592663415152
 21
-239.1575962025835
 31
0.0
  0
LINE
  5
40A
330
2
100
AcDbEntity
  8
L-TYUSIN
100
AcDbLine
 10
731.7001420507319
 20
-234.1575962025831
 30
0.0
 11
708.6592663415156
 21
-234.1575962025831
 31
0.0
  0
ARC
  5
40B
330
2
100
AcDbEntity
  8
L-ZISSEN
100
AcDbCircle
 10
669.8472028731428
 20
-237.1447699479072
 30
0.0
 40
10.0
100
AcDbArc
 50
274.8684440628817
 51
358.9999999999721
  0
LINE
  5
40C
330
2
100
AcDbEntity
  8
L-ZISSEN
100
AcDbLine
 10
661.7390244901023
 20
-248.157596202584
 30
0.0
 11
670.6958845536998
 21
-247.1086918366558
 31
0.0
  0
LINE
  5
40D
330
2
100
AcDbEntity
  8
L-ZISSEN
100
AcDbLine
 10
657.336656000143
 20
-254.6599619647108
 30
0.0
 11
657.3366560001386
 21
-256.5997811127799
 31
0.0
  0
LINE
  5
40E
330
2
100
AcDbEntity
  8
L-ZISSEN
100
AcDbLine
 10
657.8366560001384
 20
-256.0997811127795
 30
0.0
 11
657.8366560001382
 21
-254.6586157022884
 31
0.0
  0
LINE
  5
40F
330
2
100
AcDbEntity
  8
L-ZISSEN
100
AcDbLine
 10
657.3366560001386
 20
-256.5997811127799
 30
0.0
 11
657.8366560001382
 21
-256.0997811127799
 31
0.0
  0
LINE
  5
410
330
2
100
AcDbEntity
  8
L-ZISSEN
100
AcDbLine
 10
655.3366560001386
 20
-256.5997811127799
 30
0.0
 11
657.8366560001386
 21
-256.5997811127799
 31
0.0
  0
LINE
  5
411
330
2
100
AcDbEntity
  8
L-ZISSEN
100
AcDbLine
 10
657.8366560001386
 20
-256.5997811127799
 30
0.0
 11
658.3366560001381
 21
-257.0997811127799
 31
0.0
  0
LINE
  5
412
330
2
100
AcDbEntity
  8
L-ZISSEN
100
AcDbLine
 10
658.0366560001384
 20
-266.6586157022884
 30
0.0
 11
658.3366560001381
 21
-266.3586157022887
 31
0.0
  0
LINE
  5
413
330
2
100
AcDbEntity
  8
L-ZISSEN
100
AcDbLine
 10
654.3366560001395
 20
-256.5997811127799
 30
0.0
 11
654.3366560001397
 21
-266.6586157022884
 31
0.0
  0
LINE
  5
414
330
2
100
AcDbEntity
  8
L-ZISSEN
100
AcDbLine
 10
658.3366560001381
 20
-257.0997811127799
 30
0.0
 11
658.3366560001381
 21
-266.3586157022887
 31
0.0
  0
LINE
  5
415
330
2
100
AcDbEntity
  8
L-ZISSEN
100
AcDbLine
 10
657.3366560001414
 20
-256.5997811127799
 30
0.0
 11
657.3366560001434
 21
-266.6586157022884
 31
0.0
  0
LINE
  5
416
330
2
100
AcDbEntity
  8
L-ZISSEN
100
AcDbLine
 10
656.3366560001423
 20
-256.5997811127799
 30
0.0
 11
656.3366560001425
 21
-266.6586157022884
 31
0.0
  0
LINE
  5
417
330
2
100
AcDbEntity
  8
L-ZISSEN
100
AcDbLine
 10
655.3366560001386
 20
-256.5997811127799
 30
0.0
 11
655.3366560001386
 21
-266.6586157022884
 31
0.0
  0
LINE
  5
418
330
2
100
AcDbEntity
  8
L-ZISSEN
100
AcDbLine
 10
653.3366560001404
 20
-256.5997811127799
 30
0.0
 11
653.3366560001407
 21
-266.6586157022884
 31
0.0
  0
LINE
  5
419
330
2
100
AcDbEntity
  8
L-ZISSEN
100
AcDbLine
 10
652.3366560001413
 20
-256.5997811127799
 30
0.0
 11
652.3366560001416
 21
-266.6586157022884
 31
0.0
  0
LINE
  5
41A
330
2
100
AcDbEntity
  8
L-ZISSEN
100
AcDbLine
 10
651.33665600014
 20
-256.5997811127799
 30
0.0
 11
651.3366560001402
 21
-266.6586157022884
 31
0.0
  0
LINE
  5
41B
330
2
100
AcDbEntity
  8
L-ZISSEN
100
AcDbLine
 10
650.3366560001409
 20
-256.5997811127799
 30
0.0
 11
650.3366560001411
 21
-266.6586157022884
 31
0.0
  0
ARC
  5
41C
330
2
100
AcDbEntity
  8
L-ZISSEN
100
AcDbCircle
 10
659.0493740601328
 20
-256.9285279880691
 30
0.0
 40
5.271330170371789
100
AcDbArc
 50
64.28835488513391
 51
115.259106683423
  0
ARC
  5
41D
330
2
100
AcDbEntity
  8
L-ZISSEN
100
AcDbCircle
 10
659.0493740601328
 20
-249.3887034165081
 30
0.0
 40
5.271330170371532
100
AcDbArc
 50
244.740893316577
 51
295.711645114866
  0
LINE
  5
41E
330
2
100
AcDbEntity
  8
L-ZISSEN
100
AcDbLine
 10
656.8000316371563
 20
-252.1612037459749
 30
0.0
 11
656.8000316371563
 21
-254.1560276586028
 31
0.0
  0
LINE
  5
41F
330
2
100
AcDbEntity
  8
L-ZISSEN
100
AcDbLine
 10
661.3362996202254
 20
-252.1791182091942
 30
0.0
 11
661.3362996202254
 21
-254.1381131953821
 31
0.0
  0
LINE
  5
420
330
2
100
AcDbEntity
  8
L-ZISSEN
100
AcDbLine
 10
661.7390244901023
 20
-248.157596202584
 30
0.0
 11
661.7390244901018
 21
-251.657596202584
 31
0.0
  0
ARC
  5
421
330
2
100
AcDbEntity
  8
L-ZISSEN
100
AcDbCircle
 10
715.9712689092928
 20
-232.4328096867661
 30
0.0
 40
2.312215931624567
100
AcDbArc
 50
100.2640683722016
 51
180.7783719766075
  0
LINE
  5
422
330
2
100
AcDbEntity
  8
L-ZISSEN
100
AcDbLine
 10
713.6592663415155
 20
-235.3509718755576
 30
0.0
 11
713.6592663415155
 21
-232.4642205296099
 31
0.0
  0
ARC
  5
423
330
2
100
AcDbEntity
  8
L-ZISSEN
100
AcDbCircle
 10
715.9712689092928
 20
-235.3823827184019
 30
0.0
 40
2.312215931624567
100
AcDbArc
 50
179.2216280233924
 51
259.7359316277982
  0
LINE
  5
424
330
2
100
AcDbEntity
  8
L-ZISSEN
100
AcDbLine
 10
661.9038572218831
 20
-174.2575962025825
 30
0.0
 11
661.9038572218831
 21
-185.2575962025835
 31
0.0
  0
LINE
  5
425
330
2
100
AcDbEntity
  8
L-ZISSEN
100
AcDbLine
 10
662.3038572218836
 20
-174.2575962025825
 30
0.0
 11
662.3038572218836
 21
-188.2575962025826
 31
0.0
  0
LINE
  5
426
330
2
100
AcDbEntity
  8
L-ZISSEN
100
AcDbLine
 10
659.903857221883
 20
-169.2309295359159
 30
0.0
 11
659.903857221883
 21
-183.2575962025826
 31
0.0
  0
LINE
  5
427
330
2
100
AcDbEntity
  8
L-TYUSIN
100
AcDbLine
 10
656.5538572218835
 20
-175.5075962025825
 30
0.0
 11
656.5538572218835
 21
-182.0075962025826
 31
0.0
  0
LINE
  5
428
330
2
100
AcDbEntity
  8
L-ZISSEN
100
AcDbLine
 10
661.9038572218831
 20
-185.2575962025835
 30
0.0
 11
662.3038572218836
 21
-188.2575962025826
 31
0.0
  0
CIRCLE
  5
429
330
2
100
AcDbEntity
  8
L-ZISSEN
100
AcDbCircle
 10
656.5538572218835
 20
-178.7575962025826
 30
0.0
 40
2.0
  0
LINE
  5
42A
330
2
100
AcDbEntity
  8
L-ZISSEN
100
AcDbLine
 10
653.5538572218832
 20
-173.0075962025825
 30
0.0
 11
653.5538572218832
 21
-170.9242628692495
 31
0.0
  0
LINE
  5
42B
330
2
100
AcDbEntity
  8
L-ZISSEN
100
AcDbLine
 10
651.0538572218831
 20
-173.0075962025825
 30
0.0
 11
651.0538572218831
 21
-170.9242628692495
 31
0.0
  0
ARC
  5
42C
330
2
100
AcDbEntity
  8
L-ZISSEN
100
AcDbCircle
 10
652.3038572218831
 20
-173.0075962025825
 30
0.0
 40
1.25
100
AcDbArc
 50
180.0
 51
0.0
  0
ARC
  5
42D
330
2
100
AcDbEntity
  8
L-ZISSEN
100
AcDbCircle
 10
662.8038572218827
 20
-173.7575962025835
 30
0.0
 40
0.5
100
AcDbArc
 50
270.0
 51
0.0
  0
LINE
  5
42E
330
2
100
AcDbEntity
  8
L-ZISSEN
100
AcDbLine
 10
659.903857221883
 20
-174.2575962025839
 30
0.0
 11
662.8038572218827
 21
-174.2575962025834
 31
0.0
  0
ARC
  5
42F
330
2
100
AcDbEntity
  8
L-ZISSEN
100
AcDbCircle
 10
715.9712689092928
 20
-168.882382718401
 30
0.0
 40
2.312215931624567
100
AcDbArc
 50
179.2216280233924
 51
259.7359316277982
  0
LINE
  5
430
330
2
100
AcDbEntity
  8
L-ZISSEN
100
AcDbLine
 10
747.868689953664
 20
-248.157596202584
 30
0.0
 11
766.7390244901014
 21
-248.157596202584
 31
0.0
  0
LINE
  5
431
330
2
100
AcDbEntity
  8
L-ZISSEN
100
AcDbLine
 10
747.8686899536644
 20
-251.157596202584
 30
0.0
 11
766.7390244901014
 21
-251.157596202584
 31
0.0
  0
LINE
  5
432
330
2
100
AcDbEntity
  8
L-ZISSEN
100
AcDbLine
 10
765.9641112597273
 20
-253.1575962025844
 30
0.0
 11
748.6436031840384
 21
-253.1575962025844
 31
0.0
  0
ARC
  5
433
330
2
100
AcDbEntity
  8
L-ZISSEN
100
AcDbCircle
 10
739.7605115706226
 20
-237.1447699479072
 30
0.0
 40
10.0
100
AcDbArc
 50
191.6119735011068
 51
265.1315559371182
  0
LINE
  5
434
330
2
100
AcDbEntity
  8
L-ZISSEN
100
AcDbLine
 10
747.868689953663
 20
-248.157596202584
 30
0.0
 11
738.9118298900655
 21
-247.1086918366558
 31
0.0
  0
LINE
  5
435
330
2
100
AcDbEntity
  8
L-ZISSEN
100
AcDbLine
 10
752.9737302029607
 20
-253.1575962025844
 30
0.0
 11
752.9737302029607
 21
-251.1575962025844
 31
0.0
  0
LINE
  5
436
330
2
100
AcDbEntity
  8
L-ZISSEN
100
AcDbLine
 10
748.6436031840384
 20
-253.1575962025844
 30
0.0
 11
748.6436031840384
 21
-251.1575962025844
 31
0.0
  0
LINE
  5
437
330
2
100
AcDbEntity
  8
L-ZISSEN
100
AcDbLine
 10
747.868689953664
 20
-248.157596202584
 30
0.0
 11
747.8686899536642
 21
-251.157596202584
 31
0.0
  0
LINE
  5
438
330
2
100
AcDbEntity
  8
L-ZISSEN
100
AcDbLine
 10
725.059266341517
 20
-239.1575962025831
 30
0.0
 11
728.857049537032
 21
-239.1575962025831
 31
0.0
  0
LINE
  5
439
330
2
100
AcDbEntity
  8
L-ZISSEN
 48
0.3
100
AcDbLine
 10
728.857049537032
 20
-239.1575962025831
 30
0.0
 11
730.1570495370322
 21
-239.1575962025831
 31
0.0
  0
ARC
  5
43A
330
2
100
AcDbEntity
  8
L-ZISSEN
100
AcDbCircle
 10
774.8472028731419
 20
-237.1447699479072
 30
0.0
 40
10.0
100
AcDbArc
 50
274.8684440628817
 51
358.9999999999721
  0
LINE
  5
43B
330
2
100
AcDbEntity
  8
L-ZISSEN
100
AcDbLine
 10
766.7390244901014
 20
-248.157596202584
 30
0.0
 11
775.6958845536989
 21
-247.1086918366558
 31
0.0
  0
LINE
  5
43C
330
2
100
AcDbEntity
  8
L-ZISSEN
100
AcDbLine
 10
761.6339842408051
 20
-253.1575962025844
 30
0.0
 11
761.6339842408051
 21
-251.1575962025844
 31
0.0
  0
LINE
  5
43D
330
2
100
AcDbEntity
  8
L-ZISSEN
100
AcDbLine
 10
765.9641112597273
 20
-253.1575962025844
 30
0.0
 11
765.9641112597273
 21
-251.1575962025844
 31
0.0
  0
LINE
  5
43E
330
2
100
AcDbEntity
  8
L-ZISSEN
100
AcDbLine
 10
766.7390244901014
 20
-248.157596202584
 30
0.0
 11
766.7390244901009
 21
-251.157596202584
 31
0.0
  0
CIRCLE
  5
43F
330
2
100
AcDbEntity
  8
L-ZISSEN
100
AcDbCircle
 10
753.0538572218818
 20
-178.7575962025826
 30
0.0
 40
2.0
  0
LINE
  5
440
330
2
100
AcDbEntity
  8
L-ZISSEN
100
AcDbLine
 10
747.3038572218817
 20
-188.2575962025826
 30
0.0
 11
767.3038572218818
 21
-188.2575962025826
 31
0.0
  0
LINE
  5
441
330
2
100
AcDbEntity
  8
L-ZISSEN
100
AcDbLine
 10
747.7038572218823
 20
-185.2575962025835
 30
0.0
 11
766.9038572218822
 21
-185.2575962025835
 31
0.0
  0
LINE
  5
442
330
2
100
AcDbEntity
  8
L-ZISSEN
100
AcDbLine
 10
749.7038572218823
 20
-182.2575962025825
 30
0.0
 11
764.9038572218821
 21
-182.2575962025825
 31
0.0
  0
LINE
  5
443
330
2
100
AcDbEntity
  8
L-ZISSEN
100
AcDbLine
 10
749.7038572218823
 20
-183.2575962025826
 30
0.0
 11
764.9038572218821
 21
-183.2575962025826
 31
0.0
  0
LINE
  5
444
330
2
100
AcDbEntity
  8
L-TYUSIN
100
AcDbLine
 10
749.7038572218823
 20
-178.7575962025826
 30
0.0
 11
764.9038572218821
 21
-178.7575962025826
 31
0.0
  0
LINE
  5
445
330
2
100
AcDbEntity
  8
L-TYUSIN
100
AcDbLine
 10
753.0538572218818
 20
-175.5075962025825
 30
0.0
 11
753.0538572218818
 21
-182.0075962025826
 31
0.0
  0
LINE
  5
446
330
2
100
AcDbEntity
  8
L-ZISSEN
100
AcDbLine
 10
747.3038572218817
 20
-174.2575962025825
 30
0.0
 11
747.3038572218817
 21
-188.2575962025826
 31
0.0
  0
LINE
  5
447
330
2
100
AcDbEntity
  8
L-ZISSEN
100
AcDbLine
 10
747.7038572218814
 20
-174.2575962025825
 30
0.0
 11
747.7038572218823
 21
-185.2575962025825
 31
0.0
  0
LINE
  5
448
330
2
100
AcDbEntity
  8
L-ZISSEN
100
AcDbLine
 10
749.7038572218818
 20
-169.2309295359168
 30
0.0
 11
749.7038572218823
 21
-183.2575962025826
 31
0.0
  0
LINE
  5
449
330
2
100
AcDbEntity
  8
L-ZISSEN
100
AcDbLine
 10
747.7038572218823
 20
-185.2575962025825
 30
0.0
 11
747.3038572218817
 21
-188.2575962025826
 31
0.0
  0
LINE
  5
44A
330
2
100
AcDbEntity
  8
L-ZISSEN
100
AcDbLine
 10
746.8038572218818
 20
-174.2575962025834
 30
0.0
 11
749.7038572218818
 21
-174.2575962025839
 31
0.0
  0
ARC
  5
44B
330
2
100
AcDbEntity
  8
L-ZISSEN
100
AcDbCircle
 10
746.8038572218818
 20
-173.7575962025835
 30
0.0
 40
0.5
100
AcDbArc
 50
180.0
 51
270.0
  0
LINE
  5
44C
330
2
100
AcDbEntity
  8
L-ZISSEN
100
AcDbLine
 10
767.3038572218827
 20
-174.2575962025825
 30
0.0
 11
767.3038572218827
 21
-188.2575962025826
 31
0.0
  0
LINE
  5
44D
330
2
100
AcDbEntity
  8
L-TYUSIN
100
AcDbLine
 10
761.5538572218826
 20
-175.5075962025825
 30
0.0
 11
761.5538572218826
 21
-182.0075962025826
 31
0.0
  0
LINE
  5
44E
330
2
100
AcDbEntity
  8
L-ZISSEN
100
AcDbLine
 10
764.9038572218821
 20
-169.2309295359159
 30
0.0
 11
764.9038572218821
 21
-183.2575962025826
 31
0.0
  0
LINE
  5
44F
330
2
100
AcDbEntity
  8
L-ZISSEN
100
AcDbLine
 10
766.9038572218822
 20
-174.2575962025825
 30
0.0
 11
766.9038572218822
 21
-185.2575962025835
 31
0.0
  0
LINE
  5
450
330
2
100
AcDbEntity
  8
L-ZISSEN
100
AcDbLine
 10
766.9038572218822
 20
-185.2575962025835
 30
0.0
 11
767.3038572218827
 21
-188.2575962025826
 31
0.0
  0
CIRCLE
  5
451
330
2
100
AcDbEntity
  8
L-ZISSEN
100
AcDbCircle
 10
761.5538572218826
 20
-178.7575962025826
 30
0.0
 40
2.0
  0
ARC
  5
452
330
2
100
AcDbEntity
  8
L-ZISSEN
100
AcDbCircle
 10
757.3038572218822
 20
-173.0075962025825
 30
0.0
 40
1.25
100
AcDbArc
 50
180.0
 51
0.0
  0
LINE
  5
453
330
2
100
AcDbEntity
  8
L-ZISSEN
100
AcDbLine
 10
756.0538572218822
 20
-173.0075962025825
 30
0.0
 11
756.0538572218822
 21
-170.9242628692495
 31
0.0
  0
LINE
  5
454
330
2
100
AcDbEntity
  8
L-ZISSEN
100
AcDbLine
 10
758.5538572218823
 20
-173.0075962025825
 30
0.0
 11
758.5538572218823
 21
-170.9242628692495
 31
0.0
  0
ARC
  5
455
330
2
100
AcDbEntity
  8
L-ZISSEN
100
AcDbCircle
 10
767.8038572218818
 20
-173.7575962025835
 30
0.0
 40
0.5
100
AcDbArc
 50
270.0
 51
0.0
  0
LINE
  5
456
330
2
100
AcDbEntity
  8
L-ZISSEN
100
AcDbLine
 10
764.9038572218821
 20
-174.2575962025839
 30
0.0
 11
767.8038572218818
 21
-174.2575962025834
 31
0.0
  0
LINE
  5
457
330
2
100
AcDbEntity
  8
L-ZISSEN
100
AcDbLine
 10
715.5592663415152
 20
-162.1575962025831
 30
0.0
 11
725.0592663415152
 21
-162.1575962025831
 31
0.0
  0
LINE
  5
458
330
2
100
AcDbEntity
  8
L-TYUSIN
100
AcDbLine
 10
708.6592663415156
 20
-167.1575962025835
 30
0.0
 11
733.1809410511657
 21
-167.1575962025831
 31
0.0
  0
LINE
  5
459
330
2
100
AcDbEntity
  8
L-ZISSEN
100
AcDbLine
 10
670.8038572218836
 20
-158.1575962025814
 30
0.0
 11
663.8038572218836
 21
-158.1575962025823
 31
0.0
  0
LINE
  5
45A
330
2
100
AcDbEntity
  8
L-ZISSEN
100
AcDbLine
 10
664.6038572218838
 20
-149.6575962025841
 30
0.0
 11
664.6038572218828
 21
-158.1575962025823
 31
0.0
  0
LINE
  5
45B
330
2
100
AcDbEntity
  8
L-ZISSEN
100
AcDbLine
 10
662.3812322218811
 20
-144.9575962025829
 30
0.0
 11
662.3812322218811
 21
-163.0997212025827
 31
0.0
  0
LINE
  5
45C
330
2
100
AcDbEntity
  8
L-ZISSEN
100
AcDbLine
 10
663.1010447218812
 20
-144.9575962025829
 30
0.0
 11
663.1010447218812
 21
-168.3783462025826
 31
0.0
  0
LINE
  5
45D
330
2
100
AcDbEntity
  8
L-ZISSEN
100
AcDbLine
 10
655.1831072218846
 20
-154.941846202582
 30
0.0
 11
652.3038572218845
 21
-159.7405962025819
 31
0.0
  0
LINE
  5
45E
330
2
100
AcDbEntity
  8
L-ZISSEN
100
AcDbLine
 10
652.3038572218829
 20
-164.5393462025826
 30
0.0
 11
662.3812322218811
 21
-163.0997212025827
 31
0.0
  0
LINE
  5
45F
330
2
100
AcDbEntity
  8
L-ZISSEN
100
AcDbLine
 10
652.3038572218829
 20
-165.1775202616818
 30
0.0
 11
661.4517589828087
 21
-163.8706771529782
 31
0.0
  0
LINE
  5
460
330
2
100
AcDbEntity
  8
L-ZISSEN
100
AcDbLine
 10
652.3038572218829
 20
-164.5393462025826
 30
0.0
 11
652.3038572218829
 21
-165.1775202616818
 31
0.0
  0
LINE
  5
461
330
2
100
AcDbEntity
  8
L-ZISSEN
100
AcDbLine
 10
664.6038572218828
 20
-158.1575962025823
 30
0.0
 11
663.3038572218826
 21
-158.1575962025823
 31
0.0
  0
LINE
  5
462
330
2
100
AcDbEntity
  8
L-ZISSEN
100
AcDbLine
 10
664.6038572218828
 20
-158.1575962025823
 30
0.0
 11
663.3038572218826
 21
-158.1575962025832
 31
0.0
  0
LINE
  5
463
330
2
100
AcDbEntity
  8
L-ZISSEN
100
AcDbLine
 10
661.4517589828087
 20
-163.8706771529782
 30
0.0
 11
662.3812322218811
 21
-163.0997212025827
 31
0.0
  0
LINE
  5
464
330
2
100
AcDbEntity
  8
L-ZISSEN
100
AcDbLine
 10
661.4517589828087
 20
-163.2325030938791
 30
0.0
 11
662.3812322218811
 21
-163.0997212025827
 31
0.0
  0
LINE
  5
465
330
2
100
AcDbEntity
  8
L-ZISSEN
100
AcDbLine
 10
663.1010447218812
 20
-168.3783462025826
 30
0.0
 11
661.4517589828087
 21
-167.3740833899628
 31
0.0
  0
LINE
  5
466
330
2
100
AcDbEntity
  8
L-ZISSEN
100
AcDbLine
 10
661.4517589828087
 20
-163.8706771529782
 30
0.0
 11
661.4517589828087
 21
-167.3740833899628
 31
0.0
  0
LINE
  5
467
330
2
100
AcDbEntity
  8
L-ZISSEN
100
AcDbLine
 10
658.542232221883
 20
-151.102846202582
 30
0.0
 11
660.941607221883
 21
-149.6632212025821
 31
0.0
  0
LINE
  5
468
330
2
100
AcDbEntity
  8
L-ZISSEN
100
AcDbLine
 10
658.542232221883
 20
-148.2235962025821
 30
0.0
 11
660.941607221883
 21
-149.6632212025821
 31
0.0
  0
LINE
  5
469
330
2
100
AcDbEntity
  8
L-ZISSEN
100
AcDbLine
 10
658.542232221883
 20
-150.1430962025821
 30
0.0
 11
658.542232221883
 21
-151.102846202582
 31
0.0
  0
LINE
  5
46A
330
2
100
AcDbEntity
  8
L-ZISSEN
100
AcDbLine
 10
654.7032322218829
 20
-149.1833462025821
 30
0.0
 11
654.7032322218829
 21
-150.1430962025821
 31
0.0
  0
LINE
  5
46B
330
2
100
AcDbEntity
  8
L-ZISSEN
100
AcDbLine
 10
654.7032322218829
 20
-150.1430962025821
 30
0.0
 11
658.542232221883
 21
-150.1430962025821
 31
0.0
  0
LINE
  5
46C
330
2
100
AcDbEntity
  8
L-ZISSEN
100
AcDbLine
 10
654.7032322218829
 20
-150.1430962025821
 30
0.0
 11
658.542232221883
 21
-150.1430962025821
 31
0.0
  0
LINE
  5
46D
330
2
100
AcDbEntity
  8
L-ZISSEN
100
AcDbLine
 10
654.7032322218829
 20
-149.1833462025821
 30
0.0
 11
658.542232221883
 21
-149.1833462025821
 31
0.0
  0
LINE
  5
46E
330
2
100
AcDbEntity
  8
L-ZISSEN
100
AcDbLine
 10
654.7032322218829
 20
-149.1833462025821
 30
0.0
 11
658.542232221883
 21
-149.1833462025821
 31
0.0
  0
LINE
  5
46F
330
2
100
AcDbEntity
  8
L-ZISSEN
100
AcDbLine
 10
658.542232221883
 20
-149.1833462025821
 30
0.0
 11
658.542232221883
 21
-148.2235962025821
 31
0.0
  0
LINE
  5
470
330
2
100
AcDbEntity
  8
L-ZISSEN
100
AcDbLine
 10
653.2636072218845
 20
-147.2638462025821
 30
0.0
 11
651.3441072218845
 21
-147.2638462025821
 31
0.0
  0
LINE
  5
471
330
2
100
AcDbEntity
  8
L-ZISSEN
100
AcDbLine
 10
653.2636072218845
 20
-147.2638462025821
 30
0.0
 11
653.2636072218845
 21
-154.941846202582
 31
0.0
  0
LINE
  5
472
330
2
100
AcDbEntity
  8
L-ZISSEN
100
AcDbLine
 10
653.2636072218845
 20
-147.2638462025821
 30
0.0
 11
653.2636072218845
 21
-154.941846202582
 31
0.0
  0
LINE
  5
473
330
2
100
AcDbEntity
  8
L-ZISSEN
100
AcDbLine
 10
651.3441072218845
 20
-147.2638462025821
 30
0.0
 11
651.3441072218845
 21
-154.941846202582
 31
0.0
  0
LINE
  5
474
330
2
100
AcDbEntity
  8
L-ZISSEN
100
AcDbLine
 10
651.3441072218845
 20
-147.2638462025821
 30
0.0
 11
651.3441072218845
 21
-154.941846202582
 31
0.0
  0
LINE
  5
475
330
2
100
AcDbEntity
  8
L-ZISSEN
100
AcDbLine
 10
653.2636072218845
 20
-154.941846202582
 30
0.0
 11
655.1831072218846
 21
-154.941846202582
 31
0.0
  0
LINE
  5
476
330
2
100
AcDbEntity
  8
L-ZISSEN
100
AcDbLine
 10
664.3038572218827
 20
-144.6586157022885
 30
0.0
 11
664.3038572218827
 21
-144.9575962025829
 31
0.0
  0
LINE
  5
477
330
2
100
AcDbEntity
  8
L-ZISSEN
100
AcDbLine
 10
664.6038572218838
 20
-149.6575962025841
 30
0.0
 11
663.3038572218826
 21
-149.6575962025841
 31
0.0
  0
LINE
  5
478
330
2
100
AcDbEntity
  8
L-ZISSEN
100
AcDbLine
 10
682.4401403373087
 20
-144.658615702289
 30
0.0
 11
682.2598418221103
 21
-158.1575962025832
 31
0.0
  0
LINE
  5
479
330
2
100
AcDbEntity
  8
L-ZISSEN
100
AcDbLine
 10
670.8038572218836
 20
-148.1575962025823
 30
0.0
 11
670.8038572218836
 21
-158.1575962025814
 31
0.0
  0
LINE
  5
47A
330
2
100
AcDbEntity
  8
L-ZISSEN
100
AcDbLine
 10
676.3152116601411
 20
-148.1575962025841
 30
0.0
 11
676.3152116601411
 21
-158.1575962025814
 31
0.0
  0
LINE
  5
47B
330
2
100
AcDbEntity
  8
L-ZISSEN
100
AcDbLine
 10
676.3152116601411
 20
-158.1575962025814
 30
0.0
 11
681.5597242833644
 21
-158.1575962025814
 31
0.0
  0
LINE
  5
47C
330
2
100
AcDbEntity
  8
L-ZISSEN
100
AcDbLine
 10
681.5597242833644
 20
-158.1575962025832
 30
0.0
 11
682.2598418221103
 21
-158.1575962025832
 31
0.0
  0
LINE
  5
47D
330
2
100
AcDbEntity
  8
L-ZISSEN
100
AcDbLine
 10
670.8038572218827
 20
-148.1575962025823
 30
0.0
 11
676.3152116601411
 21
-148.1575962025841
 31
0.0
  0
ARC
  5
47E
330
2
100
AcDbEntity
  8
L-ZISSEN
100
AcDbCircle
 10
715.9712689092928
 20
-165.9328096867652
 30
0.0
 40
2.312215931624567
100
AcDbArc
 50
100.2640683722016
 51
180.7783719766075
  0
LINE
  5
47F
330
2
100
AcDbEntity
  8
L-ZISSEN
100
AcDbLine
 10
754.9044822218823
 20
-149.183346202583
 30
0.0
 11
751.0654822218818
 21
-149.183346202583
 31
0.0
  0
LINE
  5
480
330
2
100
AcDbEntity
  8
L-ZISSEN
100
AcDbLine
 10
754.9044822218823
 20
-149.183346202583
 30
0.0
 11
751.0654822218818
 21
-149.183346202583
 31
0.0
  0
LINE
  5
481
330
2
100
AcDbEntity
  8
L-ZISSEN
100
AcDbLine
 10
754.9044822218823
 20
-150.143096202583
 30
0.0
 11
751.0654822218818
 21
-150.143096202583
 31
0.0
  0
LINE
  5
482
330
2
100
AcDbEntity
  8
L-ZISSEN
100
AcDbLine
 10
754.9044822218823
 20
-150.143096202583
 30
0.0
 11
751.0654822218818
 21
-150.143096202583
 31
0.0
  0
LINE
  5
483
330
2
100
AcDbEntity
  8
L-ZISSEN
100
AcDbLine
 10
757.3038572218822
 20
-165.1775202616818
 30
0.0
 11
748.1559554609564
 21
-163.8706771529782
 31
0.0
  0
LINE
  5
484
330
2
100
AcDbEntity
  8
L-ZISSEN
100
AcDbLine
 10
757.3038572218822
 20
-164.5393462025826
 30
0.0
 11
747.2264822218801
 21
-163.0997212025827
 31
0.0
  0
LINE
  5
485
330
2
100
AcDbEntity
  8
L-ZISSEN
100
AcDbLine
 10
754.4246072218836
 20
-154.941846202582
 30
0.0
 11
757.3038572218836
 21
-159.7405962025818
 31
0.0
  0
LINE
  5
486
330
2
100
AcDbEntity
  8
L-ZISSEN
100
AcDbLine
 10
756.3441072218836
 20
-154.941846202582
 30
0.0
 11
754.4246072218836
 21
-154.941846202582
 31
0.0
  0
LINE
  5
487
330
2
100
AcDbEntity
  8
L-ZISSEN
100
AcDbLine
 10
769.3038572218823
 20
-144.9575962025829
 30
0.0
 11
745.3038572218822
 21
-144.9575962025829
 31
0.0
  0
LINE
  5
488
330
2
100
AcDbEntity
  8
L-ZISSEN
100
AcDbLine
 10
730.8038572218826
 20
-148.1575962025841
 30
0.0
 11
738.8038572218826
 21
-148.1575962025841
 31
0.0
  0
LINE
  5
489
330
2
100
AcDbEntity
  8
L-ZISSEN
100
AcDbLine
 10
730.8038572218826
 20
-148.1575962025841
 30
0.0
 11
730.8038572218826
 21
-158.1575962025832
 31
0.0
  0
LINE
  5
48A
330
2
100
AcDbEntity
  8
L-ZISSEN
100
AcDbLine
 10
727.1004862868482
 20
-144.658615702289
 30
0.0
 11
727.3478726216551
 21
-158.1575962025832
 31
0.0
  0
LINE
  5
48B
330
2
100
AcDbEntity
  8
L-ZISSEN
 48
0.3
100
AcDbLine
 10
730.1570495370322
 20
-162.1575962025831
 30
0.0
 11
728.1593838802616
 21
-162.1575962025831
 31
0.0
  0
LINE
  5
48C
330
2
100
AcDbEntity
  8
L-ZISSEN
100
AcDbLine
 10
727.3478726216551
 20
-158.1575962025832
 30
0.0
 11
730.8038572218826
 21
-158.1575962025832
 31
0.0
  0
LINE
  5
48D
330
2
100
AcDbEntity
  8
L-ZISSEN
100
AcDbLine
 10
728.0479901604019
 20
-158.1575962025832
 30
0.0
 11
728.0858439590904
 21
-162.1575962025831
 31
0.0
  0
LINE
  5
48E
330
2
100
AcDbEntity
  8
L-ZISSEN
100
AcDbLine
 10
725.0592663415152
 20
-162.1575962025831
 30
0.0
 11
728.1593838802616
 21
-162.1575962025831
 31
0.0
  0
LINE
  5
48F
330
2
100
AcDbEntity
  8
L-ZISSEN
100
AcDbLine
 10
745.0038572218825
 20
-149.6575962025841
 30
0.0
 11
745.0038572218825
 21
-158.1575962025823
 31
0.0
  0
LINE
  5
490
330
2
100
AcDbEntity
  8
L-ZISSEN
100
AcDbLine
 10
738.8038572218826
 20
-148.1575962025841
 30
0.0
 11
738.8038572218826
 21
-158.1575962025832
 31
0.0
  0
LINE
  5
491
330
2
100
AcDbEntity
  8
L-ZISSEN
100
AcDbLine
 10
746.5066697218806
 20
-144.9575962025829
 30
0.0
 11
746.5066697218802
 21
-168.3783462025826
 31
0.0
  0
LINE
  5
492
330
2
100
AcDbEntity
  8
L-ZISSEN
100
AcDbLine
 10
747.2264822218801
 20
-144.9575962025829
 30
0.0
 11
747.2264822218801
 21
-163.0997212025827
 31
0.0
  0
LINE
  5
493
330
2
100
AcDbEntity
  8
L-ZISSEN
100
AcDbLine
 10
745.0038572218825
 20
-158.1575962025823
 30
0.0
 11
746.3038572218818
 21
-158.1575962025823
 31
0.0
  0
LINE
  5
494
330
2
100
AcDbEntity
  8
L-ZISSEN
100
AcDbLine
 10
738.8038572218826
 20
-158.1575962025823
 30
0.0
 11
745.8038572218827
 21
-158.1575962025823
 31
0.0
  0
LINE
  5
495
330
2
100
AcDbEntity
  8
L-ZISSEN
100
AcDbLine
 10
746.5066697218802
 20
-168.3783462025826
 30
0.0
 11
748.1559554609564
 21
-167.3740833899628
 31
0.0
  0
LINE
  5
496
330
2
100
AcDbEntity
  8
L-ZISSEN
100
AcDbLine
 10
748.1559554609564
 20
-163.2325030938791
 30
0.0
 11
747.2264822218801
 21
-163.0997212025827
 31
0.0
  0
LINE
  5
497
330
2
100
AcDbEntity
  8
L-ZISSEN
100
AcDbLine
 10
748.1559554609564
 20
-163.8706771529782
 30
0.0
 11
748.1559554609564
 21
-167.3740833899628
 31
0.0
  0
LINE
  5
498
330
2
100
AcDbEntity
  8
L-ZISSEN
100
AcDbLine
 10
748.1559554609564
 20
-163.8706771529782
 30
0.0
 11
747.2264822218801
 21
-163.0997212025827
 31
0.0
  0
LINE
  5
499
330
2
100
AcDbEntity
  8
L-ZISSEN
100
AcDbLine
 10
745.0038572218825
 20
-149.6575962025841
 30
0.0
 11
746.3038572218818
 21
-149.6575962025841
 31
0.0
  0
LINE
  5
49A
330
2
100
AcDbEntity
  8
L-ZISSEN
100
AcDbLine
 10
745.3038572218822
 20
-144.658615702289
 30
0.0
 11
745.3038572218822
 21
-144.9575962025829
 31
0.0
  0
LINE
  5
49B
330
2
100
AcDbEntity
  8
L-ZISSEN
100
AcDbLine
 10
751.0654822218818
 20
-151.102846202583
 30
0.0
 11
748.6661072218819
 21
-149.663221202583
 31
0.0
  0
LINE
  5
49C
330
2
100
AcDbEntity
  8
L-ZISSEN
100
AcDbLine
 10
751.0654822218818
 20
-148.223596202583
 30
0.0
 11
748.6661072218819
 21
-149.663221202583
 31
0.0
  0
LINE
  5
49D
330
2
100
AcDbEntity
  8
L-ZISSEN
100
AcDbLine
 10
751.0654822218818
 20
-150.143096202583
 30
0.0
 11
751.0654822218818
 21
-151.102846202583
 31
0.0
  0
LINE
  5
49E
330
2
100
AcDbEntity
  8
L-ZISSEN
100
AcDbLine
 10
751.0654822218818
 20
-149.183346202583
 30
0.0
 11
751.0654822218818
 21
-148.223596202583
 31
0.0
  0
LINE
  5
49F
330
2
100
AcDbEntity
  8
L-ZISSEN
100
AcDbLine
 10
775.8038572218826
 20
-158.1575962025814
 30
0.0
 11
768.8038572218827
 21
-158.1575962025823
 31
0.0
  0
LINE
  5
4A0
330
2
100
AcDbEntity
  8
L-ZISSEN
100
AcDbLine
 10
769.6038572218829
 20
-149.6575962025841
 30
0.0
 11
769.6038572218819
 21
-158.1575962025823
 31
0.0
  0
LINE
  5
4A1
330
2
100
AcDbEntity
  8
L-ZISSEN
100
AcDbLine
 10
760.183107221884
 20
-154.941846202582
 30
0.0
 11
757.3038572218836
 21
-159.7405962025818
 31
0.0
  0
LINE
  5
4A2
330
2
100
AcDbEntity
  8
L-ZISSEN
100
AcDbLine
 10
768.1010447218802
 20
-144.9575962025829
 30
0.0
 11
768.1010447218802
 21
-168.3783462025826
 31
0.0
  0
LINE
  5
4A3
330
2
100
AcDbEntity
  8
L-ZISSEN
100
AcDbLine
 10
767.3812322218802
 20
-144.9575962025829
 30
0.0
 11
767.3812322218802
 21
-163.0997212025827
 31
0.0
  0
LINE
  5
4A4
330
2
100
AcDbEntity
  8
L-ZISSEN
100
AcDbLine
 10
757.3038572218822
 20
-165.1775202616818
 30
0.0
 11
766.451758982808
 21
-163.8706771529782
 31
0.0
  0
LINE
  5
4A5
330
2
100
AcDbEntity
  8
L-ZISSEN
100
AcDbLine
 10
757.3038572218822
 20
-164.5393462025826
 30
0.0
 11
767.3812322218802
 21
-163.0997212025827
 31
0.0
  0
LINE
  5
4A6
330
2
100
AcDbEntity
  8
L-ZISSEN
100
AcDbLine
 10
757.3038572218822
 20
-164.5393462025826
 30
0.0
 11
757.3038572218822
 21
-165.1775202616818
 31
0.0
  0
LINE
  5
4A7
330
2
100
AcDbEntity
  8
L-ZISSEN
100
AcDbLine
 10
768.1010447218802
 20
-168.3783462025826
 30
0.0
 11
766.451758982808
 21
-167.3740833899628
 31
0.0
  0
LINE
  5
4A8
330
2
100
AcDbEntity
  8
L-ZISSEN
100
AcDbLine
 10
766.451758982808
 20
-163.2325030938791
 30
0.0
 11
767.3812322218802
 21
-163.0997212025827
 31
0.0
  0
LINE
  5
4A9
330
2
100
AcDbEntity
  8
L-ZISSEN
100
AcDbLine
 10
766.451758982808
 20
-163.8706771529782
 30
0.0
 11
766.451758982808
 21
-167.3740833899628
 31
0.0
  0
LINE
  5
4AA
330
2
100
AcDbEntity
  8
L-ZISSEN
100
AcDbLine
 10
766.451758982808
 20
-163.8706771529782
 30
0.0
 11
767.3812322218802
 21
-163.0997212025827
 31
0.0
  0
LINE
  5
4AB
330
2
100
AcDbEntity
  8
L-ZISSEN
100
AcDbLine
 10
769.6038572218819
 20
-158.1575962025823
 30
0.0
 11
768.3038572218817
 21
-158.1575962025832
 31
0.0
  0
LINE
  5
4AC
330
2
100
AcDbEntity
  8
L-ZISSEN
100
AcDbLine
 10
769.6038572218819
 20
-158.1575962025823
 30
0.0
 11
768.3038572218817
 21
-158.1575962025823
 31
0.0
  0
LINE
  5
4AD
330
2
100
AcDbEntity
  8
L-ZISSEN
100
AcDbLine
 10
759.7032322218822
 20
-149.1833462025821
 30
0.0
 11
763.5422322218821
 21
-149.1833462025821
 31
0.0
  0
LINE
  5
4AE
330
2
100
AcDbEntity
  8
L-ZISSEN
100
AcDbLine
 10
759.7032322218822
 20
-149.1833462025821
 30
0.0
 11
763.5422322218821
 21
-149.1833462025821
 31
0.0
  0
LINE
  5
4AF
330
2
100
AcDbEntity
  8
L-ZISSEN
100
AcDbLine
 10
759.7032322218822
 20
-150.1430962025821
 30
0.0
 11
763.5422322218821
 21
-150.1430962025821
 31
0.0
  0
LINE
  5
4B0
330
2
100
AcDbEntity
  8
L-ZISSEN
100
AcDbLine
 10
759.7032322218822
 20
-150.1430962025821
 30
0.0
 11
763.5422322218821
 21
-150.1430962025821
 31
0.0
  0
LINE
  5
4B1
330
2
100
AcDbEntity
  8
L-ZISSEN
100
AcDbLine
 10
758.2636072218836
 20
-147.2638462025821
 30
0.0
 11
756.3441072218836
 21
-147.2638462025821
 31
0.0
  0
LINE
  5
4B2
330
2
100
AcDbEntity
  8
L-ZISSEN
100
AcDbLine
 10
758.2636072218836
 20
-154.941846202582
 30
0.0
 11
760.183107221884
 21
-154.941846202582
 31
0.0
  0
LINE
  5
4B3
330
2
100
AcDbEntity
  8
L-ZISSEN
100
AcDbLine
 10
759.7032322218822
 20
-149.1833462025821
 30
0.0
 11
759.7032322218822
 21
-150.1430962025821
 31
0.0
  0
LINE
  5
4B4
330
2
100
AcDbEntity
  8
L-ZISSEN
100
AcDbLine
 10
754.9044822218823
 20
-149.183346202583
 30
0.0
 11
754.9044822218823
 21
-150.143096202583
 31
0.0
  0
LINE
  5
4B5
330
2
100
AcDbEntity
  8
L-ZISSEN
100
AcDbLine
 10
758.2636072218836
 20
-147.2638462025821
 30
0.0
 11
758.2636072218836
 21
-154.941846202582
 31
0.0
  0
LINE
  5
4B6
330
2
100
AcDbEntity
  8
L-ZISSEN
100
AcDbLine
 10
758.2636072218836
 20
-147.2638462025821
 30
0.0
 11
758.2636072218836
 21
-154.941846202582
 31
0.0
  0
LINE
  5
4B7
330
2
100
AcDbEntity
  8
L-ZISSEN
100
AcDbLine
 10
756.3441072218836
 20
-147.2638462025821
 30
0.0
 11
756.3441072218836
 21
-154.941846202582
 31
0.0
  0
LINE
  5
4B8
330
2
100
AcDbEntity
  8
L-ZISSEN
100
AcDbLine
 10
756.3441072218836
 20
-147.2638462025821
 30
0.0
 11
756.3441072218836
 21
-154.941846202582
 31
0.0
  0
LINE
  5
4B9
330
2
100
AcDbEntity
  8
L-ZISSEN
100
AcDbLine
 10
769.3038572218818
 20
-144.6586157022885
 30
0.0
 11
769.3038572218818
 21
-144.9575962025829
 31
0.0
  0
LINE
  5
4BA
330
2
100
AcDbEntity
  8
L-ZISSEN
100
AcDbLine
 10
763.5422322218821
 20
-151.102846202582
 30
0.0
 11
765.9416072218821
 21
-149.6632212025821
 31
0.0
  0
LINE
  5
4BB
330
2
100
AcDbEntity
  8
L-ZISSEN
100
AcDbLine
 10
763.5422322218821
 20
-148.2235962025821
 30
0.0
 11
765.9416072218821
 21
-149.6632212025821
 31
0.0
  0
LINE
  5
4BC
330
2
100
AcDbEntity
  8
L-ZISSEN
100
AcDbLine
 10
763.5422322218821
 20
-150.1430962025821
 30
0.0
 11
763.5422322218821
 21
-151.102846202582
 31
0.0
  0
LINE
  5
4BD
330
2
100
AcDbEntity
  8
L-ZISSEN
100
AcDbLine
 10
763.5422322218821
 20
-149.1833462025821
 30
0.0
 11
763.5422322218821
 21
-148.2235962025821
 31
0.0
  0
LINE
  5
4BE
330
2
100
AcDbEntity
  8
L-ZISSEN
100
AcDbLine
 10
769.6038572218829
 20
-149.6575962025841
 30
0.0
 11
768.3038572218817
 21
-149.6575962025841
 31
0.0
  0
LINE
  5
4BF
330
2
100
AcDbEntity
  8
L-ZISSEN
100
AcDbLine
 10
781.3152116601401
 20
-148.1575962025841
 30
0.0
 11
781.3152116601401
 21
-158.1575962025814
 31
0.0
  0
LINE
  5
4C0
330
2
100
AcDbEntity
  8
L-ZISSEN
100
AcDbLine
 10
775.8038572218826
 20
-148.1575962025823
 30
0.0
 11
775.8038572218826
 21
-158.1575962025814
 31
0.0
  0
LINE
  5
4C1
330
2
100
AcDbEntity
  8
L-ZISSEN
100
AcDbLine
 10
787.4401403373078
 20
-144.658615702289
 30
0.0
 11
787.2598418221094
 21
-158.1575962025832
 31
0.0
  0
LINE
  5
4C2
330
2
100
AcDbEntity
  8
L-ZISSEN
100
AcDbLine
 10
786.5597242833635
 20
-158.1575962025832
 30
0.0
 11
787.2598418221094
 21
-158.1575962025832
 31
0.0
  0
LINE
  5
4C3
330
2
100
AcDbEntity
  8
L-ZISSEN
100
AcDbLine
 10
781.3152116601401
 20
-158.1575962025814
 30
0.0
 11
786.5597242833635
 21
-158.1575962025814
 31
0.0
  0
LINE
  5
4C4
330
2
100
AcDbEntity
  8
L-ZISSEN
100
AcDbLine
 10
775.8038572218818
 20
-148.1575962025823
 30
0.0
 11
781.3152116601401
 21
-148.1575962025841
 31
0.0
  0
TEXT
  5
4C5
330
2
100
AcDbEntity
  8
L-ZISSEN
100
AcDbText
 10
676.7714436744409
 20
-28.40861570228764
 30
0.0
 40
4.5
  1
P.P
100
AcDbText
  0
LINE
  5
4C6
330
2
100
AcDbEntity
  8
L-ZISSEN
100
AcDbLine
 10
703.2350011152459
 20
-37.37824690295849
 30
0.0
 11
689.7714436744409
 21
-26.15861570228764
 31
0.0
  0
LINE
  5
4C7
330
2
100
AcDbEntity
  8
L-ZISSEN
100
AcDbLine
 10
689.7714436744409
 20
-26.15861570228764
 30
0.0
 11
687.7714436744408
 21
-26.15861570228764
 31
0.0
  0
SOLID
  5
4C8
330
2
100
AcDbEntity
  8
L-ZISSEN
100
AcDbTrace
 10
703.0216063153577
 20
-37.6343206628245
 30
0.0
 11
703.4483959151341
 21
-37.12217314309294
 31
0.0
 12
704.7714436744406
 22
-38.65861570228764
 32
0.0
 13
704.7714436744406
 23
-38.65861570228764
 33
0.0
  0
LINE
  5
4C9
330
2
100
AcDbEntity
  8
L-ZISSEN
100
AcDbLine
 10
651.0538572218854
 20
156.9687846388868
 30
0.0
 11
648.5538572218854
 21
156.9687846388868
 31
0.0
  0
LINE
  5
4CA
330
2
100
AcDbEntity
  8
L-ZISSEN
100
AcDbLine
 10
648.5538572218854
 20
156.9687846388868
 30
0.0
 11
652.3038572218854
 21
150.7187846388868
 31
0.0
  0
LINE
  5
4CB
330
2
100
AcDbEntity
  8
L-ZISSEN
100
AcDbLine
 10
652.3038572218831
 20
144.4687846388855
 30
0.0
 11
639.1788572218809
 21
146.3437846388854
 31
0.0
  0
LINE
  5
4CC
330
2
100
AcDbEntity
  8
L-ZISSEN
100
AcDbLine
 10
640.3894240870488
 20
140.776759127841
 30
0.0
 11
652.3038572218831
 21
138.2824011534102
 31
0.0
  0
LINE
  5
4CD
330
2
100
AcDbEntity
  8
L-ZISSEN
100
AcDbLine
 10
652.3038572218831
 20
143.6376123816584
 30
0.0
 11
640.3894240870488
 21
145.3396742580629
 31
0.0
  0
LINE
  5
4CE
330
2
100
AcDbEntity
  8
L-ZISSEN
100
AcDbLine
 10
652.3038572218831
 20
135.7187846388854
 30
0.0
 11
638.2413572218808
 21
139.4687846388855
 31
0.0
  0
LINE
  5
4CF
330
2
100
AcDbEntity
  8
L-ZISSEN
100
AcDbLine
 10
642.3038572218831
 20
38.2187846388864
 30
0.0
 11
662.3038572218831
 21
38.2187846388864
 31
0.0
  0
LINE
  5
4D0
330
2
100
AcDbEntity
  8
L-ZISSEN
100
AcDbLine
 10
642.3038572218831
 20
38.91878463888531
 30
0.0
 11
662.3038572218831
 21
38.91878463888531
 31
0.0
  0
LINE
  5
4D1
330
2
100
AcDbEntity
  8
L-ZISSEN
100
AcDbLine
 10
663.3038572218831
 20
42.41878463888531
 30
0.0
 11
641.3038572218831
 21
42.41878463888531
 31
0.0
  0
LINE
  5
4D2
330
2
100
AcDbEntity
  8
L-ZISSEN
100
AcDbLine
 10
640.3038572218831
 20
51.41878463888622
 30
0.0
 11
664.3038572218832
 21
51.41878463888622
 31
0.0
  0
LINE
  5
4D3
330
2
100
AcDbEntity
  8
L-ZISSEN
100
AcDbLine
 10
640.3038572218831
 20
55.41878463888622
 30
0.0
 11
664.3038572218832
 21
55.41878463888622
 31
0.0
  0
LINE
  5
4D4
330
2
100
AcDbEntity
  8
L-ZISSEN
100
AcDbLine
 10
640.3038572218831
 20
53.91878463888622
 30
0.0
 11
664.3038572218832
 21
53.91878463888622
 31
0.0
  0
LINE
  5
4D5
330
2
100
AcDbEntity
  8
L-ZISSEN
100
AcDbLine
 10
639.4913572218832
 20
130.7187846388854
 30
0.0
 11
665.1163572218831
 21
130.7187846388854
 31
0.0
  0
LINE
  5
4D6
330
2
100
AcDbEntity
  8
L-ZISSEN
100
AcDbLine
 10
490.3038572218831
 20
51.41878463888622
 30
0.0
 11
514.3038572218832
 21
51.41878463888622
 31
0.0
  0
LINE
  5
4D7
330
2
100
AcDbEntity
  8
L-ZISSEN
100
AcDbLine
 10
490.3038572218831
 20
55.41878463888622
 30
0.0
 11
514.3038572218832
 21
55.41878463888622
 31
0.0
  0
LINE
  5
4D8
330
2
100
AcDbEntity
  8
L-ZISSEN
100
AcDbLine
 10
490.3038572218831
 20
53.91878463888622
 30
0.0
 11
514.3038572218832
 21
53.91878463888622
 31
0.0
  0
LINE
  5
4D9
330
2
100
AcDbEntity
  8
L-ZISSEN
100
AcDbLine
 10
492.3038572218831
 20
38.21878463888594
 30
0.0
 11
512.3038572218831
 21
38.21878463888594
 31
0.0
  0
LINE
  5
4DA
330
2
100
AcDbEntity
  8
L-ZISSEN
100
AcDbLine
 10
492.3038572218831
 20
38.91878463888577
 30
0.0
 11
512.3038572218831
 21
38.91878463888577
 31
0.0
  0
LINE
  5
4DB
330
2
100
AcDbEntity
  8
L-ZISSEN
100
AcDbLine
 10
513.3038572218831
 20
42.41878463888577
 30
0.0
 11
491.3038572218831
 21
42.41878463888577
 31
0.0
  0
LINE
  5
4DC
330
2
100
AcDbEntity
  8
L-ZISSEN
100
AcDbLine
 10
485.4538572218837
 20
160.380045727254
 30
0.0
 11
485.4538572218837
 21
77.88004572725538
 31
0.0
  0
LINE
  5
4DD
330
2
100
AcDbEntity
  8
L-ZISSEN
100
AcDbLine
 10
477.0238572218807
 20
160.380045727254
 30
0.0
 11
477.0238572218834
 21
77.8800457272531
 31
0.0
  0
LINE
  5
4DE
330
2
100
AcDbEntity
  8
L-ZISSEN
100
AcDbLine
 10
472.3038572218804
 20
65.37579503207178
 30
0.0
 11
472.3038572218832
 21
170.7187846388864
 31
0.0
  0
LINE
  5
4DF
330
2
100
AcDbEntity
  8
L-ZISSEN
100
AcDbLine
 10
481.2388572218799
 20
75.8800457272531
 30
0.0
 11
477.0238572218807
 21
77.88004572725402
 31
0.0
  0
LINE
  5
4E0
330
2
100
AcDbEntity
  8
L-ZISSEN
100
AcDbLine
 10
485.4538572218814
 20
77.88004572725402
 30
0.0
 11
481.2388572218799
 21
75.8800457272531
 31
0.0
  0
ARC
  5
4E1
330
2
100
AcDbEntity
  8
L-ZISSEN
100
AcDbCircle
 10
480.3038572218804
 20
65.37579503207178
 30
0.0
 40
8.000000000000113
100
AcDbArc
 50
180.0
 51
256.0937629347658
  0
LINE
  5
4E2
330
2
100
AcDbEntity
  8
L-ZISSEN
100
AcDbLine
 10
490.3038572218831
 20
51.41878463888622
 30
0.0
 11
490.3038572218831
 21
55.41878463888622
 31
0.0
  0
LINE
  5
4E3
330
2
100
AcDbEntity
  8
L-ZISSEN
100
AcDbLine
 10
492.3038572218831
 20
38.91878463888577
 30
0.0
 11
492.3038572218831
 21
42.41878463888577
 31
0.0
  0
LINE
  5
4E4
330
2
100
AcDbEntity
  8
L-ZISSEN
100
AcDbLine
 10
491.3038572218831
 20
51.41878463888577
 30
0.0
 11
491.3038572218831
 21
42.41878463888577
 31
0.0
  0
LINE
  5
4E5
330
2
100
AcDbEntity
  8
L-ZISSEN
100
AcDbLine
 10
493.3038572218832
 20
38.21878463888594
 30
0.0
 11
493.3038572218836
 21
38.91878463888577
 31
0.0
  0
ARC
  5
4E6
330
2
100
AcDbEntity
  8
L-ZISSEN
100
AcDbCircle
 10
502.3038572218808
 20
154.2321901575427
 30
0.0
 40
99.53938471878538
100
AcDbArc
 50
256.0937629349483
 51
263.0758486315294
  0
LINE
  5
4E7
330
2
100
AcDbEntity
  8
L-ZISSEN
100
AcDbLine
 10
500.7674146626884
 20
171.9991534382146
 30
0.0
 11
487.3038572218834
 21
183.2187846388855
 31
0.0
  0
LINE
  5
4E8
330
2
100
AcDbEntity
  8
L-ZISSEN
100
AcDbLine
 10
477.0238572218807
 20
160.380045727254
 30
0.0
 11
485.4538572218837
 21
160.380045727254
 31
0.0
  0
SOLID
  5
4E9
330
2
100
AcDbEntity
  8
L-ZISSEN
100
AcDbTrace
 10
500.5540198628002
 20
171.7430796783486
 30
0.0
 11
500.9808094625766
 21
172.2552271980802
 31
0.0
 12
502.3038572218831
 22
170.7187846388855
 32
0.0
 13
502.3038572218831
 23
170.7187846388855
 33
0.0
  0
TEXT
  5
4EA
330
2
100
AcDbEntity
  8
L-ZISSEN
100
AcDbText
 10
474.3038572218834
 20
180.9687846388855
 30
0.0
 40
4.5
  1
P.P
100
AcDbText
  0
LINE
  5
4EB
330
2
100
AcDbEntity
  8
L-ZISSEN
100
AcDbLine
 10
487.3038572218834
 20
183.2187846388855
 30
0.0
 11
485.3038572218833
 21
183.2187846388855
 31
0.0
  0
LINE
  5
4EC
330
2
100
AcDbEntity
  8
L-ZISSEN
100
AcDbLine
 10
635.4538572218837
 20
160.3800457272544
 30
0.0
 11
635.4538572218837
 21
77.88004572725402
 31
0.0
  0
LINE
  5
4ED
330
2
100
AcDbEntity
  8
L-ZISSEN
100
AcDbLine
 10
627.0238572218829
 20
160.3800457272544
 30
0.0
 11
627.0238572218829
 21
77.88004572725402
 31
0.0
  0
LINE
  5
4EE
330
2
100
AcDbEntity
  8
L-ZISSEN
100
AcDbLine
 10
519.1538572218803
 20
160.380045727254
 30
0.0
 11
519.1538572218803
 21
77.8800457272531
 31
0.0
  0
LINE
  5
4EF
330
2
100
AcDbEntity
  8
L-ZISSEN
100
AcDbLine
 10
527.5838572218833
 20
160.380045727254
 30
0.0
 11
527.5838572218806
 21
77.88004572725492
 31
0.0
  0
LINE
  5
4F0
330
2
100
AcDbEntity
  8
L-ZISSEN
100
AcDbLine
 10
622.3038572218832
 20
65.37579503207178
 30
0.0
 11
622.3038572218832
 21
170.7187846388855
 31
0.0
  0
LINE
  5
4F1
330
2
100
AcDbEntity
  8
L-ZISSEN
100
AcDbLine
 10
532.3038572218804
 20
65.37579503207178
 30
0.0
 11
532.3038572218831
 21
170.7187846388864
 31
0.0
  0
LINE
  5
4F2
330
2
100
AcDbEntity
  8
L-ZISSEN
100
AcDbLine
 10
519.1538572218781
 20
77.88004572725402
 30
0.0
 11
523.3688572218818
 21
75.8800457272531
 31
0.0
  0
LINE
  5
4F3
330
2
100
AcDbEntity
  8
L-ZISSEN
100
AcDbLine
 10
523.3688572218818
 20
75.8800457272531
 30
0.0
 11
527.5838572218788
 21
77.88004572725402
 31
0.0
  0
LINE
  5
4F4
330
2
100
AcDbEntity
  8
L-ZISSEN
100
AcDbLine
 10
514.3038572218832
 20
51.41878463888622
 30
0.0
 11
514.3038572218832
 21
55.41878463888622
 31
0.0
  0
LINE
  5
4F5
330
2
100
AcDbEntity
  8
L-ZISSEN
100
AcDbLine
 10
512.3038572218831
 20
38.91878463888577
 30
0.0
 11
512.3038572218834
 21
42.41878463888577
 31
0.0
  0
LINE
  5
4F6
330
2
100
AcDbEntity
  8
L-ZISSEN
100
AcDbLine
 10
511.3038572218836
 20
38.21878463888594
 30
0.0
 11
511.3038572218831
 21
38.91878463888577
 31
0.0
  0
LINE
  5
4F7
330
2
100
AcDbEntity
  8
L-ZISSEN
100
AcDbLine
 10
513.3038572218831
 20
51.41878463888577
 30
0.0
 11
513.3038572218831
 21
42.41878463888577
 31
0.0
  0
ARC
  5
4F8
330
2
100
AcDbEntity
  8
L-ZISSEN
100
AcDbCircle
 10
524.303857221879
 20
65.37579503207178
 30
0.0
 40
8.000000000000113
100
AcDbArc
 50
283.9062370650517
 51
0.0
  0
ARC
  5
4F9
330
2
100
AcDbEntity
  8
L-ZISSEN
100
AcDbCircle
 10
502.3038572218808
 20
154.2321901575427
 30
0.0
 40
99.53938471878515
100
AcDbArc
 50
276.9241513684738
 51
283.9062370650414
  0
LINE
  5
4FA
330
2
100
AcDbEntity
  8
L-ZISSEN
100
AcDbLine
 10
631.2388572218821
 20
75.8800457272531
 30
0.0
 11
627.0238572218829
 21
77.88004572725402
 31
0.0
  0
LINE
  5
4FB
330
2
100
AcDbEntity
  8
L-ZISSEN
100
AcDbLine
 10
635.4538572218837
 20
77.8800457272531
 30
0.0
 11
631.2388572218821
 21
75.8800457272531
 31
0.0
  0
LINE
  5
4FC
330
2
100
AcDbEntity
  8
L-ZISSEN
100
AcDbLine
 10
640.3038572218831
 20
51.41878463888622
 30
0.0
 11
640.3038572218831
 21
55.41878463888622
 31
0.0
  0
LINE
  5
4FD
330
2
100
AcDbEntity
  8
L-ZISSEN
100
AcDbLine
 10
642.3038572218831
 20
38.91878463888531
 30
0.0
 11
642.3038572218831
 21
42.41878463888531
 31
0.0
  0
LINE
  5
4FE
330
2
100
AcDbEntity
  8
L-ZISSEN
100
AcDbLine
 10
643.3038572218832
 20
38.2187846388864
 30
0.0
 11
643.3038572218836
 21
38.91878463888531
 31
0.0
  0
LINE
  5
4FF
330
2
100
AcDbEntity
  8
L-ZISSEN
100
AcDbLine
 10
641.3038572218831
 20
51.41878463888531
 30
0.0
 11
641.3038572218831
 21
42.41878463888531
 31
0.0
  0
ARC
  5
500
330
2
100
AcDbEntity
  8
L-ZISSEN
100
AcDbCircle
 10
652.3038572218808
 20
154.2321901575427
 30
0.0
 40
99.53938471878538
100
AcDbArc
 50
256.0937629349483
 51
263.0758486315294
  0
ARC
  5
501
330
2
100
AcDbEntity
  8
L-ZISSEN
100
AcDbCircle
 10
630.3038572218804
 20
65.37579503207178
 30
0.0
 40
8.000000000000113
100
AcDbArc
 50
180.0
 51
256.0937629347658
  0
LINE
  5
502
330
2
100
AcDbEntity
  8
L-ZISSEN
100
AcDbLine
 10
535.6179525464347
 20
142.8292987368753
 30
0.0
 11
535.6179525464347
 21
170.7187846388855
 31
0.0
  0
LINE
  5
503
330
2
100
AcDbEntity
  8
L-ZISSEN
100
AcDbLine
 10
537.3038572218831
 20
170.7187846388855
 30
0.0
 11
537.3038572218831
 21
149.7187846388864
 31
0.0
  0
LINE
  5
504
330
2
100
AcDbEntity
  8
L-ZISSEN
100
AcDbLine
 10
532.3038572218831
 20
170.7187846388864
 30
0.0
 11
532.3038572218831
 21
129.3947901846871
 31
0.0
  0
LINE
  5
505
330
2
100
AcDbEntity
  8
L-ZISSEN
100
AcDbLine
 10
532.3676945719069
 20
137.5958181242498
 30
0.0
 11
534.1313687156787
 21
145.0757938716936
 31
0.0
  0
LINE
  5
506
330
2
100
AcDbEntity
  8
L-ZISSEN
100
AcDbLine
 10
533.8542784026628
 20
137.2453023534266
 30
0.0
 11
535.6179525464347
 21
144.7252781008704
 31
0.0
  0
LINE
  5
507
330
2
100
AcDbEntity
  8
L-ZISSEN
100
AcDbLine
 10
533.8542784026628
 20
137.2453023534266
 30
0.0
 11
532.3038572218831
 21
137.2453023534266
 31
0.0
  0
LINE
  5
508
330
2
100
AcDbEntity
  8
L-ZISSEN
100
AcDbLine
 10
541.3038572218818
 20
144.7696778505054
 30
0.0
 11
535.8038572218845
 21
142.8292987368753
 31
0.0
  0
LINE
  5
509
330
2
100
AcDbEntity
  8
L-ZISSEN
100
AcDbLine
 10
535.6179525464347
 20
146.9117623418054
 30
0.0
 11
532.3038572218831
 21
146.9117623418054
 31
0.0
  0
LINE
  5
50A
330
2
100
AcDbEntity
  8
L-ZISSEN
100
AcDbLine
 10
535.8038572218845
 20
142.8292987368753
 30
0.0
 11
535.6179525464347
 21
142.8292987368753
 31
0.0
  0
LINE
  5
50B
330
2
100
AcDbEntity
  8
L-ZISSEN
100
AcDbLine
 10
535.6179525464347
 20
144.7252781008704
 30
0.0
 11
535.6179525464347
 21
146.9117623418054
 31
0.0
  0
LINE
  5
50C
330
2
100
AcDbEntity
  8
L-ZISSEN
100
AcDbLine
 10
534.1313687156787
 20
146.9117623418045
 30
0.0
 11
534.1313687156787
 21
145.0757938716936
 31
0.0
  0
LINE
  5
50D
330
2
100
AcDbEntity
  8
L-ZISSEN
100
AcDbLine
 10
537.3038572218831
 20
149.7187846388864
 30
0.0
 11
541.3038572218818
 21
149.0538468331036
 31
0.0
  0
LINE
  5
50E
330
2
100
AcDbEntity
  8
L-ZISSEN
100
AcDbLine
 10
541.3038572218818
 20
149.0538468331036
 30
0.0
 11
541.3038572218818
 21
144.7696778505054
 31
0.0
  0
LINE
  5
50F
330
2
100
AcDbEntity
  8
L-ZISSEN
100
AcDbLine
 10
527.5838572218833
 20
160.380045727254
 30
0.0
 11
519.1538572218803
 21
160.380045727254
 31
0.0
  0
LINE
  5
510
330
2
100
AcDbEntity
  8
L-ZISSEN
100
AcDbLine
 10
638.2413572218808
 20
170.7187846388855
 30
0.0
 11
638.2413572218808
 21
131.9687846388855
 31
0.0
  0
LINE
  5
511
330
2
100
AcDbEntity
  8
L-ZISSEN
100
AcDbLine
 10
638.2413572218808
 20
170.7187846388855
 30
0.0
 11
638.2413572218808
 21
146.9295092717528
 31
0.0
  0
LINE
  5
512
330
2
100
AcDbEntity
  8
L-ZISSEN
100
AcDbLine
 10
639.1788572218809
 20
170.7187846388855
 30
0.0
 11
639.1788572218809
 21
146.3437846388854
 31
0.0
  0
ARC
  5
513
330
2
100
AcDbEntity
  8
L-ZISSEN
100
AcDbCircle
 10
639.4913572218832
 20
131.9687846388855
 30
0.0
 40
1.250000000000568
100
AcDbArc
 50
180.0
 51
270.0
  0
LINE
  5
514
330
2
100
AcDbEntity
  8
L-ZISSEN
100
AcDbLine
 10
642.9288572218831
 20
138.2187846388864
 30
0.0
 11
642.9288572218808
 21
130.7187846388854
 31
0.0
  0
LINE
  5
515
330
2
100
AcDbEntity
  8
L-ZISSEN
100
AcDbLine
 10
638.2413572218808
 20
139.4687846388855
 30
0.0
 11
640.3894240870488
 21
140.776759127841
 31
0.0
  0
LINE
  5
516
330
2
100
AcDbEntity
  8
L-ZISSEN
100
AcDbLine
 10
640.3894240870488
 20
146.1708465152904
 30
0.0
 11
639.1788572218809
 21
146.3437846388854
 31
0.0
  0
LINE
  5
517
330
2
100
AcDbEntity
  8
L-ZISSEN
100
AcDbLine
 10
640.3894240870488
 20
145.3396742580629
 30
0.0
 11
639.1788572218809
 21
146.3437846388854
 31
0.0
  0
LINE
  5
518
330
2
100
AcDbEntity
  8
L-ZISSEN
100
AcDbLine
 10
640.3894240870488
 20
145.3396742580629
 30
0.0
 11
640.3894240870488
 21
140.776759127841
 31
0.0
  0
LINE
  5
519
330
2
100
AcDbEntity
  8
L-ZISSEN
100
AcDbLine
 10
627.0238572218829
 20
160.3800457272544
 30
0.0
 11
635.4538572218837
 21
160.3800457272544
 31
0.0
  0
LINE
  5
51A
330
2
100
AcDbEntity
  8
L-ZISSEN
100
AcDbLine
 10
644.1788572218832
 20
161.9687846388854
 30
0.0
 11
641.0538572218832
 21
163.8437846388854
 31
0.0
  0
LINE
  5
51B
330
2
100
AcDbEntity
  8
L-ZISSEN
100
AcDbLine
 10
649.1788572218831
 20
164.4687846388855
 30
0.0
 11
649.1788572218831
 21
163.2187846388855
 31
0.0
  0
LINE
  5
51C
330
2
100
AcDbEntity
  8
L-ZISSEN
100
AcDbLine
 10
649.1788572218831
 20
163.2187846388855
 30
0.0
 11
644.1788572218832
 21
163.2187846388855
 31
0.0
  0
LINE
  5
51D
330
2
100
AcDbEntity
  8
L-ZISSEN
100
AcDbLine
 10
649.1788572218831
 20
163.2187846388855
 30
0.0
 11
644.1788572218832
 21
163.2187846388855
 31
0.0
  0
LINE
  5
51E
330
2
100
AcDbEntity
  8
L-ZISSEN
100
AcDbLine
 10
644.1788572218832
 20
163.2187846388855
 30
0.0
 11
644.1788572218832
 21
161.9687846388854
 31
0.0
  0
LINE
  5
51F
330
2
100
AcDbEntity
  8
L-ZISSEN
100
AcDbLine
 10
644.1788572218832
 20
165.7187846388854
 30
0.0
 11
641.0538572218832
 21
163.8437846388854
 31
0.0
  0
LINE
  5
520
330
2
100
AcDbEntity
  8
L-ZISSEN
100
AcDbLine
 10
649.1788572218831
 20
164.4687846388855
 30
0.0
 11
644.1788572218832
 21
164.4687846388855
 31
0.0
  0
LINE
  5
521
330
2
100
AcDbEntity
  8
L-ZISSEN
100
AcDbLine
 10
649.1788572218831
 20
164.4687846388855
 30
0.0
 11
644.1788572218832
 21
164.4687846388855
 31
0.0
  0
LINE
  5
522
330
2
100
AcDbEntity
  8
L-ZISSEN
100
AcDbLine
 10
644.1788572218832
 20
164.4687846388855
 30
0.0
 11
644.1788572218832
 21
165.7187846388854
 31
0.0
  0
TEXT
  5
523
330
2
100
AcDbEntity
  8
L-ZISSEN
100
AcDbText
 10
469.2127735231129
 20
320.1365562819901
 30
0.0
 40
4.5
  1
MODEL NO. CJ8- 00-*02*
100
AcDbText
  0
TEXT
  5
524
330
2
100
AcDbEntity
  8
L-ZISSEN
100
AcDbText
 10
529.3327076754945
 20
323.4255300909967
 30
0.0
 40
4.5
  1
6
100
AcDbText
  0
TEXT
  5
525
330
2
100
AcDbEntity
  8
L-ZISSEN
100
AcDbText
 10
529.3327076754945
 20
317.0685118049632
 30
0.0
 40
4.5
  1
8
100
AcDbText
  0
LINE
  5
526
330
2
100
AcDbEntity
  8
L-ZISSEN
100
AcDbLine
 10
677.5838572218833
 20
160.3800457272544
 30
0.0
 11
677.5838572218833
 21
77.8800457272531
 31
0.0
  0
LINE
  5
527
330
2
100
AcDbEntity
  8
L-ZISSEN
100
AcDbLine
 10
669.1538572218826
 20
160.3800457272544
 30
0.0
 11
669.1538572218826
 21
77.8800457272531
 31
0.0
  0
LINE
  5
528
330
2
100
AcDbEntity
  8
L-ZISSEN
100
AcDbLine
 10
682.3038572218804
 20
65.37579503207178
 30
0.0
 11
682.3038572218831
 21
170.7187846388868
 31
0.0
  0
LINE
  5
529
330
2
100
AcDbEntity
  8
L-ZISSEN
100
AcDbLine
 10
669.1538572218826
 20
77.8800457272531
 30
0.0
 11
673.3688572218841
 21
75.8800457272531
 31
0.0
  0
LINE
  5
52A
330
2
100
AcDbEntity
  8
L-ZISSEN
100
AcDbLine
 10
673.3688572218841
 20
75.8800457272531
 30
0.0
 11
677.5838572218833
 21
77.88004572725402
 31
0.0
  0
LINE
  5
52B
330
2
100
AcDbEntity
  8
L-ZISSEN
100
AcDbLine
 10
664.3038572218832
 20
51.41878463888622
 30
0.0
 11
664.3038572218832
 21
55.41878463888622
 31
0.0
  0
LINE
  5
52C
330
2
100
AcDbEntity
  8
L-ZISSEN
100
AcDbLine
 10
662.3038572218831
 20
38.91878463888531
 30
0.0
 11
662.3038572218834
 21
42.41878463888531
 31
0.0
  0
LINE
  5
52D
330
2
100
AcDbEntity
  8
L-ZISSEN
100
AcDbLine
 10
661.3038572218836
 20
38.2187846388864
 30
0.0
 11
661.3038572218831
 21
38.91878463888531
 31
0.0
  0
LINE
  5
52E
330
2
100
AcDbEntity
  8
L-ZISSEN
100
AcDbLine
 10
663.3038572218831
 20
51.41878463888531
 30
0.0
 11
663.3038572218831
 21
42.41878463888531
 31
0.0
  0
ARC
  5
52F
330
2
100
AcDbEntity
  8
L-ZISSEN
100
AcDbCircle
 10
652.3038572218808
 20
154.2321901575427
 30
0.0
 40
99.53938471878515
100
AcDbArc
 50
276.9241513684738
 51
283.9062370650414
  0
ARC
  5
530
330
2
100
AcDbEntity
  8
L-ZISSEN
100
AcDbCircle
 10
674.303857221879
 20
65.37579503207178
 30
0.0
 40
8.000000000000113
100
AcDbArc
 50
283.9062370650517
 51
0.0
  0
LINE
  5
531
330
2
100
AcDbEntity
  8
L-ZISSEN
100
AcDbLine
 10
666.3663572218808
 20
170.7187846388855
 30
0.0
 11
666.3663572218808
 21
131.9687846388855
 31
0.0
  0
LINE
  5
532
330
2
100
AcDbEntity
  8
L-ZISSEN
100
AcDbLine
 10
666.3663572218808
 20
170.7187846388855
 30
0.0
 11
666.3663572218808
 21
146.9295092717528
 31
0.0
  0
LINE
  5
533
330
2
100
AcDbEntity
  8
L-ZISSEN
100
AcDbLine
 10
665.4288572218809
 20
170.7187846388855
 30
0.0
 11
665.4288572218809
 21
146.3437846388854
 31
0.0
  0
LINE
  5
534
330
2
100
AcDbEntity
  8
L-ZISSEN
100
AcDbLine
 10
656.0538572218854
 20
156.9687846388868
 30
0.0
 11
652.3038572218854
 21
150.7187846388868
 31
0.0
  0
LINE
  5
535
330
2
100
AcDbEntity
  8
L-ZISSEN
100
AcDbLine
 10
652.3038572218831
 20
135.7187846388854
 30
0.0
 11
666.3663572218808
 21
139.4687846388855
 31
0.0
  0
LINE
  5
536
330
2
100
AcDbEntity
  8
L-ZISSEN
100
AcDbLine
 10
664.2182903567174
 20
140.776759127841
 30
0.0
 11
652.3038572218831
 21
138.2824011534102
 31
0.0
  0
LINE
  5
537
330
2
100
AcDbEntity
  8
L-ZISSEN
100
AcDbLine
 10
652.3038572218831
 20
135.7187846388854
 30
0.0
 11
652.3038572218831
 21
138.2824011534102
 31
0.0
  0
LINE
  5
538
330
2
100
AcDbEntity
  8
L-ZISSEN
100
AcDbLine
 10
653.5538572218832
 20
136.0521179722194
 30
0.0
 11
653.5538572218832
 21
134.4687846388854
 31
0.0
  0
LINE
  5
539
330
2
100
AcDbEntity
  8
L-ZISSEN
100
AcDbLine
 10
651.0538572218808
 20
136.0521179722198
 30
0.0
 11
651.0538572218831
 21
134.4687846388854
 31
0.0
  0
ARC
  5
53A
330
2
100
AcDbEntity
  8
L-ZISSEN
100
AcDbCircle
 10
652.3038572218831
 20
134.4687846388854
 30
0.0
 40
1.250000000000568
100
AcDbArc
 50
180.0
 51
0.0
  0
LINE
  5
53B
330
2
100
AcDbEntity
  8
L-ZISSEN
100
AcDbLine
 10
661.6788572218808
 20
138.2187846388855
 30
0.0
 11
661.6788572218808
 21
130.7187846388854
 31
0.0
  0
ARC
  5
53C
330
2
100
AcDbEntity
  8
L-ZISSEN
100
AcDbCircle
 10
665.1163572218831
 20
131.9687846388855
 30
0.0
 40
1.249999999999715
100
AcDbArc
 50
270.0
 51
0.0
  0
LINE
  5
53D
330
2
100
AcDbEntity
  8
L-ZISSEN
100
AcDbLine
 10
652.3038572218831
 20
144.4687846388855
 30
0.0
 11
665.4288572218809
 21
146.3437846388854
 31
0.0
  0
LINE
  5
53E
330
2
100
AcDbEntity
  8
L-ZISSEN
100
AcDbLine
 10
652.3038572218831
 20
143.6376123816584
 30
0.0
 11
664.2182903567174
 21
145.3396742580629
 31
0.0
  0
LINE
  5
53F
330
2
100
AcDbEntity
  8
L-ZISSEN
100
AcDbLine
 10
652.3038572218831
 20
144.4687846388855
 30
0.0
 11
652.3038572218831
 21
143.6376123816584
 31
0.0
  0
CIRCLE
  5
540
330
2
100
AcDbEntity
  8
L-ZISSEN
100
AcDbCircle
 10
652.3038572218831
 20
140.7223299377123
 30
0.0
 40
1.25
  0
LINE
  5
541
330
2
100
AcDbEntity
  8
L-TYUSIN
100
AcDbLine
 10
650.1170636593281
 20
140.7223299377123
 30
0.0
 11
654.3118436342399
 21
140.7223299377123
 31
0.0
  0
LINE
  5
542
330
2
100
AcDbEntity
  8
L-ZISSEN
100
AcDbLine
 10
664.2182903567174
 20
145.3396742580629
 30
0.0
 11
665.4288572218809
 21
146.3437846388854
 31
0.0
  0
LINE
  5
543
330
2
100
AcDbEntity
  8
L-ZISSEN
100
AcDbLine
 10
664.2182903567174
 20
146.1708465152904
 30
0.0
 11
665.4288572218809
 21
146.3437846388854
 31
0.0
  0
LINE
  5
544
330
2
100
AcDbEntity
  8
L-ZISSEN
100
AcDbLine
 10
666.3663572218808
 20
139.4687846388855
 30
0.0
 11
664.2182903567174
 21
140.776759127841
 31
0.0
  0
LINE
  5
545
330
2
100
AcDbEntity
  8
L-ZISSEN
100
AcDbLine
 10
664.2182903567174
 20
145.3396742580629
 30
0.0
 11
664.2182903567174
 21
140.776759127841
 31
0.0
  0
LINE
  5
546
330
2
100
AcDbEntity
  8
L-ZISSEN
100
AcDbLine
 10
655.4288572218831
 20
164.4687846388864
 30
0.0
 11
655.4288572218831
 21
163.2187846388864
 31
0.0
  0
LINE
  5
547
330
2
100
AcDbEntity
  8
L-ZISSEN
100
AcDbLine
 10
660.4288572218831
 20
161.9687846388863
 30
0.0
 11
663.5538572218831
 21
163.8437846388864
 31
0.0
  0
LINE
  5
548
330
2
100
AcDbEntity
  8
L-ZISSEN
100
AcDbLine
 10
653.5538572218854
 20
166.9687846388868
 30
0.0
 11
653.5538572218854
 21
156.9687846388868
 31
0.0
  0
LINE
  5
549
330
2
100
AcDbEntity
  8
L-ZISSEN
100
AcDbLine
 10
653.5538572218854
 20
166.9687846388868
 30
0.0
 11
653.5538572218854
 21
156.9687846388868
 31
0.0
  0
LINE
  5
54A
330
2
100
AcDbEntity
  8
L-ZISSEN
100
AcDbLine
 10
651.0538572218854
 20
166.9687846388868
 30
0.0
 11
651.0538572218854
 21
156.9687846388868
 31
0.0
  0
LINE
  5
54B
330
2
100
AcDbEntity
  8
L-ZISSEN
100
AcDbLine
 10
651.0538572218854
 20
166.9687846388868
 30
0.0
 11
651.0538572218854
 21
156.9687846388868
 31
0.0
  0
LINE
  5
54C
330
2
100
AcDbEntity
  8
L-ZISSEN
100
AcDbLine
 10
655.4288572218831
 20
163.2187846388864
 30
0.0
 11
660.4288572218831
 21
163.2187846388864
 31
0.0
  0
LINE
  5
54D
330
2
100
AcDbEntity
  8
L-ZISSEN
100
AcDbLine
 10
655.4288572218831
 20
163.2187846388864
 30
0.0
 11
660.4288572218831
 21
163.2187846388864
 31
0.0
  0
LINE
  5
54E
330
2
100
AcDbEntity
  8
L-ZISSEN
100
AcDbLine
 10
653.5538572218854
 20
156.9687846388868
 30
0.0
 11
656.0538572218854
 21
156.9687846388868
 31
0.0
  0
LINE
  5
54F
330
2
100
AcDbEntity
  8
L-ZISSEN
100
AcDbLine
 10
660.4288572218831
 20
163.2187846388864
 30
0.0
 11
660.4288572218831
 21
161.9687846388863
 31
0.0
  0
LINE
  5
550
330
2
100
AcDbEntity
  8
L-ZISSEN
100
AcDbLine
 10
655.4288572218831
 20
164.4687846388864
 30
0.0
 11
660.4288572218831
 21
164.4687846388864
 31
0.0
  0
LINE
  5
551
330
2
100
AcDbEntity
  8
L-ZISSEN
100
AcDbLine
 10
655.4288572218831
 20
164.4687846388864
 30
0.0
 11
660.4288572218831
 21
164.4687846388864
 31
0.0
  0
LINE
  5
552
330
2
100
AcDbEntity
  8
L-ZISSEN
100
AcDbLine
 10
653.5538572218854
 20
166.9687846388868
 30
0.0
 11
651.0538572218854
 21
166.9687846388868
 31
0.0
  0
LINE
  5
553
330
2
100
AcDbEntity
  8
L-ZISSEN
100
AcDbLine
 10
660.4288572218831
 20
164.4687846388864
 30
0.0
 11
660.4288572218831
 21
165.7187846388864
 31
0.0
  0
LINE
  5
554
330
2
100
AcDbEntity
  8
L-ZISSEN
100
AcDbLine
 10
660.4288572218831
 20
165.7187846388864
 30
0.0
 11
663.5538572218831
 21
163.8437846388864
 31
0.0
  0
LINE
  5
555
330
2
100
AcDbEntity
  8
L-ZISSEN
100
AcDbLine
 10
677.5838572218833
 20
160.3800457272544
 30
0.0
 11
669.1538572218826
 21
160.3800457272544
 31
0.0
  0
TEXT
  5
556
330
2
100
AcDbEntity
  8
L-ZISSEN
100
AcDbText
 10
676.804987584245
 20
286.9687846388875
 30
0.0
 40
4.5
  1
P.P
100
AcDbText
  0
LINE
  5
557
330
2
100
AcDbEntity
  8
L-ZISSEN
100
AcDbLine
 10
703.2685450250501
 20
277.9991534382166
 30
0.0
 11
689.804987584245
 21
289.2187846388875
 31
0.0
  0
LINE
  5
558
330
2
100
AcDbEntity
  8
L-ZISSEN
100
AcDbLine
 10
689.804987584245
 20
289.2187846388875
 30
0.0
 11
687.804987584245
 21
289.2187846388875
 31
0.0
  0
SOLID
  5
559
330
2
100
AcDbEntity
  8
L-ZISSEN
100
AcDbTrace
 10
703.0551502251618
 20
277.7430796783507
 30
0.0
 11
703.4819398249383
 21
278.2552271980822
 31
0.0
 12
704.8049875842448
 22
276.7187846388875
 32
0.0
 13
704.8049875842448
 23
276.7187846388875
 33
0.0
  0
ENDSEC
  0
SECTION
  2
OBJECTS
  0
DICTIONARY
  5
A
330
0
100
AcDbDictionary
  3
ACAD_GROUP
350
25
  3
ACAD_LAYOUT
350
E
  3
ACAD_MLINESTYLE
350
26
  3
ACAD_PLOTSETTINGS
350
27
1001
ACAD
1000
TREAT_AS_HARD
1070
     0
1000
TREAT_AS_HARD
1070
     0
  0
DICTIONARY
  5
16
330
15
100
AcDbDictionary
  3
ACAD_LAYERSTATES
350
17
1001
ACAD
1000
TREAT_AS_HARD
1070
     1
1000
TREAT_AS_HARD
1070
     1
  0
DICTIONARY
  5
3
330
2
100
AcDbDictionary
  3
ACAD_LAYOUTSELFREF
350
561
1001
ACAD
1000
TREAT_AS_HARD
1070
     1
1000
TREAT_AS_HARD
1070
     1
  0
DICTIONARY
  5
10
330
F
100
AcDbDictionary
  3
ACAD_LAYOUTSELFREF
350
562
1001
ACAD
1000
TREAT_AS_HARD
1070
     1
1000
TREAT_AS_HARD
1070
     1
  0
DICTIONARY
  5
25
102
{ACAD_REACTORS
330
A
102
}
330
A
100
AcDbDictionary
1001
ACAD
1000
TREAT_AS_HARD
1070
     0
1000
TREAT_AS_HARD
1070
     0
  0
DICTIONARY
  5
E
102
{ACAD_REACTORS
330
A
102
}
330
A
100
AcDbDictionary
1001
ACAD
1000
TREAT_AS_HARD
1070
     0
1000
TREAT_AS_HARD
1070
     0
  0
DICTIONARY
  5
26
102
{ACAD_REACTORS
330
A
102
}
330
A
100
AcDbDictionary
  3
STANDARD
350
2B
1001
ACAD
1000
TREAT_AS_HARD
1070
     0
1000
TREAT_AS_HARD
1070
     0
  0
DICTIONARY
  5
27
102
{ACAD_REACTORS
330
A
102
}
330
A
100
AcDbDictionary
1001
ACAD
1000
TREAT_AS_HARD
1070
     0
1000
TREAT_AS_HARD
1070
     0
  0
DICTIONARY
  5
17
102
{ACAD_REACTORS
330
16
102
}
330
16
100
AcDbDictionary
1001
ACAD
1000
TREAT_AS_HARD
1070
     0
1000
TREAT_AS_HARD
1070
     0
  0
XRECORD
  5
561
102
{ACAD_REACTORS
330
3
102
}
330
3
100
AcDbXrecord
340
2
  0
XRECORD
  5
562
102
{ACAD_REACTORS
330
10
102
}
330
10
100
AcDbXrecord
340
F
  0
MLINESTYLE
  5
2B
102
{ACAD_REACTORS
330
26
102
}
330
26
100
AcDbMlineStyle
  2
STANDARD
 70
     0
  3

 62
     0
 51
90.0
 52
90.0
 71
     2
 49
0.5
 62
   256
  6
BYLAYER
 49
-0.5
 62
   256
  6
BYLAYER
  0
ENDSEC
  0
EOF
