  0
SECTION
  2
HEADER
  9
$ACADVER
  1
AC1015
  9
$ACADMAINTVER
 70
    10
  9
$DWGCODEPAGE
  3
ANSI_932
  9
$INSBASE
 10
0.0
 20
0.0
 30
0.0
  9
$EXTMIN
 10
-59.89463512603174
 20
-153.0000000000027
 30
0.0
  9
$EXTMAX
 10
723.1214006969052
 20
315.5247414839159
 30
0.0
  9
$LIMMIN
 10
0.0
 20
0.0
  9
$LIMMAX
 10
297.0
 20
210.0
  9
$ORTHOMODE
 70
     1
  9
$REGENMODE
 70
     1
  9
$FILLMODE
 70
     1
  9
$QTEXTMODE
 70
     0
  9
$MIRRTEXT
 70
     1
  9
$LTSCALE
 40
1.0
  9
$ATTMODE
 70
     1
  9
$TEXTSIZE
 40
5.599999999999999
  9
$TRACEWID
 40
0.05
  9
$TEXTSTYLE
  7
Standard
  9
$CLAYER
  8
L-TYUSIN
  9
$CELTYPE
  6
ByLayer
  9
$CECOLOR
 62
   256
  9
$CELTSCALE
 40
1.0
  9
$DISPSILH
 70
     0
  9
$DIMSCALE
 40
2.0
  9
$DIMASZ
 40
2.0
  9
$DIMEXO
 40
1.0
  9
$DIMDLI
 40
8.0
  9
$DIMRND
 40
0.0
  9
$DIMDLE
 40
0.0
  9
$DIMEXE
 40
0.8
  9
$DIMTP
 40
0.0
  9
$DIMTM
 40
0.0
  9
$DIMTXT
 40
2.799999999999999
  9
$DIMCEN
 40
0.0
  9
$DIMTSZ
 40
0.0
  9
$DIMTOL
 70
     0
  9
$DIMLIM
 70
     0
  9
$DIMTIH
 70
     0
  9
$DIMTOH
 70
     0
  9
$DIMSE1
 70
     0
  9
$DIMSE2
 70
     0
  9
$DIMTAD
 70
     0
  9
$DIMZIN
 70
    12
  9
$DIMBLK
  1

  9
$DIMASO
 70
     1
  9
$DIMSHO
 70
     0
  9
$DIMPOST
  1

  9
$DIMAPOST
  1

  9
$DIMALT
 70
     0
  9
$DIMALTD
 70
     2
  9
$DIMALTF
 40
25.4
  9
$DIMLFAC
 40
1.0
  9
$DIMTOFL
 70
     1
  9
$DIMTVP
 40
1.0
  9
$DIMTIX
 70
     1
  9
$DIMSOXD
 70
     0
  9
$DIMSAH
 70
     0
  9
$DIMBLK1
  1

  9
$DIMBLK2
  1

  9
$DIMSTYLE
  2
Standard
  9
$DIMCLRD
 70
     0
  9
$DIMCLRE
 70
     0
  9
$DIMCLRT
 70
     0
  9
$DIMTFAC
 40
1.0
  9
$DIMGAP
 40
0.8
  9
$DIMJUST
 70
     0
  9
$DIMSD1
 70
     0
  9
$DIMSD2
 70
     0
  9
$DIMTOLJ
 70
     1
  9
$DIMTZIN
 70
     0
  9
$DIMALTZ
 70
     0
  9
$DIMALTTZ
 70
     0
  9
$DIMUPT
 70
     0
  9
$DIMDEC
 70
     8
  9
$DIMTDEC
 70
     8
  9
$DIMALTU
 70
     2
  9
$DIMALTTD
 70
     2
  9
$DIMTXSTY
  7
Standard
  9
$DIMAUNIT
 70
     0
  9
$DIMADEC
 70
     0
  9
$DIMALTRND
 40
0.0
  9
$DIMAZIN
 70
     0
  9
$DIMDSEP
 70
    46
  9
$DIMATFIT
 70
     3
  9
$DIMFRAC
 70
     0
  9
$DIMLDRBLK
  1

  9
$DIMLUNIT
 70
     2
  9
$DIMLWD
 70
    -2
  9
$DIMLWE
 70
    -2
  9
$DIMTMOVE
 70
     0
  9
$LUNITS
 70
     2
  9
$LUPREC
 70
     4
  9
$SKETCHINC
 40
0.1
  9
$FILLETRAD
 40
1.5
  9
$AUNITS
 70
     0
  9
$AUPREC
 70
     0
  9
$MENU
  1
.
  9
$ELEVATION
 40
0.0
  9
$PELEVATION
 40
0.0
  9
$THICKNESS
 40
0.0
  9
$LIMCHECK
 70
     0
  9
$CHAMFERA
 40
3.0
  9
$CHAMFERB
 40
3.0
  9
$CHAMFERC
 40
0.0
  9
$CHAMFERD
 40
0.0
  9
$SKPOLY
 70
     0
  9
$TDCREATE
 40
2453354.092125822
  9
$TDUCREATE
 40
2453353.717125822
  9
$TDUPDATE
 40
2455072.572907801
  9
$TDUUPDATE
 40
2455072.197907800
  9
$TDINDWG
 40
11.5425628588
  9
$TDUSRTIMER
 40
11.5425628588
  9
$USRTIMER
 70
     1
  9
$ANGBASE
 50
0.0
  9
$ANGDIR
 70
     0
  9
$PDMODE
 70
     0
  9
$PDSIZE
 40
0.0
  9
$PLINEWID
 40
0.0
  9
$SPLFRAME
 70
     0
  9
$SPLINETYPE
 70
     6
  9
$SPLINESEGS
 70
     8
  9
$HANDSEED
  5
58C
  9
$SURFTAB1
 70
     6
  9
$SURFTAB2
 70
     6
  9
$SURFTYPE
 70
     6
  9
$SURFU
 70
     6
  9
$SURFV
 70
     6
  9
$UCSBASE
  2

  9
$UCSNAME
  2

  9
$UCSORG
 10
0.0
 20
0.0
 30
0.0
  9
$UCSXDIR
 10
1.0
 20
0.0
 30
0.0
  9
$UCSYDIR
 10
0.0
 20
1.0
 30
0.0
  9
$UCSORTHOREF
  2

  9
$UCSORTHOVIEW
 70
     0
  9
$UCSORGTOP
 10
0.0
 20
0.0
 30
0.0
  9
$UCSORGBOTTOM
 10
0.0
 20
0.0
 30
0.0
  9
$UCSORGLEFT
 10
0.0
 20
0.0
 30
0.0
  9
$UCSORGRIGHT
 10
0.0
 20
0.0
 30
0.0
  9
$UCSORGFRONT
 10
0.0
 20
0.0
 30
0.0
  9
$UCSORGBACK
 10
0.0
 20
0.0
 30
0.0
  9
$PUCSBASE
  2

  9
$PUCSNAME
  2

  9
$PUCSORG
 10
0.0
 20
0.0
 30
0.0
  9
$PUCSXDIR
 10
1.0
 20
0.0
 30
0.0
  9
$PUCSYDIR
 10
0.0
 20
1.0
 30
0.0
  9
$PUCSORTHOREF
  2

  9
$PUCSORTHOVIEW
 70
     0
  9
$PUCSORGTOP
 10
0.0
 20
0.0
 30
0.0
  9
$PUCSORGBOTTOM
 10
0.0
 20
0.0
 30
0.0
  9
$PUCSORGLEFT
 10
0.0
 20
0.0
 30
0.0
  9
$PUCSORGRIGHT
 10
0.0
 20
0.0
 30
0.0
  9
$PUCSORGFRONT
 10
0.0
 20
0.0
 30
0.0
  9
$PUCSORGBACK
 10
0.0
 20
0.0
 30
0.0
  9
$USERI1
 70
     0
  9
$USERI2
 70
     0
  9
$USERI3
 70
     0
  9
$USERI4
 70
     0
  9
$USERI5
 70
     0
  9
$USERR1
 40
0.0
  9
$USERR2
 40
0.0
  9
$USERR3
 40
0.0
  9
$USERR4
 40
0.0
  9
$USERR5
 40
0.0
  9
$WORLDVIEW
 70
     1
  9
$SHADEDGE
 70
     3
  9
$SHADEDIF
 70
    70
  9
$TILEMODE
 70
     1
  9
$MAXACTVP
 70
    48
  9
$PINSBASE
 10
0.0
 20
0.0
 30
0.0
  9
$PLIMCHECK
 70
     0
  9
$PEXTMIN
 10
0.0
 20
0.0
 30
0.0
  9
$PEXTMAX
 10
0.0
 20
0.0
 30
0.0
  9
$PLIMMIN
 10
0.0
 20
0.0
  9
$PLIMMAX
 10
0.0
 20
0.0
  9
$UNITMODE
 70
     0
  9
$VISRETAIN
 70
     0
  9
$PLINEGEN
 70
     0
  9
$PSLTSCALE
 70
     0
  9
$TREEDEPTH
 70
  3020
  9
$CMLSTYLE
  2
Standard
  9
$CMLJUST
 70
     0
  9
$CMLSCALE
 40
1.0
  9
$PROXYGRAPHICS
 70
     1
  9
$MEASUREMENT
 70
     0
  9
$CELWEIGHT
370
    -1
  9
$ENDCAPS
280
     0
  9
$JOINSTYLE
280
     0
  9
$LWDISPLAY
290
     0
  9
$INSUNITS
 70
     0
  9
$HYPERLINKBASE
  1

  9
$STYLESHEET
  1

  9
$XEDIT
290
     1
  9
$CEPSNTYPE
380
     0
  9
$PSTYLEMODE
290
     1
  9
$FINGERPRINTGUID
  2
{AC839073-C3E0-4461-83B0-A9ED845898AE}
  9
$VERSIONGUID
  2
{92DB1EC4-CFC2-4509-9D3F-9D46129B6F21}
  9
$EXTNAMES
290
     1
  9
$PSVPSCALE
 40
0.0
  9
$OLESTARTUP
290
     0
  0
ENDSEC
  0
SECTION
  2
CLASSES
  0
CLASS
  1
ACDBDICTIONARYWDFLT
  2
AcDbDictionaryWithDefault
  3
AutoCAD 2000
 90
        0
280
     0
281
     0
  0
CLASS
  1
ACDBPLACEHOLDER
  2
AcDbPlaceHolder
  3
AutoCAD 2000
 90
        0
280
     0
281
     0
  0
CLASS
  1
LAYOUT
  2
AcDbLayout
  3
AutoCAD 2000
 90
        0
280
     0
281
     0
  0
CLASS
  1
DICTIONARYVAR
  2
AcDbDictionaryVar
  3
AutoCAD 2000
 90
    32768
280
     0
281
     0
  0
CLASS
  1
TABLESTYLE
  2
AcDbTableStyle
  3
ObjectDBX Classes
 90
    34815
280
     1
281
     0
  0
CLASS
  1
ACAD_PROXY_OBJECT_WRAPPER
  2
AcDbProxyObjectWrapper
  3
AutoCAD 2000
 90
    32768
280
     0
281
     0
  0
CLASS
  1
LONG_TRANSACTION
  2
AcDbLongTransaction
  3
AutoCAD 2000
 90
    32768
280
     0
281
     0
  0
CLASS
  1
LWPOLYLINE
  2
AcDbPolyline
  3
AutoCAD 2000
 90
    32768
280
     0
281
     1
  0
CLASS
  1
HATCH
  2
AcDbHatch
  3
AutoCAD 2000
 90
    32768
280
     0
281
     1
  0
CLASS
  1
XRECORD
  2
AcDbXrecord
  3
AutoCAD 2000
 90
    32768
280
     0
281
     0
  0
CLASS
  1
LONG_TRANSACTION
  2
AcDbLongTransaction
  3
AutoCAD 2000
 90
    32768
280
     0
281
     0
  0
CLASS
  1
LWPOLYLINE
  2
AcDbPolyline
  3
AutoCAD 2000
 90
    32768
280
     0
281
     1
  0
CLASS
  1
HATCH
  2
AcDbHatch
  3
AutoCAD 2000
 90
    32768
280
     0
281
     1
  0
CLASS
  1
XRECORD
  2
AcDbXrecord
  3
AutoCAD 2000
 90
    32768
280
     0
281
     0
  0
CLASS
  1
LONG_TRANSACTION
  2
AcDbLongTransaction
  3
AutoCAD 2000
 90
    32768
280
     0
281
     0
  0
CLASS
  1
LWPOLYLINE
  2
AcDbPolyline
  3
AutoCAD 2000
 90
    32768
280
     0
281
     1
  0
CLASS
  1
HATCH
  2
AcDbHatch
  3
AutoCAD 2000
 90
    32768
280
     0
281
     1
  0
CLASS
  1
XRECORD
  2
AcDbXrecord
  3
AutoCAD 2000
 90
    32768
280
     0
281
     0
  0
CLASS
  1
LONG_TRANSACTION
  2
AcDbLongTransaction
  3
AutoCAD 2000
 90
    32768
280
     0
281
     0
  0
CLASS
  1
LWPOLYLINE
  2
AcDbPolyline
  3
AutoCAD 2000
 90
    32768
280
     0
281
     1
  0
CLASS
  1
HATCH
  2
AcDbHatch
  3
AutoCAD 2000
 90
    32768
280
     0
281
     1
  0
CLASS
  1
XRECORD
  2
AcDbXrecord
  3
AutoCAD 2000
 90
    32768
280
     0
281
     0
  0
CLASS
  1
LONG_TRANSACTION
  2
AcDbLongTransaction
  3
AutoCAD 2000
 90
    32768
280
     0
281
     0
  0
CLASS
  1
LWPOLYLINE
  2
AcDbPolyline
  3
AutoCAD 2000
 90
    32768
280
     0
281
     1
  0
CLASS
  1
HATCH
  2
AcDbHatch
  3
AutoCAD 2000
 90
    32768
280
     0
281
     1
  0
CLASS
  1
XRECORD
  2
AcDbXrecord
  3
AutoCAD 2000
 90
    32768
280
     0
281
     0
  0
CLASS
  1
LONG_TRANSACTION
  2
AcDbLongTransaction
  3
AutoCAD 2000
 90
    32768
280
     0
281
     0
  0
CLASS
  1
LWPOLYLINE
  2
AcDbPolyline
  3
AutoCAD 2000
 90
    32768
280
     0
281
     1
  0
CLASS
  1
HATCH
  2
AcDbHatch
  3
AutoCAD 2000
 90
    32768
280
     0
281
     1
  0
CLASS
  1
XRECORD
  2
AcDbXrecord
  3
AutoCAD 2000
 90
    32768
280
     0
281
     0
  0
CLASS
  1
LONG_TRANSACTION
  2
AcDbLongTransaction
  3
AutoCAD 2000
 90
    32768
280
     0
281
     0
  0
CLASS
  1
LWPOLYLINE
  2
AcDbPolyline
  3
AutoCAD 2000
 90
    32768
280
     0
281
     1
  0
CLASS
  1
HATCH
  2
AcDbHatch
  3
AutoCAD 2000
 90
    32768
280
     0
281
     1
  0
CLASS
  1
XRECORD
  2
AcDbXrecord
  3
AutoCAD 2000
 90
    32768
280
     0
281
     0
  0
CLASS
  1
LONG_TRANSACTION
  2
AcDbLongTransaction
  3
AutoCAD 2000
 90
    32768
280
     0
281
     0
  0
CLASS
  1
LWPOLYLINE
  2
AcDbPolyline
  3
AutoCAD 2000
 90
    32768
280
     0
281
     1
  0
CLASS
  1
HATCH
  2
AcDbHatch
  3
AutoCAD 2000
 90
    32768
280
     0
281
     1
  0
CLASS
  1
XRECORD
  2
AcDbXrecord
  3
AutoCAD 2000
 90
    32768
280
     0
281
     0
  0
CLASS
  1
LONG_TRANSACTION
  2
AcDbLongTransaction
  3
AutoCAD 2000
 90
    32768
280
     0
281
     0
  0
CLASS
  1
LWPOLYLINE
  2
AcDbPolyline
  3
AutoCAD 2000
 90
    32768
280
     0
281
     1
  0
CLASS
  1
HATCH
  2
AcDbHatch
  3
AutoCAD 2000
 90
    32768
280
     0
281
     1
  0
CLASS
  1
XRECORD
  2
AcDbXrecord
  3
AutoCAD 2000
 90
    32768
280
     0
281
     0
  0
CLASS
  1
LONG_TRANSACTION
  2
AcDbLongTransaction
  3
AutoCAD 2000
 90
    32768
280
     0
281
     0
  0
CLASS
  1
LWPOLYLINE
  2
AcDbPolyline
  3
AutoCAD 2000
 90
    32768
280
     0
281
     1
  0
CLASS
  1
HATCH
  2
AcDbHatch
  3
AutoCAD 2000
 90
    32768
280
     0
281
     1
  0
CLASS
  1
XRECORD
  2
AcDbXrecord
  3
AutoCAD 2000
 90
    32768
280
     0
281
     0
  0
CLASS
  1
LONG_TRANSACTION
  2
AcDbLongTransaction
  3
AutoCAD 2000
 90
    32768
280
     0
281
     0
  0
CLASS
  1
LWPOLYLINE
  2
AcDbPolyline
  3
AutoCAD 2000
 90
    32768
280
     0
281
     1
  0
CLASS
  1
HATCH
  2
AcDbHatch
  3
AutoCAD 2000
 90
    32768
280
     0
281
     1
  0
CLASS
  1
XRECORD
  2
AcDbXrecord
  3
AutoCAD 2000
 90
    32768
280
     0
281
     0
  0
CLASS
  1
LONG_TRANSACTION
  2
AcDbLongTransaction
  3
AutoCAD 2000
 90
    32768
280
     0
281
     0
  0
CLASS
  1
LWPOLYLINE
  2
AcDbPolyline
  3
AutoCAD 2000
 90
    32768
280
     0
281
     1
  0
CLASS
  1
HATCH
  2
AcDbHatch
  3
AutoCAD 2000
 90
    32768
280
     0
281
     1
  0
CLASS
  1
XRECORD
  2
AcDbXrecord
  3
AutoCAD 2000
 90
    32768
280
     0
281
     0
  0
CLASS
  1
LONG_TRANSACTION
  2
AcDbLongTransaction
  3
AutoCAD 2000
 90
    32768
280
     0
281
     0
  0
CLASS
  1
LWPOLYLINE
  2
AcDbPolyline
  3
AutoCAD 2000
 90
    32768
280
     0
281
     1
  0
CLASS
  1
HATCH
  2
AcDbHatch
  3
AutoCAD 2000
 90
    32768
280
     0
281
     1
  0
CLASS
  1
XRECORD
  2
AcDbXrecord
  3
AutoCAD 2000
 90
    32768
280
     0
281
     0
  0
CLASS
  1
LONG_TRANSACTION
  2
AcDbLongTransaction
  3
AutoCAD 2000
 90
    32768
280
     0
281
     0
  0
CLASS
  1
LWPOLYLINE
  2
AcDbPolyline
  3
AutoCAD 2000
 90
    32768
280
     0
281
     1
  0
CLASS
  1
HATCH
  2
AcDbHatch
  3
AutoCAD 2000
 90
    32768
280
     0
281
     1
  0
CLASS
  1
XRECORD
  2
AcDbXrecord
  3
AutoCAD 2000
 90
    32768
280
     0
281
     0
  0
CLASS
  1
LONG_TRANSACTION
  2
AcDbLongTransaction
  3
AutoCAD 2000
 90
    32768
280
     0
281
     0
  0
CLASS
  1
LWPOLYLINE
  2
AcDbPolyline
  3
AutoCAD 2000
 90
    32768
280
     0
281
     1
  0
CLASS
  1
HATCH
  2
AcDbHatch
  3
AutoCAD 2000
 90
    32768
280
     0
281
     1
  0
CLASS
  1
XRECORD
  2
AcDbXrecord
  3
AutoCAD 2000
 90
    32768
280
     0
281
     0
  0
ENDSEC
  0
SECTION
  2
TABLES
  0
TABLE
  2
VPORT
  5
1E
330
0
100
AcDbSymbolTable
 70
     3
  0
VPORT
  5
58B
330
1E
100
AcDbSymbolTableRecord
100
AcDbViewportTableRecord
  2
*Active
 70
     0
 10
0.0
 20
0.0
 11
1.0
 21
1.0
 12
331.6211480604498
 22
81.25579880114626
 13
0.0
 23
0.0
 14
1.0
 24
1.0
 15
4.0
 25
4.0
 16
0.0
 26
0.0
 36
1.0
 17
0.0
 27
0.0
 37
0.0
 40
489.0019554870449
 41
1.60759493670886
 42
50.0
 43
0.0
 44
0.0
 50
0.0
 51
0.0
 71
    16
 72
   100
 73
     1
 74
     0
 75
     0
 76
     0
 77
     0
 78
     0
281
     0
 65
     0
110
0.0
120
0.0
130
0.0
111
1.0
121
0.0
131
0.0
112
0.0
122
1.0
132
0.0
 79
     0
146
0.0
  0
ENDTAB
  0
TABLE
  2
LTYPE
  5
19
330
0
100
AcDbSymbolTable
 70
     3
  0
LTYPE
  5
1A
330
19
100
AcDbSymbolTableRecord
100
AcDbLinetypeTableRecord
  2
ByBlock
 70
     0
  3

 72
    65
 73
     0
 40
0.0
  0
LTYPE
  5
1B
330
19
100
AcDbSymbolTableRecord
100
AcDbLinetypeTableRecord
  2
ByLayer
 70
     0
  3

 72
    65
 73
     0
 40
0.0
  0
LTYPE
  5
A
330
19
100
AcDbSymbolTableRecord
100
AcDbLinetypeTableRecord
  2
Continuous
 70
     0
  3
Solid line
 72
    65
 73
     0
 40
0.0
  0
LTYPE
  5
28
330
19
100
AcDbSymbolTableRecord
100
AcDbLinetypeTableRecord
  2
CENTER
 70
     0
  3

 72
    65
 73
     4
 40
18.0
 49
15.0
 74
     4
 75
     0
340
0
 46
1.0
 50
0.0
 44
0.0
 45
0.0
 49
-1.0
 74
     4
 75
     0
340
0
 46
1.0
 50
0.0
 44
0.0
 45
0.0
 49
1.0
 74
     4
 75
     0
340
0
 46
1.0
 50
0.0
 44
0.0
 45
0.0
 49
-1.0
 74
     4
 75
     0
340
0
 46
1.0
 50
0.0
 44
0.0
 45
0.0
  0
LTYPE
  5
A2
330
19
100
AcDbSymbolTableRecord
100
AcDbLinetypeTableRecord
  2
PHANTOM
 70
     0
  3
----- - - ----- - - ----- - - ----- - - -----
 72
    65
 73
     6
 40
22.5
 49
15.0
 74
     0
 49
-1.5
 74
     0
 49
1.5
 74
     0
 49
-1.5
 74
     0
 49
1.5
 74
     0
 49
-1.5
 74
     0
  0
ENDTAB
  0
TABLE
  2
LAYER
  5
13
102
{ACAD_XDICTIONARY
360
14
102
}
330
0
100
AcDbSymbolTable
 70
     5
  0
LAYER
  5
5
330
13
100
AcDbSymbolTableRecord
100
AcDbLayerTableRecord
  2
0
 70
     0
 62
     7
  6
Continuous
370
    -3
390
6
  0
LAYER
  5
2B
330
13
100
AcDbSymbolTableRecord
100
AcDbLayerTableRecord
  2
L-ZISSEN
 70
     0
 62
     7
  6
Continuous
370
    -3
390
6
  0
LAYER
  5
27
330
13
100
AcDbSymbolTableRecord
100
AcDbLayerTableRecord
  2
L-TYUSIN
 70
     0
 62
     1
  6
CENTER
370
    -3
390
6
  0
LAYER
  5
6A
330
13
100
AcDbSymbolTableRecord
100
AcDbLayerTableRecord
  2
L-SAISEN
 70
     0
 62
     6
  6
Continuous
370
    -3
390
6
  0
LAYER
  5
A1
330
13
100
AcDbSymbolTableRecord
100
AcDbLayerTableRecord
  2
L-SOUZOU
 70
     0
 62
     2
  6
PHANTOM
370
    -3
390
6
  0
ENDTAB
  0
TABLE
  2
STYLE
  5
16
330
0
100
AcDbSymbolTable
 70
     1
  0
STYLE
  5
17
330
16
100
AcDbSymbolTableRecord
100
AcDbTextStyleTableRecord
  2
Standard
 70
     0
 40
0.0
 41
1.0
 50
0.0
 71
     0
 42
5.599999999999999
  3
txt.shx
  4

  0
ENDTAB
  0
TABLE
  2
VIEW
  5
1C
330
0
100
AcDbSymbolTable
 70
     0
  0
ENDTAB
  0
TABLE
  2
UCS
  5
1D
330
0
100
AcDbSymbolTable
 70
     0
  0
ENDTAB
  0
TABLE
  2
APPID
  5
20
330
0
100
AcDbSymbolTable
 70
     1
  0
APPID
  5
9
330
20
100
AcDbSymbolTableRecord
100
AcDbRegAppTableRecord
  2
ACAD
 70
     0
  0
ENDTAB
  0
TABLE
  2
DIMSTYLE
  5
21
330
0
100
AcDbSymbolTable
 70
     1
100
AcDbDimStyleTable
 71
     0
  0
DIMSTYLE
105
22
330
21
100
AcDbSymbolTableRecord
100
AcDbDimStyleTableRecord
  2
Standard
 70
     0
340
17
  0
ENDTAB
  0
TABLE
  2
BLOCK_RECORD
  5
1
330
0
100
AcDbSymbolTable
 70
     0
  0
BLOCK_RECORD
  5
2
102
{ACAD_XDICTIONARY
360
3
102
}
330
1
100
AcDbSymbolTableRecord
100
AcDbBlockTableRecord
  2
*Model_Space
340
C
  0
BLOCK_RECORD
  5
E
102
{ACAD_XDICTIONARY
360
F
102
}
330
1
100
AcDbSymbolTableRecord
100
AcDbBlockTableRecord
  2
*Paper_Space
340
12
  0
ENDTAB
  0
ENDSEC
  0
SECTION
  2
BLOCKS
  0
BLOCK
  5
4
330
2
100
AcDbEntity
  8
0
100
AcDbBlockBegin
  2
*Model_Space
 70
     0
 10
0.0
 20
0.0
 30
0.0
  3
*Model_Space
  1

  0
ENDBLK
  5
B
330
2
100
AcDbEntity
  8
0
100
AcDbBlockEnd
  0
BLOCK
  5
10
330
E
100
AcDbEntity
 67
     1
  8
0
100
AcDbBlockBegin
  2
*Paper_Space
 70
     0
 10
0.0
 20
0.0
 30
0.0
  3
*Paper_Space
  1

  0
ENDBLK
  5
11
330
E
100
AcDbEntity
 67
     1
  8
0
100
AcDbBlockEnd
  0
ENDSEC
  0
SECTION
  2
ENTITIES
  0
LINE
  5
2A
330
2
100
AcDbEntity
  8
L-ZISSEN
100
AcDbLine
 10
23.99999999999636
 20
112.0999999999994
 30
0.0
 11
24.73912894763953
 21
64.83596368143025
 31
0.0
  0
LINE
  5
2C
330
2
100
AcDbEntity
  8
L-ZISSEN
100
AcDbLine
 10
-24.00000000000364
 20
112.0999999999994
 30
0.0
 11
-24.7391289476468
 21
64.83596368143025
 31
0.0
  0
LINE
  5
2D
330
2
100
AcDbEntity
  8
L-TYUSIN
100
AcDbLine
 10
0.0
 20
-152.999999999999
 30
0.0
 11
0.0
 21
119.5
 31
0.0
  0
ARC
  5
2E
330
2
100
AcDbEntity
  8
L-ZISSEN
100
AcDbCircle
 10
0.0
 20
-21.18870610564681
 30
0.0
 40
67.68870610564736
100
AcDbArc
 50
79.42154710242468
 51
100.5784528975753
  0
ARC
  5
2F
330
2
100
AcDbEntity
  8
L-ZISSEN
100
AcDbCircle
 10
0.0
 20
108.1887061056468
 30
0.0
 40
67.68870610564736
100
AcDbArc
 50
259.4215471024246
 51
280.5784528975753
  0
CIRCLE
  5
30
330
2
100
AcDbEntity
  8
L-ZISSEN
100
AcDbCircle
 10
0.0
 20
0.0
 30
0.0
 40
12.0
  0
LINE
  5
31
330
2
100
AcDbEntity
  8
L-ZISSEN
100
AcDbLine
 10
6.000000000000454
 20
-132.859551200564
 30
0.0
 11
-8.999999999999545
 21
-132.859551200564
 31
0.0
  0
LINE
  5
32
330
2
100
AcDbEntity
  8
L-ZISSEN
100
AcDbLine
 10
6.000000000000454
 20
-132.859551200564
 30
0.0
 11
-8.999999999999545
 21
-132.859551200564
 31
0.0
  0
LINE
  5
33
330
2
100
AcDbEntity
  8
L-ZISSEN
100
AcDbLine
 10
-6.85923419779192
 20
-132.999999999999
 30
0.0
 11
6.000000000000454
 21
-132.999999999999
 31
0.0
  0
ARC
  5
34
330
2
100
AcDbEntity
  8
L-ZISSEN
100
AcDbCircle
 10
0.0000000000013642
 20
-153.641062673917
 30
0.0
 40
20.64106267391679
100
AcDbArc
 50
77.50558048157383
 51
102.676318687742
  0
LINE
  5
35
330
2
100
AcDbEntity
  8
L-ZISSEN
100
AcDbLine
 10
9.000000000002273
 20
-131.6559495400497
 30
0.0
 11
-9.249999999998181
 21
-131.6559495400497
 31
0.0
  0
LINE
  5
36
330
2
100
AcDbEntity
  8
L-ZISSEN
100
AcDbLine
 10
22.43941013578057
 20
62.5
 30
0.0
 11
-22.43941013578785
 21
62.5
 31
0.0
  0
LINE
  5
37
330
2
100
AcDbEntity
  8
L-ZISSEN
100
AcDbLine
 10
-24.31134127319819
 20
51.5
 30
0.0
 11
24.31134127319273
 21
51.5
 31
0.0
  0
LINE
  5
38
330
2
100
AcDbEntity
  8
L-ZISSEN
100
AcDbLine
 10
-21.49999999999999
 20
60.5
 30
0.0
 11
21.49999999999999
 21
60.5
 31
0.0
  0
LINE
  5
39
330
2
100
AcDbEntity
  8
L-ZISSEN
100
AcDbLine
 10
21.21320343559637
 20
46.5
 30
0.0
 11
-21.21320343559637
 21
46.5
 31
0.0
  0
LINE
  5
3A
330
2
100
AcDbEntity
  8
L-ZISSEN
100
AcDbLine
 10
21.21320343559637
 20
40.49999999999999
 30
0.0
 11
-21.21320343559637
 21
40.49999999999999
 31
0.0
  0
LINE
  5
3B
330
2
100
AcDbEntity
  8
L-ZISSEN
100
AcDbLine
 10
-34.99999999999818
 20
38.5
 30
0.0
 11
34.99999999999818
 21
38.5
 31
0.0
  0
LINE
  5
3C
330
2
100
AcDbEntity
  8
L-ZISSEN
100
AcDbLine
 10
-21.75
 20
-20.0
 30
0.0
 11
21.75
 21
-20.0
 31
0.0
  0
LINE
  5
3D
330
2
100
AcDbEntity
  8
L-ZISSEN
100
AcDbLine
 10
-21.75
 20
-23.5
 30
0.0
 11
21.75
 21
-23.5
 31
0.0
  0
LINE
  5
3E
330
2
100
AcDbEntity
  8
L-ZISSEN
100
AcDbLine
 10
-21.75
 20
23.5
 30
0.0
 11
21.75
 21
23.5
 31
0.0
  0
LINE
  5
3F
330
2
100
AcDbEntity
  8
L-ZISSEN
100
AcDbLine
 10
-21.75
 20
20.0
 30
0.0
 11
21.75
 21
20.0
 31
0.0
  0
LINE
  5
40
330
2
100
AcDbEntity
  8
L-ZISSEN
100
AcDbLine
 10
-34.99999999999818
 20
-35.0
 30
0.0
 11
34.99999999999818
 21
-35.0
 31
0.0
  0
LINE
  5
41
330
2
100
AcDbEntity
  8
L-ZISSEN
100
AcDbLine
 10
-35.00000000000182
 20
26.5
 30
0.0
 11
34.99999999999818
 21
26.5
 31
0.0
  0
LINE
  5
42
330
2
100
AcDbEntity
  8
L-ZISSEN
100
AcDbLine
 10
5.699999999999363
 20
-147.999999999999
 30
0.0
 11
-5.699999999999363
 21
-147.999999999999
 31
0.0
  0
LINE
  5
43
330
2
100
AcDbEntity
  8
L-ZISSEN
100
AcDbLine
 10
-6.778315616504642
 20
-136.0006211148202
 30
0.0
 11
6.712718059993676
 21
-136.0014178845913
 31
0.0
  0
LINE
  5
44
330
2
100
AcDbEntity
  8
L-ZISSEN
100
AcDbLine
 10
-5.500000000001818
 20
-137.9411654104906
 30
0.0
 11
2.999999999999545
 21
-137.9411654104906
 31
0.0
  0
ARC
  5
45
330
2
100
AcDbEntity
  8
L-ZISSEN
100
AcDbCircle
 10
0.0
 20
-115.3589373260829
 30
0.0
 40
20.64106267391694
100
AcDbArc
 50
257.3236813122706
 51
282.4944195184261
  0
LINE
  5
46
330
2
100
AcDbEntity
  8
L-TYUSIN
100
AcDbLine
 10
-35.5
 20
-0.000000000001819
 30
0.0
 11
72.5
 21
0.000000000003638
 31
0.0
  0
LINE
  5
47
330
2
100
AcDbEntity
  8
L-ZISSEN
100
AcDbLine
 10
-30.00000000000227
 20
-121.4036840439885
 30
0.0
 11
-30.0
 21
-34.99999999999909
 31
0.0
  0
LINE
  5
48
330
2
100
AcDbEntity
  8
L-ZISSEN
100
AcDbLine
 10
-25.28000000000247
 20
-45.33873891163148
 30
0.0
 11
-25.2800000000002
 21
-113.3387389116314
 31
0.0
  0
LINE
  5
49
330
2
100
AcDbEntity
  8
L-ZISSEN
100
AcDbLine
 10
-16.84999999999945
 20
-45.33873891163148
 30
0.0
 11
-16.84999999999945
 21
-113.3387389116314
 31
0.0
  0
LINE
  5
4A
330
2
100
AcDbEntity
  8
L-ZISSEN
100
AcDbLine
 10
-16.84999999999945
 20
-113.3387389116314
 30
0.0
 11
-21.06500000000096
 21
-115.3387389116314
 31
0.0
  0
ARC
  5
4B
330
2
100
AcDbEntity
  8
L-ZISSEN
100
AcDbCircle
 10
0.000000000003638
 20
-32.54728891851573
 30
0.0
 40
99.53938471878538
100
AcDbArc
 50
256.0937629349537
 51
264.6679223051352
  0
LINE
  5
4C
330
2
100
AcDbEntity
  8
L-ZISSEN
100
AcDbLine
 10
-21.06500000000096
 20
-115.3387389116314
 30
0.0
 11
-25.2800000000002
 21
-113.3387389116314
 31
0.0
  0
ARC
  5
4D
330
2
100
AcDbEntity
  8
L-ZISSEN
100
AcDbCircle
 10
-21.9999999999909
 20
-121.4036840439885
 30
0.0
 40
8.000000000000113
100
AcDbArc
 50
180.0
 51
256.0937629347642
  0
ARC
  5
4E
330
2
100
AcDbEntity
  8
L-ZISSEN
100
AcDbCircle
 10
-6.778315616503277
 20
-138.2707090555513
 30
0.0
 40
5.271330170370607
100
AcDbArc
 50
64.74766100340973
 51
114.9228807251688
  0
LINE
  5
4F
330
2
100
AcDbEntity
  8
L-ZISSEN
100
AcDbLine
 10
-8.999643620082679
 20
-133.4902672699436
 30
0.0
 11
-8.999643620082679
 21
-135.5097327300563
 31
0.0
  0
LINE
  5
50
330
2
100
AcDbEntity
  8
L-ZISSEN
100
AcDbLine
 10
-4.529536318017107
 20
-133.5031191579482
 30
0.0
 11
-4.529536318010286
 21
-135.4968808420517
 31
0.0
  0
LINE
  5
51
330
2
100
AcDbEntity
  8
L-ZISSEN
100
AcDbLine
 10
-8.999999999999545
 20
-132.859551200564
 30
0.0
 11
-8.999999999999545
 21
-131.6559495400497
 31
0.0
  0
LINE
  5
52
330
2
100
AcDbEntity
  8
L-ZISSEN
100
AcDbLine
 10
-5.49999999999909
 20
-137.4411654104906
 30
0.0
 11
-5.49999999999909
 21
-135.999999999999
 31
0.0
  0
LINE
  5
53
330
2
100
AcDbEntity
  8
L-ZISSEN
100
AcDbLine
 10
-4.999999999997612
 20
-136.0006966111277
 30
0.0
 11
-5.000000000001818
 21
-137.9411654104906
 31
0.0
  0
LINE
  5
54
330
2
100
AcDbEntity
  8
L-ZISSEN
100
AcDbLine
 10
-5.0
 20
-137.9411654104906
 30
0.0
 11
-4.999999999999886
 21
-147.999999999999
 31
0.0
  0
LINE
  5
55
330
2
100
AcDbEntity
  8
L-ZISSEN
100
AcDbLine
 10
-5.000000000001818
 20
-137.9411654104906
 30
0.0
 11
-5.49999999999909
 21
-137.4411654104906
 31
0.0
  0
LINE
  5
56
330
2
100
AcDbEntity
  8
L-ZISSEN
100
AcDbLine
 10
-4.000000000000909
 20
-137.9411654104906
 30
0.0
 11
-4.000000000000909
 21
-147.999999999999
 31
0.0
  0
LINE
  5
57
330
2
100
AcDbEntity
  8
L-ZISSEN
100
AcDbLine
 10
-2.999999999999545
 20
-137.9411654104906
 30
0.0
 11
-2.999999999999431
 21
-147.999999999999
 31
0.0
  0
LINE
  5
58
330
2
100
AcDbEntity
  8
L-ZISSEN
100
AcDbLine
 10
-5.999999999999204
 20
-147.6999999999998
 30
0.0
 11
-5.99999999999909
 21
-138.4411654104906
 31
0.0
  0
LINE
  5
59
330
2
100
AcDbEntity
  8
L-ZISSEN
100
AcDbLine
 10
-5.699999999999363
 20
-147.999999999999
 30
0.0
 11
-5.99999999999909
 21
-147.6999999999998
 31
0.0
  0
LINE
  5
5A
330
2
100
AcDbEntity
  8
L-ZISSEN
100
AcDbLine
 10
-5.500000000001818
 20
-137.9411654104906
 30
0.0
 11
-5.99999999999909
 21
-138.4411654104906
 31
0.0
  0
LINE
  5
5B
330
2
100
AcDbEntity
  8
L-ZISSEN
100
AcDbLine
 10
-0.9999999999990905
 20
-137.9411654104906
 30
0.0
 11
-0.9999999999989768
 21
-147.999999999999
 31
0.0
  0
LINE
  5
5C
330
2
100
AcDbEntity
  8
L-ZISSEN
100
AcDbLine
 10
-1.999999999998181
 20
-137.9411654104906
 30
0.0
 11
-1.999999999998067
 21
-147.999999999999
 31
0.0
  0
LINE
  5
5D
330
2
100
AcDbEntity
  8
L-ZISSEN
100
AcDbLine
 10
0.0000000000022737
 20
-137.9411654104906
 30
0.0
 11
0.0000000000023874
 21
-147.999999999999
 31
0.0
  0
ARC
  5
5E
330
2
100
AcDbEntity
  8
L-ZISSEN
100
AcDbCircle
 10
-6.778315616504642
 20
-130.7292909444486
 30
0.0
 40
5.271330170370607
100
AcDbArc
 50
245.0771192748311
 51
295.2523389966485
  0
LINE
  5
5F
330
2
100
AcDbEntity
  8
L-ZISSEN
100
AcDbLine
 10
-1.627356869252025
 20
-36.16263047444135
 30
0.0
 11
-47.02424605812836
 21
-68.59547161275623
 31
0.0
  0
LINE
  5
60
330
2
100
AcDbEntity
  8
L-ZISSEN
100
AcDbLine
 10
-47.02424605812836
 20
-68.59547161275623
 30
0.0
 11
-49.02424605812837
 21
-68.59547161275623
 31
0.0
  0
TEXT
  5
61
330
2
100
AcDbEntity
  8
L-ZISSEN
100
AcDbText
 10
-59.89463512603174
 20
-70.84214584070742
 30
0.0
 40
4.5
  1
P.P
100
AcDbText
  0
LINE
  5
62
330
2
100
AcDbEntity
  8
L-ZISSEN
100
AcDbLine
 10
-21.75
 20
26.5
 30
0.0
 11
-21.75
 21
-35.0
 31
0.0
  0
LINE
  5
63
330
2
100
AcDbEntity
  8
L-ZISSEN
100
AcDbLine
 10
-35.00000000000182
 20
-12.99999999999909
 30
0.0
 11
-35.00000000000182
 21
-35.0
 31
0.0
  0
LINE
  5
64
330
2
100
AcDbEntity
  8
L-ZISSEN
100
AcDbLine
 10
-25.28000000000247
 20
-45.33873891163148
 30
0.0
 11
-16.84999999999945
 21
-45.33873891163148
 31
0.0
  0
SOLID
  5
65
330
2
100
AcDbEntity
  8
L-ZISSEN
100
AcDbTrace
 10
-1.821128614992176
 20
-35.89140432956537
 30
0.0
 11
-1.433585123511875
 21
-36.43385661931552
 31
0.0
 12
0.0
 22
-35.0
 32
0.0
 13
0.0
 23
-35.0
 33
0.0
  0
ARC
  5
66
330
2
100
AcDbEntity
  8
L-ZISSEN
100
AcDbCircle
 10
-21.21320343559637
 20
12.36804538251272
 30
0.0
 40
34.1319546174875
100
AcDbArc
 50
75.0820176392711
 51
104.9179823607288
  0
ARC
  5
67
330
2
100
AcDbEntity
  8
L-ZISSEN
100
AcDbCircle
 10
-21.21320343559637
 20
74.63195461748728
 30
0.0
 40
34.1319546174875
100
AcDbArc
 50
255.082017639271
 51
284.9179823607288
  0
LINE
  5
68
330
2
100
AcDbEntity
  8
L-ZISSEN
100
AcDbLine
 10
-26.0
 20
40.83732627715471
 30
0.0
 11
-26.0
 21
38.5
 31
0.0
  0
LINE
  5
69
330
2
100
AcDbEntity
  8
L-SAISEN
100
AcDbLine
 10
-24.31134127319819
 20
40.64089891235471
 30
0.0
 11
-24.31134127319819
 21
38.5
 31
0.0
  0
ARC
  5
6B
330
2
100
AcDbEntity
  8
L-ZISSEN
100
AcDbCircle
 10
-22.43941013578785
 20
64.80000000000018
 30
0.0
 40
2.299999999999999
100
AcDbArc
 50
179.1040647226661
 51
270.0
  0
LINE
  5
6C
330
2
100
AcDbEntity
  8
L-ZISSEN
100
AcDbLine
 10
-30.0
 20
45.34959374134541
 30
0.0
 11
-30.0
 21
41.65040625865458
 31
0.0
  0
LINE
  5
6D
330
2
100
AcDbEntity
  8
L-ZISSEN
100
AcDbLine
 10
-24.31134127319819
 20
51.5
 30
0.0
 11
-26.0
 21
50.76856214096642
 31
0.0
  0
LINE
  5
6E
330
2
100
AcDbEntity
  8
L-ZISSEN
100
AcDbLine
 10
-26.0
 20
50.7848419402917
 30
0.0
 11
-26.0
 21
46.16267372284619
 31
0.0
  0
LINE
  5
6F
330
2
100
AcDbEntity
  8
L-SAISEN
100
AcDbLine
 10
-24.31134127319819
 20
51.51627979932436
 30
0.0
 11
-24.31134127319819
 21
46.35910108764528
 31
0.0
  0
LINE
  5
70
330
2
100
AcDbEntity
  8
L-ZISSEN
100
AcDbLine
 10
-21.49999999999999
 20
60.5
 30
0.0
 11
-21.49999999999999
 21
51.51627979932436
 31
0.0
  0
LINE
  5
71
330
2
100
AcDbEntity
  8
L-ZISSEN
100
AcDbLine
 10
-29.35410801316175
 20
35.6036622334077
 30
0.0
 11
-30.56901756977095
 21
35.6036622334077
 31
0.0
  0
LINE
  5
72
330
2
100
AcDbEntity
  8
L-ZISSEN
100
AcDbLine
 10
-26.59042817520639
 20
33.63252710029246
 30
0.0
 11
-26.59042817520639
 21
32.48939319218971
 31
0.0
  0
LINE
  5
73
330
2
100
AcDbEntity
  8
L-ZISSEN
100
AcDbLine
 10
-33.3326974077263
 20
32.48939319218971
 30
0.0
 11
-33.3326974077263
 21
33.63252710029246
 31
0.0
  0
LINE
  5
74
330
2
100
AcDbEntity
  8
L-ZISSEN
100
AcDbLine
 10
-33.3326974077263
 20
33.63252710029246
 30
0.0
 11
-26.59042817520639
 21
33.63252710029246
 31
0.0
  0
LINE
  5
75
330
2
100
AcDbEntity
  8
L-ZISSEN
100
AcDbLine
 10
-26.59042817520639
 20
32.48939319218971
 30
0.0
 11
-33.3326974077263
 21
32.48939319218971
 31
0.0
  0
LINE
  5
76
330
2
100
AcDbEntity
  8
L-ZISSEN
100
AcDbLine
 10
-32.25
 20
-13.0
 30
0.0
 11
-32.25
 21
13.0
 31
0.0
  0
LINE
  5
77
330
2
100
AcDbEntity
  8
L-ZISSEN
100
AcDbLine
 10
-35.00000000000182
 20
26.5
 30
0.0
 11
-35.00000000000182
 21
13.0
 31
0.0
  0
LINE
  5
78
330
2
100
AcDbEntity
  8
L-ZISSEN
100
AcDbLine
 10
-24.92312558293269
 20
32.48939319218971
 30
0.0
 11
-35.0
 21
32.48939319218971
 31
0.0
  0
LINE
  5
79
330
2
100
AcDbEntity
  8
L-ZISSEN
100
AcDbLine
 10
-34.99999999999818
 20
-13.0
 30
0.0
 11
-21.75
 21
-13.0
 31
0.0
  0
LINE
  5
7A
330
2
100
AcDbEntity
  8
L-ZISSEN
100
AcDbLine
 10
-35.00000000000182
 20
13.0
 30
0.0
 11
-21.75
 21
13.0
 31
0.0
  0
LINE
  5
7B
330
2
100
AcDbEntity
  8
L-ZISSEN
100
AcDbLine
 10
-30.56901756977095
 20
35.6036622334077
 30
0.0
 11
-30.56901756977095
 21
36.58867596537766
 31
0.0
  0
LINE
  5
7C
330
2
100
AcDbEntity
  8
L-ZISSEN
100
AcDbLine
 10
-29.35410801316175
 20
36.58867596537766
 30
0.0
 11
-29.35410801316175
 21
35.6036622334077
 31
0.0
  0
ARC
  5
7D
330
2
100
AcDbEntity
  8
L-ZISSEN
100
AcDbCircle
 10
-29.29518877358168
 20
33.87381361188363
 30
0.0
 40
2.715501624969247
100
AcDbArc
 50
354.9022474682888
 51
91.24326520780831
  0
LINE
  5
7E
330
2
100
AcDbEntity
  8
L-ZISSEN
100
AcDbLine
 10
-24.92312558293269
 20
38.5
 30
0.0
 11
-24.92312558293269
 21
32.48939319218971
 31
0.0
  0
ARC
  5
7F
330
2
100
AcDbEntity
  8
L-ZISSEN
100
AcDbCircle
 10
-30.62793680934919
 20
33.87381361188363
 30
0.0
 40
2.715501624969762
100
AcDbArc
 50
88.7567347921917
 51
185.0977525317111
  0
LINE
  5
80
330
2
100
AcDbEntity
  8
L-ZISSEN
100
AcDbLine
 10
-34.99999999999818
 20
26.5
 30
0.0
 11
-34.99999999999818
 21
38.5
 31
0.0
  0
LINE
  5
81
330
2
100
AcDbEntity
  8
L-ZISSEN
100
AcDbLine
 10
-12.42640687119285
 20
45.34959374134541
 30
0.0
 11
-12.42640687119285
 21
41.65040625865458
 31
0.0
  0
LINE
  5
82
330
2
100
AcDbEntity
  8
L-ZISSEN
100
AcDbLine
 10
-20.25000000000364
 20
62.5
 30
0.0
 11
-20.25000000000364
 21
60.5
 31
0.0
  0
LINE
  5
83
330
2
100
AcDbEntity
  8
L-ZISSEN
100
AcDbLine
 10
29.99999999999772
 20
-121.4036840439885
 30
0.0
 11
30.0
 21
-34.99999999999909
 31
0.0
  0
LINE
  5
84
330
2
100
AcDbEntity
  8
L-ZISSEN
100
AcDbLine
 10
16.84999999999718
 20
-45.33873891163148
 30
0.0
 11
16.84999999999718
 21
-113.3387389116314
 31
0.0
  0
LINE
  5
85
330
2
100
AcDbEntity
  8
L-ZISSEN
100
AcDbLine
 10
25.2800000000002
 20
-45.33873891163148
 30
0.0
 11
25.27999999999792
 21
-113.3387389116314
 31
0.0
  0
ARC
  5
86
330
2
100
AcDbEntity
  8
L-ZISSEN
100
AcDbCircle
 10
0.000000000003638
 20
-32.54728891851573
 30
0.0
 40
99.53938471878515
100
AcDbArc
 50
275.3320776948647
 51
283.9062370650399
  0
LINE
  5
87
330
2
100
AcDbEntity
  8
L-ZISSEN
100
AcDbLine
 10
21.06500000000096
 20
-115.3387389116314
 30
0.0
 11
25.27999999999792
 21
-113.3387389116314
 31
0.0
  0
LINE
  5
88
330
2
100
AcDbEntity
  8
L-ZISSEN
100
AcDbLine
 10
8.999643620087681
 20
-133.5205025069053
 30
0.0
 11
8.999643620087681
 21
-135.4794974930928
 31
0.0
  0
LINE
  5
89
330
2
100
AcDbEntity
  8
L-ZISSEN
100
AcDbLine
 10
16.84999999999718
 20
-113.3387389116314
 30
0.0
 11
21.06500000000096
 21
-115.3387389116314
 31
0.0
  0
LINE
  5
8A
330
2
100
AcDbEntity
  8
L-ZISSEN
100
AcDbLine
 10
9.250000000003183
 20
-131.6559495400497
 30
0.0
 11
9.000000000002273
 21
-131.6559495400497
 31
0.0
  0
LINE
  5
8B
330
2
100
AcDbEntity
  8
L-ZISSEN
100
AcDbLine
 10
8.875000000001818
 20
-132.8595512005622
 30
0.0
 11
8.875000000001818
 21
-131.6559495400497
 31
0.0
  0
LINE
  5
8C
330
2
100
AcDbEntity
  8
L-ZISSEN
100
AcDbLine
 10
4.463375637018543
 20
-133.5025880436869
 30
0.0
 11
4.463375637018543
 21
-135.4974119563148
 31
0.0
  0
LINE
  5
8D
330
2
100
AcDbEntity
  8
L-ZISSEN
100
AcDbLine
 10
3.000000000000909
 20
-132.999999999999
 30
0.0
 11
3.000000000000909
 21
-132.859551200564
 31
0.0
  0
LINE
  5
8E
330
2
100
AcDbEntity
  8
L-ZISSEN
100
AcDbLine
 10
6.000000000000454
 20
-132.999999999999
 30
0.0
 11
6.834972979096619
 21
-132.999999999999
 31
0.0
  0
ARC
  5
8F
330
2
100
AcDbEntity
  8
L-ZISSEN
100
AcDbCircle
 10
6.71271805999504
 20
-138.2699122857802
 30
0.0
 40
5.271330170371789
100
AcDbArc
 50
64.28835488513318
 51
115.2591066834237
  0
LINE
  5
90
330
2
100
AcDbEntity
  8
L-ZISSEN
100
AcDbLine
 10
9.000000000002273
 20
-132.859551200564
 30
0.0
 11
6.000000000000454
 21
-132.859551200564
 31
0.0
  0
LINE
  5
91
330
2
100
AcDbEntity
  8
L-ZISSEN
100
AcDbLine
 10
9.000000000002273
 20
-132.859551200564
 30
0.0
 11
6.000000000000454
 21
-132.859551200564
 31
0.0
  0
LINE
  5
92
330
2
100
AcDbEntity
  8
L-ZISSEN
100
AcDbLine
 10
1.000000000001364
 20
-137.9411654104906
 30
0.0
 11
1.000000000001477
 21
-147.999999999999
 31
0.0
  0
LINE
  5
93
330
2
100
AcDbEntity
  8
L-ZISSEN
100
AcDbLine
 10
2.999999999999545
 20
-137.9411654104906
 30
0.0
 11
5.499999999999545
 21
-137.9411654104906
 31
0.0
  0
LINE
  5
94
330
2
100
AcDbEntity
  8
L-ZISSEN
100
AcDbLine
 10
4.000000000003183
 20
-137.9411654104906
 30
0.0
 11
4.000000000003296
 21
-147.999999999999
 31
0.0
  0
LINE
  5
95
330
2
100
AcDbEntity
  8
L-ZISSEN
100
AcDbLine
 10
2.999999999999545
 20
-137.9411654104906
 30
0.0
 11
2.999999999999545
 21
-147.999999999999
 31
0.0
  0
LINE
  5
96
330
2
100
AcDbEntity
  8
L-ZISSEN
100
AcDbLine
 10
2.000000000000454
 20
-137.9411654104906
 30
0.0
 11
2.000000000000568
 21
-147.999999999999
 31
0.0
  0
LINE
  5
97
330
2
100
AcDbEntity
  8
L-ZISSEN
100
AcDbLine
 10
5.000000000003751
 20
-136.0013462624219
 30
0.0
 11
4.999999999999545
 21
-137.9411654104906
 31
0.0
  0
LINE
  5
98
330
2
100
AcDbEntity
  8
L-ZISSEN
100
AcDbLine
 10
5.499999999999204
 20
-137.4411654104906
 30
0.0
 11
5.49999999999909
 21
-135.999999999999
 31
0.0
  0
LINE
  5
99
330
2
100
AcDbEntity
  8
L-ZISSEN
100
AcDbLine
 10
5.99999999999909
 20
-138.4411654104906
 30
0.0
 11
5.99999999999909
 21
-147.6999999999998
 31
0.0
  0
LINE
  5
9A
330
2
100
AcDbEntity
  8
L-ZISSEN
100
AcDbLine
 10
5.000000000002273
 20
-137.9411654104906
 30
0.0
 11
5.00000000000432
 21
-147.999999999999
 31
0.0
  0
LINE
  5
9B
330
2
100
AcDbEntity
  8
L-ZISSEN
100
AcDbLine
 10
5.699999999999363
 20
-147.999999999999
 30
0.0
 11
5.99999999999909
 21
-147.6999999999998
 31
0.0
  0
LINE
  5
9C
330
2
100
AcDbEntity
  8
L-ZISSEN
100
AcDbLine
 10
4.999999999999545
 20
-137.9411654104906
 30
0.0
 11
5.49999999999909
 21
-137.4411654104906
 31
0.0
  0
LINE
  5
9D
330
2
100
AcDbEntity
  8
L-ZISSEN
100
AcDbLine
 10
5.499999999999545
 20
-137.9411654104906
 30
0.0
 11
5.99999999999909
 21
-138.4411654104906
 31
0.0
  0
ARC
  5
9E
330
2
100
AcDbEntity
  8
L-ZISSEN
100
AcDbCircle
 10
6.712718059993676
 20
-130.7300877142197
 30
0.0
 40
5.271330170371532
100
AcDbArc
 50
244.7408933165762
 51
295.7116451148668
  0
ARC
  5
9F
330
2
100
AcDbEntity
  8
L-ZISSEN
100
AcDbCircle
 10
22.00000000000773
 20
-121.4036840439885
 30
0.0
 40
8.000000000000113
100
AcDbArc
 50
283.9062370650462
 51
0.0
  0
LINE
  5
A0
330
2
100
AcDbEntity
  8
L-SOUZOU
100
AcDbLine
 10
36.75
 20
-6.799999999998362
 30
0.0
 11
44.24999999999999
 21
-6.799999999998362
 31
0.0
  0
LINE
  5
A3
330
2
100
AcDbEntity
  8
L-SOUZOU
100
AcDbLine
 10
36.75
 20
6.800000000002
 30
0.0
 11
44.24999999999999
 21
6.800000000002
 31
0.0
  0
LINE
  5
A4
330
2
100
AcDbEntity
  8
L-ZISSEN
100
AcDbLine
 10
34.99999999999818
 20
-12.99999999999909
 30
0.0
 11
34.99999999999818
 21
-35.0
 31
0.0
  0
LINE
  5
A5
330
2
100
AcDbEntity
  8
L-ZISSEN
100
AcDbLine
 10
21.75
 20
26.5
 30
0.0
 11
21.75
 21
-35.0
 31
0.0
  0
LINE
  5
A6
330
2
100
AcDbEntity
  8
L-ZISSEN
100
AcDbLine
 10
25.2800000000002
 20
-45.33873891163148
 30
0.0
 11
16.84999999999718
 21
-45.33873891163148
 31
0.0
  0
LINE
  5
A7
330
2
100
AcDbEntity
  8
L-ZISSEN
100
AcDbLine
 10
31.55042118077972
 20
-68.47348228545889
 30
0.0
 11
33.31409532455154
 21
-60.99350653801502
 31
0.0
  0
LINE
  5
A8
330
2
100
AcDbEntity
  8
L-ZISSEN
100
AcDbLine
 10
33.31409532455154
 20
-58.80702229708004
 30
0.0
 11
30.0
 21
-58.80702229708004
 31
0.0
  0
LINE
  5
A9
330
2
100
AcDbEntity
  8
L-ZISSEN
100
AcDbLine
 10
31.82751149379555
 20
-58.80702229708095
 30
0.0
 11
31.82751149379555
 21
-60.6429907671918
 31
0.0
  0
LINE
  5
AA
330
2
100
AcDbEntity
  8
L-ZISSEN
100
AcDbLine
 10
30.06383735002373
 20
-68.12296651463566
 30
0.0
 11
31.82751149379555
 21
-60.6429907671918
 31
0.0
  0
LINE
  5
AB
330
2
100
AcDbEntity
  8
L-ZISSEN
100
AcDbLine
 10
31.55042118077972
 20
-68.47348228545889
 30
0.0
 11
30.0
 21
-68.47348228545889
 31
0.0
  0
LINE
  5
AC
330
2
100
AcDbEntity
  8
L-ZISSEN
100
AcDbLine
 10
38.99999999999863
 20
-60.94910678838004
 30
0.0
 11
33.50000000000136
 21
-62.88948590201016
 31
0.0
  0
LINE
  5
AD
330
2
100
AcDbEntity
  8
L-ZISSEN
100
AcDbLine
 10
35.0
 20
-55.99999999999909
 30
0.0
 11
38.99999999999863
 21
-56.66493780578185
 31
0.0
  0
LINE
  5
AE
330
2
100
AcDbEntity
  8
L-ZISSEN
100
AcDbLine
 10
33.50000000000136
 20
-62.88948590201016
 30
0.0
 11
33.31409532455154
 21
-62.88948590201016
 31
0.0
  0
LINE
  5
AF
330
2
100
AcDbEntity
  8
L-ZISSEN
100
AcDbLine
 10
33.31409532455154
 20
-60.99350653801502
 30
0.0
 11
33.31409532455154
 21
-58.80702229708004
 31
0.0
  0
LINE
  5
B0
330
2
100
AcDbEntity
  8
L-ZISSEN
100
AcDbLine
 10
38.99999999999863
 20
-56.66493780578185
 30
0.0
 11
38.99999999999863
 21
-60.94910678838004
 31
0.0
  0
LINE
  5
B1
330
2
100
AcDbEntity
  8
L-ZISSEN
100
AcDbLine
 10
30.0
 20
-34.99999999999909
 30
0.0
 11
30.0
 21
-76.32399445419832
 31
0.0
  0
LINE
  5
B2
330
2
100
AcDbEntity
  8
L-ZISSEN
100
AcDbLine
 10
33.31409532455154
 20
-62.88948590201016
 30
0.0
 11
33.31409532455154
 21
-35.0
 31
0.0
  0
LINE
  5
B3
330
2
100
AcDbEntity
  8
L-ZISSEN
100
AcDbLine
 10
35.0
 20
-35.0
 30
0.0
 11
35.0
 21
-55.99999999999909
 31
0.0
  0
ARC
  5
B4
330
2
100
AcDbEntity
  8
L-ZISSEN
100
AcDbCircle
 10
21.21320343559637
 20
74.63195461748728
 30
0.0
 40
34.1319546174875
100
AcDbArc
 50
255.082017639271
 51
284.9179823607288
  0
ARC
  5
B5
330
2
100
AcDbEntity
  8
L-ZISSEN
100
AcDbCircle
 10
21.21320343559637
 20
12.36804538251272
 30
0.0
 40
34.1319546174875
100
AcDbArc
 50
75.0820176392711
 51
104.9179823607288
  0
LINE
  5
B6
330
2
100
AcDbEntity
  8
L-ZISSEN
100
AcDbLine
 10
12.42640687119285
 20
45.34959374134541
 30
0.0
 11
12.42640687119285
 21
41.65040625865458
 31
0.0
  0
LINE
  5
B7
330
2
100
AcDbEntity
  8
L-ZISSEN
100
AcDbLine
 10
20.24999999999636
 20
62.5
 30
0.0
 11
20.24999999999636
 21
60.5
 31
0.0
  0
LINE
  5
B8
330
2
100
AcDbEntity
  8
L-ZISSEN
100
AcDbLine
 10
21.49999999999999
 20
60.5
 30
0.0
 11
21.49999999999999
 21
51.51627979932436
 31
0.0
  0
LINE
  5
B9
330
2
100
AcDbEntity
  8
L-ZISSEN
100
AcDbLine
 10
30.0
 20
45.34959374134541
 30
0.0
 11
30.0
 21
41.65040625865458
 31
0.0
  0
LINE
  5
BA
330
2
100
AcDbEntity
  8
L-ZISSEN
100
AcDbLine
 10
26.0
 20
40.83732627715471
 30
0.0
 11
26.0
 21
38.5
 31
0.0
  0
LINE
  5
BB
330
2
100
AcDbEntity
  8
L-SAISEN
100
AcDbLine
 10
24.31134127319819
 20
40.64089891235471
 30
0.0
 11
24.31134127319819
 21
38.5
 31
0.0
  0
ARC
  5
BC
330
2
100
AcDbEntity
  8
L-ZISSEN
100
AcDbCircle
 10
22.43941013578057
 20
64.80000000000018
 30
0.0
 40
2.299999999999999
100
AcDbArc
 50
270.0
 51
0.8959352773337991
  0
LINE
  5
BD
330
2
100
AcDbEntity
  8
L-ZISSEN
100
AcDbLine
 10
26.0
 20
50.76856214096642
 30
0.0
 11
26.0
 21
46.16267372284619
 31
0.0
  0
LINE
  5
BE
330
2
100
AcDbEntity
  8
L-SAISEN
100
AcDbLine
 10
24.31134127319273
 20
51.5
 30
0.0
 11
24.31134127319273
 21
46.35910108764528
 31
0.0
  0
LINE
  5
BF
330
2
100
AcDbEntity
  8
L-ZISSEN
100
AcDbLine
 10
24.31134127319273
 20
51.5
 30
0.0
 11
26.0
 21
50.76856214096642
 31
0.0
  0
LINE
  5
C0
330
2
100
AcDbEntity
  8
L-ZISSEN
100
AcDbLine
 10
30.56901756977095
 20
35.6036622334077
 30
0.0
 11
29.35410801316356
 21
35.6036622334077
 31
0.0
  0
LINE
  5
C1
330
2
100
AcDbEntity
  8
L-ZISSEN
100
AcDbLine
 10
33.33269740772812
 20
33.63252710029246
 30
0.0
 11
33.33269740772812
 21
32.48939319218971
 31
0.0
  0
LINE
  5
C2
330
2
100
AcDbEntity
  8
L-SOUZOU
100
AcDbLine
 10
32.25
 20
6.640690607792748
 30
0.0
 11
36.74999999999977
 21
6.781322635461947
 31
0.0
  0
LINE
  5
C3
330
2
100
AcDbEntity
  8
L-SOUZOU
100
AcDbLine
 10
32.25
 20
-6.64069060778911
 30
0.0
 11
36.74999999999977
 21
-6.781322635458309
 31
0.0
  0
LINE
  5
C4
330
2
100
AcDbEntity
  8
L-SOUZOU
100
AcDbLine
 10
32.25
 20
5.784690607792981
 30
0.0
 11
35.25
 21
5.87844529290578
 31
0.0
  0
LINE
  5
C5
330
2
100
AcDbEntity
  8
L-SOUZOU
100
AcDbLine
 10
32.25
 20
-5.784690607789343
 30
0.0
 11
35.25
 21
-5.878445292902142
 31
0.0
  0
LINE
  5
C6
330
2
100
AcDbEntity
  8
L-ZISSEN
100
AcDbLine
 10
32.25
 20
-13.0
 30
0.0
 11
32.25
 21
13.0
 31
0.0
  0
LINE
  5
C7
330
2
100
AcDbEntity
  8
L-ZISSEN
100
AcDbLine
 10
34.99999999999818
 20
26.5
 30
0.0
 11
34.99999999999818
 21
13.0
 31
0.0
  0
LINE
  5
C8
330
2
100
AcDbEntity
  8
L-SOUZOU
100
AcDbLine
 10
35.25
 20
5.87844529290578
 30
0.0
 11
36.1336143276842
 21
6.762059620589752
 31
0.0
  0
LINE
  5
C9
330
2
100
AcDbEntity
  8
L-SOUZOU
100
AcDbLine
 10
35.25
 20
-5.878445292902142
 30
0.0
 11
36.1336143276842
 21
-6.762059620586114
 31
0.0
  0
LINE
  5
CA
330
2
100
AcDbEntity
  8
L-SOUZOU
100
AcDbLine
 10
35.25
 20
6.734445292905547
 30
0.0
 11
35.25
 21
-6.734445292901909
 31
0.0
  0
LINE
  5
CB
330
2
100
AcDbEntity
  8
L-SOUZOU
100
AcDbLine
 10
36.75
 20
6.800000000002
 30
0.0
 11
36.75
 21
-6.799999999998362
 31
0.0
  0
LINE
  5
CC
330
2
100
AcDbEntity
  8
L-ZISSEN
100
AcDbLine
 10
26.59042817520457
 20
32.48939319218971
 30
0.0
 11
26.59042817520457
 21
33.63252710029246
 31
0.0
  0
LINE
  5
CD
330
2
100
AcDbEntity
  8
L-ZISSEN
100
AcDbLine
 10
21.75
 20
-13.0
 30
0.0
 11
34.99999999999818
 21
-13.0
 31
0.0
  0
LINE
  5
CE
330
2
100
AcDbEntity
  8
L-ZISSEN
100
AcDbLine
 10
21.75
 20
13.0
 30
0.0
 11
34.99999999999818
 21
13.0
 31
0.0
  0
LINE
  5
CF
330
2
100
AcDbEntity
  8
L-ZISSEN
100
AcDbLine
 10
26.59042817520457
 20
33.63252710029246
 30
0.0
 11
33.33269740772812
 21
33.63252710029246
 31
0.0
  0
LINE
  5
D0
330
2
100
AcDbEntity
  8
L-ZISSEN
100
AcDbLine
 10
33.33269740772812
 20
32.48939319218971
 30
0.0
 11
26.59042817520457
 21
32.48939319218971
 31
0.0
  0
LINE
  5
D1
330
2
100
AcDbEntity
  8
L-ZISSEN
100
AcDbLine
 10
24.92312558293451
 20
32.48939319218971
 30
0.0
 11
35.0
 21
32.48939319218971
 31
0.0
  0
ARC
  5
D2
330
2
100
AcDbEntity
  8
L-ZISSEN
100
AcDbCircle
 10
30.62793680934919
 20
33.87381361188363
 30
0.0
 40
2.715501624969247
100
AcDbArc
 50
354.9022474682888
 51
91.24326520780831
  0
LINE
  5
D3
330
2
100
AcDbEntity
  8
L-ZISSEN
100
AcDbLine
 10
30.56901756977095
 20
36.58867596537766
 30
0.0
 11
30.56901756977095
 21
35.6036622334077
 31
0.0
  0
LINE
  5
D4
330
2
100
AcDbEntity
  8
L-ZISSEN
100
AcDbLine
 10
29.35410801316356
 20
35.6036622334077
 30
0.0
 11
29.35410801316356
 21
36.58867596537766
 31
0.0
  0
LINE
  5
D5
330
2
100
AcDbEntity
  8
L-ZISSEN
100
AcDbLine
 10
35.0
 20
32.48939319218971
 30
0.0
 11
35.0
 21
37.49999999999545
 31
0.0
  0
LINE
  5
D6
330
2
100
AcDbEntity
  8
L-ZISSEN
100
AcDbLine
 10
24.92312558293451
 20
38.5
 30
0.0
 11
24.92312558293451
 21
32.48939319218971
 31
0.0
  0
ARC
  5
D7
330
2
100
AcDbEntity
  8
L-ZISSEN
100
AcDbCircle
 10
29.2951887735835
 20
33.87381361188363
 30
0.0
 40
2.715501624970328
100
AcDbArc
 50
88.7567347921917
 51
185.0977525317111
  0
LINE
  5
D8
330
2
100
AcDbEntity
  8
L-ZISSEN
100
AcDbLine
 10
34.99999999999818
 20
26.5
 30
0.0
 11
34.99999999999818
 21
38.5
 31
0.0
  0
LINE
  5
D9
330
2
100
AcDbEntity
  8
L-SOUZOU
100
AcDbLine
 10
60.25
 20
21.00000000000182
 30
0.0
 11
60.25
 21
-20.99999999999818
 31
0.0
  0
LINE
  5
DA
330
2
100
AcDbEntity
  8
L-SOUZOU
100
AcDbLine
 10
69.25
 20
19.50000000000182
 30
0.0
 11
69.25
 21
-19.49999999999818
 31
0.0
  0
LINE
  5
DB
330
2
100
AcDbEntity
  8
L-SOUZOU
100
AcDbLine
 10
44.24999999999999
 20
18.90000000000236
 30
0.0
 11
44.24999999999999
 21
-18.89999999999872
 31
0.0
  0
LINE
  5
DC
330
2
100
AcDbEntity
  8
L-SOUZOU
100
AcDbLine
 10
60.25
 20
-20.99999999999818
 30
0.0
 11
67.75
 21
-20.99999999999818
 31
0.0
  0
ARC
  5
DD
330
2
100
AcDbEntity
  8
L-SOUZOU
100
AcDbCircle
 10
45.75
 20
-18.89999999999872
 30
0.0
 40
1.5
100
AcDbArc
 50
180.0
 51
270.0
  0
LINE
  5
DE
330
2
100
AcDbEntity
  8
L-SOUZOU
100
AcDbLine
 10
45.75
 20
-20.39999999999872
 30
0.0
 11
60.25
 21
-20.39999999999872
 31
0.0
  0
ARC
  5
DF
330
2
100
AcDbEntity
  8
L-SOUZOU
100
AcDbCircle
 10
67.75
 20
-19.49999999999818
 30
0.0
 40
1.5
100
AcDbArc
 50
270.0
 51
0.0
  0
LINE
  5
E0
330
2
100
AcDbEntity
  8
L-SOUZOU
100
AcDbLine
 10
60.25
 20
21.00000000000182
 30
0.0
 11
67.75
 21
21.00000000000182
 31
0.0
  0
ARC
  5
E1
330
2
100
AcDbEntity
  8
L-SOUZOU
100
AcDbCircle
 10
45.75
 20
18.90000000000236
 30
0.0
 40
1.5
100
AcDbArc
 50
90.0
 51
180.0
  0
LINE
  5
E2
330
2
100
AcDbEntity
  8
L-SOUZOU
100
AcDbLine
 10
45.75
 20
20.40000000000236
 30
0.0
 11
60.25
 21
20.40000000000236
 31
0.0
  0
ARC
  5
E3
330
2
100
AcDbEntity
  8
L-SOUZOU
100
AcDbCircle
 10
67.75
 20
19.50000000000182
 30
0.0
 40
1.5
100
AcDbArc
 50
0.0
 51
90.0
  0
TEXT
  5
E4
330
2
100
AcDbEntity
  8
L-ZISSEN
100
AcDbText
 10
-47.04384095927889
 20
210.538381398147
 30
0.0
 40
4.5
  1
MODEL NO. CJ4-600-*01*
100
AcDbText
  0
LINE
  5
E5
330
2
100
AcDbEntity
  8
L-ZISSEN
100
AcDbLine
 10
22.00000000000022
 20
114.5
 30
0.0
 11
-22.00000000000181
 21
114.5
 31
0.0
  0
LINE
  5
E6
330
2
100
AcDbEntity
  8
L-ZISSEN
100
AcDbLine
 10
-24.00000000000364
 20
112.0999999999994
 30
0.0
 11
-22.00000000000181
 21
114.5
 31
0.0
  0
LINE
  5
E7
330
2
100
AcDbEntity
  8
L-ZISSEN
100
AcDbLine
 10
23.99999999999636
 20
112.0999999999994
 30
0.0
 11
22.0
 21
114.5
 31
0.0
  0
TEXT
  5
E8
330
2
100
AcDbEntity
  8
L-ZISSEN
100
AcDbText
 10
418.397770079164
 20
294.5088314682916
 30
0.0
 40
4.5
  1
MODEL NO. CJ4-600-*02*
100
AcDbText
  0
TEXT
  5
E9
330
2
100
AcDbEntity
  8
L-ZISSEN
100
AcDbText
 10
418.397770079164
 20
59.95535489375197
 30
0.0
 40
4.5
  1
MODEL NO. CJ4-600-*04*
100
AcDbText
  0
LINE
  5
EA
330
2
100
AcDbEntity
  8
L-TYUSIN
100
AcDbLine
 10
398.9851175814806
 20
84.31690048519067
 30
0.0
 11
648.9851175814806
 21
84.31690048519067
 31
0.0
  0
LINE
  5
EB
330
2
100
AcDbEntity
  8
L-TYUSIN
100
AcDbLine
 10
398.9851175814806
 20
-144.5749934205823
 30
0.0
 11
398.9851175814806
 21
305.425049806432
 31
0.0
  0
LINE
  5
EC
330
2
100
AcDbEntity
  8
L-ZISSEN
100
AcDbLine
 10
223.9999999999963
 20
112.0999999999958
 30
0.0
 11
224.7391289476395
 21
64.83596368142662
 31
0.0
  0
LINE
  5
ED
330
2
100
AcDbEntity
  8
L-ZISSEN
100
AcDbLine
 10
175.9999999999963
 20
112.0999999999958
 30
0.0
 11
175.2608710523531
 21
64.83596368142662
 31
0.0
  0
LINE
  5
EE
330
2
100
AcDbEntity
  8
L-TYUSIN
100
AcDbLine
 10
200.0
 20
-153.0000000000027
 30
0.0
 11
200.0
 21
119.4999999999963
 31
0.0
  0
LINE
  5
EF
330
2
100
AcDbEntity
  8
L-ZISSEN
100
AcDbLine
 10
251.5000000000027
 20
15.00000000000454
 30
0.0
 11
255.0000000000025
 21
15.00000000000454
 31
0.0
  0
LINE
  5
F0
330
2
100
AcDbEntity
  8
L-ZISSEN
100
AcDbLine
 10
251.5000000000001
 20
-23.0000000000009
 30
0.0
 11
253.9999999999998
 21
-23.0000000000009
 31
0.0
  0
LINE
  5
F1
330
2
100
AcDbEntity
  8
L-ZISSEN
100
AcDbLine
 10
251.4999999999998
 20
-19.70000000000163
 30
0.0
 11
253.9999999999998
 21
-19.70000000000163
 31
0.0
  0
LINE
  5
F2
330
2
100
AcDbEntity
  8
L-ZISSEN
100
AcDbLine
 10
245.3597352488825
 20
1.805783846929443
 30
0.0
 11
275.3472351883335
 21
64.79138676469756
 31
0.0
  0
LINE
  5
F3
330
2
100
AcDbEntity
  8
L-ZISSEN
100
AcDbLine
 10
251.5000000000029
 20
-35.99999999999636
 30
0.0
 11
326.5000000000027
 21
-35.99999999999454
 31
0.0
  0
LINE
  5
F4
330
2
100
AcDbEntity
  8
L-ZISSEN
100
AcDbLine
 10
251.5000000000027
 20
20.00000000000454
 30
0.0
 11
326.5000000000029
 21
20.00000000000454
 31
0.0
  0
LINE
  5
F5
330
2
100
AcDbEntity
  8
L-TYUSIN
100
AcDbLine
 10
157.4999999999998
 20
0.0000000000009095
 30
0.0
 11
331.5000000000001
 21
-0.0000000000009095
 31
0.0
  0
LINE
  5
F6
330
2
100
AcDbEntity
  8
L-ZISSEN
100
AcDbLine
 10
221.0000000000001
 20
-11.9068971185643
 30
0.0
 11
268.0000000000001
 21
-11.9068971185643
 31
0.0
  0
LINE
  5
F7
330
2
100
AcDbEntity
  8
L-ZISSEN
100
AcDbLine
 10
268.0000000000001
 20
12.0
 30
0.0
 11
221.0000000000001
 21
12.0
 31
0.0
  0
LINE
  5
F8
330
2
100
AcDbEntity
  8
L-TYUSIN
100
AcDbLine
 10
235.0
 20
-40.0
 30
0.0
 11
254.0
 21
-40.0
 31
0.0
  0
LINE
  5
F9
330
2
100
AcDbEntity
  8
L-TYUSIN
100
AcDbLine
 10
235.0
 20
40.0
 30
0.0
 11
254.0
 21
40.0
 31
0.0
  0
LINE
  5
FA
330
2
100
AcDbEntity
  8
L-ZISSEN
370
     9
100
AcDbLine
 10
233.4999999999999
 20
-50.0
 30
0.0
 11
255.5
 21
-50.0
 31
0.0
  0
LINE
  5
FB
330
2
100
AcDbEntity
  8
L-ZISSEN
370
     9
100
AcDbLine
 10
233.4999999999999
 20
50.0
 30
0.0
 11
255.5
 21
50.0
 31
0.0
  0
LINE
  5
FC
330
2
100
AcDbEntity
  8
L-ZISSEN
100
AcDbLine
 10
235.0
 20
38.49999999999636
 30
0.0
 11
164.9999999999998
 21
38.49999999999636
 31
0.0
  0
LINE
  5
FD
330
2
100
AcDbEntity
  8
L-ZISSEN
100
AcDbLine
 10
181.5384372085318
 20
32.48939319218607
 30
0.0
 11
165.0
 21
32.48939319218607
 31
0.0
  0
ARC
  5
FE
330
2
100
AcDbEntity
  8
L-ZISSEN
100
AcDbCircle
 10
178.0000000000009
 20
-122.4036840439848
 30
0.0
 40
8.000000000000113
100
AcDbArc
 50
180.0
 51
256.0937629349537
  0
LINE
  5
FF
330
2
100
AcDbEntity
  8
L-ZISSEN
100
AcDbLine
 10
162.5
 20
-12.49999999998999
 30
0.0
 11
237.5
 21
-12.49999999998999
 31
0.0
  0
LINE
  5
100
330
2
100
AcDbEntity
  8
L-ZISSEN
100
AcDbLine
 10
162.5
 20
-35.99999999999545
 30
0.0
 11
237.5
 21
-35.99999999999545
 31
0.0
  0
LINE
  5
101
330
2
100
AcDbEntity
  8
L-ZISSEN
100
AcDbLine
 10
162.5
 20
12.99999999999636
 30
0.0
 11
237.5
 21
12.99999999999636
 31
0.0
  0
LINE
  5
102
330
2
100
AcDbEntity
  8
L-ZISSEN
100
AcDbLine
 10
237.5
 20
26.49999999999636
 30
0.0
 11
162.5
 21
26.49999999999636
 31
0.0
  0
TEXT
  5
103
330
2
100
AcDbEntity
  8
L-ZISSEN
100
AcDbText
 10
121.9533993982978
 20
22.07276182792793
 30
0.0
 40
4.5
  1
IN
100
AcDbText
  0
TEXT
  5
104
330
2
100
AcDbEntity
  8
L-ZISSEN
100
AcDbText
 10
121.6706031104591
 20
14.04034374483035
 30
0.0
 40
4.5
  1
Rc3/4
100
AcDbText
  0
LINE
  5
105
330
2
100
AcDbEntity
  8
L-ZISSEN
100
AcDbLine
 10
146.7054034288036
 20
20.21081538820453
 30
0.0
 11
120.6261047894391
 21
20.21081538820453
 31
0.0
  0
LINE
  5
106
330
2
100
AcDbEntity
  8
L-ZISSEN
100
AcDbLine
 10
162.5
 20
-35.99999999999545
 30
0.0
 11
162.5
 21
19.99999999999636
 31
0.0
  0
LINE
  5
107
330
2
100
AcDbEntity
  8
L-ZISSEN
100
AcDbLine
 10
161.2493576790059
 20
2.060735014328201
 30
0.0
 11
146.7054034288037
 21
20.21081538820453
 31
0.0
  0
LINE
  5
108
330
2
100
AcDbEntity
  8
L-ZISSEN
100
AcDbLine
 10
166.0
 20
-12.49999999998999
 30
0.0
 11
166.0
 21
12.99999999999636
 31
0.0
  0
LINE
  5
109
330
2
100
AcDbEntity
  8
L-ZISSEN
100
AcDbLine
 10
167.5
 20
-12.49999999998999
 30
0.0
 11
167.5
 21
12.99999999999636
 31
0.0
  0
SOLID
  5
10A
330
2
100
AcDbEntity
  8
L-ZISSEN
100
AcDbTrace
 10
160.9892351766185
 20
1.852294627496121
 30
0.0
 11
161.5094801813931
 21
2.269175401160282
 31
0.0
 12
162.5000000000003
 22
0.500000000003638
 32
0.0
 13
162.5000000000003
 23
0.500000000003638
 33
0.0
  0
LINE
  5
10B
330
2
100
AcDbEntity
  8
L-ZISSEN
100
AcDbLine
 10
165.0
 20
19.99999999999636
 30
0.0
 11
162.5
 21
19.99999999999636
 31
0.0
  0
LINE
  5
10C
330
2
100
AcDbEntity
  8
L-ZISSEN
100
AcDbLine
 10
162.5
 20
23.49999999999636
 30
0.0
 11
165.0
 21
23.49999999999636
 31
0.0
  0
LINE
  5
10D
330
2
100
AcDbEntity
  8
L-ZISSEN
100
AcDbLine
 10
162.5
 20
23.49999999999636
 30
0.0
 11
162.5
 21
26.49999999999636
 31
0.0
  0
LINE
  5
10E
330
2
100
AcDbEntity
  8
L-ZISSEN
100
AcDbLine
 10
165.0
 20
23.49999999999636
 30
0.0
 11
165.0
 21
19.99999999999636
 31
0.0
  0
LINE
  5
10F
330
2
100
AcDbEntity
  8
L-ZISSEN
100
AcDbLine
 10
164.9999999999997
 20
38.49999999999636
 30
0.0
 11
165.0
 21
26.49999999999636
 31
0.0
  0
LINE
  5
110
330
2
100
AcDbEntity
  8
L-ZISSEN
100
AcDbLine
 10
225.2800000000001
 20
-46.33873891162693
 30
0.0
 11
225.2800000000001
 21
-114.3387389116278
 31
0.0
  0
LINE
  5
111
330
2
100
AcDbEntity
  8
L-ZISSEN
100
AcDbLine
 10
216.8499999999994
 20
-46.33873891162693
 30
0.0
 11
216.8499999999994
 21
-114.3387389116278
 31
0.0
  0
LINE
  5
112
330
2
100
AcDbEntity
  8
L-ZISSEN
100
AcDbLine
 10
229.9999999999977
 20
-122.4036840439848
 30
0.0
 11
230.0
 21
-35.99999999999454
 31
0.0
  0
LINE
  5
113
330
2
100
AcDbEntity
  8
L-ZISSEN
100
AcDbLine
 10
183.1500000000005
 20
-46.33873891162693
 30
0.0
 11
183.1500000000005
 21
-114.3387389116278
 31
0.0
  0
LINE
  5
114
330
2
100
AcDbEntity
  8
L-ZISSEN
100
AcDbLine
 10
174.7199999999998
 20
-46.33873891162693
 30
0.0
 11
174.7199999999998
 21
-114.3387389116278
 31
0.0
  0
LINE
  5
115
330
2
100
AcDbEntity
  8
L-ZISSEN
100
AcDbLine
 10
170.0
 20
-122.4036840439848
 30
0.0
 11
170.0
 21
-35.99999999999545
 31
0.0
  0
ARC
  5
116
330
2
100
AcDbEntity
  8
L-ZISSEN
100
AcDbCircle
 10
200.0000000000013
 20
-33.547288918513
 30
0.0
 40
99.53938471878553
100
AcDbArc
 50
275.3320776948647
 51
283.9062370650462
  0
ARC
  5
117
330
2
100
AcDbEntity
  8
L-ZISSEN
100
AcDbCircle
 10
200.0000000000013
 20
-33.547288918513
 30
0.0
 40
99.53938471878538
100
AcDbArc
 50
256.0937629349601
 51
264.6679223051352
  0
LINE
  5
118
330
2
100
AcDbEntity
  8
L-ZISSEN
100
AcDbLine
 10
183.1500000000005
 20
-114.3387389116278
 30
0.0
 11
178.934999999999
 21
-116.3387389116278
 31
0.0
  0
LINE
  5
119
330
2
100
AcDbEntity
  8
L-ZISSEN
100
AcDbLine
 10
178.934999999999
 20
-116.3387389116278
 30
0.0
 11
174.7199999999998
 21
-114.3387389116278
 31
0.0
  0
LINE
  5
11A
330
2
100
AcDbEntity
  8
L-ZISSEN
100
AcDbLine
 10
209.0000000000022
 20
-133.8595512005604
 30
0.0
 11
209.0000000000022
 21
-132.6559495400479
 31
0.0
  0
LINE
  5
11B
330
2
100
AcDbEntity
  8
L-ZISSEN
100
AcDbLine
 10
209.0000000000022
 20
-133.8595512005604
 30
0.0
 11
209.0000000000022
 21
-132.6559495400479
 31
0.0
  0
LINE
  5
11C
330
2
100
AcDbEntity
  8
L-ZISSEN
100
AcDbLine
 10
206.0000000000004
 20
-133.9999999999954
 30
0.0
 11
206.8349729790966
 21
-133.9999999999954
 31
0.0
  0
LINE
  5
11D
330
2
100
AcDbEntity
  8
L-ZISSEN
100
AcDbLine
 10
209.0000000000022
 20
-133.8595512005604
 30
0.0
 11
206.0000000000004
 21
-133.8595512005604
 31
0.0
  0
LINE
  5
11E
330
2
100
AcDbEntity
  8
L-ZISSEN
100
AcDbLine
 10
209.0000000000022
 20
-133.8595512005604
 30
0.0
 11
206.0000000000004
 21
-133.8595512005604
 31
0.0
  0
LINE
  5
11F
330
2
100
AcDbEntity
  8
L-ZISSEN
100
AcDbLine
 10
203.0000000000009
 20
-133.9999999999954
 30
0.0
 11
203.0000000000009
 21
-133.8595512005604
 31
0.0
  0
ARC
  5
120
330
2
100
AcDbEntity
  8
L-ZISSEN
100
AcDbCircle
 10
206.712718059995
 20
-139.2699122857766
 30
0.0
 40
5.271330170371789
100
AcDbArc
 50
64.28835488513318
 51
115.2591066834237
  0
LINE
  5
121
330
2
100
AcDbEntity
  8
L-ZISSEN
100
AcDbLine
 10
209.2500000000054
 20
-132.655949540046
 30
0.0
 11
209.0000000000022
 21
-132.6559495400479
 31
0.0
  0
LINE
  5
122
330
2
100
AcDbEntity
  8
L-ZISSEN
100
AcDbLine
 10
191.0000000000004
 20
-133.8595512005604
 30
0.0
 11
191.0000000000004
 21
-132.655949540046
 31
0.0
  0
LINE
  5
123
330
2
100
AcDbEntity
  8
L-ZISSEN
100
AcDbLine
 10
191.0000000000004
 20
-133.8595512005604
 30
0.0
 11
191.0000000000004
 21
-132.655949540046
 31
0.0
  0
ARC
  5
124
330
2
100
AcDbEntity
  8
L-ZISSEN
100
AcDbCircle
 10
193.2216843834967
 20
-139.2707090555477
 30
0.0
 40
5.271330170370607
100
AcDbArc
 50
64.74766100340973
 51
114.9228807251688
  0
LINE
  5
125
330
2
100
AcDbEntity
  8
L-ZISSEN
100
AcDbLine
 10
206.0000000000004
 20
-133.8595512005604
 30
0.0
 11
191.0000000000004
 21
-133.8595512005604
 31
0.0
  0
LINE
  5
126
330
2
100
AcDbEntity
  8
L-ZISSEN
100
AcDbLine
 10
193.1407658022081
 20
-133.9999999999954
 30
0.0
 11
206.0000000000004
 21
-133.9999999999954
 31
0.0
  0
LINE
  5
127
330
2
100
AcDbEntity
  8
L-ZISSEN
100
AcDbLine
 10
206.0000000000004
 20
-133.8595512005604
 30
0.0
 11
191.0000000000004
 21
-133.8595512005604
 31
0.0
  0
ARC
  5
128
330
2
100
AcDbEntity
  8
L-ZISSEN
100
AcDbCircle
 10
200.0000000000013
 20
-154.6410626739134
 30
0.0
 40
20.64106267391679
100
AcDbArc
 50
77.50558048157383
 51
102.676318687742
  0
LINE
  5
129
330
2
100
AcDbEntity
  8
L-ZISSEN
100
AcDbLine
 10
209.0000000000022
 20
-132.6559495400479
 30
0.0
 11
190.7499999999972
 21
-132.655949540046
 31
0.0
  0
LINE
  5
12A
330
2
100
AcDbEntity
  8
L-ZISSEN
100
AcDbLine
 10
205.4999999999995
 20
-138.9411654104869
 30
0.0
 11
205.999999999999
 21
-139.4411654104869
 31
0.0
  0
LINE
  5
12B
330
2
100
AcDbEntity
  8
L-ZISSEN
100
AcDbLine
 10
205.6999999999993
 20
-148.9999999999954
 30
0.0
 11
205.999999999999
 21
-148.6999999999961
 31
0.0
  0
LINE
  5
12C
330
2
100
AcDbEntity
  8
L-ZISSEN
100
AcDbLine
 10
205.999999999999
 20
-139.4411654104869
 30
0.0
 11
205.999999999999
 21
-148.6999999999961
 31
0.0
  0
LINE
  5
12D
330
2
100
AcDbEntity
  8
L-ZISSEN
100
AcDbLine
 10
205.4999999999992
 20
-138.4411654104869
 30
0.0
 11
205.499999999999
 21
-136.9999999999954
 31
0.0
  0
LINE
  5
12E
330
2
100
AcDbEntity
  8
L-ZISSEN
100
AcDbLine
 10
202.9999999999995
 20
-138.9411654104869
 30
0.0
 11
202.9999999999995
 21
-148.9999999999954
 31
0.0
  0
LINE
  5
12F
330
2
100
AcDbEntity
  8
L-ZISSEN
100
AcDbLine
 10
204.0000000000032
 20
-138.9411654104869
 30
0.0
 11
204.0000000000032
 21
-148.9999999999954
 31
0.0
  0
LINE
  5
130
330
2
100
AcDbEntity
  8
L-ZISSEN
100
AcDbLine
 10
205.0000000000022
 20
-138.9411654104869
 30
0.0
 11
205.0000000000043
 21
-148.9999999999954
 31
0.0
  0
LINE
  5
131
330
2
100
AcDbEntity
  8
L-ZISSEN
100
AcDbLine
 10
199.0000000000009
 20
-138.9411654104869
 30
0.0
 11
199.000000000001
 21
-148.9999999999954
 31
0.0
  0
LINE
  5
132
330
2
100
AcDbEntity
  8
L-ZISSEN
100
AcDbLine
 10
200.0000000000022
 20
-138.9411654104869
 30
0.0
 11
200.0000000000023
 21
-148.9999999999954
 31
0.0
  0
LINE
  5
133
330
2
100
AcDbEntity
  8
L-ZISSEN
100
AcDbLine
 10
201.0000000000013
 20
-138.9411654104869
 30
0.0
 11
201.0000000000014
 21
-148.9999999999954
 31
0.0
  0
LINE
  5
134
330
2
100
AcDbEntity
  8
L-ZISSEN
100
AcDbLine
 10
202.0000000000004
 20
-138.9411654104869
 30
0.0
 11
202.0000000000005
 21
-148.9999999999954
 31
0.0
  0
LINE
  5
135
330
2
100
AcDbEntity
  8
L-ZISSEN
100
AcDbLine
 10
205.0000000000037
 20
-137.0013462624183
 30
0.0
 11
204.9999999999995
 21
-138.9411654104869
 31
0.0
  0
ARC
  5
136
330
2
100
AcDbEntity
  8
L-ZISSEN
100
AcDbCircle
 10
206.7127180599936
 20
-131.7300877142161
 30
0.0
 40
5.271330170371532
100
AcDbArc
 50
244.7408933165762
 51
295.7116451148668
  0
LINE
  5
137
330
2
100
AcDbEntity
  8
L-ZISSEN
100
AcDbLine
 10
202.9999999999995
 20
-138.9411654104869
 30
0.0
 11
205.4999999999995
 21
-138.9411654104869
 31
0.0
  0
LINE
  5
138
330
2
100
AcDbEntity
  8
L-ZISSEN
100
AcDbLine
 10
204.9999999999995
 20
-138.9411654104869
 30
0.0
 11
205.499999999999
 21
-138.4411654104869
 31
0.0
  0
LINE
  5
139
330
2
100
AcDbEntity
  8
L-ZISSEN
100
AcDbLine
 10
197.0000000000004
 20
-138.9411654104869
 30
0.0
 11
197.0000000000005
 21
-148.9999999999954
 31
0.0
  0
LINE
  5
13A
330
2
100
AcDbEntity
  8
L-ZISSEN
100
AcDbLine
 10
198.0000000000018
 20
-138.9411654104869
 30
0.0
 11
198.0000000000019
 21
-148.9999999999954
 31
0.0
  0
LINE
  5
13B
330
2
100
AcDbEntity
  8
L-ZISSEN
100
AcDbLine
 10
195.999999999999
 20
-138.9411654104869
 30
0.0
 11
195.999999999999
 21
-148.9999999999954
 31
0.0
  0
LINE
  5
13C
330
2
100
AcDbEntity
  8
L-ZISSEN
100
AcDbLine
 10
194.4999999999981
 20
-138.9411654104869
 30
0.0
 11
194.0000000000009
 21
-139.4411654104869
 31
0.0
  0
LINE
  5
13D
330
2
100
AcDbEntity
  8
L-ZISSEN
100
AcDbLine
 10
194.9999999999981
 20
-138.9411654104869
 30
0.0
 11
194.5000000000009
 21
-138.4411654104869
 31
0.0
  0
LINE
  5
13E
330
2
100
AcDbEntity
  8
L-ZISSEN
100
AcDbLine
 10
194.3000000000006
 20
-148.9999999999954
 30
0.0
 11
194.0000000000009
 21
-148.6999999999961
 31
0.0
  0
LINE
  5
13F
330
2
100
AcDbEntity
  8
L-ZISSEN
100
AcDbLine
 10
195.0
 20
-138.9411654104869
 30
0.0
 11
195.0000000000001
 21
-148.9999999999954
 31
0.0
  0
LINE
  5
140
330
2
100
AcDbEntity
  8
L-ZISSEN
100
AcDbLine
 10
194.0000000000008
 20
-148.6999999999961
 30
0.0
 11
194.0000000000009
 21
-139.4411654104869
 31
0.0
  0
LINE
  5
141
330
2
100
AcDbEntity
  8
L-ZISSEN
100
AcDbLine
 10
195.0000000000023
 20
-137.0006966111241
 30
0.0
 11
194.9999999999981
 21
-138.9411654104869
 31
0.0
  0
LINE
  5
142
330
2
100
AcDbEntity
  8
L-ZISSEN
100
AcDbLine
 10
194.5000000000009
 20
-138.4411654104869
 30
0.0
 11
194.5000000000009
 21
-136.9999999999954
 31
0.0
  0
ARC
  5
143
330
2
100
AcDbEntity
  8
L-ZISSEN
100
AcDbCircle
 10
193.2216843834953
 20
-131.7292909444449
 30
0.0
 40
5.271330170370607
100
AcDbArc
 50
245.0771192748311
 51
295.2523389966485
  0
ARC
  5
144
330
2
100
AcDbEntity
  8
L-ZISSEN
100
AcDbCircle
 10
200.0
 20
-116.3589373260792
 30
0.0
 40
20.64106267391694
100
AcDbArc
 50
257.3236813122706
 51
282.4944195184261
  0
LINE
  5
145
330
2
100
AcDbEntity
  8
L-ZISSEN
100
AcDbLine
 10
193.2216843834953
 20
-137.0006211148165
 30
0.0
 11
206.7127180599936
 21
-137.0014178845876
 31
0.0
  0
LINE
  5
146
330
2
100
AcDbEntity
  8
L-ZISSEN
100
AcDbLine
 10
194.4999999999981
 20
-138.9411654104869
 30
0.0
 11
202.9999999999995
 21
-138.9411654104869
 31
0.0
  0
LINE
  5
147
330
2
100
AcDbEntity
  8
L-ZISSEN
100
AcDbLine
 10
205.6999999999993
 20
-148.9999999999954
 30
0.0
 11
194.3000000000006
 21
-148.9999999999954
 31
0.0
  0
LINE
  5
148
330
2
100
AcDbEntity
  8
L-ZISSEN
100
AcDbLine
 10
195.4704636819828
 20
-134.5031191579446
 30
0.0
 11
195.4704636819897
 21
-136.496880842048
 31
0.0
  0
LINE
  5
149
330
2
100
AcDbEntity
  8
L-ZISSEN
100
AcDbLine
 10
191.0003563799173
 20
-134.4902672699399
 30
0.0
 11
191.0003563799173
 21
-136.5097327300527
 31
0.0
  0
LINE
  5
14A
330
2
100
AcDbEntity
  8
L-ZISSEN
100
AcDbLine
 10
208.9996436200876
 20
-134.5205025069017
 30
0.0
 11
208.9996436200876
 21
-136.4794974930891
 31
0.0
  0
LINE
  5
14B
330
2
100
AcDbEntity
  8
L-ZISSEN
100
AcDbLine
 10
204.4633756370185
 20
-134.5025880436833
 30
0.0
 11
204.4633756370185
 21
-136.4974119563112
 31
0.0
  0
LINE
  5
14C
330
2
100
AcDbEntity
  8
L-ZISSEN
100
AcDbLine
 10
221.0650000000009
 20
-116.3387389116278
 30
0.0
 11
225.2800000000001
 21
-114.3387389116278
 31
0.0
  0
ARC
  5
14D
330
2
100
AcDbEntity
  8
L-ZISSEN
100
AcDbCircle
 10
221.9999999999995
 20
-122.4036840439848
 30
0.0
 40
8.000000000000113
100
AcDbArc
 50
283.906237065242
 51
0.0
  0
LINE
  5
14E
330
2
100
AcDbEntity
  8
L-ZISSEN
100
AcDbLine
 10
216.8499999999994
 20
-114.3387389116278
 30
0.0
 11
221.0650000000009
 21
-116.3387389116278
 31
0.0
  0
ARC
  5
14F
330
2
100
AcDbEntity
  8
L-ZISSEN
100
AcDbCircle
 10
200.0
 20
108.1887061056431
 30
0.0
 40
67.68870610564736
100
AcDbArc
 50
259.4215471024246
 51
280.5784528975753
  0
ARC
  5
150
330
2
100
AcDbEntity
  8
L-ZISSEN
100
AcDbCircle
 10
200.0
 20
-21.18870610565045
 30
0.0
 40
67.68870610564736
100
AcDbArc
 50
79.42154710242468
 51
100.5784528975753
  0
LINE
  5
151
330
2
100
AcDbEntity
  8
L-ZISSEN
100
AcDbLine
 10
175.6886587268054
 20
50.49999999999272
 30
0.0
 11
224.3113412731945
 21
50.49999999999272
 31
0.0
  0
LINE
  5
152
330
2
100
AcDbEntity
  8
L-ZISSEN
100
AcDbLine
 10
178.5
 20
60.49999999999636
 30
0.0
 11
221.5000000000018
 21
60.49999999999636
 31
0.0
  0
LINE
  5
153
330
2
100
AcDbEntity
  8
L-ZISSEN
100
AcDbLine
 10
177.5605898642121
 20
62.49999999999636
 30
0.0
 11
222.4394101357805
 21
62.49999999999636
 31
0.0
  0
LINE
  5
154
330
2
100
AcDbEntity
  8
L-ZISSEN
100
AcDbLine
 10
221.2132034355963
 20
40.49999999999636
 30
0.0
 11
178.7867965644036
 21
40.49999999999636
 31
0.0
  0
LINE
  5
155
330
2
100
AcDbEntity
  8
L-ZISSEN
100
AcDbLine
 10
221.2132034355963
 20
46.49999999999636
 30
0.0
 11
178.7867965644036
 21
46.49999999999636
 31
0.0
  0
LINE
  5
156
330
2
100
AcDbEntity
  8
L-ZISSEN
100
AcDbLine
 10
208.1249999999999
 20
-40.99999999999545
 30
0.0
 11
211.2499999999999
 21
-42.87499999999545
 31
0.0
  0
LINE
  5
157
330
2
100
AcDbEntity
  8
L-ZISSEN
100
AcDbLine
 10
208.1249999999999
 20
-44.74999999999545
 30
0.0
 11
211.2499999999999
 21
-42.87499999999545
 31
0.0
  0
LINE
  5
158
330
2
100
AcDbEntity
  8
L-ZISSEN
100
AcDbLine
 10
200.0
 20
-70.99999999999545
 30
0.0
 11
214.0624999999977
 21
-67.24999999999545
 31
0.0
  0
LINE
  5
159
330
2
100
AcDbEntity
  8
L-ZISSEN
100
AcDbLine
 10
200.0
 20
-62.24999999999545
 30
0.0
 11
213.1249999999977
 21
-60.37499999999545
 31
0.0
  0
LINE
  5
15A
330
2
100
AcDbEntity
  8
L-ZISSEN
100
AcDbLine
 10
200.0
 20
-63.08117225722253
 30
0.0
 11
211.9144331348343
 21
-61.37911038081893
 31
0.0
  0
LINE
  5
15B
330
2
100
AcDbEntity
  8
L-ZISSEN
100
AcDbLine
 10
211.9144331348343
 20
-65.94202551104081
 30
0.0
 11
200.0
 21
-68.4363834854712
 31
0.0
  0
LINE
  5
15C
330
2
100
AcDbEntity
  8
L-ZISSEN
100
AcDbLine
 10
187.1875
 20
-75.99999999999545
 30
0.0
 11
212.8124999999999
 21
-75.99999999999545
 31
0.0
  0
CIRCLE
  5
15D
330
2
100
AcDbEntity
  8
L-SOUZOU
100
AcDbCircle
 10
200.0000000000002
 20
0.0
 30
0.0
 40
21.0
  0
CIRCLE
  5
15E
330
2
100
AcDbEntity
  8
L-SOUZOU
100
AcDbCircle
 10
200.0000000000002
 20
0.0
 30
0.0
 40
18.0
  0
LINE
  5
15F
330
2
100
AcDbEntity
  8
L-ZISSEN
100
AcDbLine
 10
191.875
 20
-40.99999999999545
 30
0.0
 11
188.75
 21
-42.87499999999545
 31
0.0
  0
LINE
  5
160
330
2
100
AcDbEntity
  8
L-ZISSEN
100
AcDbLine
 10
191.875
 20
-44.74999999999545
 30
0.0
 11
188.75
 21
-42.87499999999545
 31
0.0
  0
LINE
  5
161
330
2
100
AcDbEntity
  8
L-ZISSEN
100
AcDbLine
 10
200.0
 20
-70.99999999999545
 30
0.0
 11
185.9374999999977
 21
-67.24999999999545
 31
0.0
  0
LINE
  5
162
330
2
100
AcDbEntity
  8
L-ZISSEN
100
AcDbLine
 10
200.0
 20
-63.08117225722253
 30
0.0
 11
188.0855668651656
 21
-61.37911038081893
 31
0.0
  0
LINE
  5
163
330
2
100
AcDbEntity
  8
L-ZISSEN
100
AcDbLine
 10
188.0855668651656
 20
-65.94202551104081
 30
0.0
 11
200.0
 21
-68.4363834854712
 31
0.0
  0
LINE
  5
164
330
2
100
AcDbEntity
  8
L-ZISSEN
100
AcDbLine
 10
200.0
 20
-62.24999999999545
 30
0.0
 11
186.8749999999977
 21
-60.37499999999545
 31
0.0
  0
LINE
  5
165
330
2
100
AcDbEntity
  8
L-ZISSEN
100
AcDbLine
 10
174.7199999999998
 20
-46.33873891162693
 30
0.0
 11
183.1500000000005
 21
-46.33873891162693
 31
0.0
  0
LINE
  5
166
330
2
100
AcDbEntity
  8
L-ZISSEN
100
AcDbLine
 10
188.0855668651656
 20
-61.37911038081893
 30
0.0
 11
188.0855668651656
 21
-65.94202551104081
 31
0.0
  0
LINE
  5
167
330
2
100
AcDbEntity
  8
L-ZISSEN
100
AcDbLine
 10
185.9374999999977
 20
-67.24999999999545
 30
0.0
 11
188.0855668651656
 21
-65.94202551104081
 31
0.0
  0
LINE
  5
168
330
2
100
AcDbEntity
  8
L-ZISSEN
100
AcDbLine
 10
188.0855668651656
 20
-61.37911038081893
 30
0.0
 11
186.8749999999977
 21
-60.37499999999545
 31
0.0
  0
LINE
  5
169
330
2
100
AcDbEntity
  8
L-ZISSEN
100
AcDbLine
 10
188.0855668651656
 20
-60.54793812359093
 30
0.0
 11
186.8749999999977
 21
-60.37499999999545
 31
0.0
  0
ARC
  5
16A
330
2
100
AcDbEntity
  8
L-ZISSEN
100
AcDbCircle
 10
187.1875
 20
-74.74999999999545
 30
0.0
 40
1.250000000000568
100
AcDbArc
 50
180.0
 51
270.0
  0
LINE
  5
16B
330
2
100
AcDbEntity
  8
L-ZISSEN
100
AcDbLine
 10
185.9374999999977
 20
-35.99999999999545
 30
0.0
 11
185.9374999999977
 21
-59.78927536712854
 31
0.0
  0
LINE
  5
16C
330
2
100
AcDbEntity
  8
L-ZISSEN
100
AcDbLine
 10
186.8749999999977
 20
-35.99999999999545
 30
0.0
 11
186.8749999999977
 21
-60.37499999999545
 31
0.0
  0
LINE
  5
16D
330
2
100
AcDbEntity
  8
L-ZISSEN
100
AcDbLine
 10
185.9374999999977
 20
-35.99999999999545
 30
0.0
 11
185.9374999999977
 21
-74.74999999999545
 31
0.0
  0
LINE
  5
16E
330
2
100
AcDbEntity
  8
L-ZISSEN
100
AcDbLine
 10
196.875
 20
-42.24999999999545
 30
0.0
 11
196.875
 21
-43.49999999999545
 31
0.0
  0
LINE
  5
16F
330
2
100
AcDbEntity
  8
L-ZISSEN
100
AcDbLine
 10
208.1249999999999
 20
-42.24999999999545
 30
0.0
 11
208.1249999999999
 21
-40.99999999999545
 31
0.0
  0
LINE
  5
170
330
2
100
AcDbEntity
  8
L-ZISSEN
100
AcDbLine
 10
203.125
 20
-42.24999999999545
 30
0.0
 11
203.125
 21
-43.49999999999545
 31
0.0
  0
LINE
  5
171
330
2
100
AcDbEntity
  8
L-ZISSEN
100
AcDbLine
 10
201.2500000000022
 20
-39.74999999999454
 30
0.0
 11
198.7500000000022
 21
-39.74999999999454
 31
0.0
  0
LINE
  5
172
330
2
100
AcDbEntity
  8
L-ZISSEN
100
AcDbLine
 10
203.125
 20
-42.24999999999545
 30
0.0
 11
208.1249999999999
 21
-42.24999999999545
 31
0.0
  0
LINE
  5
173
330
2
100
AcDbEntity
  8
L-ZISSEN
100
AcDbLine
 10
203.125
 20
-42.24999999999545
 30
0.0
 11
208.1249999999999
 21
-42.24999999999545
 31
0.0
  0
LINE
  5
174
330
2
100
AcDbEntity
  8
L-ZISSEN
100
AcDbLine
 10
203.125
 20
-43.49999999999545
 30
0.0
 11
208.1249999999999
 21
-43.49999999999545
 31
0.0
  0
LINE
  5
175
330
2
100
AcDbEntity
  8
L-ZISSEN
100
AcDbLine
 10
203.125
 20
-43.49999999999545
 30
0.0
 11
208.1249999999999
 21
-43.49999999999545
 31
0.0
  0
LINE
  5
176
330
2
100
AcDbEntity
  8
L-ZISSEN
100
AcDbLine
 10
208.1249999999999
 20
-43.49999999999545
 30
0.0
 11
208.1249999999999
 21
-44.74999999999545
 31
0.0
  0
LINE
  5
177
330
2
100
AcDbEntity
  8
L-ZISSEN
100
AcDbLine
 10
203.7500000000022
 20
-49.74999999999454
 30
0.0
 11
200.0000000000022
 21
-55.99999999999454
 31
0.0
  0
LINE
  5
178
330
2
100
AcDbEntity
  8
L-ZISSEN
100
AcDbLine
 10
209.3749999999977
 20
-68.49999999999545
 30
0.0
 11
209.3749999999977
 21
-75.99999999999545
 31
0.0
  0
CIRCLE
  5
179
330
2
100
AcDbEntity
  8
L-ZISSEN
100
AcDbCircle
 10
200.0
 20
-65.99645470116866
 30
0.0
 40
1.25
  0
ARC
  5
17A
330
2
100
AcDbEntity
  8
L-ZISSEN
100
AcDbCircle
 10
200.0
 20
-72.24999999999545
 30
0.0
 40
1.250000000000568
100
AcDbArc
 50
180.0
 51
0.0
  0
LINE
  5
17B
330
2
100
AcDbEntity
  8
L-ZISSEN
100
AcDbLine
 10
198.7499999999977
 20
-70.66666666666151
 30
0.0
 11
198.75
 21
-72.24999999999545
 31
0.0
  0
LINE
  5
17C
330
2
100
AcDbEntity
  8
L-ZISSEN
100
AcDbLine
 10
200.0
 20
-62.24999999999545
 30
0.0
 11
200.0
 21
-63.08117225722253
 31
0.0
  0
LINE
  5
17D
330
2
100
AcDbEntity
  8
L-ZISSEN
100
AcDbLine
 10
200.0
 20
-70.99999999999545
 30
0.0
 11
200.0
 21
-68.4363834854712
 31
0.0
  0
LINE
  5
17E
330
2
100
AcDbEntity
  8
L-ZISSEN
100
AcDbLine
 10
201.25
 20
-70.66666666666151
 30
0.0
 11
201.25
 21
-72.24999999999545
 31
0.0
  0
LINE
  5
17F
330
2
100
AcDbEntity
  8
L-TYUSIN
100
AcDbLine
 10
197.8132064374449
 20
-65.99645470116866
 30
0.0
 11
202.0079864123567
 21
-65.99645470116866
 31
0.0
  0
LINE
  5
180
330
2
100
AcDbEntity
  8
L-ZISSEN
100
AcDbLine
 10
201.2500000000022
 20
-49.74999999999454
 30
0.0
 11
203.7500000000022
 21
-49.74999999999454
 31
0.0
  0
LINE
  5
181
330
2
100
AcDbEntity
  8
L-ZISSEN
100
AcDbLine
 10
198.7500000000022
 20
-39.74999999999454
 30
0.0
 11
198.7500000000022
 21
-49.74999999999454
 31
0.0
  0
LINE
  5
182
330
2
100
AcDbEntity
  8
L-ZISSEN
100
AcDbLine
 10
198.7500000000022
 20
-39.74999999999454
 30
0.0
 11
198.7500000000022
 21
-49.74999999999454
 31
0.0
  0
LINE
  5
183
330
2
100
AcDbEntity
  8
L-ZISSEN
100
AcDbLine
 10
201.2500000000022
 20
-39.74999999999454
 30
0.0
 11
201.2500000000022
 21
-49.74999999999454
 31
0.0
  0
LINE
  5
184
330
2
100
AcDbEntity
  8
L-ZISSEN
100
AcDbLine
 10
201.2500000000022
 20
-39.74999999999454
 30
0.0
 11
201.2500000000022
 21
-49.74999999999454
 31
0.0
  0
LINE
  5
185
330
2
100
AcDbEntity
  8
L-ZISSEN
100
AcDbLine
 10
191.875
 20
-42.24999999999545
 30
0.0
 11
191.875
 21
-40.99999999999545
 31
0.0
  0
LINE
  5
186
330
2
100
AcDbEntity
  8
L-ZISSEN
100
AcDbLine
 10
191.875
 20
-43.49999999999545
 30
0.0
 11
191.875
 21
-44.74999999999545
 31
0.0
  0
LINE
  5
187
330
2
100
AcDbEntity
  8
L-ZISSEN
100
AcDbLine
 10
190.625
 20
-68.49999999999545
 30
0.0
 11
190.6249999999977
 21
-75.99999999999545
 31
0.0
  0
LINE
  5
188
330
2
100
AcDbEntity
  8
L-ZISSEN
100
AcDbLine
 10
196.2500000000022
 20
-49.74999999999454
 30
0.0
 11
200.0000000000022
 21
-55.99999999999454
 31
0.0
  0
LINE
  5
189
330
2
100
AcDbEntity
  8
L-ZISSEN
100
AcDbLine
 10
198.7500000000022
 20
-49.74999999999454
 30
0.0
 11
196.2500000000022
 21
-49.74999999999454
 31
0.0
  0
LINE
  5
18A
330
2
100
AcDbEntity
  8
L-ZISSEN
100
AcDbLine
 10
196.875
 20
-42.24999999999545
 30
0.0
 11
191.875
 21
-42.24999999999545
 31
0.0
  0
LINE
  5
18B
330
2
100
AcDbEntity
  8
L-ZISSEN
100
AcDbLine
 10
196.875
 20
-42.24999999999545
 30
0.0
 11
191.875
 21
-42.24999999999545
 31
0.0
  0
LINE
  5
18C
330
2
100
AcDbEntity
  8
L-ZISSEN
100
AcDbLine
 10
196.875
 20
-43.49999999999545
 30
0.0
 11
191.875
 21
-43.49999999999545
 31
0.0
  0
LINE
  5
18D
330
2
100
AcDbEntity
  8
L-ZISSEN
100
AcDbLine
 10
196.875
 20
-43.49999999999545
 30
0.0
 11
191.875
 21
-43.49999999999545
 31
0.0
  0
LINE
  5
18E
330
2
100
AcDbEntity
  8
L-SOUZOU
100
AcDbLine
 10
199.3143999999972
 20
-1.87840000000051
 30
0.0
 11
189.2519999999963
 21
-11.33119999999962
 31
0.0
  0
LINE
  5
18F
330
2
100
AcDbEntity
  8
L-TYUSIN
100
AcDbLine
 10
208.4215999999957
 20
8.42160000000058
 30
0.0
 11
187.698399999994
 21
-12.30159999999978
 31
0.0
  0
LINE
  5
190
330
2
100
AcDbEntity
  8
L-SOUZOU
100
AcDbLine
 10
198.1215999999958
 20
-0.6855999999997949
 30
0.0
 11
188.6687999999967
 21
-10.74799999999959
 31
0.0
  0
LINE
  5
191
330
2
100
AcDbEntity
  8
L-ZISSEN
100
AcDbLine
 10
178.5
 20
60.49999999999181
 30
0.0
 11
178.5
 21
50.49999999999272
 31
0.0
  0
LINE
  5
192
330
2
100
AcDbEntity
  8
L-ZISSEN
100
AcDbLine
 10
179.7500000000018
 20
62.49999999999636
 30
0.0
 11
179.7500000000018
 21
60.49999999999181
 31
0.0
  0
LINE
  5
193
330
2
100
AcDbEntity
  8
L-ZISSEN
100
AcDbLine
 10
187.5735931288071
 20
45.34959374134177
 30
0.0
 11
187.5735931288071
 21
41.65040625865095
 31
0.0
  0
LINE
  5
194
330
2
100
AcDbEntity
  8
L-ZISSEN
100
AcDbLine
 10
174.0
 20
40.83732627715107
 30
0.0
 11
174.0
 21
38.49999999999636
 31
0.0
  0
LINE
  5
195
330
2
100
AcDbEntity
  8
L-SAISEN
100
AcDbLine
 10
175.6886587268018
 20
40.64089891235107
 30
0.0
 11
175.6886587268018
 21
38.49999999999636
 31
0.0
  0
LINE
  5
196
330
2
100
AcDbEntity
  8
L-ZISSEN
100
AcDbLine
 10
170.0
 20
45.34959374134177
 30
0.0
 11
170.0
 21
41.65040625865095
 31
0.0
  0
LINE
  5
197
330
2
100
AcDbEntity
  8
L-SAISEN
100
AcDbLine
 10
175.6886587268054
 20
50.49999999999272
 30
0.0
 11
175.6886587268054
 21
46.35910108764164
 31
0.0
  0
LINE
  5
198
330
2
100
AcDbEntity
  8
L-ZISSEN
100
AcDbLine
 10
174.0000000000018
 20
49.76856214095732
 30
0.0
 11
174.0000000000018
 21
46.16267372284255
 31
0.0
  0
LINE
  5
199
330
2
100
AcDbEntity
  8
L-ZISSEN
100
AcDbLine
 10
175.6886587268054
 20
50.49999999999272
 30
0.0
 11
174.0000000000018
 21
49.76856214095732
 31
0.0
  0
ARC
  5
19A
330
2
100
AcDbEntity
  8
L-ZISSEN
100
AcDbCircle
 10
177.5605898642121
 20
64.79999999999654
 30
0.0
 40
2.299999999999999
100
AcDbArc
 50
179.1040647226661
 51
270.0
  0
ARC
  5
19B
330
2
100
AcDbEntity
  8
L-ZISSEN
100
AcDbCircle
 10
178.7867965644036
 20
74.63195461748364
 30
0.0
 40
34.1319546174875
100
AcDbArc
 50
255.082017639271
 51
284.9179823607288
  0
ARC
  5
19C
330
2
100
AcDbEntity
  8
L-ZISSEN
100
AcDbCircle
 10
178.7867965644036
 20
12.36804538250908
 30
0.0
 40
34.1319546174875
100
AcDbArc
 50
75.0820176392711
 51
104.9179823607288
  0
LINE
  5
19D
330
2
100
AcDbEntity
  8
L-ZISSEN
100
AcDbLine
 10
185.0
 20
-12.49999999998999
 30
0.0
 11
185.0
 21
12.99999999999636
 31
0.0
  0
LINE
  5
19E
330
2
100
AcDbEntity
  8
L-ZISSEN
100
AcDbLine
 10
180.0
 20
-12.49999999998999
 30
0.0
 11
180.0
 21
12.99999999999636
 31
0.0
  0
LINE
  5
19F
330
2
100
AcDbEntity
  8
L-ZISSEN
100
AcDbLine
 10
179.8711346162617
 20
32.48939319218607
 30
0.0
 11
179.8711346162617
 21
33.63252710028882
 31
0.0
  0
LINE
  5
1A0
330
2
100
AcDbEntity
  8
L-ZISSEN
100
AcDbLine
 10
175.8925452216953
 20
35.60366223340406
 30
0.0
 11
177.1074547783027
 21
35.60366223340406
 31
0.0
  0
ARC
  5
1A1
330
2
100
AcDbEntity
  8
L-SOUZOU
100
AcDbCircle
 10
188.960799999995
 20
-11.02240000000074
 30
0.0
 40
0.4
100
AcDbArc
 50
136.789999999893
 51
225.0000000000874
  0
ARC
  5
1A2
330
2
100
AcDbEntity
  8
L-SOUZOU
100
AcDbCircle
 10
188.9775999999956
 20
-11.03920000000016
 30
0.0
 40
0.4
100
AcDbArc
 50
225.0000000000874
 51
313.2099999998304
  0
LINE
  5
1A3
330
2
100
AcDbEntity
  8
L-SOUZOU
100
AcDbLine
 10
188.6863999999945
 20
-11.3136000000004
 30
0.0
 11
188.6951999999932
 21
-11.32240000000001
 31
0.0
  0
LINE
  5
1A4
330
2
100
AcDbEntity
  8
L-SOUZOU
100
AcDbLine
 10
188.6863999999945
 20
-11.3136000000004
 30
0.0
 11
188.6775999999956
 21
-11.30479999999897
 31
0.0
  0
LINE
  5
1A5
330
2
100
AcDbEntity
  8
L-ZISSEN
100
AcDbLine
 10
173.1288653837382
 20
33.63252710028882
 30
0.0
 11
173.1288653837382
 21
32.48939319218607
 31
0.0
  0
LINE
  5
1A6
330
2
100
AcDbEntity
  8
L-ZISSEN
100
AcDbLine
 10
170.0
 20
12.99999999999636
 30
0.0
 11
170.0
 21
26.49999999999636
 31
0.0
  0
LINE
  5
1A7
330
2
100
AcDbEntity
  8
L-ZISSEN
100
AcDbLine
 10
173.1288653837382
 20
32.48939319218607
 30
0.0
 11
179.8711346162617
 21
32.48939319218607
 31
0.0
  0
LINE
  5
1A8
330
2
100
AcDbEntity
  8
L-ZISSEN
100
AcDbLine
 10
179.8711346162617
 20
33.63252710028882
 30
0.0
 11
173.1288653837382
 21
33.63252710028882
 31
0.0
  0
LINE
  5
1A9
330
2
100
AcDbEntity
  8
L-ZISSEN
100
AcDbLine
 10
181.5384372085318
 20
38.49999999999636
 30
0.0
 11
181.5384372085318
 21
32.48939319218607
 31
0.0
  0
ARC
  5
1AA
330
2
100
AcDbEntity
  8
L-ZISSEN
100
AcDbCircle
 10
175.8336259821171
 20
33.87381361187999
 30
0.0
 40
2.715501624969247
100
AcDbArc
 50
88.7567347921917
 51
185.0977525317111
  0
LINE
  5
1AB
330
2
100
AcDbEntity
  8
L-ZISSEN
100
AcDbLine
 10
177.1074547783027
 20
35.60366223340406
 30
0.0
 11
177.1074547783027
 21
36.58867596537402
 31
0.0
  0
LINE
  5
1AC
330
2
100
AcDbEntity
  8
L-ZISSEN
100
AcDbLine
 10
175.8925452216953
 20
36.58867596537402
 30
0.0
 11
175.8925452216953
 21
35.60366223340406
 31
0.0
  0
ARC
  5
1AD
330
2
100
AcDbEntity
  8
L-ZISSEN
100
AcDbCircle
 10
177.1663740178828
 20
33.87381361187999
 30
0.0
 40
2.715501624970328
100
AcDbArc
 50
354.9022474682888
 51
91.24326520780831
  0
ARC
  5
1AE
330
2
100
AcDbEntity
  8
L-SOUZOU
100
AcDbCircle
 10
200.0000000000002
 20
0.0
 30
0.0
 40
2.0
100
AcDbArc
 50
73.51949999987474
 51
200.0599999999713
  0
LINE
  5
1AF
330
2
100
AcDbEntity
  8
L-SOUZOU
100
AcDbLine
 10
207.6367999999961
 20
5.939999999999599
 30
0.0
 11
201.9175999999979
 21
0.5672000000004119
 31
0.0
  0
LINE
  5
1B0
330
2
100
AcDbEntity
  8
L-SOUZOU
100
AcDbLine
 10
205.9399999999966
 20
7.636800000000221
 30
0.0
 11
200.5671999999963
 21
1.917599999999765
 31
0.0
  0
ARC
  5
1B1
330
2
100
AcDbEntity
  8
L-SOUZOU
100
AcDbCircle
 10
200.0000000000002
 20
0.0
 30
0.0
 40
2.0
100
AcDbArc
 50
249.939999999777
 51
16.48050000008154
  0
CIRCLE
  5
1B2
330
2
100
AcDbEntity
  8
L-SOUZOU
100
AcDbCircle
 10
200.0000000000002
 20
0.0
 30
0.0
 40
1.2
  0
LINE
  5
1B3
330
2
100
AcDbEntity
  8
L-SOUZOU
100
AcDbLine
 10
205.9399999999966
 20
7.636800000000221
 30
0.0
 11
207.6367999999961
 21
5.939999999999599
 31
0.0
  0
CIRCLE
  5
1B4
330
2
100
AcDbEntity
  8
L-ZISSEN
100
AcDbCircle
 10
200.0000000000002
 20
0.0
 30
0.0
 40
5.724999999999999
  0
CIRCLE
  5
1B5
330
2
100
AcDbEntity
  8
L-SAISEN
100
AcDbCircle
 10
200.0000000000002
 20
0.0
 30
0.0
 40
6.58
  0
LINE
  5
1B6
330
2
100
AcDbEntity
  8
L-ZISSEN
100
AcDbLine
 10
251.5000000000027
 20
-19.99999999999909
 30
0.0
 11
251.5000000000027
 21
-11.9068971185643
 31
0.0
  0
LINE
  5
1B7
330
2
100
AcDbEntity
  8
L-ZISSEN
100
AcDbLine
 10
251.4999999999997
 20
-20.0
 30
0.0
 11
251.4999999999997
 21
-11.9068971185643
 31
0.0
  0
LINE
  5
1B8
330
2
100
AcDbEntity
  8
L-ZISSEN
100
AcDbLine
 10
237.5
 20
-35.99999999999545
 30
0.0
 11
237.5000000000001
 21
-11.9068971185643
 31
0.0
  0
LINE
  5
1B9
330
2
100
AcDbEntity
  8
L-ZISSEN
100
AcDbLine
 10
225.2800000000001
 20
-46.33873891162693
 30
0.0
 11
216.8499999999994
 21
-46.33873891162693
 31
0.0
  0
LINE
  5
1BA
330
2
100
AcDbEntity
  8
L-ZISSEN
100
AcDbLine
 10
214.0624999999977
 20
-67.24999999999545
 30
0.0
 11
211.9144331348343
 21
-65.94202551104081
 31
0.0
  0
LINE
  5
1BB
330
2
100
AcDbEntity
  8
L-ZISSEN
100
AcDbLine
 10
211.9144331348343
 20
-60.54793812359093
 30
0.0
 11
213.1249999999977
 21
-60.37499999999545
 31
0.0
  0
LINE
  5
1BC
330
2
100
AcDbEntity
  8
L-ZISSEN
100
AcDbLine
 10
211.9144331348343
 20
-61.37911038081893
 30
0.0
 11
213.1249999999977
 21
-60.37499999999545
 31
0.0
  0
LINE
  5
1BD
330
2
100
AcDbEntity
  8
L-ZISSEN
100
AcDbLine
 10
211.9144331348343
 20
-61.37911038081893
 30
0.0
 11
211.9144331348343
 21
-65.94202551104081
 31
0.0
  0
ARC
  5
1BE
330
2
100
AcDbEntity
  8
L-ZISSEN
100
AcDbCircle
 10
212.8124999999999
 20
-74.74999999999545
 30
0.0
 40
1.249999999999715
100
AcDbArc
 50
270.0
 51
0.0
  0
LINE
  5
1BF
330
2
100
AcDbEntity
  8
L-ZISSEN
100
AcDbLine
 10
214.0624999999977
 20
-35.99999999999545
 30
0.0
 11
214.0624999999977
 21
-59.78927536712854
 31
0.0
  0
LINE
  5
1C0
330
2
100
AcDbEntity
  8
L-ZISSEN
100
AcDbLine
 10
213.1249999999977
 20
-35.99999999999545
 30
0.0
 11
213.1249999999977
 21
-60.37499999999545
 31
0.0
  0
LINE
  5
1C1
330
2
100
AcDbEntity
  8
L-ZISSEN
100
AcDbLine
 10
214.0624999999977
 20
-35.99999999999545
 30
0.0
 11
214.0624999999977
 21
-74.74999999999545
 31
0.0
  0
LINE
  5
1C2
330
2
100
AcDbEntity
  8
L-TYUSIN
100
AcDbLine
 10
244.4999999999999
 20
-31.0
 30
0.0
 11
244.4999999999999
 21
-49.0
 31
0.0
  0
LINE
  5
1C3
330
2
100
AcDbEntity
  8
L-ZISSEN
100
AcDbLine
 10
251.5000000000029
 20
-35.99999999999636
 30
0.0
 11
251.5000000000029
 21
-23.49999999998999
 31
0.0
  0
ARC
  5
1C4
330
2
100
AcDbEntity
  8
L-ZISSEN
100
AcDbCircle
 10
244.4999999999999
 20
-38.0
 30
0.0
 40
4.5
100
AcDbArc
 50
0.0
 51
180.0
  0
LINE
  5
1C5
330
2
100
AcDbEntity
  8
L-ZISSEN
100
AcDbLine
 10
240.0
 20
-42.0
 30
0.0
 11
240.0
 21
-38.0
 31
0.0
  0
LINE
  5
1C6
330
2
100
AcDbEntity
  8
L-ZISSEN
100
AcDbLine
 10
249.0
 20
-42.0
 30
0.0
 11
249.0
 21
-38.0
 31
0.0
  0
ARC
  5
1C7
330
2
100
AcDbEntity
  8
L-ZISSEN
100
AcDbCircle
 10
244.4999999999999
 20
-42.0
 30
0.0
 40
4.5
100
AcDbArc
 50
180.0
 51
0.0
  0
LINE
  5
1C8
330
2
100
AcDbEntity
  8
L-ZISSEN
100
AcDbLine
 10
253.25
 20
-20.0
 30
0.0
 11
252.7499999999999
 21
-23.0
 31
0.0
  0
LINE
  5
1C9
330
2
100
AcDbEntity
  8
L-ZISSEN
100
AcDbLine
 10
253.25
 20
-20.0
 30
0.0
 11
252.7499999999999
 21
-23.0
 31
0.0
  0
LINE
  5
1CA
330
2
100
AcDbEntity
  8
L-ZISSEN
100
AcDbLine
 10
251.4999999999998
 20
-35.00000000000273
 30
0.0
 11
251.4999999999998
 21
-23.0000000000009
 31
0.0
  0
LINE
  5
1CB
330
2
100
AcDbEntity
  8
L-ZISSEN
100
AcDbLine
 10
233.4999999999999
 20
-50.0
 30
0.0
 11
233.4999999999999
 21
-35.99999999999545
 31
0.0
  0
LINE
  5
1CC
330
2
100
AcDbEntity
  8
L-ZISSEN
100
AcDbLine
 10
237.5
 20
-23.0
 30
0.0
 11
252.7499999999999
 21
-23.0
 31
0.0
  0
LINE
  5
1CD
330
2
100
AcDbEntity
  8
L-ZISSEN
100
AcDbLine
 10
253.25
 20
-20.0
 30
0.0
 11
237.5
 21
-20.0
 31
0.0
  0
LINE
  5
1CE
330
2
100
AcDbEntity
  8
L-ZISSEN
100
AcDbLine
 10
218.4615627914681
 20
32.48939319218607
 30
0.0
 11
235.0
 21
32.48939319218607
 31
0.0
  0
LINE
  5
1CF
330
2
100
AcDbEntity
  8
L-ZISSEN
100
AcDbLine
 10
226.0
 20
40.83732627715107
 30
0.0
 11
226.0
 21
38.49999999999636
 31
0.0
  0
LINE
  5
1D0
330
2
100
AcDbEntity
  8
L-SAISEN
100
AcDbLine
 10
224.3113412731982
 20
40.64089891235107
 30
0.0
 11
224.3113412731982
 21
38.49999999999636
 31
0.0
  0
ARC
  5
1D1
330
2
100
AcDbEntity
  8
L-ZISSEN
100
AcDbCircle
 10
222.4394101357805
 20
64.79999999999654
 30
0.0
 40
2.299999999999999
100
AcDbArc
 50
270.0
 51
0.8959352773337991
  0
LINE
  5
1D2
330
2
100
AcDbEntity
  8
L-ZISSEN
100
AcDbLine
 10
221.5000000000018
 20
60.49999999999181
 30
0.0
 11
221.5000000000018
 21
50.49999999999272
 31
0.0
  0
LINE
  5
1D3
330
2
100
AcDbEntity
  8
L-ZISSEN
100
AcDbLine
 10
220.2500000000018
 20
62.49999999999636
 30
0.0
 11
220.2500000000018
 21
60.49999999999181
 31
0.0
  0
LINE
  5
1D4
330
2
100
AcDbEntity
  8
L-ZISSEN
100
AcDbLine
 10
226.0
 20
49.76856214095732
 30
0.0
 11
226.0
 21
46.16267372284255
 31
0.0
  0
LINE
  5
1D5
330
2
100
AcDbEntity
  8
L-SAISEN
100
AcDbLine
 10
224.3113412731945
 20
50.49999999999272
 30
0.0
 11
224.3113412731945
 21
46.35910108764164
 31
0.0
  0
LINE
  5
1D6
330
2
100
AcDbEntity
  8
L-ZISSEN
100
AcDbLine
 10
224.3113412731945
 20
50.49999999999272
 30
0.0
 11
226.0
 21
49.76856214095732
 31
0.0
  0
LINE
  5
1D7
330
2
100
AcDbEntity
  8
L-ZISSEN
100
AcDbLine
 10
230.0
 20
45.34959374134177
 30
0.0
 11
230.0
 21
41.65040625865095
 31
0.0
  0
LINE
  5
1D8
330
2
100
AcDbEntity
  8
L-ZISSEN
100
AcDbLine
 10
212.4264068711928
 20
45.34959374134177
 30
0.0
 11
212.4264068711928
 21
41.65040625865095
 31
0.0
  0
ARC
  5
1D9
330
2
100
AcDbEntity
  8
L-ZISSEN
100
AcDbCircle
 10
221.2132034355963
 20
12.36804538250908
 30
0.0
 40
34.1319546174875
100
AcDbArc
 50
75.0820176392711
 51
104.9179823607288
  0
ARC
  5
1DA
330
2
100
AcDbEntity
  8
L-ZISSEN
100
AcDbCircle
 10
221.2132034355963
 20
74.63195461748364
 30
0.0
 40
34.1319546174875
100
AcDbArc
 50
255.082017639271
 51
284.9179823607288
  0
LINE
  5
1DB
330
2
100
AcDbEntity
  8
L-ZISSEN
100
AcDbLine
 10
220.0000000000004
 20
-12.49999999998999
 30
0.0
 11
220.0000000000003
 21
12.99999999999636
 31
0.0
  0
LINE
  5
1DC
330
2
100
AcDbEntity
  8
L-ZISSEN
100
AcDbLine
 10
221.0000000000001
 20
12.0
 30
0.0
 11
221.0000000000001
 21
-11.9068971185643
 31
0.0
  0
LINE
  5
1DD
330
2
100
AcDbEntity
  8
L-ZISSEN
100
AcDbLine
 10
220.1288653837382
 20
33.63252710028882
 30
0.0
 11
226.8711346162617
 21
33.63252710028882
 31
0.0
  0
LINE
  5
1DE
330
2
100
AcDbEntity
  8
L-ZISSEN
100
AcDbLine
 10
226.8711346162617
 20
32.48939319218607
 30
0.0
 11
220.1288653837382
 21
32.48939319218607
 31
0.0
  0
LINE
  5
1DF
330
2
100
AcDbEntity
  8
L-ZISSEN
100
AcDbLine
 10
224.1074547783046
 20
35.60366223340406
 30
0.0
 11
222.8925452216972
 21
35.60366223340406
 31
0.0
  0
LINE
  5
1E0
330
2
100
AcDbEntity
  8
L-ZISSEN
100
AcDbLine
 10
220.1288653837382
 20
32.48939319218607
 30
0.0
 11
220.1288653837382
 21
33.63252710028882
 31
0.0
  0
LINE
  5
1E1
330
2
100
AcDbEntity
  8
L-ZISSEN
100
AcDbLine
 10
226.8711346162617
 20
33.63252710028882
 30
0.0
 11
226.8711346162617
 21
32.48939319218607
 31
0.0
  0
LINE
  5
1E2
330
2
100
AcDbEntity
  8
L-ZISSEN
100
AcDbLine
 10
230.0
 20
12.99999999999636
 30
0.0
 11
230.0
 21
26.49999999999636
 31
0.0
  0
LINE
  5
1E3
330
2
100
AcDbEntity
  8
L-ZISSEN
100
AcDbLine
 10
215.0
 20
-12.49999999998999
 30
0.0
 11
215.0
 21
12.99999999999636
 31
0.0
  0
ARC
  5
1E4
330
2
100
AcDbEntity
  8
L-ZISSEN
100
AcDbCircle
 10
224.1663740178828
 20
33.87381361187999
 30
0.0
 40
2.715501624969247
100
AcDbArc
 50
354.9022474682888
 51
91.24326520780831
  0
LINE
  5
1E5
330
2
100
AcDbEntity
  8
L-ZISSEN
100
AcDbLine
 10
218.4615627914681
 20
38.49999999999636
 30
0.0
 11
218.4615627914681
 21
32.48939319218607
 31
0.0
  0
LINE
  5
1E6
330
2
100
AcDbEntity
  8
L-ZISSEN
100
AcDbLine
 10
222.8925452216972
 20
35.60366223340406
 30
0.0
 11
222.8925452216972
 21
36.58867596537402
 31
0.0
  0
LINE
  5
1E7
330
2
100
AcDbEntity
  8
L-ZISSEN
100
AcDbLine
 10
224.1074547783046
 20
36.58867596537402
 30
0.0
 11
224.1074547783046
 21
35.60366223340406
 31
0.0
  0
ARC
  5
1E8
330
2
100
AcDbEntity
  8
L-ZISSEN
100
AcDbCircle
 10
222.8336259821171
 20
33.87381361187999
 30
0.0
 40
2.715501624970328
100
AcDbArc
 50
88.7567347921917
 51
185.0977525317111
  0
LINE
  5
1E9
330
2
100
AcDbEntity
  8
L-ZISSEN
100
AcDbLine
 10
240.0
 20
42.0
 30
0.0
 11
240.0
 21
38.0
 31
0.0
  0
LINE
  5
1EA
330
2
100
AcDbEntity
  8
L-ZISSEN
100
AcDbLine
 10
249.0
 20
42.0
 30
0.0
 11
249.0
 21
38.0
 31
0.0
  0
ARC
  5
1EB
330
2
100
AcDbEntity
  8
L-ZISSEN
100
AcDbCircle
 10
244.4999999999999
 20
42.0
 30
0.0
 40
4.5
100
AcDbArc
 50
0.0
 51
180.0
  0
SOLID
  5
1EC
330
2
100
AcDbEntity
  8
L-ZISSEN
100
AcDbTrace
 10
245.0587712743936
 20
1.949073055076951
 30
0.0
 11
245.6606992233701
 21
1.662494638782845
 31
0.0
 12
244.5000000000001
 22
0.0
 32
0.0
 13
244.5000000000001
 23
0.0
 33
0.0
  0
LINE
  5
1ED
330
2
100
AcDbEntity
  8
L-ZISSEN
100
AcDbLine
 10
251.4999999999996
 20
12.0
 30
0.0
 11
251.4999999999995
 21
19.99999999999909
 31
0.0
  0
LINE
  5
1EE
330
2
100
AcDbEntity
  8
L-TYUSIN
100
AcDbLine
 10
244.4999999999999
 20
9.0
 30
0.0
 11
244.4999999999999
 21
-9.0
 31
0.0
  0
CIRCLE
  5
1EF
330
2
100
AcDbEntity
  8
L-ZISSEN
100
AcDbCircle
 10
244.4999999999999
 20
0.0
 30
0.0
 40
3.299999999999999
  0
CIRCLE
  5
1F0
330
2
100
AcDbEntity
  8
L-ZISSEN
100
AcDbCircle
 10
244.4999999999999
 20
0.0
 30
0.0
 40
3.0
  0
CIRCLE
  5
1F1
330
2
100
AcDbEntity
  8
L-ZISSEN
100
AcDbCircle
 10
244.4999999999999
 20
0.0
 30
0.0
 40
3.0
  0
LINE
  5
1F2
330
2
100
AcDbEntity
  8
L-ZISSEN
100
AcDbLine
 10
253.25
 20
20.0
 30
0.0
 11
252.7499999999999
 21
23.0
 31
0.0
  0
LINE
  5
1F3
330
2
100
AcDbEntity
  8
L-TYUSIN
100
AcDbLine
 10
244.4999999999999
 20
49.0
 30
0.0
 11
244.4999999999999
 21
31.0
 31
0.0
  0
ARC
  5
1F4
330
2
100
AcDbEntity
  8
L-ZISSEN
100
AcDbCircle
 10
244.4999999999999
 20
38.0
 30
0.0
 40
4.5
100
AcDbArc
 50
180.0
 51
0.0
  0
LINE
  5
1F5
330
2
100
AcDbEntity
  8
L-ZISSEN
100
AcDbLine
 10
233.5000000000001
 20
38.49999999999545
 30
0.0
 11
233.4999999999999
 21
50.0
 31
0.0
  0
LINE
  5
1F6
330
2
100
AcDbEntity
  8
L-ZISSEN
100
AcDbLine
 10
232.5
 20
-12.49999999998999
 30
0.0
 11
232.5
 21
-11.9068971185643
 31
0.0
  0
LINE
  5
1F7
330
2
100
AcDbEntity
  8
L-ZISSEN
100
AcDbLine
 10
232.5
 20
12.0
 30
0.0
 11
232.5
 21
12.99999999999636
 31
0.0
  0
LINE
  5
1F8
330
2
100
AcDbEntity
  8
L-ZISSEN
100
AcDbLine
 10
234.0
 20
-12.49999999998999
 30
0.0
 11
234.0000000000001
 21
-11.9068971185643
 31
0.0
  0
LINE
  5
1F9
330
2
100
AcDbEntity
  8
L-ZISSEN
100
AcDbLine
 10
234.0000000000001
 20
12.0
 30
0.0
 11
234.0
 21
12.99999999999636
 31
0.0
  0
LINE
  5
1FA
330
2
100
AcDbEntity
  8
L-ZISSEN
100
AcDbLine
 10
237.5000000000001
 20
11.99999999999909
 30
0.0
 11
237.5
 21
19.99999999999636
 31
0.0
  0
LINE
  5
1FB
330
2
100
AcDbEntity
  8
L-ZISSEN
100
AcDbLine
 10
235.7499999999999
 20
20.0
 30
0.0
 11
236.25
 21
23.0
 31
0.0
  0
LINE
  5
1FC
330
2
100
AcDbEntity
  8
L-ZISSEN
100
AcDbLine
 10
237.5
 20
23.49999999999636
 30
0.0
 11
235.0
 21
23.49999999999636
 31
0.0
  0
LINE
  5
1FD
330
2
100
AcDbEntity
  8
L-ZISSEN
100
AcDbLine
 10
235.0
 20
19.99999999999636
 30
0.0
 11
237.5
 21
19.99999999999636
 31
0.0
  0
LINE
  5
1FE
330
2
100
AcDbEntity
  8
L-ZISSEN
100
AcDbLine
 10
235.0
 20
23.49999999999636
 30
0.0
 11
235.0
 21
19.99999999999636
 31
0.0
  0
LINE
  5
1FF
330
2
100
AcDbEntity
  8
L-ZISSEN
100
AcDbLine
 10
237.5
 20
23.49999999999636
 30
0.0
 11
237.5
 21
26.49999999999636
 31
0.0
  0
LINE
  5
200
330
2
100
AcDbEntity
  8
L-ZISSEN
100
AcDbLine
 10
235.0
 20
38.49999999999545
 30
0.0
 11
235.0
 21
26.49999999999636
 31
0.0
  0
CIRCLE
  5
201
330
2
100
AcDbEntity
  8
L-ZISSEN
100
AcDbCircle
 10
244.4999999999999
 20
0.0
 30
0.0
 40
6.5
  0
LINE
  5
202
330
2
100
AcDbEntity
  8
L-ZISSEN
100
AcDbLine
 10
236.25
 20
23.0
 30
0.0
 11
252.7499999999999
 21
23.0
 31
0.0
  0
LINE
  5
203
330
2
100
AcDbEntity
  8
L-ZISSEN
100
AcDbLine
 10
253.25
 20
20.0
 30
0.0
 11
235.7499999999999
 21
20.0
 31
0.0
  0
LINE
  5
204
330
2
100
AcDbEntity
  8
L-ZISSEN
100
AcDbLine
 10
305.8500000000023
 20
-46.33873891162693
 30
0.0
 11
305.8500000000023
 21
-114.3387389116278
 31
0.0
  0
LINE
  5
205
330
2
100
AcDbEntity
  8
L-ZISSEN
100
AcDbLine
 10
314.280000000003
 20
-46.33873891162693
 30
0.0
 11
314.280000000003
 21
-114.338738911626
 31
0.0
  0
LINE
  5
206
330
2
100
AcDbEntity
  8
L-ZISSEN
100
AcDbLine
 10
319.0000000000005
 20
-122.4036840439848
 30
0.0
 11
319.0000000000028
 21
-35.99999999999545
 31
0.0
  0
LINE
  5
207
330
2
100
AcDbEntity
  8
L-ZISSEN
100
AcDbLine
 10
272.1500000000034
 20
-46.33873891162693
 30
0.0
 11
272.1500000000034
 21
-114.3387389116278
 31
0.0
  0
LINE
  5
208
330
2
100
AcDbEntity
  8
L-ZISSEN
100
AcDbLine
 10
263.7200000000026
 20
-46.33873891162693
 30
0.0
 11
263.7200000000026
 21
-114.338738911626
 31
0.0
  0
LINE
  5
209
330
2
100
AcDbEntity
  8
L-ZISSEN
100
AcDbLine
 10
259.0000000000028
 20
-122.403684043983
 30
0.0
 11
259.0000000000029
 21
-35.99999999999636
 31
0.0
  0
LINE
  5
20A
330
2
100
AcDbEntity
  8
L-TYUSIN
100
AcDbLine
 10
289.0000000000027
 20
-145.5000003877912
 30
0.0
 11
289.0000000000029
 21
47.25595894575508
 31
0.0
  0
LINE
  5
20B
330
2
100
AcDbEntity
  8
L-TYUSIN
100
AcDbLine
 10
288.9999999999996
 20
-144.5000003877985
 30
0.0
 11
288.9999999999997
 21
48.49999999999909
 31
0.0
  0
LINE
  5
20C
330
2
100
AcDbEntity
  8
L-ZISSEN
100
AcDbLine
 10
298.2500000000084
 20
-132.655949540046
 30
0.0
 11
279.7499999999963
 21
-132.655949540046
 31
0.0
  0
LINE
  5
20D
330
2
100
AcDbEntity
  8
L-ZISSEN
100
AcDbLine
 10
298.0000000000051
 20
-140.5000003877912
 30
0.0
 11
280.0000000000033
 21
-140.5000003877912
 31
0.0
  0
ARC
  5
20E
330
2
100
AcDbEntity
  8
L-ZISSEN
100
AcDbCircle
 10
289.0000000000042
 20
-33.547288918513
 30
0.0
 40
99.53938471878538
100
AcDbArc
 50
256.0937629349475
 51
264.6679223051352
  0
LINE
  5
20F
330
2
100
AcDbEntity
  8
L-ZISSEN
100
AcDbLine
 10
267.9350000000018
 20
-116.3387389116278
 30
0.0
 11
263.7200000000026
 21
-114.338738911626
 31
0.0
  0
LINE
  5
210
330
2
100
AcDbEntity
  8
L-ZISSEN
100
AcDbLine
 10
272.1500000000034
 20
-114.3387389116278
 30
0.0
 11
267.9350000000018
 21
-116.3387389116278
 31
0.0
  0
ARC
  5
211
330
2
100
AcDbEntity
  8
L-ZISSEN
100
AcDbCircle
 10
267.0000000000037
 20
-122.403684043983
 30
0.0
 40
8.000000000000113
100
AcDbArc
 50
180.0
 51
256.0937629349412
  0
LINE
  5
212
330
2
100
AcDbEntity
  8
L-ZISSEN
100
AcDbLine
 10
280.0000000000033
 20
-140.500000387793
 30
0.0
 11
280.0000000000033
 21
-132.655949540046
 31
0.0
  0
ARC
  5
213
330
2
100
AcDbEntity
  8
L-ZISSEN
100
AcDbCircle
 10
311.0000000000023
 20
-122.4036840439848
 30
0.0
 40
8.000000000000113
100
AcDbArc
 50
283.9062370652483
 51
0.0
  0
LINE
  5
214
330
2
100
AcDbEntity
  8
L-ZISSEN
100
AcDbLine
 10
305.8500000000023
 20
-114.3387389116278
 30
0.0
 11
310.0650000000038
 21
-116.3387389116278
 31
0.0
  0
LINE
  5
215
330
2
100
AcDbEntity
  8
L-ZISSEN
100
AcDbLine
 10
310.0650000000038
 20
-116.3387389116278
 30
0.0
 11
314.280000000003
 21
-114.338738911626
 31
0.0
  0
ARC
  5
216
330
2
100
AcDbEntity
  8
L-ZISSEN
100
AcDbCircle
 10
289.0000000000042
 20
-33.547288918513
 30
0.0
 40
99.53938471878553
100
AcDbArc
 50
275.3320776948647
 51
283.9062370650588
  0
LINE
  5
217
330
2
100
AcDbEntity
  8
L-ZISSEN
100
AcDbLine
 10
298.0000000000051
 20
-140.500000387793
 30
0.0
 11
298.0000000000051
 21
-132.655949540046
 31
0.0
  0
LINE
  5
218
330
2
100
AcDbEntity
  8
L-ZISSEN
100
AcDbLine
 10
292.1250000000028
 20
-43.49999999999454
 30
0.0
 11
297.1250000000028
 21
-43.49999999999454
 31
0.0
  0
LINE
  5
219
330
2
100
AcDbEntity
  8
L-ZISSEN
100
AcDbLine
 10
292.1250000000028
 20
-43.49999999999454
 30
0.0
 11
297.1250000000028
 21
-43.49999999999454
 31
0.0
  0
LINE
  5
21A
330
2
100
AcDbEntity
  8
L-ZISSEN
100
AcDbLine
 10
292.1250000000028
 20
-42.24999999999454
 30
0.0
 11
297.1250000000028
 21
-42.24999999999454
 31
0.0
  0
LINE
  5
21B
330
2
100
AcDbEntity
  8
L-ZISSEN
100
AcDbLine
 10
292.1250000000028
 20
-42.24999999999454
 30
0.0
 11
297.1250000000028
 21
-42.24999999999454
 31
0.0
  0
LINE
  5
21C
330
2
100
AcDbEntity
  8
L-ZISSEN
100
AcDbLine
 10
292.1250000000028
 20
-42.24999999999545
 30
0.0
 11
297.1250000000028
 21
-42.24999999999545
 31
0.0
  0
LINE
  5
21D
330
2
100
AcDbEntity
  8
L-ZISSEN
100
AcDbLine
 10
292.1250000000028
 20
-42.24999999999545
 30
0.0
 11
297.1250000000028
 21
-42.24999999999545
 31
0.0
  0
LINE
  5
21E
330
2
100
AcDbEntity
  8
L-ZISSEN
100
AcDbLine
 10
290.7320508075722
 20
34.00000000000636
 30
0.0
 11
299.7679491924343
 21
34.00000000000545
 31
0.0
  0
LINE
  5
21F
330
2
100
AcDbEntity
  8
L-ZISSEN
100
AcDbLine
 10
288.0000000000029
 20
27.50000000000454
 30
0.0
 11
304.0000000000027
 21
27.50000000000454
 31
0.0
  0
LINE
  5
220
330
2
100
AcDbEntity
  8
L-ZISSEN
100
AcDbLine
 10
300.9144331348371
 20
-65.9420255110399
 30
0.0
 11
289.0000000000028
 21
-68.4363834854712
 31
0.0
  0
LINE
  5
221
330
2
100
AcDbEntity
  8
L-ZISSEN
100
AcDbLine
 10
289.0000000000028
 20
-63.08117225722253
 30
0.0
 11
300.9144331348371
 21
-61.37911038081802
 31
0.0
  0
LINE
  5
222
330
2
100
AcDbEntity
  8
L-ZISSEN
100
AcDbLine
 10
289.0000000000028
 20
-70.99999999999545
 30
0.0
 11
303.0625000000005
 21
-67.24999999999545
 31
0.0
  0
LINE
  5
223
330
2
100
AcDbEntity
  8
L-ZISSEN
100
AcDbLine
 10
289.0000000000028
 20
-62.24999999999545
 30
0.0
 11
302.1250000000005
 21
-60.37499999999545
 31
0.0
  0
LINE
  5
224
330
2
100
AcDbEntity
  8
L-ZISSEN
100
AcDbLine
 10
276.1875000000028
 20
-75.99999999999545
 30
0.0
 11
301.8125000000028
 21
-75.99999999999545
 31
0.0
  0
LINE
  5
225
330
2
100
AcDbEntity
  8
L-ZISSEN
100
AcDbLine
 10
255.0000000000027
 20
-12.49999999998999
 30
0.0
 11
323.0000000000029
 21
-12.49999999998999
 31
0.0
  0
LINE
  5
226
330
2
100
AcDbEntity
  8
L-ZISSEN
100
AcDbLine
 10
263.0000000000027
 20
-35.99999999999545
 30
0.0
 11
263.0000000000027
 21
-12.49999999998999
 31
0.0
  0
LINE
  5
227
330
2
100
AcDbEntity
  8
L-ZISSEN
100
AcDbLine
 10
259.1757670694119
 20
-35.99999999999545
 30
0.0
 11
259.1757670694119
 21
-12.49999999998999
 31
0.0
  0
LINE
  5
228
330
2
100
AcDbEntity
  8
L-ZISSEN
100
AcDbLine
 10
263.7200000000026
 20
-46.33873891162693
 30
0.0
 11
272.1500000000034
 21
-46.33873891162693
 31
0.0
  0
LINE
  5
229
330
2
100
AcDbEntity
  8
L-ZISSEN
100
AcDbLine
 10
253.9999999999998
 20
-19.70000000000163
 30
0.0
 11
253.9999999999998
 21
-23.0000000000009
 31
0.0
  0
LINE
  5
22A
330
2
100
AcDbEntity
  8
L-ZISSEN
100
AcDbLine
 10
255.5
 20
-50.0
 30
0.0
 11
255.5000000000001
 21
-35.99999999999727
 31
0.0
  0
LINE
  5
22B
330
2
100
AcDbEntity
  8
L-ZISSEN
100
AcDbLine
 10
285.8750000000028
 20
-42.24999999999545
 30
0.0
 11
285.8750000000028
 21
-43.49999999999545
 31
0.0
  0
LINE
  5
22C
330
2
100
AcDbEntity
  8
L-ZISSEN
100
AcDbLine
 10
292.1250000000028
 20
-42.24999999999454
 30
0.0
 11
292.1250000000028
 21
-43.49999999999454
 31
0.0
  0
LINE
  5
22D
330
2
100
AcDbEntity
  8
L-ZISSEN
100
AcDbLine
 10
290.2500000000051
 20
-39.74999999999454
 30
0.0
 11
287.7500000000051
 21
-39.74999999999454
 31
0.0
  0
LINE
  5
22E
330
2
100
AcDbEntity
  8
L-ZISSEN
100
AcDbLine
 10
290.2500000000051
 20
-39.74999999999363
 30
0.0
 11
287.7500000000051
 21
-39.74999999999363
 31
0.0
  0
LINE
  5
22F
330
2
100
AcDbEntity
  8
L-ZISSEN
100
AcDbLine
 10
287.7500000000005
 20
-70.66666666666151
 30
0.0
 11
287.7500000000028
 21
-72.24999999999545
 31
0.0
  0
LINE
  5
230
330
2
100
AcDbEntity
  8
L-ZISSEN
100
AcDbLine
 10
289.0000000000028
 20
-70.99999999999545
 30
0.0
 11
289.0000000000028
 21
-68.4363834854712
 31
0.0
  0
LINE
  5
231
330
2
100
AcDbEntity
  8
L-ZISSEN
100
AcDbLine
 10
290.2500000000028
 20
-70.66666666666151
 30
0.0
 11
290.2500000000028
 21
-72.24999999999545
 31
0.0
  0
LINE
  5
232
330
2
100
AcDbEntity
  8
L-ZISSEN
100
AcDbLine
 10
285.2500000000051
 20
-49.74999999999454
 30
0.0
 11
289.0000000000051
 21
-55.99999999999454
 31
0.0
  0
CIRCLE
  5
233
330
2
100
AcDbEntity
  8
L-ZISSEN
100
AcDbCircle
 10
289.0000000000028
 20
-65.99645470116866
 30
0.0
 40
1.25
  0
LINE
  5
234
330
2
100
AcDbEntity
  8
L-ZISSEN
100
AcDbLine
 10
289.0000000000028
 20
-62.24999999999545
 30
0.0
 11
289.0000000000028
 21
-63.08117225722253
 31
0.0
  0
LINE
  5
235
330
2
100
AcDbEntity
  8
L-ZISSEN
100
AcDbLine
 10
287.7500000000051
 20
-49.74999999999454
 30
0.0
 11
285.2500000000051
 21
-49.74999999999454
 31
0.0
  0
ARC
  5
236
330
2
100
AcDbEntity
  8
L-ZISSEN
100
AcDbCircle
 10
289.0000000000028
 20
-72.24999999999545
 30
0.0
 40
1.250000000000568
100
AcDbArc
 50
180.0
 51
0.0
  0
LINE
  5
237
330
2
100
AcDbEntity
  8
L-TYUSIN
100
AcDbLine
 10
286.8132064374477
 20
-65.99645470116866
 30
0.0
 11
291.0079864123596
 21
-65.99645470116866
 31
0.0
  0
LINE
  5
238
330
2
100
AcDbEntity
  8
L-ZISSEN
100
AcDbLine
 10
292.7500000000051
 20
-49.74999999999454
 30
0.0
 11
289.0000000000051
 21
-55.99999999999454
 31
0.0
  0
LINE
  5
239
330
2
100
AcDbEntity
  8
L-ZISSEN
100
AcDbLine
 10
290.2500000000051
 20
-49.74999999999454
 30
0.0
 11
292.7500000000051
 21
-49.74999999999454
 31
0.0
  0
LINE
  5
23A
330
2
100
AcDbEntity
  8
L-ZISSEN
100
AcDbLine
 10
287.7500000000051
 20
-39.74999999999454
 30
0.0
 11
287.7500000000051
 21
-49.74999999999454
 31
0.0
  0
LINE
  5
23B
330
2
100
AcDbEntity
  8
L-ZISSEN
100
AcDbLine
 10
287.7500000000051
 20
-39.74999999999454
 30
0.0
 11
287.7500000000051
 21
-49.74999999999454
 31
0.0
  0
LINE
  5
23C
330
2
100
AcDbEntity
  8
L-ZISSEN
100
AcDbLine
 10
290.2500000000051
 20
-39.74999999999454
 30
0.0
 11
290.2500000000051
 21
-49.74999999999454
 31
0.0
  0
LINE
  5
23D
330
2
100
AcDbEntity
  8
L-ZISSEN
100
AcDbLine
 10
290.2500000000051
 20
-39.74999999999454
 30
0.0
 11
290.2500000000051
 21
-49.74999999999454
 31
0.0
  0
LINE
  5
23E
330
2
100
AcDbEntity
  8
L-ZISSEN
100
AcDbLine
 10
280.8750000000028
 20
-40.99999999999545
 30
0.0
 11
277.7500000000028
 21
-42.87499999999545
 31
0.0
  0
LINE
  5
23F
330
2
100
AcDbEntity
  8
L-ZISSEN
100
AcDbLine
 10
280.8750000000028
 20
-42.24999999999545
 30
0.0
 11
280.8750000000028
 21
-40.99999999999545
 31
0.0
  0
LINE
  5
240
330
2
100
AcDbEntity
  8
L-ZISSEN
100
AcDbLine
 10
280.8750000000028
 20
-43.49999999999545
 30
0.0
 11
280.8750000000028
 21
-44.74999999999545
 31
0.0
  0
LINE
  5
241
330
2
100
AcDbEntity
  8
L-ZISSEN
100
AcDbLine
 10
280.8750000000028
 20
-44.74999999999545
 30
0.0
 11
277.7500000000028
 21
-42.87499999999545
 31
0.0
  0
LINE
  5
242
330
2
100
AcDbEntity
  8
L-ZISSEN
100
AcDbLine
 10
280.8750000000028
 20
-42.24999999999545
 30
0.0
 11
280.8750000000028
 21
-40.99999999999545
 31
0.0
  0
LINE
  5
243
330
2
100
AcDbEntity
  8
L-ZISSEN
100
AcDbLine
 10
274.9375000000005
 20
-67.24999999999545
 30
0.0
 11
277.0855668651685
 21
-65.9420255110399
 31
0.0
  0
ARC
  5
244
330
2
100
AcDbEntity
  8
L-ZISSEN
100
AcDbCircle
 10
276.1875000000028
 20
-74.74999999999545
 30
0.0
 40
1.250000000000568
100
AcDbArc
 50
180.0
 51
270.0
  0
LINE
  5
245
330
2
100
AcDbEntity
  8
L-ZISSEN
100
AcDbLine
 10
277.0855668651685
 20
-60.54793812359093
 30
0.0
 11
275.8750000000005
 21
-60.37499999999545
 31
0.0
  0
LINE
  5
246
330
2
100
AcDbEntity
  8
L-ZISSEN
100
AcDbLine
 10
277.0855668651685
 20
-61.37911038081802
 30
0.0
 11
275.8750000000005
 21
-60.37499999999545
 31
0.0
  0
LINE
  5
247
330
2
100
AcDbEntity
  8
L-ZISSEN
100
AcDbLine
 10
277.0855668651685
 20
-61.37911038081802
 30
0.0
 11
277.0855668651685
 21
-65.9420255110399
 31
0.0
  0
LINE
  5
248
330
2
100
AcDbEntity
  8
L-ZISSEN
100
AcDbLine
 10
279.6250000000028
 20
-68.49999999999454
 30
0.0
 11
279.6250000000005
 21
-75.99999999999545
 31
0.0
  0
LINE
  5
249
330
2
100
AcDbEntity
  8
L-ZISSEN
100
AcDbLine
 10
274.9375000000005
 20
-35.99999999999545
 30
0.0
 11
274.9375000000005
 21
-59.78927536712854
 31
0.0
  0
LINE
  5
24A
330
2
100
AcDbEntity
  8
L-ZISSEN
100
AcDbLine
 10
274.9375000000005
 20
-35.99999999999545
 30
0.0
 11
274.9375000000005
 21
-74.74999999999545
 31
0.0
  0
LINE
  5
24B
330
2
100
AcDbEntity
  8
L-ZISSEN
100
AcDbLine
 10
275.8750000000005
 20
-35.99999999999545
 30
0.0
 11
275.8750000000005
 21
-60.37499999999545
 31
0.0
  0
LINE
  5
24C
330
2
100
AcDbEntity
  8
L-ZISSEN
100
AcDbLine
 10
289.0000000000028
 20
-70.99999999999545
 30
0.0
 11
274.9375000000005
 21
-67.24999999999545
 31
0.0
  0
LINE
  5
24D
330
2
100
AcDbEntity
  8
L-ZISSEN
100
AcDbLine
 10
289.0000000000028
 20
-62.24999999999545
 30
0.0
 11
275.8750000000005
 21
-60.37499999999545
 31
0.0
  0
LINE
  5
24E
330
2
100
AcDbEntity
  8
L-ZISSEN
100
AcDbLine
 10
289.0000000000028
 20
-63.08117225722253
 30
0.0
 11
277.0855668651685
 21
-61.37911038081802
 31
0.0
  0
LINE
  5
24F
330
2
100
AcDbEntity
  8
L-ZISSEN
100
AcDbLine
 10
277.0855668651685
 20
-65.9420255110399
 30
0.0
 11
289.0000000000028
 21
-68.4363834854712
 31
0.0
  0
LINE
  5
250
330
2
100
AcDbEntity
  8
L-ZISSEN
100
AcDbLine
 10
285.8750000000028
 20
-43.49999999999545
 30
0.0
 11
280.8750000000028
 21
-43.49999999999545
 31
0.0
  0
LINE
  5
251
330
2
100
AcDbEntity
  8
L-ZISSEN
100
AcDbLine
 10
285.8750000000028
 20
-43.49999999999545
 30
0.0
 11
280.8750000000028
 21
-43.49999999999545
 31
0.0
  0
LINE
  5
252
330
2
100
AcDbEntity
  8
L-ZISSEN
100
AcDbLine
 10
285.8750000000028
 20
-42.24999999999545
 30
0.0
 11
280.8750000000028
 21
-42.24999999999545
 31
0.0
  0
LINE
  5
253
330
2
100
AcDbEntity
  8
L-ZISSEN
100
AcDbLine
 10
285.8750000000028
 20
-42.24999999999545
 30
0.0
 11
280.8750000000028
 21
-42.24999999999545
 31
0.0
  0
LINE
  5
254
330
2
100
AcDbEntity
  8
L-ZISSEN
100
AcDbLine
 10
285.8750000000028
 20
-42.24999999999545
 30
0.0
 11
280.8750000000028
 21
-42.24999999999545
 31
0.0
  0
LINE
  5
255
330
2
100
AcDbEntity
  8
L-ZISSEN
100
AcDbLine
 10
285.8750000000028
 20
-42.24999999999545
 30
0.0
 11
280.8750000000028
 21
-42.24999999999545
 31
0.0
  0
LINE
  5
256
330
2
100
AcDbEntity
  8
L-ZISSEN
100
AcDbLine
 10
287.7500000000029
 20
43.50000000000455
 30
0.0
 11
273.7500000000027
 21
43.50000000000455
 31
0.0
  0
LINE
  5
257
330
2
100
AcDbEntity
  8
L-ZISSEN
100
AcDbLine
 10
286.0000000000034
 20
25.00000000000454
 30
0.0
 11
270.5000000000027
 21
25.00000000000454
 31
0.0
  0
LINE
  5
258
330
2
100
AcDbEntity
  8
L-ZISSEN
100
AcDbLine
 10
256.521651832895
 20
17.99133926684771
 30
0.0
 11
282.5920380663942
 21
17.99133926684862
 31
0.0
  0
LINE
  5
259
330
2
100
AcDbEntity
  8
L-ZISSEN
100
AcDbLine
 10
290.7500000000029
 20
28.50000000000454
 30
0.0
 11
270.7500000000027
 21
28.50000000000454
 31
0.0
  0
LINE
  5
25A
330
2
100
AcDbEntity
  8
L-ZISSEN
100
AcDbLine
 10
288.0000000000027
 20
25.00000000000454
 30
0.0
 11
273.0000000000029
 21
25.00000000000454
 31
0.0
  0
LINE
  5
25B
330
2
100
AcDbEntity
  8
L-ZISSEN
100
AcDbLine
 10
286.2500000000027
 20
14.00000000000454
 30
0.0
 11
269.3125457199837
 21
14.00000000000454
 31
0.0
  0
LINE
  5
25C
330
2
100
AcDbEntity
  8
L-ZISSEN
100
AcDbLine
 10
270.7500000000027
 20
25.00000000000454
 30
0.0
 11
270.7500000000027
 21
28.50000000000454
 31
0.0
  0
LINE
  5
25D
330
2
100
AcDbEntity
  8
L-ZISSEN
100
AcDbLine
 10
270.5000000000027
 20
25.00000000000454
 30
0.0
 11
270.5000000000027
 21
20.00000000000545
 31
0.0
  0
LINE
  5
25E
330
2
100
AcDbEntity
  8
L-ZISSEN
100
AcDbLine
 10
268.0000000000001
 20
-11.9068971185643
 30
0.0
 11
268.0000000000001
 21
12.0
 31
0.0
  0
LINE
  5
25F
330
2
100
AcDbEntity
  8
L-ZISSEN
100
AcDbLine
 10
272.2500000000027
 20
14.00000000000454
 30
0.0
 11
272.2500000000027
 21
-12.49999999998999
 31
0.0
  0
LINE
  5
260
330
2
100
AcDbEntity
  8
L-ZISSEN
100
AcDbLine
 10
269.3125457199837
 20
14.00000000000454
 30
0.0
 11
269.3125457199837
 21
-12.49999999998999
 31
0.0
  0
LINE
  5
261
330
2
100
AcDbEntity
  8
L-ZISSEN
100
AcDbLine
 10
268.0000000000001
 20
-11.9068971185643
 30
0.0
 11
268.0000000000001
 21
12.0
 31
0.0
  0
LINE
  5
262
330
2
100
AcDbEntity
  8
L-ZISSEN
100
AcDbLine
 10
255.0000000000028
 20
-11.9068971185643
 30
0.0
 11
255.0000000000027
 21
-12.49999999998999
 31
0.0
  0
LINE
  5
263
330
2
100
AcDbEntity
  8
L-ZISSEN
100
AcDbLine
 10
256.521651832895
 20
-11.9068971185643
 30
0.0
 11
256.521651832895
 21
-12.49999999998999
 31
0.0
  0
LINE
  5
264
330
2
100
AcDbEntity
  8
L-ZISSEN
100
AcDbLine
 10
255.0000000000025
 20
14.9480356010672
 30
0.0
 11
256.521651832895
 21
17.99133926684771
 31
0.0
  0
LINE
  5
265
330
2
100
AcDbEntity
  8
L-ZISSEN
100
AcDbLine
 10
255.0000000000025
 20
15.00000000000454
 30
0.0
 11
255.0000000000025
 21
12.0
 31
0.0
  0
LINE
  5
266
330
2
100
AcDbEntity
  8
L-ZISSEN
100
AcDbLine
 10
256.521651832895
 20
17.99133926684771
 30
0.0
 11
256.521651832895
 21
12.0
 31
0.0
  0
LINE
  5
267
330
2
100
AcDbEntity
  8
L-ZISSEN
100
AcDbLine
 10
273.7500000000027
 20
28.50000000000454
 30
0.0
 11
273.7500000000027
 21
43.50000000000455
 31
0.0
  0
LINE
  5
268
330
2
100
AcDbEntity
  8
L-ZISSEN
100
AcDbLine
 10
255.5
 20
19.99999999999909
 30
0.0
 11
255.5
 21
50.0
 31
0.0
  0
LINE
  5
269
330
2
100
AcDbEntity
  8
L-ZISSEN
100
AcDbLine
 10
275.3472351883335
 20
64.79138676469756
 30
0.0
 11
277.3472351883335
 21
64.79138676469756
 31
0.0
  0
TEXT
  5
26A
330
2
100
AcDbEntity
  8
L-ZISSEN
100
AcDbText
 10
278.9909829174936
 20
62.54471253674728
 30
0.0
 40
4.5
  1
P.P
100
AcDbText
  0
LINE
  5
26B
330
2
100
AcDbEntity
  8
L-ZISSEN
100
AcDbLine
 10
282.5920380663942
 20
20.00000000000454
 30
0.0
 11
282.5920380663942
 21
14.00000000000454
 31
0.0
  0
LINE
  5
26C
330
2
100
AcDbEntity
  8
L-ZISSEN
100
AcDbLine
 10
285.9461524227096
 20
28.50000000000454
 30
0.0
 11
285.9461524227096
 21
25.00000000000454
 31
0.0
  0
LINE
  5
26D
330
2
100
AcDbEntity
  8
L-ZISSEN
100
AcDbLine
 10
286.2500000000027
 20
20.00000000000454
 30
0.0
 11
286.2500000000027
 21
14.00000000000454
 31
0.0
  0
LINE
  5
26E
330
2
100
AcDbEntity
  8
L-ZISSEN
100
AcDbLine
 10
288.0000000000029
 20
27.50000000000454
 30
0.0
 11
288.0000000000027
 21
20.00000000000454
 31
0.0
  0
LINE
  5
26F
330
2
100
AcDbEntity
  8
L-ZISSEN
100
AcDbLine
 10
290.7500000000029
 20
27.50000000000454
 30
0.0
 11
290.7500000000029
 21
28.50000000000454
 31
0.0
  0
LINE
  5
270
330
2
100
AcDbEntity
  8
L-ZISSEN
100
AcDbLine
 10
289.0000000000034
 20
28.50000000000454
 30
0.0
 11
289.0000000000034
 21
31.00000000000545
 31
0.0
  0
LINE
  5
271
330
2
100
AcDbEntity
  8
L-ZISSEN
100
AcDbLine
 10
289.0000000000034
 20
31.00000000000545
 30
0.0
 11
290.732050807572
 21
34.00000000000545
 31
0.0
  0
LINE
  5
272
330
2
100
AcDbEntity
  8
L-ZISSEN
100
AcDbLine
 10
275.5538475772961
 20
28.50000000000454
 30
0.0
 11
275.5538475772961
 21
25.00000000000454
 31
0.0
  0
LINE
  5
273
330
2
100
AcDbEntity
  8
L-ZISSEN
100
AcDbLine
 10
280.7500000000027
 20
28.50000000000454
 30
0.0
 11
287.7500000000029
 21
28.50000000000454
 31
0.0
  0
LINE
  5
274
330
2
100
AcDbEntity
  8
L-ZISSEN
100
AcDbLine
 10
287.7500000000029
 20
28.50000000000454
 30
0.0
 11
287.7500000000029
 21
43.50000000000455
 31
0.0
  0
LINE
  5
275
330
2
100
AcDbEntity
  8
L-ZISSEN
100
AcDbLine
 10
326.5000000000027
 20
-19.99999999998999
 30
0.0
 11
326.5000000000029
 21
20.00000000000454
 31
0.0
  0
LINE
  5
276
330
2
100
AcDbEntity
  8
L-ZISSEN
100
AcDbLine
 10
315.0000000000029
 20
-35.99999999999545
 30
0.0
 11
315.0000000000029
 21
-12.49999999998999
 31
0.0
  0
LINE
  5
277
330
2
100
AcDbEntity
  8
L-ZISSEN
100
AcDbLine
 10
318.8242329305936
 20
-35.99999999999545
 30
0.0
 11
318.8242329305935
 21
-12.49999999998999
 31
0.0
  0
LINE
  5
278
330
2
100
AcDbEntity
  8
L-ZISSEN
100
AcDbLine
 10
314.280000000003
 20
-46.33873891162693
 30
0.0
 11
305.8500000000023
 21
-46.33873891162693
 31
0.0
  0
LINE
  5
279
330
2
100
AcDbEntity
  8
L-ZISSEN
100
AcDbLine
 10
297.1250000000028
 20
-40.99999999999454
 30
0.0
 11
300.2500000000028
 21
-42.87499999999454
 31
0.0
  0
LINE
  5
27A
330
2
100
AcDbEntity
  8
L-ZISSEN
100
AcDbLine
 10
297.1250000000028
 20
-42.24999999999454
 30
0.0
 11
297.1250000000028
 21
-40.99999999999454
 31
0.0
  0
LINE
  5
27B
330
2
100
AcDbEntity
  8
L-ZISSEN
100
AcDbLine
 10
297.1250000000028
 20
-43.49999999999454
 30
0.0
 11
297.1250000000028
 21
-44.74999999999454
 31
0.0
  0
LINE
  5
27C
330
2
100
AcDbEntity
  8
L-ZISSEN
100
AcDbLine
 10
297.1250000000028
 20
-44.74999999999454
 30
0.0
 11
300.2500000000028
 21
-42.87499999999454
 31
0.0
  0
LINE
  5
27D
330
2
100
AcDbEntity
  8
L-ZISSEN
100
AcDbLine
 10
297.1250000000028
 20
-42.24999999999545
 30
0.0
 11
297.1250000000028
 21
-40.99999999999545
 31
0.0
  0
LINE
  5
27E
330
2
100
AcDbEntity
  8
L-ZISSEN
100
AcDbLine
 10
300.9144331348371
 20
-61.37911038081802
 30
0.0
 11
300.9144331348371
 21
-65.9420255110399
 31
0.0
  0
LINE
  5
27F
330
2
100
AcDbEntity
  8
L-ZISSEN
100
AcDbLine
 10
298.3750000000005
 20
-68.49999999999545
 30
0.0
 11
298.3750000000005
 21
-75.99999999999545
 31
0.0
  0
LINE
  5
280
330
2
100
AcDbEntity
  8
L-ZISSEN
100
AcDbLine
 10
300.9144331348371
 20
-61.37911038081802
 30
0.0
 11
302.1250000000005
 21
-60.37499999999545
 31
0.0
  0
LINE
  5
281
330
2
100
AcDbEntity
  8
L-ZISSEN
100
AcDbLine
 10
300.9144331348371
 20
-60.54793812359093
 30
0.0
 11
302.1250000000005
 21
-60.37499999999545
 31
0.0
  0
LINE
  5
282
330
2
100
AcDbEntity
  8
L-ZISSEN
100
AcDbLine
 10
303.0625000000005
 20
-67.24999999999545
 30
0.0
 11
300.9144331348371
 21
-65.9420255110399
 31
0.0
  0
ARC
  5
283
330
2
100
AcDbEntity
  8
L-ZISSEN
100
AcDbCircle
 10
301.8125000000028
 20
-74.74999999999545
 30
0.0
 40
1.249999999999715
100
AcDbArc
 50
270.0
 51
0.0
  0
LINE
  5
284
330
2
100
AcDbEntity
  8
L-ZISSEN
100
AcDbLine
 10
303.0625000000005
 20
-35.99999999999545
 30
0.0
 11
303.0625000000005
 21
-59.78927536712854
 31
0.0
  0
LINE
  5
285
330
2
100
AcDbEntity
  8
L-ZISSEN
100
AcDbLine
 10
302.1250000000004
 20
-35.99999999999545
 30
0.0
 11
302.1250000000005
 21
-60.37499999999545
 31
0.0
  0
LINE
  5
286
330
2
100
AcDbEntity
  8
L-ZISSEN
100
AcDbLine
 10
303.0625000000004
 20
-35.99999999999545
 30
0.0
 11
303.0625000000005
 21
-74.74999999999545
 31
0.0
  0
LINE
  5
287
330
2
100
AcDbEntity
  8
L-ZISSEN
100
AcDbLine
 10
324.0000000000027
 20
-23.49999999998999
 30
0.0
 11
324.0000000000027
 21
-19.99999999998999
 31
0.0
  0
LINE
  5
288
330
2
100
AcDbEntity
  8
L-ZISSEN
100
AcDbLine
 10
324.0000000000027
 20
-19.99999999998999
 30
0.0
 11
326.5000000000027
 21
-19.99999999998999
 31
0.0
  0
LINE
  5
289
330
2
100
AcDbEntity
  8
L-ZISSEN
100
AcDbLine
 10
326.5000000000027
 20
-23.49999999998999
 30
0.0
 11
324.0000000000027
 21
-23.49999999998999
 31
0.0
  0
LINE
  5
28A
330
2
100
AcDbEntity
  8
L-ZISSEN
100
AcDbLine
 10
326.5000000000027
 20
-35.99999999999545
 30
0.0
 11
326.5000000000026
 21
-23.49999999998999
 31
0.0
  0
LINE
  5
28B
330
2
100
AcDbEntity
  8
L-ZISSEN
100
AcDbLine
 10
321.4783481671106
 20
17.99133926684771
 30
0.0
 11
308.6874542800214
 21
17.99133926684862
 31
0.0
  0
LINE
  5
28C
330
2
100
AcDbEntity
  8
L-ZISSEN
100
AcDbLine
 10
304.0000000000027
 20
27.50000000000454
 30
0.0
 11
304.0000000000024
 21
20.00000000000454
 31
0.0
  0
LINE
  5
28D
330
2
100
AcDbEntity
  8
L-ZISSEN
100
AcDbLine
 10
305.7500000000027
 20
20.00000000000454
 30
0.0
 11
305.7500000000027
 21
-12.49999999998999
 31
0.0
  0
LINE
  5
28E
330
2
100
AcDbEntity
  8
L-ZISSEN
100
AcDbLine
 10
308.6874542800217
 20
-12.49999999998999
 30
0.0
 11
308.6874542800217
 21
20.00000000000454
 31
0.0
  0
LINE
  5
28F
330
2
100
AcDbEntity
  8
L-ZISSEN
100
AcDbLine
 10
301.5000000000034
 20
31.00000000000545
 30
0.0
 11
299.7679491924348
 21
34.00000000000545
 31
0.0
  0
LINE
  5
290
330
2
100
AcDbEntity
  8
L-ZISSEN
100
AcDbLine
 10
301.5000000000032
 20
31.00000000000454
 30
0.0
 11
301.5000000000034
 21
27.50000000000454
 31
0.0
  0
LINE
  5
291
330
2
100
AcDbEntity
  8
L-ZISSEN
100
AcDbLine
 10
323.0000000000031
 20
14.9480356010672
 30
0.0
 11
321.4783481671106
 21
17.99133926684771
 31
0.0
  0
LINE
  5
292
330
2
100
AcDbEntity
  8
L-ZISSEN
100
AcDbLine
 10
321.4783481671106
 20
17.99133926684771
 30
0.0
 11
321.4783481671106
 21
-12.49999999998999
 31
0.0
  0
LINE
  5
293
330
2
100
AcDbEntity
  8
L-ZISSEN
100
AcDbLine
 10
323.0000000000031
 20
15.00000000000454
 30
0.0
 11
323.0000000000029
 21
-12.49999999998999
 31
0.0
  0
LINE
  5
294
330
2
100
AcDbEntity
  8
L-ZISSEN
100
AcDbLine
 10
326.5000000000029
 20
15.00000000000454
 30
0.0
 11
323.0000000000031
 21
15.00000000000454
 31
0.0
  0
LINE
  5
295
330
2
100
AcDbEntity
  8
L-ZISSEN
100
AcDbLine
 10
251.4999999999997
 20
239.0247414839168
 30
0.0
 11
254.9999999999958
 21
239.0247414839168
 31
0.0
  0
LINE
  5
296
330
2
100
AcDbEntity
  8
L-ZISSEN
100
AcDbLine
 10
251.4999999999997
 20
282.0247414839168
 30
0.0
 11
254.9999999999989
 21
282.0247414839168
 31
0.0
  0
LINE
  5
297
330
2
100
AcDbEntity
  8
L-ZISSEN
100
AcDbLine
 10
253.2499999999992
 20
246.0247414839168
 30
0.0
 11
282.5920380663908
 21
246.0247414839168
 31
0.0
  0
LINE
  5
298
330
2
100
AcDbEntity
  8
L-ZISSEN
100
AcDbLine
 10
253.2499999999992
 20
275.0247414839168
 30
0.0
 11
282.5920380663908
 21
275.0247414839168
 31
0.0
  0
LINE
  5
299
330
2
100
AcDbEntity
  8
L-TYUSIN
100
AcDbLine
 10
157.4999999999986
 20
260.5247414839168
 30
0.0
 11
331.4999999999997
 21
260.5247414839168
 31
0.0
  0
LINE
  5
29A
330
2
100
AcDbEntity
  8
L-ZISSEN
370
     9
100
AcDbLine
 10
234.4999999999993
 20
237.524741483925
 30
0.0
 11
254.4999999999991
 21
237.5247414839259
 31
0.0
  0
LINE
  5
29B
330
2
100
AcDbEntity
  8
L-ZISSEN
370
     9
100
AcDbLine
 10
228.9505113796069
 20
231.0247414839259
 30
0.0
 11
269.9999999999992
 21
231.0247414839259
 31
0.0
  0
LINE
  5
29C
330
2
100
AcDbEntity
  8
L-ZISSEN
370
     9
100
AcDbLine
 10
234.4999999999993
 20
283.5247414839168
 30
0.0
 11
254.4999999999991
 21
283.5247414839168
 31
0.0
  0
LINE
  5
29D
330
2
100
AcDbEntity
  8
L-ZISSEN
370
     9
100
AcDbLine
 10
228.9505113796052
 20
290.0247414839168
 30
0.0
 11
269.9999999999992
 21
290.0247414839168
 31
0.0
  0
LINE
  5
29E
330
2
100
AcDbEntity
  8
L-ZISSEN
370
     9
100
AcDbLine
 10
233.4999999999991
 20
303.5247414839168
 30
0.0
 11
255.4999999999992
 21
303.5247414839168
 31
0.0
  0
LINE
  5
29F
330
2
100
AcDbEntity
  8
L-ZISSEN
370
     9
100
AcDbLine
 10
233.4999999999991
 20
310.5247414839168
 30
0.0
 11
255.4999999999992
 21
310.5247414839168
 31
0.0
  0
LINE
  5
2A0
330
2
100
AcDbEntity
  8
L-ZISSEN
100
AcDbLine
 10
168.499999999999
 20
242.5247414839168
 30
0.0
 11
172.2688092649291
 21
225.5247414839168
 31
0.0
  0
LINE
  5
2A1
330
2
100
AcDbEntity
  8
L-ZISSEN
100
AcDbLine
 10
162.4999999999986
 20
238.7747414839168
 30
0.0
 11
169.3313549849103
 21
238.7747414839168
 31
0.0
  0
LINE
  5
2A2
330
2
100
AcDbEntity
  8
L-ZISSEN
100
AcDbLine
 10
162.4999999999986
 20
282.2747414839168
 30
0.0
 11
169.3313549849103
 21
282.2747414839168
 31
0.0
  0
LINE
  5
2A3
330
2
100
AcDbEntity
  8
L-ZISSEN
100
AcDbLine
 10
168.499999999999
 20
278.5247414839168
 30
0.0
 11
172.2688092649291
 21
295.5247414839168
 31
0.0
  0
LINE
  5
2A4
330
2
100
AcDbEntity
  8
L-ZISSEN
100
AcDbLine
 10
162.4999999999986
 20
238.7747414839168
 30
0.0
 11
162.4999999999986
 21
282.2747414839168
 31
0.0
  0
LINE
  5
2A5
330
2
100
AcDbEntity
  8
L-ZISSEN
100
AcDbLine
 10
164.9999999999986
 20
278.5247414839168
 30
0.0
 11
164.9999999999986
 21
242.5247414839168
 31
0.0
  0
LINE
  5
2A6
330
2
100
AcDbEntity
  8
L-ZISSEN
100
AcDbLine
 10
168.499999999999
 20
242.5247414839168
 30
0.0
 11
164.9999999999986
 21
242.5247414839168
 31
0.0
  0
LINE
  5
2A7
330
2
100
AcDbEntity
  8
L-ZISSEN
100
AcDbLine
 10
164.9999999999986
 20
278.5247414839168
 30
0.0
 11
168.499999999999
 21
278.5247414839168
 31
0.0
  0
LINE
  5
2A8
330
2
100
AcDbEntity
  8
L-ZISSEN
100
AcDbLine
 10
251.4999999999996
 20
245.7747414839213
 30
0.0
 11
251.4999999999997
 21
239.0247414839168
 31
0.0
  0
LINE
  5
2A9
330
2
100
AcDbEntity
  8
L-ZISSEN
100
AcDbLine
 10
237.4999999999986
 20
282.0247414839168
 30
0.0
 11
237.4999999999986
 21
239.0247414839159
 31
0.0
  0
LINE
  5
2AA
330
2
100
AcDbEntity
  8
L-ZISSEN
100
AcDbLine
 10
234.9999999999986
 20
242.5247414839168
 30
0.0
 11
234.9999999999986
 21
278.5247414839168
 31
0.0
  0
CIRCLE
  5
2AB
330
2
100
AcDbEntity
  8
L-ZISSEN
100
AcDbCircle
 10
200.0000000000002
 20
260.5247414839168
 30
0.0
 40
24.77565943703641
  0
CIRCLE
  5
2AC
330
2
100
AcDbEntity
  8
L-ZISSEN
100
AcDbCircle
 10
200.0000000000002
 20
260.5247414839168
 30
0.0
 40
23.96246809175248
  0
CIRCLE
  5
2AD
330
2
100
AcDbEntity
  8
L-ZISSEN
100
AcDbCircle
 10
200.0000000000002
 20
260.5247414839168
 30
0.0
 40
30.0
  0
LINE
  5
2AE
330
2
100
AcDbEntity
  8
L-TYUSIN
100
AcDbLine
 10
199.9999999999986
 20
300.5247414839168
 30
0.0
 11
200.000000000005
 21
192.0247414839332
 31
0.0
  0
LWPOLYLINE
  5
2AF
330
2
100
AcDbEntity
  8
L-ZISSEN
100
AcDbPolyline
 90
        8
 70
     1
 43
0.0
 10
230.0
 20
272.9511483551096
 10
212.4264068711927
 20
290.5247414839168
 10
187.5735931288072
 20
290.5247414839168
 10
170.0
 20
272.9511483551096
 10
170.0
 20
248.0983346127231
 10
187.5735931288072
 20
230.5247414839168
 10
212.4264068711927
 20
230.5247414839168
 10
230.0
 20
248.0983346127231
  0
LINE
  5
2B0
330
2
100
AcDbEntity
  8
L-SOUZOU
100
AcDbLine
 10
218.9000000000028
 20
222.0247414839332
 30
0.0
 11
181.1000000000026
 21
222.0247414839332
 31
0.0
  0
LINE
  5
2B1
330
2
100
AcDbEntity
  8
L-ZISSEN
100
AcDbLine
 10
172.2688092649291
 20
225.5247414839168
 30
0.0
 11
227.731190735069
 21
225.5247414839168
 31
0.0
  0
LINE
  5
2B2
330
2
100
AcDbEntity
  8
L-SOUZOU
100
AcDbLine
 10
219.5000000000027
 20
197.0247414839332
 30
0.0
 11
180.5000000000027
 21
197.0247414839332
 31
0.0
  0
LINE
  5
2B3
330
2
100
AcDbEntity
  8
L-SOUZOU
100
AcDbLine
 10
221.0000000000027
 20
206.0247414839332
 30
0.0
 11
179.0000000000027
 21
206.0247414839332
 31
0.0
  0
LINE
  5
2B4
330
2
100
AcDbEntity
  8
L-ZISSEN
100
AcDbLine
 10
222.0
 20
114.4999999999963
 30
0.0
 11
177.9999999999981
 21
114.4999999999963
 31
0.0
  0
LINE
  5
2B5
330
2
100
AcDbEntity
  8
L-ZISSEN
100
AcDbLine
 10
175.9999999999963
 20
112.0999999999958
 30
0.0
 11
177.9999999999981
 21
114.4999999999963
 31
0.0
  0
ARC
  5
2B6
330
2
100
AcDbEntity
  8
L-SOUZOU
100
AcDbCircle
 10
181.1000000000028
 20
220.5247414839332
 30
0.0
 40
1.5
100
AcDbArc
 50
89.99999999999998
 51
180.0
  0
CIRCLE
  5
2B7
330
2
100
AcDbEntity
  8
L-ZISSEN
100
AcDbCircle
 10
176.4999999999997
 20
230.5247414839168
 30
0.0
 40
4.45
  0
LINE
  5
2B8
330
2
100
AcDbEntity
  8
L-SOUZOU
100
AcDbLine
 10
179.0000000000027
 20
206.0247414839332
 30
0.0
 11
179.0000000000027
 21
198.5247414839332
 31
0.0
  0
ARC
  5
2B9
330
2
100
AcDbEntity
  8
L-SOUZOU
100
AcDbCircle
 10
180.5000000000029
 20
198.5247414839332
 30
0.0
 40
1.5
100
AcDbArc
 50
180.0
 51
270.0
  0
LINE
  5
2BA
330
2
100
AcDbEntity
  8
L-SOUZOU
100
AcDbLine
 10
179.6000000000026
 20
220.5247414839332
 30
0.0
 11
179.6000000000026
 21
206.0247414839332
 31
0.0
  0
LINE
  5
2BB
330
2
100
AcDbEntity
  8
L-SOUZOU
100
AcDbLine
 10
206.8000000000028
 20
225.5247414839168
 30
0.0
 11
206.8000000000028
 21
222.0247414839332
 31
0.0
  0
LINE
  5
2BC
330
2
100
AcDbEntity
  8
L-SOUZOU
100
AcDbLine
 10
193.2000000000025
 20
225.5247414839168
 30
0.0
 11
193.2000000000025
 21
222.0247414839332
 31
0.0
  0
LINE
  5
2BD
330
2
100
AcDbEntity
  8
L-ZISSEN
100
AcDbLine
 10
223.9999999999963
 20
112.0999999999958
 30
0.0
 11
222.0
 21
114.4999999999963
 31
0.0
  0
LINE
  5
2BE
330
2
100
AcDbEntity
  8
L-ZISSEN
100
AcDbLine
 10
234.9999999999986
 20
242.5247414839168
 30
0.0
 11
231.4999999999991
 21
242.5247414839168
 31
0.0
  0
LINE
  5
2BF
330
2
100
AcDbEntity
  8
L-ZISSEN
370
     9
100
AcDbLine
 10
231.3891526686794
 20
242.024741483925
 30
0.0
 11
232.6396203899709
 21
242.0247414839259
 31
0.0
  0
LINE
  5
2C0
330
2
100
AcDbEntity
  8
L-ZISSEN
100
AcDbLine
 10
231.4999999999991
 20
242.5247414839168
 30
0.0
 11
227.731190735069
 21
225.5247414839168
 31
0.0
  0
CIRCLE
  5
2C1
330
2
100
AcDbEntity
  8
L-ZISSEN
100
AcDbCircle
 10
223.5000000000034
 20
230.5247414839168
 30
0.0
 40
4.45
  0
ARC
  5
2C2
330
2
100
AcDbEntity
  8
L-SOUZOU
100
AcDbCircle
 10
218.900000000003
 20
220.5247414839332
 30
0.0
 40
1.5
100
AcDbArc
 50
0.0
 51
89.99999999999998
  0
LINE
  5
2C3
330
2
100
AcDbEntity
  8
L-SOUZOU
100
AcDbLine
 10
221.0000000000027
 20
206.0247414839332
 30
0.0
 11
221.0000000000027
 21
198.5247414839332
 31
0.0
  0
ARC
  5
2C4
330
2
100
AcDbEntity
  8
L-SOUZOU
100
AcDbCircle
 10
219.5000000000029
 20
198.5247414839332
 30
0.0
 40
1.5
100
AcDbArc
 50
270.0
 51
0.0
  0
LINE
  5
2C5
330
2
100
AcDbEntity
  8
L-SOUZOU
100
AcDbLine
 10
220.4000000000028
 20
220.5247414839332
 30
0.0
 11
220.4000000000028
 21
206.0247414839332
 31
0.0
  0
LINE
  5
2C6
330
2
100
AcDbEntity
  8
L-ZISSEN
100
AcDbLine
 10
234.0000000000023
 20
239.0247414839168
 30
0.0
 11
237.4999999999986
 21
239.0247414839168
 31
0.0
  0
LINE
  5
2C7
330
2
100
AcDbEntity
  8
L-ZISSEN
100
AcDbLine
 10
251.4999999999997
 20
239.0247414839159
 30
0.0
 11
237.4999999999986
 21
239.0247414839159
 31
0.0
  0
LINE
  5
2C8
330
2
100
AcDbEntity
  8
L-ZISSEN
370
     9
100
AcDbLine
 10
250.2499999999991
 20
237.5247414839259
 30
0.0
 11
250.2499999999991
 21
239.0247414839214
 31
0.0
  0
ARC
  5
2C9
330
2
100
AcDbEntity
  8
L-ZISSEN
370
     9
100
AcDbCircle
 10
232.6396203899709
 20
241.5247414839259
 30
0.0
 40
0.5
100
AcDbArc
 50
18.43494882291479
 51
90.00000000000003
  0
LINE
  5
2CA
330
2
100
AcDbEntity
  8
L-ZISSEN
370
     9
100
AcDbLine
 10
238.7499999999992
 20
237.5247414839259
 30
0.0
 11
238.7499999999992
 21
239.0247414839214
 31
0.0
  0
LINE
  5
2CB
330
2
100
AcDbEntity
  8
L-ZISSEN
370
     9
100
AcDbLine
 10
234.4999999999992
 20
237.5247414839259
 30
0.0
 11
233.1139620389964
 21
241.6828553669338
 31
0.0
  0
LINE
  5
2CC
330
2
100
AcDbEntity
  8
L-ZISSEN
100
AcDbLine
 10
227.731190735069
 20
295.5247414839168
 30
0.0
 11
172.2688092649291
 21
295.5247414839168
 31
0.0
  0
CIRCLE
  5
2CD
330
2
100
AcDbEntity
  8
L-ZISSEN
100
AcDbCircle
 10
176.4999999999997
 20
290.5247414839168
 30
0.0
 40
4.45
  0
LINE
  5
2CE
330
2
100
AcDbEntity
  8
L-ZISSEN
100
AcDbLine
 10
231.4999999999991
 20
278.5247414839168
 30
0.0
 11
234.9999999999986
 21
278.5247414839168
 31
0.0
  0
LINE
  5
2CF
330
2
100
AcDbEntity
  8
L-ZISSEN
370
     9
100
AcDbLine
 10
231.3891526686775
 20
279.0247414839168
 30
0.0
 11
232.6396203899709
 21
279.0247414839168
 31
0.0
  0
CIRCLE
  5
2D0
330
2
100
AcDbEntity
  8
L-ZISSEN
100
AcDbCircle
 10
223.5000000000034
 20
290.5247414839168
 30
0.0
 40
4.45
  0
LINE
  5
2D1
330
2
100
AcDbEntity
  8
L-ZISSEN
100
AcDbLine
 10
231.4999999999991
 20
278.5247414839168
 30
0.0
 11
227.731190735069
 21
295.5247414839168
 31
0.0
  0
LINE
  5
2D2
330
2
100
AcDbEntity
  8
L-TYUSIN
100
AcDbLine
 10
244.4999999999986
 20
315.5247414839159
 30
0.0
 11
244.4999999999986
 21
298.5247414839159
 31
0.0
  0
LINE
  5
2D3
330
2
100
AcDbEntity
  8
L-ZISSEN
100
AcDbLine
 10
251.4999999999997
 20
282.0247414839168
 30
0.0
 11
251.4999999999996
 21
275.2747414839213
 31
0.0
  0
LINE
  5
2D4
330
2
100
AcDbEntity
  8
L-ZISSEN
100
AcDbLine
 10
233.9999999999995
 20
282.0247414839168
 30
0.0
 11
237.4999999999986
 21
282.0247414839168
 31
0.0
  0
LINE
  5
2D5
330
2
100
AcDbEntity
  8
L-ZISSEN
100
AcDbLine
 10
251.4999999999997
 20
282.0247414839168
 30
0.0
 11
237.4999999999986
 21
282.0247414839168
 31
0.0
  0
LINE
  5
2D6
330
2
100
AcDbEntity
  8
L-ZISSEN
100
AcDbLine
 10
237.4999999999992
 20
245.7747414839204
 30
0.0
 11
251.4999999999992
 21
245.7747414839204
 31
0.0
  0
LINE
  5
2D7
330
2
100
AcDbEntity
  8
L-ZISSEN
100
AcDbLine
 10
237.4999999999992
 20
275.2747414839205
 30
0.0
 11
251.4999999999992
 21
275.2747414839205
 31
0.0
  0
LINE
  5
2D8
330
2
100
AcDbEntity
  8
L-ZISSEN
370
    40
100
AcDbLine
 10
251.4999999999992
 20
245.7747414839204
 30
0.0
 11
253.2499999999992
 21
246.0247414839205
 31
0.0
  0
LINE
  5
2D9
330
2
100
AcDbEntity
  8
L-ZISSEN
370
    30
100
AcDbLine
 10
253.2499999999992
 20
275.0247414839204
 30
0.0
 11
253.2499999999992
 21
246.0247414839205
 31
0.0
  0
LINE
  5
2DA
330
2
100
AcDbEntity
  8
L-ZISSEN
370
    30
100
AcDbLine
 10
253.2499999999992
 20
275.0247414839204
 30
0.0
 11
251.4999999999992
 21
275.2747414839205
 31
0.0
  0
ARC
  5
2DB
330
2
100
AcDbEntity
  8
L-ZISSEN
370
     9
100
AcDbCircle
 10
232.6396203899709
 20
279.5247414839168
 30
0.0
 40
0.5
100
AcDbArc
 50
270.0
 51
341.5650511770852
  0
LINE
  5
2DC
330
2
100
AcDbEntity
  8
L-ZISSEN
370
     9
100
AcDbLine
 10
250.2499999999991
 20
283.5247414839168
 30
0.0
 11
250.2499999999991
 21
282.0247414839213
 31
0.0
  0
LINE
  5
2DD
330
2
100
AcDbEntity
  8
L-ZISSEN
370
     9
100
AcDbLine
 10
238.7499999999992
 20
283.5247414839168
 30
0.0
 11
238.7499999999992
 21
282.0247414839213
 31
0.0
  0
LINE
  5
2DE
330
2
100
AcDbEntity
  8
L-ZISSEN
370
     9
100
AcDbLine
 10
234.4999999999992
 20
283.5247414839168
 30
0.0
 11
233.1139620389964
 21
279.3666276009071
 31
0.0
  0
LINE
  5
2DF
330
2
100
AcDbEntity
  8
L-ZISSEN
370
     9
100
AcDbLine
 10
233.4999999999991
 20
310.5247414839168
 30
0.0
 11
233.4999999999991
 21
290.0247414839168
 31
0.0
  0
LINE
  5
2E0
330
2
100
AcDbEntity
  8
L-ZISSEN
100
AcDbLine
 10
326.4999999999997
 20
282.0247414839168
 30
0.0
 11
326.4999999999997
 21
239.0247414839168
 31
0.0
  0
LINE
  5
2E1
330
2
100
AcDbEntity
  8
L-ZISSEN
100
AcDbLine
 10
305.7499999999997
 20
229.5247414839168
 30
0.0
 11
309.4079619336082
 21
246.0247414839168
 31
0.0
  0
LINE
  5
2E2
330
2
100
AcDbEntity
  8
L-ZISSEN
100
AcDbLine
 10
286.2499999999997
 20
229.5247414839168
 30
0.0
 11
282.5920380663908
 21
246.0247414839168
 31
0.0
  0
CIRCLE
  5
2E3
330
2
100
AcDbEntity
  8
L-ZISSEN
100
AcDbCircle
 10
296.0
 20
242.5247414839168
 30
0.0
 40
8.0
  0
LINE
  5
2E4
330
2
100
AcDbEntity
  8
L-TYUSIN
100
AcDbLine
 10
288.9999999999997
 20
220.5247414839168
 30
0.0
 11
288.9999999999997
 21
300.5247414839168
 31
0.0
  0
LINE
  5
2E5
330
2
100
AcDbEntity
  8
L-ZISSEN
100
AcDbLine
 10
262.8242329305901
 20
225.5247414839168
 30
0.0
 11
315.1757670694089
 21
225.5247414839168
 31
0.0
  0
LINE
  5
2E6
330
2
100
AcDbEntity
  8
L-ZISSEN
100
AcDbLine
 10
272.2499999999997
 20
229.5247414839168
 30
0.0
 11
305.7499999999997
 21
229.5247414839168
 31
0.0
  0
LINE
  5
2E7
330
2
100
AcDbEntity
  8
L-ZISSEN
100
AcDbLine
 10
283.3125457199805
 20
242.7747414839168
 30
0.0
 11
256.2999999999994
 21
242.7747414839168
 31
0.0
  0
LINE
  5
2E8
330
2
100
AcDbEntity
  8
L-ZISSEN
100
AcDbLine
 10
262.8242329305901
 20
225.5247414839168
 30
0.0
 11
261.6049122860523
 21
231.024741483925
 31
0.0
  0
LINE
  5
2E9
330
2
100
AcDbEntity
  8
L-ZISSEN
100
AcDbLine
 10
272.2499999999997
 20
229.5247414839168
 30
0.0
 11
269.3125457199805
 21
242.7747414839168
 31
0.0
  0
ARC
  5
2EA
330
2
100
AcDbEntity
  8
L-ZISSEN
100
AcDbCircle
 10
265.5
 20
230.5247414839168
 30
0.0
 40
2.0
100
AcDbArc
 50
165.5224878138011
 51
14.47751218619883
  0
LINE
  5
2EB
330
2
100
AcDbEntity
  8
L-ZISSEN
100
AcDbLine
 10
256.2999999999994
 20
242.7747414839168
 30
0.0
 11
254.9999999999997
 21
239.0247414839168
 31
0.0
  0
ARC
  5
2EC
330
2
100
AcDbEntity
  8
L-ZISSEN
370
     9
100
AcDbCircle
 10
269.9999999999992
 20
232.5247414839259
 30
0.0
 40
1.5
100
AcDbArc
 50
270.0
 51
13.16309332031452
  0
LINE
  5
2ED
330
2
100
AcDbEntity
  8
L-ZISSEN
370
     9
100
AcDbLine
 10
268.6054224776854
 20
241.6655525312189
 30
0.0
 11
271.4605886872733
 21
232.8663270319311
 31
0.0
  0
ARC
  5
2EE
330
2
100
AcDbEntity
  8
L-ZISSEN
370
     9
100
AcDbCircle
 10
268.125659777009
 20
241.5247414839259
 30
0.0
 40
0.5
100
AcDbArc
 50
16.35704026103607
 51
90.00000000000003
  0
ARC
  5
2EF
330
2
100
AcDbEntity
  8
L-ZISSEN
370
     9
100
AcDbCircle
 10
256.360379610027
 20
241.5247414839259
 30
0.0
 40
0.5
100
AcDbArc
 50
90.00000000000003
 51
161.5650511770851
  0
LINE
  5
2F0
330
2
100
AcDbEntity
  8
L-ZISSEN
370
     9
100
AcDbLine
 10
268.125659777009
 20
242.0247414839259
 30
0.0
 11
256.360379610027
 21
242.0247414839259
 31
0.0
  0
LINE
  5
2F1
330
2
100
AcDbEntity
  8
L-ZISSEN
370
     9
100
AcDbLine
 10
254.4999999999991
 20
237.5247414839259
 30
0.0
 11
255.8860379610019
 21
241.6828553669338
 31
0.0
  0
LINE
  5
2F2
330
2
100
AcDbEntity
  8
L-ZISSEN
100
AcDbLine
 10
315.1757670694089
 20
225.5247414839168
 30
0.0
 11
318.1686450150885
 21
239.0247414839168
 31
0.0
  0
LINE
  5
2F3
330
2
100
AcDbEntity
  8
L-ZISSEN
100
AcDbLine
 10
321.6999999999996
 20
242.7747414839168
 30
0.0
 11
308.6874542800185
 21
242.7747414839168
 31
0.0
  0
CIRCLE
  5
2F4
330
2
100
AcDbEntity
  8
L-ZISSEN
100
AcDbCircle
 10
312.5
 20
230.5247414839168
 30
0.0
 40
2.0
  0
LINE
  5
2F5
330
2
100
AcDbEntity
  8
L-ZISSEN
100
AcDbLine
 10
321.6999999999996
 20
242.7747414839168
 30
0.0
 11
322.9999999999997
 21
239.0247414839168
 31
0.0
  0
LINE
  5
2F6
330
2
100
AcDbEntity
  8
L-ZISSEN
100
AcDbLine
 10
326.4999999999997
 20
239.0247414839168
 30
0.0
 11
318.1686450150885
 21
239.0247414839168
 31
0.0
  0
CIRCLE
  5
2F7
330
2
100
AcDbEntity
  8
L-ZISSEN
100
AcDbCircle
 10
296.0
 20
277.5247414839168
 30
0.0
 40
3.267949192431018
  0
CIRCLE
  5
2F8
330
2
100
AcDbEntity
  8
L-ZISSEN
100
AcDbCircle
 10
296.0
 20
277.5247414839168
 30
0.0
 40
5.0
  0
LINE
  5
2F9
330
2
100
AcDbEntity
  8
L-ZISSEN
100
AcDbLine
 10
262.9999999999997
 20
295.5247414839168
 30
0.0
 11
314.9999999999997
 21
295.5247414839168
 31
0.0
  0
LINE
  5
2FA
330
2
100
AcDbEntity
  8
L-ZISSEN
100
AcDbLine
 10
272.2499999999997
 20
291.5247414839168
 30
0.0
 11
305.7499999999997
 21
291.5247414839168
 31
0.0
  0
LINE
  5
2FB
330
2
100
AcDbEntity
  8
L-ZISSEN
100
AcDbLine
 10
283.3125457199805
 20
278.2747414839168
 30
0.0
 11
256.2999999999994
 21
278.2747414839168
 31
0.0
  0
CIRCLE
  5
2FC
330
2
100
AcDbEntity
  8
L-ZISSEN
100
AcDbCircle
 10
280.75
 20
260.5247414839168
 30
0.0
 40
10.25
  0
CIRCLE
  5
2FD
330
2
100
AcDbEntity
  8
L-ZISSEN
100
AcDbCircle
 10
280.75
 20
260.5247414839168
 30
0.0
 40
7.0
  0
ARC
  5
2FE
330
2
100
AcDbEntity
  8
L-ZISSEN
100
AcDbCircle
 10
265.5
 20
290.5247414839168
 30
0.0
 40
2.0
100
AcDbArc
 50
345.5224878140429
 51
194.4775121859571
  0
LINE
  5
2FF
330
2
100
AcDbEntity
  8
L-ZISSEN
100
AcDbLine
 10
272.2499999999997
 20
291.5247414839168
 30
0.0
 11
269.3125457199805
 21
278.2747414839168
 31
0.0
  0
LINE
  5
300
330
2
100
AcDbEntity
  8
L-ZISSEN
100
AcDbLine
 10
256.2999999999994
 20
278.2747414839168
 30
0.0
 11
254.9999999999997
 21
282.0247414839168
 31
0.0
  0
LINE
  5
301
330
2
100
AcDbEntity
  8
L-ZISSEN
100
AcDbLine
 10
262.9999999999997
 20
295.5247414839168
 30
0.0
 11
261.7806793554635
 21
290.0247414839159
 31
0.0
  0
ARC
  5
302
330
2
100
AcDbEntity
  8
L-ZISSEN
370
     9
100
AcDbCircle
 10
269.9999999999992
 20
288.5247414839168
 30
0.0
 40
1.5
100
AcDbArc
 50
346.8369066796855
 51
90.0
  0
ARC
  5
303
330
2
100
AcDbEntity
  8
L-ZISSEN
370
     9
100
AcDbCircle
 10
268.125659777009
 20
279.5247414839168
 30
0.0
 40
0.5
100
AcDbArc
 50
270.0
 51
343.6429597389639
  0
LINE
  5
304
330
2
100
AcDbEntity
  8
L-ZISSEN
370
     9
100
AcDbLine
 10
268.6054224776854
 20
279.3839304366238
 30
0.0
 11
271.4605886872733
 21
288.1831559359097
 31
0.0
  0
ARC
  5
305
330
2
100
AcDbEntity
  8
L-ZISSEN
370
     9
100
AcDbCircle
 10
256.360379610027
 20
279.5247414839168
 30
0.0
 40
0.5
100
AcDbArc
 50
198.4349488229148
 51
270.0
  0
LINE
  5
306
330
2
100
AcDbEntity
  8
L-ZISSEN
370
     9
100
AcDbLine
 10
268.125659777009
 20
279.0247414839168
 30
0.0
 11
256.360379610027
 21
279.0247414839168
 31
0.0
  0
LINE
  5
307
330
2
100
AcDbEntity
  8
L-ZISSEN
370
     9
100
AcDbLine
 10
254.4999999999991
 20
283.5247414839168
 30
0.0
 11
255.8860379610019
 21
279.3666276009071
 31
0.0
  0
LINE
  5
308
330
2
100
AcDbEntity
  8
L-ZISSEN
370
     9
100
AcDbLine
 10
255.4999999999992
 20
310.5247414839168
 30
0.0
 11
255.4999999999992
 21
290.0247414839168
 31
0.0
  0
LINE
  5
309
330
2
100
AcDbEntity
  8
L-ZISSEN
100
AcDbLine
 10
286.2499999999997
 20
291.5247414839168
 30
0.0
 11
282.5920380663908
 21
275.0247414839168
 31
0.0
  0
LINE
  5
30A
330
2
100
AcDbEntity
  8
L-ZISSEN
100
AcDbLine
 10
321.6999999999996
 20
278.2747414839168
 30
0.0
 11
308.6874542800185
 21
278.2747414839168
 31
0.0
  0
LINE
  5
30B
330
2
100
AcDbEntity
  8
L-ZISSEN
100
AcDbLine
 10
314.9999999999997
 20
295.5247414839168
 30
0.0
 11
317.9928779456793
 21
282.0247414839168
 31
0.0
  0
LINE
  5
30C
330
2
100
AcDbEntity
  8
L-ZISSEN
100
AcDbLine
 10
309.4079619336082
 20
246.0247414839168
 30
0.0
 11
326.4999999999997
 21
246.0247414839168
 31
0.0
  0
LINE
  5
30D
330
2
100
AcDbEntity
  8
L-ZISSEN
100
AcDbLine
 10
309.4079619336082
 20
275.0247414839168
 30
0.0
 11
326.4999999999997
 21
275.0247414839168
 31
0.0
  0
CIRCLE
  5
30E
330
2
100
AcDbEntity
  8
L-ZISSEN
100
AcDbCircle
 10
312.5
 20
290.5247414839168
 30
0.0
 40
2.0
  0
LINE
  5
30F
330
2
100
AcDbEntity
  8
L-ZISSEN
100
AcDbLine
 10
305.7499999999997
 20
291.5247414839168
 30
0.0
 11
309.4079619336082
 21
275.0247414839168
 31
0.0
  0
LINE
  5
310
330
2
100
AcDbEntity
  8
L-ZISSEN
100
AcDbLine
 10
321.6999999999996
 20
278.2747414839168
 30
0.0
 11
322.9999999999997
 21
282.0247414839168
 31
0.0
  0
LINE
  5
311
330
2
100
AcDbEntity
  8
L-ZISSEN
100
AcDbLine
 10
326.4999999999997
 20
282.0247414839168
 30
0.0
 11
317.9928779456793
 21
282.0247414839168
 31
0.0
  0
LINE
  5
312
330
2
100
AcDbEntity
  8
L-ZISSEN
100
AcDbLine
 10
585.4851175814813
 20
-12.91801005474098
 30
0.0
 11
592.4851175814812
 21
-12.91801005474098
 31
0.0
  0
LINE
  5
313
330
2
100
AcDbEntity
  8
L-ZISSEN
100
AcDbLine
 10
594.5499503132616
 20
-102.9180100547428
 30
0.0
 11
585.593090249664
 21
-101.8691056888137
 31
0.0
  0
ARC
  5
314
330
2
100
AcDbEntity
  8
L-ZISSEN
100
AcDbCircle
 10
471.5284632327402
 20
-91.90518380006597
 30
0.0
 40
10.0
100
AcDbArc
 50
274.868444062882
 51
358.9999999999721
  0
ARC
  5
315
330
2
100
AcDbEntity
  8
L-ZISSEN
100
AcDbCircle
 10
436.4417719302214
 20
-91.90518380006597
 30
0.0
 40
10.0
100
AcDbArc
 50
181.0000000000278
 51
265.1315559371179
  0
LINE
  5
316
330
2
100
AcDbEntity
  8
L-ZISSEN
100
AcDbLine
 10
463.4202848496999
 20
-102.9180100547428
 30
0.0
 11
472.3771449132973
 21
-101.8691056888155
 31
0.0
  0
LINE
  5
317
330
2
100
AcDbEntity
  8
L-ZISSEN
100
AcDbLine
 10
444.5499503132616
 20
-102.9180100547428
 30
0.0
 11
435.5930902496643
 21
-101.8691056888155
 31
0.0
  0
LINE
  5
318
330
2
100
AcDbEntity
  8
L-ZISSEN
100
AcDbLine
 10
461.7790375814818
 20
-106.9092968243903
 30
0.0
 11
461.7790375814818
 21
-108.9287622845031
 31
0.0
  0
LINE
  5
319
330
2
100
AcDbEntity
  8
L-ZISSEN
100
AcDbLine
 10
459.7179163597361
 20
-121.4190295544476
 30
0.0
 11
460.0179163597358
 21
-121.1190295544465
 31
0.0
  0
LINE
  5
31A
330
2
100
AcDbEntity
  8
L-ZISSEN
100
AcDbLine
 10
460.0179163597358
 20
-111.8601949649391
 30
0.0
 11
460.0179163597358
 21
-121.1190295544465
 31
0.0
  0
LINE
  5
31B
330
2
100
AcDbEntity
  8
L-ZISSEN
100
AcDbLine
 10
463.4202848496999
 20
-102.9180100547428
 30
0.0
 11
463.4202848496998
 21
-106.4180100547428
 31
0.0
  0
LINE
  5
31C
330
2
100
AcDbEntity
  8
L-ZISSEN
100
AcDbLine
 10
457.0179163597363
 20
-111.3601949649391
 30
0.0
 11
459.5179163597363
 21
-111.3601949649391
 31
0.0
  0
LINE
  5
31D
330
2
100
AcDbEntity
  8
L-ZISSEN
100
AcDbLine
 10
449.4498532218422
 20
-109.4196694758238
 30
0.0
 11
458.5184770795783
 21
-109.4197466387731
 31
0.0
  0
LINE
  5
31E
330
2
100
AcDbEntity
  8
L-ZISSEN
100
AcDbLine
 10
451.0179163597372
 20
-111.3601949649391
 30
0.0
 11
451.0179163597372
 21
-121.4190295544476
 31
0.0
  0
LINE
  5
31F
330
2
100
AcDbEntity
  8
L-ZISSEN
100
AcDbLine
 10
450.0179163597358
 20
-111.3601949649391
 30
0.0
 11
450.0179163597358
 21
-121.4190295544476
 31
0.0
  0
LINE
  5
320
330
2
100
AcDbEntity
  8
L-ZISSEN
100
AcDbLine
 10
453.9851175814813
 20
-106.9221487123932
 30
0.0
 11
453.9851175814813
 21
-108.9169726250211
 31
0.0
  0
LINE
  5
321
330
2
100
AcDbEntity
  8
L-ZISSEN
100
AcDbLine
 10
453.9851175814813
 20
-106.9221487123932
 30
0.0
 11
453.9851175814813
 21
-108.9169726250211
 31
0.0
  0
LINE
  5
322
330
2
100
AcDbEntity
  8
L-ZISSEN
100
AcDbLine
 10
453.9851175814813
 20
-106.9221487123932
 30
0.0
 11
453.9851175814813
 21
-108.9169726250211
 31
0.0
  0
LINE
  5
323
330
2
100
AcDbEntity
  8
L-ZISSEN
100
AcDbLine
 10
453.9851175814813
 20
-106.9221487123932
 30
0.0
 11
453.9851175814813
 21
-108.9169726250211
 31
0.0
  0
LINE
  5
324
330
2
100
AcDbEntity
  8
L-ZISSEN
100
AcDbLine
 10
452.0179163597386
 20
-111.3601949649391
 30
0.0
 11
452.0179163597386
 21
-121.4190295544476
 31
0.0
  0
LINE
  5
325
330
2
100
AcDbEntity
  8
L-ZISSEN
100
AcDbLine
 10
458.0179163597399
 20
-111.3601949649391
 30
0.0
 11
458.0179163597399
 21
-121.4190295544476
 31
0.0
  0
LINE
  5
326
330
2
100
AcDbEntity
  8
L-ZISSEN
100
AcDbLine
 10
457.0179163597363
 20
-111.3601949649391
 30
0.0
 11
457.0179163597363
 21
-121.4190295544476
 31
0.0
  0
LINE
  5
327
330
2
100
AcDbEntity
  8
L-ZISSEN
100
AcDbLine
 10
456.0179163597372
 20
-111.3601949649391
 30
0.0
 11
456.0179163597372
 21
-121.4190295544476
 31
0.0
  0
LINE
  5
328
330
2
100
AcDbEntity
  8
L-ZISSEN
100
AcDbLine
 10
455.0179163597381
 20
-111.3601949649391
 30
0.0
 11
455.0179163597381
 21
-121.4190295544476
 31
0.0
  0
LINE
  5
329
330
2
100
AcDbEntity
  8
L-ZISSEN
100
AcDbLine
 10
454.017916359739
 20
-111.3601949649391
 30
0.0
 11
454.017916359739
 21
-121.4190295544476
 31
0.0
  0
LINE
  5
32A
330
2
100
AcDbEntity
  8
L-ZISSEN
100
AcDbLine
 10
453.0179163597376
 20
-111.3601949649391
 30
0.0
 11
453.0179163597376
 21
-121.4190295544476
 31
0.0
  0
LINE
  5
32B
330
2
100
AcDbEntity
  8
L-ZISSEN
100
AcDbLine
 10
459.5179163597358
 20
-110.8601949649391
 30
0.0
 11
459.5179163597358
 21
-109.4190295544476
 31
0.0
  0
LINE
  5
32C
330
2
100
AcDbEntity
  8
L-ZISSEN
100
AcDbLine
 10
459.0179163597404
 20
-109.4203758168687
 30
0.0
 11
459.0179163597363
 21
-111.3601949649391
 31
0.0
  0
LINE
  5
32D
330
2
100
AcDbEntity
  8
L-ZISSEN
100
AcDbLine
 10
459.0179163597363
 20
-111.3601949649391
 30
0.0
 11
459.5179163597358
 21
-110.8601949649391
 31
0.0
  0
LINE
  5
32E
330
2
100
AcDbEntity
  8
L-ZISSEN
100
AcDbLine
 10
459.017916359739
 20
-111.3601949649391
 30
0.0
 11
459.0179163597411
 21
-121.4190295544476
 31
0.0
  0
ARC
  5
32F
330
2
100
AcDbEntity
  8
L-ZISSEN
100
AcDbCircle
 10
457.9062191849638
 20
-94.28186280422323
 30
0.0
 40
15.15026028548078
100
AcDbArc
 50
255.0002908893079
 51
284.8107520071994
  0
ARC
  5
330
330
2
100
AcDbEntity
  8
L-ZISSEN
100
AcDbCircle
 10
457.9068239527759
 20
-121.9229526894296
 30
0.0
 40
15.50496374778473
100
AcDbArc
 50
75.53785753829346
 51
104.6510995651531
  0
LINE
  5
331
330
2
100
AcDbEntity
  8
L-ZISSEN
100
AcDbLine
 10
459.5179163597363
 20
-111.3601949649391
 30
0.0
 11
460.0179163597358
 21
-111.8601949649391
 31
0.0
  0
LINE
  5
332
330
2
100
AcDbEntity
  8
L-ZISSEN
100
AcDbLine
 10
446.1911975814807
 20
-106.9092968243903
 30
0.0
 11
446.1911975814807
 21
-108.9287622845031
 31
0.0
  0
LINE
  5
333
330
2
100
AcDbEntity
  8
L-ZISSEN
100
AcDbLine
 10
448.5179163597349
 20
-111.3601949649391
 30
0.0
 11
448.0179163597377
 21
-111.8601949649391
 31
0.0
  0
LINE
  5
334
330
2
100
AcDbEntity
  8
L-ZISSEN
100
AcDbLine
 10
448.5179163597377
 20
-110.8601949649391
 30
0.0
 11
448.5179163597377
 21
-109.4190295544476
 31
0.0
  0
LINE
  5
335
330
2
100
AcDbEntity
  8
L-ZISSEN
100
AcDbLine
 10
449.017916359739
 20
-109.4197261655763
 30
0.0
 11
449.0179163597349
 21
-111.3601949649391
 31
0.0
  0
LINE
  5
336
330
2
100
AcDbEntity
  8
L-ZISSEN
100
AcDbLine
 10
449.0179163597349
 20
-111.3601949649391
 30
0.0
 11
448.5179163597377
 21
-110.8601949649391
 31
0.0
  0
LINE
  5
337
330
2
100
AcDbEntity
  8
L-ZISSEN
100
AcDbLine
 10
448.3179163597374
 20
-121.4190295544476
 30
0.0
 11
448.0179163597377
 21
-121.1190295544465
 31
0.0
  0
LINE
  5
338
330
2
100
AcDbEntity
  8
L-ZISSEN
100
AcDbLine
 10
449.0179163597368
 20
-111.3601949649391
 30
0.0
 11
449.0179163597368
 21
-121.4190295544476
 31
0.0
  0
LINE
  5
339
330
2
100
AcDbEntity
  8
L-ZISSEN
100
AcDbLine
 10
448.0179163597377
 20
-121.1190295544465
 30
0.0
 11
448.0179163597377
 21
-111.8601949649391
 31
0.0
  0
LINE
  5
33A
330
2
100
AcDbEntity
  8
L-ZISSEN
100
AcDbLine
 10
444.5499503132616
 20
-102.9180100547428
 30
0.0
 11
444.5499503132618
 21
-106.4180100547428
 31
0.0
  0
ARC
  5
33B
330
2
100
AcDbEntity
  8
L-ZISSEN
100
AcDbCircle
 10
450.0634112101866
 20
-121.9229526894296
 30
0.0
 40
15.50496374778473
100
AcDbArc
 50
75.34890043484683
 51
104.4621424617065
  0
ARC
  5
33C
330
2
100
AcDbEntity
  8
L-ZISSEN
100
AcDbCircle
 10
450.0640159779987
 20
-94.28186280422323
 30
0.0
 40
15.15026028548078
100
AcDbArc
 50
255.1892479928005
 51
284.999709110692
  0
LINE
  5
33D
330
2
100
AcDbEntity
  8
L-ZISSEN
100
AcDbLine
 10
448.5179163597349
 20
-111.3601949649391
 30
0.0
 11
457.0179163597363
 21
-111.3601949649391
 31
0.0
  0
LINE
  5
33E
330
2
100
AcDbEntity
  8
L-ZISSEN
100
AcDbLine
 10
459.7179163597361
 20
-121.4190295544476
 30
0.0
 11
448.3179163597374
 21
-121.4190295544476
 31
0.0
  0
LINE
  5
33F
330
2
100
AcDbEntity
  8
L-ZISSEN
100
AcDbLine
 10
444.5499503132618
 20
-106.4180100547428
 30
0.0
 11
463.4202848496999
 21
-106.4180100547428
 31
0.0
  0
LINE
  5
340
330
2
100
AcDbEntity
  8
L-ZISSEN
100
AcDbLine
 10
444.5499503132614
 20
-102.9180100547428
 30
0.0
 11
463.4202848496999
 21
-102.9180100547428
 31
0.0
  0
LINE
  5
341
330
2
100
AcDbEntity
  8
L-ZISSEN
100
AcDbLine
 10
472.4851175814812
 20
-12.91801005474008
 30
0.0
 11
457.7351175814801
 21
-12.91801005474189
 31
0.0
  0
LINE
  5
342
330
2
100
AcDbEntity
  8
L-ZISSEN
100
AcDbLine
 10
424.7292505199996
 20
-12.91801005474189
 30
0.0
 11
426.4451115219762
 21
-92.16360338568211
 31
0.0
  0
CIRCLE
  5
343
330
2
100
AcDbEntity
  8
L-ZISSEN
100
AcDbCircle
 10
453.9851175814808
 20
-22.16801005474099
 30
0.0
 40
3.75
  0
LINE
  5
344
330
2
100
AcDbEntity
  8
L-ZISSEN
100
AcDbLine
 10
451.4851175814806
 20
-28.4180100547419
 30
0.0
 11
456.4851175814806
 21
-28.4180100547419
 31
0.0
  0
CIRCLE
  5
345
330
2
100
AcDbEntity
  8
L-ZISSEN
100
AcDbCircle
 10
453.9851175814808
 20
-88.66801005474281
 30
0.0
 40
3.75
  0
LINE
  5
346
330
2
100
AcDbEntity
  8
L-ZISSEN
100
AcDbLine
 10
456.4851175814806
 20
-82.41801005474281
 30
0.0
 11
451.4851175814806
 21
-82.41801005474281
 31
0.0
  0
LINE
  5
347
330
2
100
AcDbEntity
  8
L-ZISSEN
100
AcDbLine
 10
462.7351175814806
 20
-16.91801005474189
 30
0.0
 11
462.7351175814824
 21
-93.91801005474281
 31
0.0
  0
LINE
  5
348
330
2
100
AcDbEntity
  8
L-ZISSEN
100
AcDbLine
 10
451.4851175814806
 20
-82.41801005474281
 30
0.0
 11
451.4851175814806
 21
-28.4180100547419
 31
0.0
  0
LINE
  5
349
330
2
100
AcDbEntity
  8
L-ZISSEN
100
AcDbLine
 10
456.4851175814806
 20
-28.4180100547419
 30
0.0
 11
456.4851175814806
 21
-82.41801005474281
 31
0.0
  0
LINE
  5
34A
330
2
100
AcDbEntity
  8
L-ZISSEN
100
AcDbLine
 10
445.2351175814806
 20
-16.91801005474189
 30
0.0
 11
445.2351175814824
 21
-93.91801005474281
 31
0.0
  0
LINE
  5
34B
330
2
100
AcDbEntity
  8
L-TYUSIN
100
AcDbLine
 10
460.2351175814808
 20
-88.66801005474281
 30
0.0
 11
447.7351175814808
 21
-88.66801005474281
 31
0.0
  0
LINE
  5
34C
330
2
100
AcDbEntity
  8
L-ZISSEN
100
AcDbLine
 10
445.2351175814806
 20
-93.91801005474281
 30
0.0
 11
462.7351175814806
 21
-93.91801005474281
 31
0.0
  0
LINE
  5
34D
330
2
100
AcDbEntity
  8
L-TYUSIN
100
AcDbLine
 10
460.2351175814808
 20
-22.16801005474099
 30
0.0
 11
447.7351175814808
 21
-22.16801005474099
 31
0.0
  0
LINE
  5
34E
330
2
100
AcDbEntity
  8
L-ZISSEN
100
AcDbLine
 10
445.2351175814806
 20
-16.91801005474189
 30
0.0
 11
462.7351175814806
 21
-16.91801005474099
 31
0.0
  0
LWPOLYLINE
  5
34F
330
2
100
AcDbEntity
  8
L-ZISSEN
100
AcDbPolyline
 90
        6
 70
     1
 43
0.0
 10
452.7351175814808
 20
-22.88969789122802
 10
453.9851175814808
 20
-23.61138572771506
 10
455.2351175814808
 20
-22.88969789122802
 10
455.2351175814808
 20
-21.44632221825395
 10
453.9851175814808
 20
-20.72463438176691
 10
452.7351175814808
 20
-21.44632221825395
  0
LWPOLYLINE
  5
350
330
2
100
AcDbEntity
  8
L-ZISSEN
100
AcDbPolyline
 90
        6
 70
     1
 43
0.0
 10
452.7351175814808
 20
-87.94632221825578
 10
453.9851175814808
 20
-87.22463438176873
 10
455.2351175814808
 20
-87.94632221825578
 10
455.2351175814808
 20
-89.38969789122984
 10
453.9851175814808
 20
-90.11138572771688
 10
452.7351175814808
 20
-89.38969789122984
  0
LINE
  5
351
330
2
100
AcDbEntity
  8
L-ZISSEN
100
AcDbLine
 10
452.4486750222859
 20
1.861339244881492
 30
0.0
 11
438.9851175814808
 21
13.08097044555234
 31
0.0
  0
LINE
  5
352
330
2
100
AcDbEntity
  8
L-ZISSEN
100
AcDbLine
 10
435.4851175814813
 20
-12.91801005474098
 30
0.0
 11
450.2351175814806
 21
-12.91801005474098
 31
0.0
  0
LINE
  5
353
330
2
100
AcDbEntity
  8
L-ZISSEN
100
AcDbLine
 10
435.4851175814813
 20
-2.918010054742808
 30
0.0
 11
435.4851175814813
 21
-12.91801005474189
 31
0.0
  0
LINE
  5
354
330
2
100
AcDbEntity
  8
L-ZISSEN
100
AcDbLine
 10
438.9851175814808
 20
13.08097044555234
 30
0.0
 11
436.9851175814808
 21
13.08097044555234
 31
0.0
  0
LINE
  5
355
330
2
100
AcDbEntity
  8
L-ZISSEN
100
AcDbLine
 10
423.7817466464466
 20
0.5809704455523388
 30
0.0
 11
424.0291329812537
 21
-12.91801005474189
 31
0.0
  0
LINE
  5
356
330
2
100
AcDbEntity
  8
L-ZISSEN
100
AcDbLine
 10
424.0291329812537
 20
-12.91801005474189
 30
0.0
 11
427.4851175814813
 21
-12.91801005474189
 31
0.0
  0
LINE
  5
357
330
2
100
AcDbEntity
  8
L-ZISSEN
100
AcDbLine
 10
427.4851175814813
 20
-2.918010054742808
 30
0.0
 11
427.4851175814813
 21
-12.91801005474189
 31
0.0
  0
TEXT
  5
358
330
2
100
AcDbEntity
  8
L-ZISSEN
100
AcDbText
 10
425.9851175814808
 20
10.83097044555233
 30
0.0
 40
4.5
  1
P.P
100
AcDbText
  0
LINE
  5
359
330
2
100
AcDbEntity
  8
L-ZISSEN
100
AcDbLine
 10
427.4851175814813
 20
-2.918010054742808
 30
0.0
 11
435.4851175814813
 21
-2.918010054742808
 31
0.0
  0
LINE
  5
35A
330
2
100
AcDbEntity
  8
L-ZISSEN
100
AcDbLine
 10
457.7351175814806
 20
-2.918010054742808
 30
0.0
 11
450.2351175814806
 21
-2.918010054742808
 31
0.0
  0
LINE
  5
35B
330
2
100
AcDbEntity
  8
L-ZISSEN
100
AcDbLine
 10
450.2351175814806
 20
-2.918010054742808
 30
0.0
 11
450.2351175814806
 21
-12.91801005474098
 31
0.0
  0
SOLID
  5
35C
330
2
100
AcDbEntity
  8
L-ZISSEN
100
AcDbTrace
 10
452.2352802223976
 20
1.605265485016388
 30
0.0
 11
452.6620698221741
 21
2.117413004747504
 31
0.0
 12
453.9851175814805
 22
0.5809704455523388
 32
0.0
 13
453.9851175814805
 23
0.5809704455523388
 33
0.0
  0
LINE
  5
35D
330
2
100
AcDbEntity
  8
L-ZISSEN
100
AcDbLine
 10
457.7351175814803
 20
-2.918010054742808
 30
0.0
 11
457.7351175814801
 21
-12.91801005474098
 31
0.0
  0
LINE
  5
35E
330
2
100
AcDbEntity
  8
L-ZISSEN
100
AcDbLine
 10
485.589245991151
 20
-26.01801005474135
 30
0.0
 11
485.589245991151
 21
-12.91801005474098
 31
0.0
  0
LINE
  5
35F
330
2
100
AcDbEntity
  8
L-ZISSEN
100
AcDbLine
 10
483.459705009684
 20
-23.21801005474207
 30
0.0
 11
483.459705009684
 21
-12.91801005474189
 31
0.0
  0
LINE
  5
360
330
2
100
AcDbEntity
  8
L-ZISSEN
100
AcDbLine
 10
483.4597050096833
 20
-21.93554644981122
 30
0.0
 11
483.459705009684
 21
-12.91801005474189
 31
0.0
  0
LINE
  5
361
330
2
100
AcDbEntity
  8
L-ZISSEN
100
AcDbLine
 10
487.7892459911513
 20
0.2819899452579193
 30
0.0
 11
487.7892459911513
 21
-19.1826635661373
 31
0.0
  0
LINE
  5
362
330
2
100
AcDbEntity
  8
L-ZISSEN
100
AcDbLine
 10
483.240984642962
 20
-12.91801005474189
 30
0.0
 11
481.5251236409854
 21
-92.16360338568211
 31
0.0
  0
LINE
  5
363
330
2
100
AcDbEntity
  8
L-ZISSEN
100
AcDbLine
 10
482.5892459911506
 20
-43.01801005474135
 30
0.0
 11
485.5892459911506
 21
-40.01801005474226
 31
0.0
  0
LINE
  5
364
330
2
100
AcDbEntity
  8
L-ZISSEN
100
AcDbLine
 10
485.589245991151
 20
-23.21801005474207
 30
0.0
 11
483.459705009684
 21
-23.21801005474117
 31
0.0
  0
LINE
  5
365
330
2
100
AcDbEntity
  8
L-ZISSEN
100
AcDbLine
 10
482.8923802478071
 20
-29.01801005474317
 30
0.0
 11
485.5892459911514
 21
-29.01801005474317
 31
0.0
  0
LINE
  5
366
330
2
100
AcDbEntity
  8
L-ZISSEN
100
AcDbLine
 10
484.3892459911512
 20
-29.01801005474317
 30
0.0
 11
484.3892459911512
 21
-23.21801005474117
 31
0.0
  0
LINE
  5
367
330
2
100
AcDbEntity
  8
L-ZISSEN
100
AcDbLine
 10
493.589245991151
 20
-19.79346195851303
 30
0.0
 11
493.589245991151
 21
-24.07763094111123
 31
0.0
  0
LINE
  5
368
330
2
100
AcDbEntity
  8
L-ZISSEN
100
AcDbLine
 10
485.589245991151
 20
-35.51801005474135
 30
0.0
 11
486.089245991151
 21
-35.51801005474135
 31
0.0
  0
LINE
  5
369
330
2
100
AcDbEntity
  8
L-ZISSEN
100
AcDbLine
 10
485.589245991151
 20
-31.51801005474135
 30
0.0
 11
486.089245991151
 21
-31.51801005474135
 31
0.0
  0
LINE
  5
36A
330
2
100
AcDbEntity
  8
L-ZISSEN
100
AcDbLine
 10
485.5892459911506
 20
-40.01801005474226
 30
0.0
 11
485.5892459911514
 21
-16.69905463848226
 31
0.0
  0
ARC
  5
36B
330
2
100
AcDbEntity
  8
L-ZISSEN
100
AcDbCircle
 10
484.8210641729687
 20
-33.51801005474135
 30
0.0
 40
2.368181818181991
100
AcDbArc
 50
302.3784125140529
 51
57.62158748594707
  0
LINE
  5
36C
330
2
100
AcDbEntity
  8
L-ZISSEN
100
AcDbLine
 10
493.589245991151
 20
-24.07763094111123
 30
0.0
 11
485.589245991151
 21
-26.01801005474135
 31
0.0
  0
LINE
  5
36D
330
2
100
AcDbEntity
  8
L-ZISSEN
100
AcDbLine
 10
487.7892459911513
 20
-19.1826635661373
 30
0.0
 11
493.589245991151
 21
-19.79346195851303
 31
0.0
  0
LINE
  5
36E
330
2
100
AcDbEntity
  8
L-ZISSEN
100
AcDbLine
 10
483.9851175814808
 20
0.5809704455541578
 30
0.0
 11
487.5559209906534
 21
0.5809704455523388
 31
0.0
  0
LINE
  5
36F
330
2
100
AcDbEntity
  8
L-ZISSEN
100
AcDbLine
 10
486.077133676845
 20
-4.418010054742808
 30
0.0
 11
484.0546320426595
 21
-4.418010054742808
 31
0.0
  0
LINE
  5
370
330
2
100
AcDbEntity
  8
L-ZISSEN
100
AcDbLine
 10
486.077133676845
 20
-12.91801005474098
 30
0.0
 11
483.4143940752767
 21
-12.91801005474098
 31
0.0
  0
LINE
  5
371
330
2
100
AcDbEntity
  8
L-ZISSEN
100
AcDbLine
 10
483.240984642962
 20
-12.91801005474189
 30
0.0
 11
483.9411021817079
 21
-12.91801005474189
 31
0.0
  0
LINE
  5
372
330
2
100
AcDbEntity
  8
L-ZISSEN
100
AcDbLine
 10
484.0546320426595
 20
-4.418010054742808
 30
0.0
 11
484.0546320426595
 21
-12.91801005474098
 31
0.0
  0
LINE
  5
373
330
2
100
AcDbEntity
  8
L-ZISSEN
100
AcDbLine
 10
472.4851175814803
 20
-2.918010054740989
 30
0.0
 11
477.9964720197388
 21
-2.918010054742808
 31
0.0
  0
LINE
  5
374
330
2
100
AcDbEntity
  8
L-ZISSEN
100
AcDbLine
 10
472.4851175814812
 20
-2.918010054740989
 30
0.0
 11
472.4851175814812
 21
-12.91801005474008
 31
0.0
  0
LINE
  5
375
330
2
100
AcDbEntity
  8
L-ZISSEN
100
AcDbLine
 10
477.9964720197388
 20
-2.918010054742808
 30
0.0
 11
477.9964720197388
 21
-12.91801005474008
 31
0.0
  0
LINE
  5
376
330
2
100
AcDbEntity
  8
L-ZISSEN
100
AcDbLine
 10
477.9964720197388
 20
-12.91801005474008
 30
0.0
 11
483.240984642962
 21
-12.91801005474008
 31
0.0
  0
LINE
  5
377
330
2
100
AcDbEntity
  8
L-ZISSEN
100
AcDbLine
 10
487.7892459911513
 20
0.2819899452579193
 30
0.0
 11
485.589245991151
 21
0.2819899452579193
 31
0.0
  0
LINE
  5
378
330
2
100
AcDbEntity
  8
L-ZISSEN
100
AcDbLine
 10
485.589245991151
 20
-4.418010054742808
 30
0.0
 11
485.589245991151
 21
0.2819899452588288
 31
0.0
  0
LINE
  5
379
330
2
100
AcDbEntity
  8
L-ZISSEN
100
AcDbLine
 10
485.589245991151
 20
0.5809704455523388
 30
0.0
 11
485.589245991151
 21
0.2819899452588288
 31
0.0
  0
LINE
  5
37A
330
2
100
AcDbEntity
  8
L-ZISSEN
100
AcDbLine
 10
486.077133676845
 20
-4.418010054742808
 30
0.0
 11
486.077133676845
 21
-12.91801005474098
 31
0.0
  0
LINE
  5
37B
330
2
100
AcDbEntity
  8
L-ZISSEN
100
AcDbLine
 10
488.3059209906539
 20
0.5809704455523388
 30
0.0
 11
488.9851175814808
 21
0.5809704455523388
 31
0.0
  0
ARC
  5
37C
330
2
100
AcDbEntity
  8
L-ZISSEN
100
AcDbCircle
 10
586.4417719302212
 20
-91.90518380006597
 30
0.0
 40
10.0
100
AcDbArc
 50
191.6119735011068
 51
265.1315559371179
  0
LINE
  5
37D
330
2
100
AcDbEntity
  8
L-ZISSEN
100
AcDbLine
 10
574.7292505200005
 20
-12.91801005474098
 30
0.0
 11
574.7671043186888
 21
-16.91801005474099
 31
0.0
  0
LINE
  5
37E
330
2
100
AcDbEntity
  8
L-ZISSEN
100
AcDbLine
 10
562.2405267011138
 20
-16.91801005474099
 30
0.0
 11
571.7405267011137
 21
-16.91801005474099
 31
0.0
  0
LINE
  5
37F
330
2
100
AcDbEntity
  8
L-ZISSEN
100
AcDbLine
 10
562.2405267011138
 20
-93.91801005474098
 30
0.0
 11
571.7405267011137
 21
-93.91801005474281
 31
0.0
  0
LINE
  5
380
330
2
100
AcDbEntity
  8
L-TYUSIN
100
AcDbLine
 10
578.3814024103305
 20
-88.91801005474098
 30
0.0
 11
555.3405267011141
 21
-88.91801005474098
 31
0.0
  0
LINE
  5
381
330
2
100
AcDbEntity
  8
L-TYUSIN
100
AcDbLine
 10
555.3405267011141
 20
-21.91801005474189
 30
0.0
 11
579.8622014107642
 21
-21.91801005474098
 31
0.0
  0
LINE
  5
382
330
2
100
AcDbEntity
  8
L-ZISSEN
100
AcDbLine
 10
560.3405267011141
 20
-20.72463438176691
 30
0.0
 11
560.3405267011139
 21
-23.61138572771506
 31
0.0
  0
ARC
  5
383
330
2
100
AcDbEntity
  8
L-ZISSEN
100
AcDbCircle
 10
562.6525292688913
 20
-20.69322353892403
 30
0.0
 40
2.312215931624567
100
AcDbArc
 50
100.264068372209
 51
180.7783719766075
  0
ARC
  5
384
330
2
100
AcDbEntity
  8
L-ZISSEN
100
AcDbCircle
 10
562.6525292688913
 20
-23.64279657055976
 30
0.0
 40
2.312215931624567
100
AcDbArc
 50
179.2216280233924
 51
259.735931627791
  0
ARC
  5
385
330
2
100
AcDbEntity
  8
L-ZISSEN
100
AcDbCircle
 10
562.6525292688913
 20
-87.19322353892403
 30
0.0
 40
2.312215931624567
100
AcDbArc
 50
100.264068372209
 51
180.7783719766075
  0
ARC
  5
386
330
2
100
AcDbEntity
  8
L-ZISSEN
100
AcDbCircle
 10
562.6525292688913
 20
-90.14279657055977
 30
0.0
 40
2.312215931624567
100
AcDbArc
 50
179.2216280233924
 51
259.735931627791
  0
LINE
  5
387
330
2
100
AcDbEntity
  8
L-ZISSEN
100
AcDbLine
 10
560.3405267011141
 20
-90.11138572771688
 30
0.0
 11
560.3405267011139
 21
-87.22463438176873
 31
0.0
  0
LINE
  5
388
330
2
100
AcDbEntity
  8
L-ZISSEN
100
AcDbLine
 10
562.2405267011138
 20
-16.91801005474099
 30
0.0
 11
562.2405267011156
 21
-93.91801005474098
 31
0.0
  0
LINE
  5
389
330
2
100
AcDbEntity
  8
L-ZISSEN
 48
0.3
100
AcDbLine
 10
576.8383098966308
 20
-93.91801005474098
 30
0.0
 11
576.8383098966308
 21
-16.91801005474099
 31
0.0
  0
LINE
  5
38A
330
2
100
AcDbEntity
  8
L-ZISSEN
100
AcDbLine
 10
571.7405267011137
 20
-16.91801005474099
 30
0.0
 11
574.8406442398602
 21
-16.91801005474099
 31
0.0
  0
LINE
  5
38B
330
2
100
AcDbEntity
  8
L-ZISSEN
100
AcDbLine
 10
570.0291329812537
 20
-16.91801005474099
 30
0.0
 11
573.4851175814813
 21
-16.91801005474099
 31
0.0
  0
LINE
  5
38C
330
2
100
AcDbEntity
  8
L-ZISSEN
100
AcDbLine
 10
571.7405267011156
 20
-93.91801005474098
 30
0.0
 11
575.5383098966306
 21
-93.91801005474098
 31
0.0
  0
LINE
  5
38D
330
2
100
AcDbEntity
  8
L-ZISSEN
100
AcDbLine
 10
571.7405267011137
 20
-16.91801005474099
 30
0.0
 11
571.7405267011156
 21
-93.91801005474098
 31
0.0
  0
LINE
  5
38E
330
2
100
AcDbEntity
  8
L-ZISSEN
 48
0.3
100
AcDbLine
 10
575.5383098966306
 20
-93.91801005474098
 30
0.0
 11
576.8383098966308
 21
-93.91801005474098
 31
0.0
  0
LINE
  5
38F
330
2
100
AcDbEntity
  8
L-ZISSEN
 48
0.3
100
AcDbLine
 10
576.8383098966308
 20
-16.91801005474099
 30
0.0
 11
574.8406442398602
 21
-16.91801005474099
 31
0.0
  0
LINE
  5
390
330
2
100
AcDbEntity
  8
L-ZISSEN
100
AcDbLine
 10
577.4851175814813
 20
-2.918010054742808
 30
0.0
 11
585.4851175814813
 21
-2.918010054742808
 31
0.0
  0
LINE
  5
391
330
2
100
AcDbEntity
  8
L-ZISSEN
100
AcDbLine
 10
577.4851175814813
 20
-2.918010054742808
 30
0.0
 11
577.4851175814813
 21
-12.91801005474098
 31
0.0
  0
LINE
  5
392
330
2
100
AcDbEntity
  8
L-ZISSEN
100
AcDbLine
 10
585.4851175814813
 20
-2.918010054742808
 30
0.0
 11
585.4851175814813
 21
-12.91801005474098
 31
0.0
  0
LINE
  5
393
330
2
100
AcDbEntity
  8
L-ZISSEN
100
AcDbLine
 10
573.7817466464469
 20
0.5809704455523388
 30
0.0
 11
574.0291329812537
 21
-12.91801005474098
 31
0.0
  0
LINE
  5
394
330
2
100
AcDbEntity
  8
L-ZISSEN
100
AcDbLine
 10
574.0291329812537
 20
-12.91801005474098
 30
0.0
 11
577.4851175814813
 21
-12.91801005474098
 31
0.0
  0
LINE
  5
395
330
2
100
AcDbEntity
  8
L-ZISSEN
100
AcDbLine
 10
666.48511758148
 20
-2.918010054742808
 30
0.0
 11
674.48511758148
 21
-2.918010054742808
 31
0.0
  0
ARC
  5
396
330
2
100
AcDbEntity
  8
L-ZISSEN
100
AcDbCircle
 10
675.4417719302199
 20
-91.90518380006597
 30
0.0
 40
10.0
100
AcDbArc
 50
191.6119735011068
 51
265.1315559371179
  0
ARC
  5
397
330
2
100
AcDbEntity
  8
L-ZISSEN
100
AcDbCircle
 10
621.5284632327405
 20
-91.90518380006597
 30
0.0
 40
10.0
100
AcDbArc
 50
274.868444062882
 51
358.9999999999721
  0
ARC
  5
398
330
2
100
AcDbEntity
  8
L-ZISSEN
100
AcDbCircle
 10
610.7306344197304
 20
-111.688941840227
 30
0.0
 40
5.271330170371789
100
AcDbArc
 50
64.28835488513318
 51
115.2591066834237
  0
ARC
  5
399
330
2
100
AcDbEntity
  8
L-ZISSEN
100
AcDbCircle
 10
610.7306344197304
 20
-104.1491172686664
 30
0.0
 40
5.271330170371532
100
AcDbArc
 50
244.7408933165762
 51
295.7116451148668
  0
LINE
  5
39A
330
2
100
AcDbEntity
  8
L-ZISSEN
100
AcDbLine
 10
594.549950313263
 20
-106.4180100547428
 30
0.0
 11
613.4202848496999
 21
-106.4180100547428
 31
0.0
  0
LINE
  5
39B
330
2
100
AcDbEntity
  8
L-ZISSEN
100
AcDbLine
 10
594.5499503132626
 20
-102.9180100547428
 30
0.0
 11
613.4202848496999
 21
-102.9180100547428
 31
0.0
  0
LINE
  5
39C
330
2
100
AcDbEntity
  8
L-ZISSEN
100
AcDbLine
 10
609.7179163597361
 20
-121.4190295544476
 30
0.0
 11
598.3179163597374
 21
-121.4190295544476
 31
0.0
  0
ARC
  5
39D
330
2
100
AcDbEntity
  8
L-ZISSEN
100
AcDbCircle
 10
604.0179163597367
 20
-127.0600922283638
 30
0.0
 40
20.64106267391679
100
AcDbArc
 50
77.50558048157383
 51
102.676318687742
  0
ARC
  5
39E
330
2
100
AcDbEntity
  8
L-ZISSEN
100
AcDbCircle
 10
604.0179163597367
 20
-88.77796688052967
 30
0.0
 40
20.64106267391694
100
AcDbArc
 50
257.3236813122706
 51
282.4944195184261
  0
LINE
  5
39F
330
2
100
AcDbEntity
  8
L-ZISSEN
100
AcDbLine
 10
598.5179163597349
 20
-111.3601949649391
 30
0.0
 11
607.0179163597363
 21
-111.3601949649391
 31
0.0
  0
LINE
  5
3A0
330
2
100
AcDbEntity
  8
L-ZISSEN
100
AcDbLine
 10
597.2396007432321
 20
-106.4184084396283
 30
0.0
 11
610.7306344197304
 21
-106.4176116698572
 31
0.0
  0
LINE
  5
3A1
330
2
100
AcDbEntity
  8
L-ZISSEN
100
AcDbLine
 10
597.2396007432321
 20
-109.4196506692669
 30
0.0
 11
610.7306344197304
 21
-109.420447439038
 31
0.0
  0
LINE
  5
3A2
330
2
100
AcDbEntity
  8
L-ZISSEN
100
AcDbLine
 10
603.0179163597376
 20
-111.3601949649391
 30
0.0
 11
603.0179163597379
 21
-121.4190295544476
 31
0.0
  0
LINE
  5
3A3
330
2
100
AcDbEntity
  8
L-ZISSEN
100
AcDbLine
 10
599.0179163597392
 20
-109.4197261655745
 30
0.0
 11
599.0179163597349
 21
-111.3601949649391
 31
0.0
  0
LINE
  5
3A4
330
2
100
AcDbEntity
  8
L-ZISSEN
100
AcDbLine
 10
599.4883800417182
 20
-106.9221487123968
 30
0.0
 11
599.4883800417251
 21
-108.9159103964984
 31
0.0
  0
LINE
  5
3A5
330
2
100
AcDbEntity
  8
L-ZISSEN
100
AcDbLine
 10
598.5179163597349
 20
-111.3601949649391
 30
0.0
 11
598.0179163597377
 21
-111.8601949649391
 31
0.0
  0
LINE
  5
3A6
330
2
100
AcDbEntity
  8
L-ZISSEN
100
AcDbLine
 10
598.5179163597377
 20
-110.8601949649391
 30
0.0
 11
598.5179163597377
 21
-109.4190295544476
 31
0.0
  0
LINE
  5
3A7
330
2
100
AcDbEntity
  8
L-ZISSEN
100
AcDbLine
 10
599.0179163597349
 20
-111.3601949649391
 30
0.0
 11
598.5179163597377
 21
-110.8601949649391
 31
0.0
  0
LINE
  5
3A8
330
2
100
AcDbEntity
  8
L-ZISSEN
100
AcDbLine
 10
598.3179163597374
 20
-121.4190295544476
 30
0.0
 11
598.0179163597377
 21
-121.1190295544465
 31
0.0
  0
LINE
  5
3A9
330
2
100
AcDbEntity
  8
L-ZISSEN
100
AcDbLine
 10
600.0179163597358
 20
-111.3601949649391
 30
0.0
 11
600.0179163597358
 21
-121.4190295544476
 31
0.0
  0
LINE
  5
3AA
330
2
100
AcDbEntity
  8
L-ZISSEN
100
AcDbLine
 10
599.0179163597368
 20
-111.3601949649391
 30
0.0
 11
599.0179163597369
 21
-121.4190295544476
 31
0.0
  0
LINE
  5
3AB
330
2
100
AcDbEntity
  8
L-ZISSEN
100
AcDbLine
 10
602.0179163597386
 20
-111.3601949649391
 30
0.0
 11
602.0179163597388
 21
-121.4190295544476
 31
0.0
  0
LINE
  5
3AC
330
2
100
AcDbEntity
  8
L-ZISSEN
100
AcDbLine
 10
601.0179163597372
 20
-111.3601949649391
 30
0.0
 11
601.0179163597374
 21
-121.4190295544476
 31
0.0
  0
LINE
  5
3AD
330
2
100
AcDbEntity
  8
L-ZISSEN
100
AcDbLine
 10
598.0179163597374
 20
-121.1190295544465
 30
0.0
 11
598.0179163597377
 21
-111.8601949649391
 31
0.0
  0
LINE
  5
3AE
330
2
100
AcDbEntity
  8
L-ZISSEN
100
AcDbLine
 10
609.0179163597406
 20
-109.4203758168687
 30
0.0
 11
609.0179163597363
 21
-111.3601949649391
 31
0.0
  0
LINE
  5
3AF
330
2
100
AcDbEntity
  8
L-ZISSEN
100
AcDbLine
 10
609.0179163597363
 20
-111.3601949649391
 30
0.0
 11
609.5179163597358
 21
-110.8601949649391
 31
0.0
  0
LINE
  5
3B0
330
2
100
AcDbEntity
  8
L-ZISSEN
100
AcDbLine
 10
607.0179163597363
 20
-111.3601949649391
 30
0.0
 11
609.5179163597363
 21
-111.3601949649391
 31
0.0
  0
LINE
  5
3B1
330
2
100
AcDbEntity
  8
L-ZISSEN
100
AcDbLine
 10
609.5179163597363
 20
-111.3601949649391
 30
0.0
 11
610.0179163597358
 21
-111.8601949649391
 31
0.0
  0
LINE
  5
3B2
330
2
100
AcDbEntity
  8
L-ZISSEN
100
AcDbLine
 10
608.4812919967539
 20
-106.9216175981337
 30
0.0
 11
608.4812919967539
 21
-108.9164415107616
 31
0.0
  0
LINE
  5
3B3
330
2
100
AcDbEntity
  8
L-ZISSEN
100
AcDbLine
 10
609.5179163597361
 20
-110.8601949649373
 30
0.0
 11
609.5179163597358
 21
-109.4190295544476
 31
0.0
  0
LINE
  5
3B4
330
2
100
AcDbEntity
  8
L-ZISSEN
100
AcDbLine
 10
609.7179163597361
 20
-121.4190295544476
 30
0.0
 11
610.0179163597358
 21
-121.1190295544465
 31
0.0
  0
LINE
  5
3B5
330
2
100
AcDbEntity
  8
L-ZISSEN
100
AcDbLine
 10
610.0179163597358
 20
-111.8601949649391
 30
0.0
 11
610.0179163597358
 21
-121.1190295544465
 31
0.0
  0
LINE
  5
3B6
330
2
100
AcDbEntity
  8
L-ZISSEN
100
AcDbLine
 10
609.017916359739
 20
-111.3601949649391
 30
0.0
 11
609.0179163597411
 21
-121.4190295544476
 31
0.0
  0
LINE
  5
3B7
330
2
100
AcDbEntity
  8
L-ZISSEN
100
AcDbLine
 10
608.0179163597399
 20
-111.3601949649391
 30
0.0
 11
608.0179163597401
 21
-121.4190295544476
 31
0.0
  0
LINE
  5
3B8
330
2
100
AcDbEntity
  8
L-ZISSEN
100
AcDbLine
 10
607.0179163597363
 20
-111.3601949649391
 30
0.0
 11
607.0179163597363
 21
-121.4190295544476
 31
0.0
  0
LINE
  5
3B9
330
2
100
AcDbEntity
  8
L-ZISSEN
100
AcDbLine
 10
606.0179163597372
 20
-111.3601949649391
 30
0.0
 11
606.0179163597374
 21
-121.4190295544476
 31
0.0
  0
LINE
  5
3BA
330
2
100
AcDbEntity
  8
L-ZISSEN
100
AcDbLine
 10
605.0179163597381
 20
-111.3601949649391
 30
0.0
 11
605.0179163597383
 21
-121.4190295544476
 31
0.0
  0
LINE
  5
3BB
330
2
100
AcDbEntity
  8
L-ZISSEN
100
AcDbLine
 10
604.017916359739
 20
-111.3601949649391
 30
0.0
 11
604.0179163597392
 21
-121.4190295544476
 31
0.0
  0
LINE
  5
3BC
330
2
100
AcDbEntity
  8
L-ZISSEN
100
AcDbLine
 10
595.0182727396527
 20
-106.9092968243903
 30
0.0
 11
595.0182727396527
 21
-108.9287622845031
 31
0.0
  0
LINE
  5
3BD
330
2
100
AcDbEntity
  8
L-ZISSEN
100
AcDbLine
 10
594.5499503132626
 20
-102.9180100547428
 30
0.0
 11
594.549950313263
 21
-106.4180100547428
 31
0.0
  0
ARC
  5
3BE
330
2
100
AcDbEntity
  8
L-ZISSEN
100
AcDbCircle
 10
597.2396007432321
 20
-111.6897386099981
 30
0.0
 40
5.271330170370607
100
AcDbArc
 50
64.74766100340973
 51
114.9228807251748
  0
ARC
  5
3BF
330
2
100
AcDbEntity
  8
L-ZISSEN
100
AcDbCircle
 10
597.2396007432321
 20
-104.1483204988953
 30
0.0
 40
5.271330170370607
100
AcDbArc
 50
245.0771192748252
 51
295.2523389966485
  0
LINE
  5
3C0
330
2
100
AcDbEntity
  8
L-ZISSEN
100
AcDbLine
 10
613.0175599798231
 20
-106.9395320613521
 30
0.0
 11
613.0175599798231
 21
-108.8985270475413
 31
0.0
  0
LINE
  5
3C1
330
2
100
AcDbEntity
  8
L-ZISSEN
100
AcDbLine
 10
613.4202848496999
 20
-102.9180100547428
 30
0.0
 11
613.4202848496995
 21
-106.4180100547428
 31
0.0
  0
LINE
  5
3C2
330
2
100
AcDbEntity
  8
L-ZISSEN
100
AcDbLine
 10
613.4202848496999
 20
-102.9180100547428
 30
0.0
 11
622.3771449132975
 21
-101.8691056888137
 31
0.0
  0
LINE
  5
3C3
330
2
100
AcDbEntity
  8
L-ZISSEN
100
AcDbLine
 10
633.4851175814809
 20
49.08097044554779
 30
0.0
 11
631.4851175814809
 21
49.08097044554779
 31
0.0
  0
LINE
  5
3C4
330
2
100
AcDbEntity
  8
L-ZISSEN
100
AcDbLine
 10
627.9964720197388
 20
-12.91801005473917
 30
0.0
 11
633.240984642962
 21
-12.91801005473917
 31
0.0
  0
LINE
  5
3C5
330
2
100
AcDbEntity
  8
L-ZISSEN
100
AcDbLine
 10
633.240984642962
 20
-12.91801005474098
 30
0.0
 11
631.5251236409851
 21
-92.16360338568028
 31
0.0
  0
LINE
  5
3C6
330
2
100
AcDbEntity
  8
L-ZISSEN
100
AcDbLine
 10
601.1058675814823
 20
-9.702260054739781
 30
0.0
 11
603.9851175814821
 21
-14.5010100547397
 31
0.0
  0
LINE
  5
3C7
330
2
100
AcDbEntity
  8
L-ZISSEN
100
AcDbLine
 10
606.8643675814824
 20
-9.702260054739781
 30
0.0
 11
603.9851175814821
 21
-14.5010100547397
 31
0.0
  0
LINE
  5
3C8
330
2
100
AcDbEntity
  8
L-ZISSEN
100
AcDbLine
 10
614.9851175814803
 20
0.2819899452588288
 30
0.0
 11
614.9851175814803
 21
-28.51801005474135
 31
0.0
  0
LINE
  5
3C9
330
2
100
AcDbEntity
  8
L-ZISSEN
100
AcDbLine
 10
614.7823050814788
 20
0.2819899452588288
 30
0.0
 11
614.7823050814788
 21
-23.13876005474139
 31
0.0
  0
LINE
  5
3CA
330
2
100
AcDbEntity
  8
L-ZISSEN
100
AcDbLine
 10
614.0624925814789
 20
0.2819899452588288
 30
0.0
 11
614.0624925814789
 21
-17.86013505474056
 31
0.0
  0
LINE
  5
3CB
330
2
100
AcDbEntity
  8
L-ZISSEN
100
AcDbLine
 10
592.9851175814803
 20
0.2819899452588288
 30
0.0
 11
592.9851175814803
 21
-28.51801005474135
 31
0.0
  0
LINE
  5
3CC
330
2
100
AcDbEntity
  8
L-ZISSEN
100
AcDbLine
 10
593.1879300814789
 20
0.2819899452588288
 30
0.0
 11
593.1879300814787
 21
-23.13876005474139
 31
0.0
  0
LINE
  5
3CD
330
2
100
AcDbEntity
  8
L-ZISSEN
100
AcDbLine
 10
593.9077425814787
 20
0.2819899452588288
 30
0.0
 11
593.9077425814787
 21
-17.86013505474056
 31
0.0
  0
LINE
  5
3CE
330
2
100
AcDbEntity
  8
L-ZISSEN
100
AcDbLine
 10
603.9851175814805
 20
-26.01801005474135
 30
0.0
 11
614.7823050814788
 21
-23.13876005474139
 31
0.0
  0
LINE
  5
3CF
330
2
100
AcDbEntity
  8
L-ZISSEN
100
AcDbLine
 10
613.1330193424064
 20
-22.13449724212114
 30
0.0
 11
603.9851175814805
 21
-24.04966529488865
 31
0.0
  0
LINE
  5
3D0
330
2
100
AcDbEntity
  8
L-ZISSEN
100
AcDbLine
 10
603.9851175814805
 20
-19.93793411384013
 30
0.0
 11
613.1330193424064
 21
-18.63109100513702
 31
0.0
  0
LINE
  5
3D1
330
2
100
AcDbEntity
  8
L-ZISSEN
100
AcDbLine
 10
603.9851175814805
 20
-19.29976005474145
 30
0.0
 11
614.0624925814789
 21
-17.86013505474056
 31
0.0
  0
LINE
  5
3D2
330
2
100
AcDbEntity
  8
L-ZISSEN
100
AcDbLine
 10
594.3851175814809
 20
-40.01801005474135
 30
0.0
 11
613.5851175814807
 21
-40.01801005474135
 31
0.0
  0
LINE
  5
3D3
330
2
100
AcDbEntity
  8
L-ZISSEN
100
AcDbLine
 10
593.9851175814803
 20
-43.01801005474135
 30
0.0
 11
613.9851175814803
 21
-43.01801005474135
 31
0.0
  0
LINE
  5
3D4
330
2
100
AcDbEntity
  8
L-ZISSEN
100
AcDbLine
 10
596.3851175814808
 20
-38.01801005474135
 30
0.0
 11
611.5851175814807
 21
-38.01801005474135
 31
0.0
  0
LINE
  5
3D5
330
2
100
AcDbEntity
  8
L-ZISSEN
100
AcDbLine
 10
596.3851175814808
 20
-37.01801005474135
 30
0.0
 11
611.5851175814807
 21
-37.01801005474135
 31
0.0
  0
LINE
  5
3D6
330
2
100
AcDbEntity
  8
L-TYUSIN
100
AcDbLine
 10
596.3851175814808
 20
-33.51801005474135
 30
0.0
 11
611.5851175814807
 21
-33.51801005474135
 31
0.0
  0
ARC
  5
3D7
330
2
100
AcDbEntity
  8
L-ZISSEN
100
AcDbCircle
 10
603.9851175814808
 20
-27.76801005474135
 30
0.0
 40
1.25
100
AcDbArc
 50
180.0
 51
0.0
  0
LINE
  5
3D8
330
2
100
AcDbEntity
  8
L-ZISSEN
100
AcDbLine
 10
602.7351175814808
 20
-27.76801005474135
 30
0.0
 11
602.7351175814808
 21
-25.68467672140741
 31
0.0
  0
LINE
  5
3D9
330
2
100
AcDbEntity
  8
L-TYUSIN
100
AcDbLine
 10
599.7351175814803
 20
-30.26801005474135
 30
0.0
 11
599.7351175814803
 21
-36.76801005474135
 31
0.0
  0
CIRCLE
  5
3DA
330
2
100
AcDbEntity
  8
L-ZISSEN
100
AcDbCircle
 10
599.7351175814803
 20
-33.51801005474135
 30
0.0
 40
2.0
  0
LINE
  5
3DB
330
2
100
AcDbEntity
  8
L-TYUSIN
100
AcDbLine
 10
608.2351175814813
 20
-30.26801005474135
 30
0.0
 11
608.2351175814813
 21
-36.76801005474135
 31
0.0
  0
CIRCLE
  5
3DC
330
2
100
AcDbEntity
  8
L-ZISSEN
100
AcDbCircle
 10
608.2351175814813
 20
-33.51801005474135
 30
0.0
 40
2.0
  0
LINE
  5
3DD
330
2
100
AcDbEntity
  8
L-ZISSEN
100
AcDbLine
 10
603.9851175814805
 20
-19.29976005474145
 30
0.0
 11
603.9851175814805
 21
-19.93793411384013
 31
0.0
  0
LINE
  5
3DE
330
2
100
AcDbEntity
  8
L-ZISSEN
100
AcDbLine
 10
605.2351175814808
 20
-27.76801005474135
 30
0.0
 11
605.2351175814808
 21
-25.68467672140741
 31
0.0
  0
LINE
  5
3DF
330
2
100
AcDbEntity
  8
L-ZISSEN
100
AcDbLine
 10
596.3851175814804
 20
-23.99134338807471
 30
0.0
 11
596.3851175814808
 21
-38.01801005474135
 31
0.0
  0
LINE
  5
3E0
330
2
100
AcDbEntity
  8
L-ZISSEN
100
AcDbLine
 10
593.1879300814787
 20
-23.13876005474139
 30
0.0
 11
594.8372158205548
 21
-22.13449724212114
 31
0.0
  0
LINE
  5
3E1
330
2
100
AcDbEntity
  8
L-ZISSEN
100
AcDbLine
 10
594.38511758148
 20
-29.01801005474135
 30
0.0
 11
594.3851175814809
 21
-40.01801005474135
 31
0.0
  0
LINE
  5
3E2
330
2
100
AcDbEntity
  8
L-ZISSEN
100
AcDbLine
 10
593.9851175814803
 20
-29.01801005474135
 30
0.0
 11
593.9851175814803
 21
-43.01801005474135
 31
0.0
  0
LINE
  5
3E3
330
2
100
AcDbEntity
  8
L-ZISSEN
100
AcDbLine
 10
594.3851175814809
 20
-40.01801005474135
 30
0.0
 11
593.9851175814803
 21
-43.01801005474135
 31
0.0
  0
LINE
  5
3E4
330
2
100
AcDbEntity
  8
L-ZISSEN
100
AcDbLine
 10
594.8372158205548
 20
-18.63109100513702
 30
0.0
 11
594.8372158205548
 21
-22.13449724212114
 31
0.0
  0
LINE
  5
3E5
330
2
100
AcDbEntity
  8
L-ZISSEN
100
AcDbLine
 10
594.8372158205548
 20
-17.99291694603744
 30
0.0
 11
593.9077425814787
 21
-17.86013505474056
 31
0.0
  0
LINE
  5
3E6
330
2
100
AcDbEntity
  8
L-ZISSEN
100
AcDbLine
 10
594.8372158205548
 20
-18.63109100513702
 30
0.0
 11
593.9077425814787
 21
-17.86013505474056
 31
0.0
  0
ARC
  5
3E7
330
2
100
AcDbEntity
  8
L-ZISSEN
100
AcDbCircle
 10
593.4851175814803
 20
-28.51801005474135
 30
0.0
 40
0.5
100
AcDbArc
 50
180.0
 51
270.0
  0
LINE
  5
3E8
330
2
100
AcDbEntity
  8
L-ZISSEN
100
AcDbLine
 10
593.4851175814803
 20
-29.01801005474135
 30
0.0
 11
596.3851175814804
 21
-29.01801005474226
 31
0.0
  0
LINE
  5
3E9
330
2
100
AcDbEntity
  8
L-ZISSEN
100
AcDbLine
 10
603.9851175814805
 20
-26.01801005474135
 30
0.0
 11
593.1879300814787
 21
-23.13876005474139
 31
0.0
  0
LINE
  5
3EA
330
2
100
AcDbEntity
  8
L-ZISSEN
100
AcDbLine
 10
594.8372158205548
 20
-22.13449724212114
 30
0.0
 11
603.9851175814805
 21
-24.04966529488865
 31
0.0
  0
LINE
  5
3EB
330
2
100
AcDbEntity
  8
L-ZISSEN
100
AcDbLine
 10
603.9851175814805
 20
-19.29976005474145
 30
0.0
 11
593.9077425814787
 21
-17.86013505474056
 31
0.0
  0
LINE
  5
3EC
330
2
100
AcDbEntity
  8
L-ZISSEN
100
AcDbLine
 10
603.9851175814805
 20
-19.93793411384013
 30
0.0
 11
594.8372158205548
 21
-18.63109100513702
 31
0.0
  0
LINE
  5
3ED
330
2
100
AcDbEntity
  8
L-ZISSEN
100
AcDbLine
 10
611.5851175814807
 20
-29.01801005474226
 30
0.0
 11
614.4851175814803
 21
-29.01801005474135
 31
0.0
  0
LINE
  5
3EE
330
2
100
AcDbEntity
  8
L-ZISSEN
100
AcDbLine
 10
611.5851175814807
 20
-23.99134338807471
 30
0.0
 11
611.5851175814807
 21
-38.01801005474135
 31
0.0
  0
LINE
  5
3EF
330
2
100
AcDbEntity
  8
L-ZISSEN
100
AcDbLine
 10
613.5851175814807
 20
-29.01801005474135
 30
0.0
 11
613.5851175814807
 21
-40.01801005474135
 31
0.0
  0
LINE
  5
3F0
330
2
100
AcDbEntity
  8
L-ZISSEN
100
AcDbLine
 10
613.9851175814812
 20
-29.01801005474135
 30
0.0
 11
613.9851175814812
 21
-43.01801005474135
 31
0.0
  0
LINE
  5
3F1
330
2
100
AcDbEntity
  8
L-ZISSEN
100
AcDbLine
 10
613.5851175814807
 20
-40.01801005474135
 30
0.0
 11
613.9851175814812
 21
-43.01801005474135
 31
0.0
  0
LINE
  5
3F2
330
2
100
AcDbEntity
  8
L-ZISSEN
100
AcDbLine
 10
613.1330193424064
 20
-18.63109100513702
 30
0.0
 11
613.1330193424064
 21
-22.13449724212114
 31
0.0
  0
LINE
  5
3F3
330
2
100
AcDbEntity
  8
L-ZISSEN
100
AcDbLine
 10
614.7823050814788
 20
-23.13876005474139
 30
0.0
 11
613.1330193424064
 21
-22.13449724212114
 31
0.0
  0
LINE
  5
3F4
330
2
100
AcDbEntity
  8
L-ZISSEN
100
AcDbLine
 10
613.1330193424064
 20
-18.63109100513702
 30
0.0
 11
614.0624925814789
 21
-17.86013505474056
 31
0.0
  0
LINE
  5
3F5
330
2
100
AcDbEntity
  8
L-ZISSEN
100
AcDbLine
 10
613.1330193424064
 20
-17.99291694603744
 30
0.0
 11
614.0624925814789
 21
-17.86013505474056
 31
0.0
  0
ARC
  5
3F6
330
2
100
AcDbEntity
  8
L-ZISSEN
100
AcDbCircle
 10
614.4851175814803
 20
-28.51801005474135
 30
0.0
 40
0.5
100
AcDbArc
 50
270.0
 51
0.0
  0
LINE
  5
3F7
330
2
100
AcDbEntity
  8
L-ZISSEN
100
AcDbLine
 10
610.2234925814807
 20
-2.984010054739883
 30
0.0
 11
612.6228675814807
 21
-4.423635054740771
 31
0.0
  0
LINE
  5
3F8
330
2
100
AcDbEntity
  8
L-ZISSEN
100
AcDbLine
 10
610.2234925814807
 20
-5.863260054739839
 30
0.0
 11
612.6228675814807
 21
-4.423635054740771
 31
0.0
  0
LINE
  5
3F9
330
2
100
AcDbEntity
  8
L-ZISSEN
100
AcDbLine
 10
615.9851175814806
 20
0.2819899452588288
 30
0.0
 11
591.9851175814805
 21
0.2819899452588288
 31
0.0
  0
LINE
  5
3FA
330
2
100
AcDbEntity
  8
L-ZISSEN
100
AcDbLine
 10
604.9448675814821
 20
-2.024260054739897
 30
0.0
 11
603.0253675814821
 21
-2.024260054739897
 31
0.0
  0
LINE
  5
3FB
330
2
100
AcDbEntity
  8
L-ZISSEN
100
AcDbLine
 10
603.0253675814821
 20
-2.024260054739897
 30
0.0
 11
603.0253675814821
 21
-9.702260054739781
 31
0.0
  0
LINE
  5
3FC
330
2
100
AcDbEntity
  8
L-ZISSEN
100
AcDbLine
 10
603.0253675814821
 20
-2.024260054739897
 30
0.0
 11
603.0253675814821
 21
-9.702260054739781
 31
0.0
  0
LINE
  5
3FD
330
2
100
AcDbEntity
  8
L-ZISSEN
100
AcDbLine
 10
601.5857425814806
 20
-3.943760054741687
 30
0.0
 11
601.5857425814806
 21
-4.903510054741673
 31
0.0
  0
LINE
  5
3FE
330
2
100
AcDbEntity
  8
L-ZISSEN
100
AcDbLine
 10
597.7467425814804
 20
-3.943760054741687
 30
0.0
 11
597.7467425814804
 21
-2.984010054741702
 31
0.0
  0
LINE
  5
3FF
330
2
100
AcDbEntity
  8
L-ZISSEN
100
AcDbLine
 10
597.7467425814804
 20
-4.903510054741673
 30
0.0
 11
597.7467425814804
 21
-5.863260054741658
 31
0.0
  0
LINE
  5
400
330
2
100
AcDbEntity
  8
L-ZISSEN
100
AcDbLine
 10
601.5857425814806
 20
-4.903510054741673
 30
0.0
 11
597.7467425814804
 21
-4.903510054741673
 31
0.0
  0
LINE
  5
401
330
2
100
AcDbEntity
  8
L-ZISSEN
100
AcDbLine
 10
601.5857425814806
 20
-4.903510054741673
 30
0.0
 11
597.7467425814804
 21
-4.903510054741673
 31
0.0
  0
LINE
  5
402
330
2
100
AcDbEntity
  8
L-ZISSEN
100
AcDbLine
 10
601.5857425814806
 20
-3.943760054741687
 30
0.0
 11
597.7467425814804
 21
-3.943760054741687
 31
0.0
  0
LINE
  5
403
330
2
100
AcDbEntity
  8
L-ZISSEN
100
AcDbLine
 10
601.5857425814806
 20
-3.943760054741687
 30
0.0
 11
597.7467425814804
 21
-3.943760054741687
 31
0.0
  0
LINE
  5
404
330
2
100
AcDbEntity
  8
L-ZISSEN
100
AcDbLine
 10
603.0253675814821
 20
-9.702260054739781
 30
0.0
 11
601.1058675814823
 21
-9.702260054739781
 31
0.0
  0
LINE
  5
405
330
2
100
AcDbEntity
  8
L-ZISSEN
100
AcDbLine
 10
610.2234925814807
 20
-3.943760054739868
 30
0.0
 11
610.2234925814807
 21
-2.984010054739883
 31
0.0
  0
LINE
  5
406
330
2
100
AcDbEntity
  8
L-ZISSEN
100
AcDbLine
 10
610.2234925814807
 20
-4.903510054739854
 30
0.0
 11
610.2234925814807
 21
-5.863260054739839
 31
0.0
  0
LINE
  5
407
330
2
100
AcDbEntity
  8
L-ZISSEN
100
AcDbLine
 10
606.3844925814805
 20
-3.943760054739868
 30
0.0
 11
606.3844925814805
 21
-4.903510054739854
 31
0.0
  0
LINE
  5
408
330
2
100
AcDbEntity
  8
L-ZISSEN
100
AcDbLine
 10
606.3844925814805
 20
-4.903510054739854
 30
0.0
 11
610.2234925814807
 21
-4.903510054739854
 31
0.0
  0
LINE
  5
409
330
2
100
AcDbEntity
  8
L-ZISSEN
100
AcDbLine
 10
606.3844925814805
 20
-4.903510054739854
 30
0.0
 11
610.2234925814807
 21
-4.903510054739854
 31
0.0
  0
LINE
  5
40A
330
2
100
AcDbEntity
  8
L-ZISSEN
100
AcDbLine
 10
606.3844925814805
 20
-3.943760054739868
 30
0.0
 11
610.2234925814807
 21
-3.943760054739868
 31
0.0
  0
LINE
  5
40B
330
2
100
AcDbEntity
  8
L-ZISSEN
100
AcDbLine
 10
606.3844925814805
 20
-3.943760054739868
 30
0.0
 11
610.2234925814807
 21
-3.943760054739868
 31
0.0
  0
LINE
  5
40C
330
2
100
AcDbEntity
  8
L-ZISSEN
100
AcDbLine
 10
604.9448675814821
 20
-9.702260054739781
 30
0.0
 11
606.8643675814824
 21
-9.702260054739781
 31
0.0
  0
LINE
  5
40D
330
2
100
AcDbEntity
  8
L-ZISSEN
100
AcDbLine
 10
604.9448675814821
 20
-2.024260054739897
 30
0.0
 11
604.9448675814821
 21
-9.702260054739781
 31
0.0
  0
LINE
  5
40E
330
2
100
AcDbEntity
  8
L-ZISSEN
100
AcDbLine
 10
604.9448675814821
 20
-2.024260054739897
 30
0.0
 11
604.9448675814821
 21
-9.702260054739781
 31
0.0
  0
LINE
  5
40F
330
2
100
AcDbEntity
  8
L-ZISSEN
100
AcDbLine
 10
591.9851175814808
 20
0.5809704455523388
 30
0.0
 11
591.9851175814805
 21
0.2819899452588288
 31
0.0
  0
LINE
  5
410
330
2
100
AcDbEntity
  8
L-ZISSEN
100
AcDbLine
 10
591.6851175814811
 20
-4.418010054742808
 30
0.0
 11
591.6851175814811
 21
-12.91801005474098
 31
0.0
  0
LINE
  5
411
330
2
100
AcDbEntity
  8
L-ZISSEN
100
AcDbLine
 10
591.6851175814811
 20
-4.418010054742808
 30
0.0
 11
592.9851175814803
 21
-4.418010054742808
 31
0.0
  0
LINE
  5
412
330
2
100
AcDbEntity
  8
L-ZISSEN
100
AcDbLine
 10
591.6851175814811
 20
-12.91801005474098
 30
0.0
 11
592.9851175814803
 21
-12.91801005474098
 31
0.0
  0
LINE
  5
413
330
2
100
AcDbEntity
  8
L-ZISSEN
100
AcDbLine
 10
597.7467425814804
 20
-2.984010054741702
 30
0.0
 11
595.3473675814804
 21
-4.423635054740771
 31
0.0
  0
LINE
  5
414
330
2
100
AcDbEntity
  8
L-ZISSEN
100
AcDbLine
 10
597.7467425814804
 20
-5.863260054741658
 30
0.0
 11
595.3473675814804
 21
-4.423635054740771
 31
0.0
  0
TEXT
  5
415
330
2
100
AcDbEntity
  8
L-ZISSEN
100
AcDbText
 10
620.4851175814809
 20
46.83097044554779
 30
0.0
 40
4.5
  1
P.P
100
AcDbText
  0
LINE
  5
416
330
2
100
AcDbEntity
  8
L-ZISSEN
100
AcDbLine
 10
622.4851175814803
 20
-2.918010054740989
 30
0.0
 11
627.9964720197388
 21
-2.918010054742808
 31
0.0
  0
LINE
  5
417
330
2
100
AcDbEntity
  8
L-ZISSEN
100
AcDbLine
 10
622.4851175814812
 20
-2.918010054740989
 30
0.0
 11
622.4851175814812
 21
-12.91801005473917
 31
0.0
  0
LINE
  5
418
330
2
100
AcDbEntity
  8
L-ZISSEN
100
AcDbLine
 10
627.9964720197388
 20
-2.918010054742808
 30
0.0
 11
627.9964720197388
 21
-12.91801005473917
 31
0.0
  0
LINE
  5
419
330
2
100
AcDbEntity
  8
L-ZISSEN
100
AcDbLine
 10
615.9851175814804
 20
0.5809704455532483
 30
0.0
 11
615.9851175814804
 21
0.2819899452588288
 31
0.0
  0
LINE
  5
41A
330
2
100
AcDbEntity
  8
L-ZISSEN
100
AcDbLine
 10
616.2851175814815
 20
-4.418010054742808
 30
0.0
 11
614.9851175814803
 21
-4.418010054742808
 31
0.0
  0
LINE
  5
41B
330
2
100
AcDbEntity
  8
L-ZISSEN
100
AcDbLine
 10
616.2851175814806
 20
-12.91801005474098
 30
0.0
 11
614.9851175814803
 21
-12.91801005474098
 31
0.0
  0
LINE
  5
41C
330
2
100
AcDbEntity
  8
L-ZISSEN
100
AcDbLine
 10
616.2851175814806
 20
-12.91801005474098
 30
0.0
 11
614.9851175814803
 21
-12.91801005474098
 31
0.0
  0
LINE
  5
41D
330
2
100
AcDbEntity
  8
L-ZISSEN
100
AcDbLine
 10
616.2851175814815
 20
-4.418010054742808
 30
0.0
 11
616.2851175814806
 21
-12.91801005474098
 31
0.0
  0
LINE
  5
41E
330
2
100
AcDbEntity
  8
L-ZISSEN
100
AcDbLine
 10
622.4851175814812
 20
-12.91801005473917
 30
0.0
 11
615.4851175814813
 21
-12.91801005474098
 31
0.0
  0
LINE
  5
41F
330
2
100
AcDbEntity
  8
L-ZISSEN
100
AcDbLine
 10
663.7292505199992
 20
-12.91801005474098
 30
0.0
 11
663.7671043186877
 21
-16.91801005474099
 31
0.0
  0
LINE
  5
420
330
2
100
AcDbEntity
  8
L-ZISSEN
100
AcDbLine
 10
651.2405267011125
 20
-93.91801005474098
 30
0.0
 11
660.7405267011126
 21
-93.91801005474281
 31
0.0
  0
LINE
  5
421
330
2
100
AcDbEntity
  8
L-TYUSIN
100
AcDbLine
 10
667.3814024103293
 20
-88.91801005474098
 30
0.0
 11
644.3405267011129
 21
-88.91801005474098
 31
0.0
  0
LINE
  5
422
330
2
100
AcDbEntity
  8
L-ZISSEN
100
AcDbLine
 10
651.2405267011125
 20
-16.91801005474099
 30
0.0
 11
660.7405267011126
 21
-16.91801005474099
 31
0.0
  0
LINE
  5
423
330
2
100
AcDbEntity
  8
L-TYUSIN
100
AcDbLine
 10
644.3405267011129
 20
-21.9180100547428
 30
0.0
 11
668.8622014107631
 21
-21.91801005474098
 31
0.0
  0
LINE
  5
424
330
2
100
AcDbEntity
  8
L-ZISSEN
100
AcDbLine
 10
649.3405267011129
 20
-20.72463438176691
 30
0.0
 11
649.3405267011129
 21
-23.61138572771506
 31
0.0
  0
ARC
  5
425
330
2
100
AcDbEntity
  8
L-ZISSEN
100
AcDbCircle
 10
651.6525292688901
 20
-23.64279657055976
 30
0.0
 40
2.312215931624567
100
AcDbArc
 50
179.2216280233924
 51
259.7359316277974
  0
ARC
  5
426
330
2
100
AcDbEntity
  8
L-ZISSEN
100
AcDbCircle
 10
651.6525292688901
 20
-20.69322353892403
 30
0.0
 40
2.312215931624567
100
AcDbArc
 50
100.2640683722025
 51
180.7783719766075
  0
LINE
  5
427
330
2
100
AcDbEntity
  8
L-ZISSEN
100
AcDbLine
 10
649.3405267011129
 20
-90.11138572771688
 30
0.0
 11
649.3405267011129
 21
-87.22463438176873
 31
0.0
  0
ARC
  5
428
330
2
100
AcDbEntity
  8
L-ZISSEN
100
AcDbCircle
 10
651.6525292688901
 20
-90.14279657055977
 30
0.0
 40
2.312215931624567
100
AcDbArc
 50
179.2216280233924
 51
259.7359316277974
  0
ARC
  5
429
330
2
100
AcDbEntity
  8
L-ZISSEN
100
AcDbCircle
 10
651.6525292688901
 20
-87.19322353892403
 30
0.0
 40
2.312215931624567
100
AcDbArc
 50
100.2640683722025
 51
180.7783719766075
  0
LINE
  5
42A
330
2
100
AcDbEntity
  8
L-ZISSEN
100
AcDbLine
 10
651.2405267011125
 20
-16.91801005474099
 30
0.0
 11
651.2405267011144
 21
-93.91801005474098
 31
0.0
  0
LINE
  5
42B
330
2
100
AcDbEntity
  8
L-ZISSEN
 48
0.3
100
AcDbLine
 10
665.8383098966295
 20
-16.91801005474099
 30
0.0
 11
663.840644239859
 21
-16.91801005474099
 31
0.0
  0
LINE
  5
42C
330
2
100
AcDbEntity
  8
L-ZISSEN
100
AcDbLine
 10
660.7405267011126
 20
-16.91801005474099
 30
0.0
 11
663.840644239859
 21
-16.91801005474099
 31
0.0
  0
LINE
  5
42D
330
2
100
AcDbEntity
  8
L-ZISSEN
 48
0.3
100
AcDbLine
 10
664.5383098966293
 20
-93.91801005474098
 30
0.0
 11
665.8383098966295
 21
-93.91801005474098
 31
0.0
  0
LINE
  5
42E
330
2
100
AcDbEntity
  8
L-ZISSEN
100
AcDbLine
 10
660.7405267011143
 20
-93.91801005474098
 30
0.0
 11
664.5383098966293
 21
-93.91801005474098
 31
0.0
  0
LINE
  5
42F
330
2
100
AcDbEntity
  8
L-ZISSEN
 48
0.3
100
AcDbLine
 10
665.8383098966295
 20
-93.91801005474098
 30
0.0
 11
665.8383098966295
 21
-16.91801005474099
 31
0.0
  0
LINE
  5
430
330
2
100
AcDbEntity
  8
L-ZISSEN
100
AcDbLine
 10
660.7405267011126
 20
-16.91801005474099
 30
0.0
 11
660.7405267011143
 21
-93.91801005474098
 31
0.0
  0
LINE
  5
431
330
2
100
AcDbEntity
  8
L-ZISSEN
100
AcDbLine
 10
659.0291329812524
 20
-16.91801005474099
 30
0.0
 11
662.48511758148
 21
-16.91801005474099
 31
0.0
  0
SOLID
  5
432
330
2
100
AcDbEntity
  8
L-ZISSEN
100
AcDbTrace
 10
646.7352802223977
 20
37.60526548501093
 30
0.0
 11
647.1620698221742
 21
38.11741300474205
 31
0.0
 12
648.4851175814807
 22
36.58097044554779
 32
0.0
 13
648.4851175814807
 23
36.58097044554779
 33
0.0
  0
LINE
  5
433
330
2
100
AcDbEntity
  8
L-ZISSEN
100
AcDbLine
 10
646.948675022286
 20
37.86133924487694
 30
0.0
 11
633.4851175814809
 21
49.08097044554779
 31
0.0
  0
LINE
  5
434
330
2
100
AcDbEntity
  8
L-ZISSEN
100
AcDbLine
 10
633.240984642962
 20
-12.91801005474098
 30
0.0
 11
633.9411021817079
 21
-12.91801005474098
 31
0.0
  0
LINE
  5
435
330
2
100
AcDbEntity
  8
L-ZISSEN
100
AcDbLine
 10
634.1214006969064
 20
0.5809704455523388
 30
0.0
 11
633.9411021817079
 21
-12.91801005474098
 31
0.0
  0
LINE
  5
436
330
2
100
AcDbEntity
  8
L-ZISSEN
100
AcDbLine
 10
662.7817466464456
 20
0.5809704455523388
 30
0.0
 11
663.0291329812524
 21
-12.91801005474098
 31
0.0
  0
LINE
  5
437
330
2
100
AcDbEntity
  8
L-ZISSEN
100
AcDbLine
 10
666.48511758148
 20
-2.918010054742808
 30
0.0
 11
666.48511758148
 21
-12.91801005474098
 31
0.0
  0
LINE
  5
438
330
2
100
AcDbEntity
  8
L-ZISSEN
100
AcDbLine
 10
663.0291329812524
 20
-12.91801005474098
 30
0.0
 11
666.48511758148
 21
-12.91801005474098
 31
0.0
  0
ARC
  5
439
330
2
100
AcDbEntity
  8
L-ZISSEN
100
AcDbCircle
 10
710.5284632327392
 20
-91.90518380006597
 30
0.0
 40
10.0
100
AcDbArc
 50
274.868444062882
 51
358.9999999999721
  0
LINE
  5
43A
330
2
100
AcDbEntity
  8
L-ZISSEN
100
AcDbLine
 10
701.6453716193247
 20
-107.9180100547428
 30
0.0
 11
684.3248635436358
 21
-107.9180100547428
 31
0.0
  0
LINE
  5
43B
330
2
100
AcDbEntity
  8
L-ZISSEN
100
AcDbLine
 10
683.5499503132613
 20
-102.9180100547428
 30
0.0
 11
702.4202848496988
 21
-102.9180100547428
 31
0.0
  0
LINE
  5
43C
330
2
100
AcDbEntity
  8
L-ZISSEN
100
AcDbLine
 10
683.5499503132617
 20
-105.9180100547428
 30
0.0
 11
702.4202848496988
 21
-105.9180100547428
 31
0.0
  0
LINE
  5
43D
330
2
100
AcDbEntity
  8
L-ZISSEN
100
AcDbLine
 10
683.5499503132613
 20
-102.9180100547428
 30
0.0
 11
683.5499503132617
 21
-105.9180100547428
 31
0.0
  0
LINE
  5
43E
330
2
100
AcDbEntity
  8
L-ZISSEN
100
AcDbLine
 10
684.3248635436358
 20
-107.9180100547428
 30
0.0
 11
684.3248635436358
 21
-105.9180100547428
 31
0.0
  0
LINE
  5
43F
330
2
100
AcDbEntity
  8
L-ZISSEN
100
AcDbLine
 10
688.654990562558
 20
-107.9180100547428
 30
0.0
 11
688.654990562558
 21
-105.9180100547428
 31
0.0
  0
LINE
  5
440
330
2
100
AcDbEntity
  8
L-ZISSEN
100
AcDbLine
 10
683.5499503132604
 20
-102.9180100547428
 30
0.0
 11
674.5930902496628
 21
-101.8691056888137
 31
0.0
  0
LINE
  5
441
330
2
100
AcDbEntity
  8
L-ZISSEN
100
AcDbLine
 10
702.4202848496988
 20
-102.9180100547428
 30
0.0
 11
702.4202848496983
 21
-105.9180100547428
 31
0.0
  0
LINE
  5
442
330
2
100
AcDbEntity
  8
L-ZISSEN
100
AcDbLine
 10
702.4202848496988
 20
-102.9180100547428
 30
0.0
 11
711.3771449132963
 21
-101.8691056888137
 31
0.0
  0
LINE
  5
443
330
2
100
AcDbEntity
  8
L-ZISSEN
100
AcDbLine
 10
701.6453716193247
 20
-107.9180100547428
 30
0.0
 11
701.6453716193247
 21
-105.9180100547428
 31
0.0
  0
LINE
  5
444
330
2
100
AcDbEntity
  8
L-ZISSEN
100
AcDbLine
 10
697.3152446004024
 20
-107.9180100547428
 30
0.0
 11
697.3152446004024
 21
-105.9180100547428
 31
0.0
  0
LINE
  5
445
330
2
100
AcDbEntity
  8
L-ZISSEN
100
AcDbLine
 10
711.4851175814791
 20
-2.918010054740989
 30
0.0
 11
716.9964720197375
 21
-2.918010054742808
 31
0.0
  0
LINE
  5
446
330
2
100
AcDbEntity
  8
L-ZISSEN
100
AcDbLine
 10
703.0624925814776
 20
0.2819899452588288
 30
0.0
 11
703.0624925814776
 21
-17.86013505474056
 31
0.0
  0
LINE
  5
447
330
2
100
AcDbEntity
  8
L-ZISSEN
100
AcDbLine
 10
703.7823050814775
 20
0.2819899452588288
 30
0.0
 11
703.7823050814775
 21
-23.13876005474139
 31
0.0
  0
LINE
  5
448
330
2
100
AcDbEntity
  8
L-ZISSEN
100
AcDbLine
 10
703.9851175814791
 20
0.2819899452588288
 30
0.0
 11
703.9851175814791
 21
-28.51801005474135
 31
0.0
  0
LINE
  5
449
330
2
100
AcDbEntity
  8
L-ZISSEN
100
AcDbLine
 10
695.8643675814813
 20
-9.702260054739781
 30
0.0
 11
692.985117581481
 21
-14.5010100547397
 31
0.0
  0
LINE
  5
44A
330
2
100
AcDbEntity
  8
L-ZISSEN
100
AcDbLine
 10
682.9077425814774
 20
0.2819899452588288
 30
0.0
 11
682.9077425814774
 21
-17.86013505474056
 31
0.0
  0
LINE
  5
44B
330
2
100
AcDbEntity
  8
L-ZISSEN
100
AcDbLine
 10
682.1879300814779
 20
0.2819899452588288
 30
0.0
 11
682.1879300814774
 21
-23.13876005474139
 31
0.0
  0
LINE
  5
44C
330
2
100
AcDbEntity
  8
L-ZISSEN
100
AcDbLine
 10
690.105867581481
 20
-9.702260054739781
 30
0.0
 11
692.985117581481
 21
-14.5010100547397
 31
0.0
  0
LINE
  5
44D
330
2
100
AcDbEntity
  8
L-ZISSEN
100
AcDbLine
 10
681.9851175814791
 20
0.2819899452588288
 30
0.0
 11
681.9851175814791
 21
-28.51801005474135
 31
0.0
  0
CIRCLE
  5
44E
330
2
100
AcDbEntity
  8
L-ZISSEN
100
AcDbCircle
 10
697.23511758148
 20
-33.51801005474135
 30
0.0
 40
2.0
  0
LINE
  5
44F
330
2
100
AcDbEntity
  8
L-TYUSIN
100
AcDbLine
 10
685.3851175814797
 20
-33.51801005474135
 30
0.0
 11
700.5851175814795
 21
-33.51801005474135
 31
0.0
  0
LINE
  5
450
330
2
100
AcDbEntity
  8
L-ZISSEN
100
AcDbLine
 10
685.3851175814797
 20
-37.01801005474135
 30
0.0
 11
700.5851175814795
 21
-37.01801005474135
 31
0.0
  0
LINE
  5
451
330
2
100
AcDbEntity
  8
L-ZISSEN
100
AcDbLine
 10
685.3851175814797
 20
-38.01801005474135
 30
0.0
 11
700.5851175814795
 21
-38.01801005474135
 31
0.0
  0
LINE
  5
452
330
2
100
AcDbEntity
  8
L-ZISSEN
100
AcDbLine
 10
692.9851175814795
 20
-26.01801005474135
 30
0.0
 11
703.7823050814775
 21
-23.13876005474139
 31
0.0
  0
LINE
  5
453
330
2
100
AcDbEntity
  8
L-ZISSEN
100
AcDbLine
 10
702.1330193424054
 20
-22.13449724212205
 30
0.0
 11
692.9851175814795
 21
-24.04966529488865
 31
0.0
  0
LINE
  5
454
330
2
100
AcDbEntity
  8
L-ZISSEN
100
AcDbLine
 10
692.9851175814795
 20
-19.29976005474145
 30
0.0
 11
703.0624925814776
 21
-17.86013505474056
 31
0.0
  0
LINE
  5
455
330
2
100
AcDbEntity
  8
L-ZISSEN
100
AcDbLine
 10
692.9851175814795
 20
-19.93793411384013
 30
0.0
 11
702.1330193424054
 21
-18.63109100513702
 31
0.0
  0
LINE
  5
456
330
2
100
AcDbEntity
  8
L-ZISSEN
100
AcDbLine
 10
682.9851175814791
 20
-43.01801005474135
 30
0.0
 11
702.9851175814791
 21
-43.01801005474135
 31
0.0
  0
LINE
  5
457
330
2
100
AcDbEntity
  8
L-ZISSEN
100
AcDbLine
 10
683.3851175814796
 20
-40.01801005474135
 30
0.0
 11
702.5851175814795
 21
-40.01801005474135
 31
0.0
  0
LINE
  5
458
330
2
100
AcDbEntity
  8
L-ZISSEN
100
AcDbLine
 10
692.9851175814795
 20
-19.29976005474145
 30
0.0
 11
692.9851175814795
 21
-19.93793411384013
 31
0.0
  0
LINE
  5
459
330
2
100
AcDbEntity
  8
L-ZISSEN
100
AcDbLine
 10
683.8372158205537
 20
-18.63109100513702
 30
0.0
 11
683.8372158205537
 21
-22.13449724212205
 31
0.0
  0
LINE
  5
45A
330
2
100
AcDbEntity
  8
L-ZISSEN
100
AcDbLine
 10
682.1879300814774
 20
-23.13876005474139
 30
0.0
 11
683.8372158205537
 21
-22.13449724212205
 31
0.0
  0
LINE
  5
45B
330
2
100
AcDbEntity
  8
L-ZISSEN
100
AcDbLine
 10
683.8372158205537
 20
-18.63109100513702
 30
0.0
 11
682.9077425814774
 21
-17.86013505474056
 31
0.0
  0
LINE
  5
45C
330
2
100
AcDbEntity
  8
L-ZISSEN
100
AcDbLine
 10
683.8372158205537
 20
-17.99291694603835
 30
0.0
 11
682.9077425814774
 21
-17.86013505474056
 31
0.0
  0
LINE
  5
45D
330
2
100
AcDbEntity
  8
L-ZISSEN
100
AcDbLine
 10
692.9851175814795
 20
-19.93793411384013
 30
0.0
 11
683.8372158205537
 21
-18.63109100513702
 31
0.0
  0
LINE
  5
45E
330
2
100
AcDbEntity
  8
L-ZISSEN
100
AcDbLine
 10
683.8372158205537
 20
-22.13449724212205
 30
0.0
 11
692.9851175814795
 21
-24.04966529488865
 31
0.0
  0
LINE
  5
45F
330
2
100
AcDbEntity
  8
L-ZISSEN
100
AcDbLine
 10
692.9851175814795
 20
-19.29976005474145
 30
0.0
 11
682.9077425814774
 21
-17.86013505474056
 31
0.0
  0
LINE
  5
460
330
2
100
AcDbEntity
  8
L-ZISSEN
100
AcDbLine
 10
692.9851175814795
 20
-26.01801005474135
 30
0.0
 11
682.1879300814774
 21
-23.13876005474139
 31
0.0
  0
ARC
  5
461
330
2
100
AcDbEntity
  8
L-ZISSEN
100
AcDbCircle
 10
692.9851175814795
 20
-27.76801005474135
 30
0.0
 40
1.25
100
AcDbArc
 50
180.0
 51
0.0
  0
LINE
  5
462
330
2
100
AcDbEntity
  8
L-ZISSEN
100
AcDbLine
 10
683.3851175814796
 20
-40.01801005474135
 30
0.0
 11
682.9851175814791
 21
-43.01801005474135
 31
0.0
  0
LINE
  5
463
330
2
100
AcDbEntity
  8
L-ZISSEN
100
AcDbLine
 10
682.9851175814791
 20
-29.01801005474135
 30
0.0
 11
682.9851175814791
 21
-43.01801005474135
 31
0.0
  0
LINE
  5
464
330
2
100
AcDbEntity
  8
L-ZISSEN
100
AcDbLine
 10
683.3851175814787
 20
-29.01801005474135
 30
0.0
 11
683.3851175814796
 21
-40.01801005474135
 31
0.0
  0
LINE
  5
465
330
2
100
AcDbEntity
  8
L-TYUSIN
100
AcDbLine
 10
688.7351175814791
 20
-30.26801005474135
 30
0.0
 11
688.7351175814791
 21
-36.76801005474135
 31
0.0
  0
LINE
  5
466
330
2
100
AcDbEntity
  8
L-ZISSEN
100
AcDbLine
 10
682.4851175814791
 20
-29.01801005474135
 30
0.0
 11
685.3851175814792
 21
-29.01801005474317
 31
0.0
  0
CIRCLE
  5
467
330
2
100
AcDbEntity
  8
L-ZISSEN
100
AcDbCircle
 10
688.7351175814791
 20
-33.51801005474135
 30
0.0
 40
2.0
  0
LINE
  5
468
330
2
100
AcDbEntity
  8
L-ZISSEN
100
AcDbLine
 10
691.7351175814795
 20
-27.76801005474135
 30
0.0
 11
691.7351175814795
 21
-25.68467672140741
 31
0.0
  0
LINE
  5
469
330
2
100
AcDbEntity
  8
L-ZISSEN
100
AcDbLine
 10
694.2351175814795
 20
-27.76801005474135
 30
0.0
 11
694.2351175814795
 21
-25.68467672140741
 31
0.0
  0
LINE
  5
46A
330
2
100
AcDbEntity
  8
L-ZISSEN
100
AcDbLine
 10
685.3851175814792
 20
-23.99134338807471
 30
0.0
 11
685.3851175814797
 21
-38.01801005474135
 31
0.0
  0
ARC
  5
46B
330
2
100
AcDbEntity
  8
L-ZISSEN
100
AcDbCircle
 10
682.4851175814791
 20
-28.51801005474135
 30
0.0
 40
0.5
100
AcDbArc
 50
180.0
 51
270.0
  0
LINE
  5
46C
330
2
100
AcDbEntity
  8
L-ZISSEN
100
AcDbLine
 10
702.1330193424054
 20
-18.63109100513702
 30
0.0
 11
702.1330193424054
 21
-22.13449724212205
 31
0.0
  0
LINE
  5
46D
330
2
100
AcDbEntity
  8
L-ZISSEN
100
AcDbLine
 10
703.7823050814775
 20
-23.13876005474139
 30
0.0
 11
702.1330193424054
 21
-22.13449724212205
 31
0.0
  0
LINE
  5
46E
330
2
100
AcDbEntity
  8
L-ZISSEN
100
AcDbLine
 10
702.1330193424054
 20
-17.99291694603835
 30
0.0
 11
703.0624925814776
 21
-17.86013505474056
 31
0.0
  0
LINE
  5
46F
330
2
100
AcDbEntity
  8
L-ZISSEN
100
AcDbLine
 10
702.1330193424054
 20
-18.63109100513702
 30
0.0
 11
703.0624925814776
 21
-17.86013505474056
 31
0.0
  0
ARC
  5
470
330
2
100
AcDbEntity
  8
L-ZISSEN
100
AcDbCircle
 10
703.4851175814791
 20
-28.51801005474135
 30
0.0
 40
0.5
100
AcDbArc
 50
270.0
 51
0.0
  0
LINE
  5
471
330
2
100
AcDbEntity
  8
L-ZISSEN
100
AcDbLine
 10
702.5851175814795
 20
-40.01801005474135
 30
0.0
 11
702.98511758148
 21
-43.01801005474135
 31
0.0
  0
LINE
  5
472
330
2
100
AcDbEntity
  8
L-ZISSEN
100
AcDbLine
 10
702.98511758148
 20
-29.01801005474135
 30
0.0
 11
702.98511758148
 21
-43.01801005474135
 31
0.0
  0
LINE
  5
473
330
2
100
AcDbEntity
  8
L-ZISSEN
100
AcDbLine
 10
702.5851175814795
 20
-29.01801005474135
 30
0.0
 11
702.5851175814795
 21
-40.01801005474135
 31
0.0
  0
LINE
  5
474
330
2
100
AcDbEntity
  8
L-TYUSIN
100
AcDbLine
 10
697.23511758148
 20
-30.26801005474135
 30
0.0
 11
697.23511758148
 21
-36.76801005474135
 31
0.0
  0
LINE
  5
475
330
2
100
AcDbEntity
  8
L-ZISSEN
100
AcDbLine
 10
700.5851175814795
 20
-23.99134338807471
 30
0.0
 11
700.5851175814795
 21
-38.01801005474135
 31
0.0
  0
LINE
  5
476
330
2
100
AcDbEntity
  8
L-ZISSEN
100
AcDbLine
 10
700.5851175814795
 20
-29.01801005474317
 30
0.0
 11
703.4851175814791
 21
-29.01801005474135
 31
0.0
  0
LINE
  5
477
330
2
100
AcDbEntity
  8
L-ZISSEN
100
AcDbLine
 10
695.3844925814795
 20
-3.943760054739868
 30
0.0
 11
699.2234925814795
 21
-3.943760054739868
 31
0.0
  0
LINE
  5
478
330
2
100
AcDbEntity
  8
L-ZISSEN
100
AcDbLine
 10
695.3844925814795
 20
-3.943760054739868
 30
0.0
 11
699.2234925814795
 21
-3.943760054739868
 31
0.0
  0
LINE
  5
479
330
2
100
AcDbEntity
  8
L-ZISSEN
100
AcDbLine
 10
695.3844925814795
 20
-4.903510054739854
 30
0.0
 11
699.2234925814795
 21
-4.903510054739854
 31
0.0
  0
LINE
  5
47A
330
2
100
AcDbEntity
  8
L-ZISSEN
100
AcDbLine
 10
695.3844925814795
 20
-4.903510054739854
 30
0.0
 11
699.2234925814795
 21
-4.903510054739854
 31
0.0
  0
LINE
  5
47B
330
2
100
AcDbEntity
  8
L-ZISSEN
100
AcDbLine
 10
693.9448675814809
 20
-9.702260054739781
 30
0.0
 11
695.8643675814813
 21
-9.702260054739781
 31
0.0
  0
LINE
  5
47C
330
2
100
AcDbEntity
  8
L-ZISSEN
100
AcDbLine
 10
704.9851175814795
 20
0.2819899452588288
 30
0.0
 11
680.9851175814795
 21
0.2819899452588288
 31
0.0
  0
LINE
  5
47D
330
2
100
AcDbEntity
  8
L-ZISSEN
100
AcDbLine
 10
693.9448675814809
 20
-2.024260054739897
 30
0.0
 11
693.9448675814809
 21
-9.702260054739781
 31
0.0
  0
LINE
  5
47E
330
2
100
AcDbEntity
  8
L-ZISSEN
100
AcDbLine
 10
693.9448675814809
 20
-2.024260054739897
 30
0.0
 11
693.9448675814809
 21
-9.702260054739781
 31
0.0
  0
LINE
  5
47F
330
2
100
AcDbEntity
  8
L-ZISSEN
100
AcDbLine
 10
692.025367581481
 20
-2.024260054739897
 30
0.0
 11
692.025367581481
 21
-9.702260054739781
 31
0.0
  0
LINE
  5
480
330
2
100
AcDbEntity
  8
L-ZISSEN
100
AcDbLine
 10
692.025367581481
 20
-2.024260054739897
 30
0.0
 11
692.025367581481
 21
-9.702260054739781
 31
0.0
  0
LINE
  5
481
330
2
100
AcDbEntity
  8
L-ZISSEN
100
AcDbLine
 10
695.3844925814795
 20
-3.943760054739868
 30
0.0
 11
695.3844925814795
 21
-4.903510054739854
 31
0.0
  0
LINE
  5
482
330
2
100
AcDbEntity
  8
L-ZISSEN
100
AcDbLine
 10
693.9448675814809
 20
-2.024260054739897
 30
0.0
 11
692.025367581481
 21
-2.024260054739897
 31
0.0
  0
LINE
  5
483
330
2
100
AcDbEntity
  8
L-ZISSEN
100
AcDbLine
 10
686.7467425814792
 20
-5.863260054741658
 30
0.0
 11
684.3473675814792
 21
-4.423635054740771
 31
0.0
  0
LINE
  5
484
330
2
100
AcDbEntity
  8
L-ZISSEN
100
AcDbLine
 10
686.7467425814792
 20
-2.984010054741702
 30
0.0
 11
684.3473675814792
 21
-4.423635054740771
 31
0.0
  0
LINE
  5
485
330
2
100
AcDbEntity
  8
L-ZISSEN
100
AcDbLine
 10
690.5857425814796
 20
-3.943760054741687
 30
0.0
 11
690.5857425814796
 21
-4.903510054741673
 31
0.0
  0
LINE
  5
486
330
2
100
AcDbEntity
  8
L-ZISSEN
100
AcDbLine
 10
686.7467425814792
 20
-4.903510054741673
 30
0.0
 11
686.7467425814792
 21
-5.863260054741658
 31
0.0
  0
LINE
  5
487
330
2
100
AcDbEntity
  8
L-ZISSEN
100
AcDbLine
 10
686.7467425814792
 20
-3.943760054741687
 30
0.0
 11
686.7467425814792
 21
-2.984010054741702
 31
0.0
  0
LINE
  5
488
330
2
100
AcDbEntity
  8
L-ZISSEN
100
AcDbLine
 10
690.5857425814796
 20
-3.943760054741687
 30
0.0
 11
686.7467425814792
 21
-3.943760054741687
 31
0.0
  0
LINE
  5
489
330
2
100
AcDbEntity
  8
L-ZISSEN
100
AcDbLine
 10
690.5857425814796
 20
-3.943760054741687
 30
0.0
 11
686.7467425814792
 21
-3.943760054741687
 31
0.0
  0
LINE
  5
48A
330
2
100
AcDbEntity
  8
L-ZISSEN
100
AcDbLine
 10
690.5857425814796
 20
-4.903510054741673
 30
0.0
 11
686.7467425814792
 21
-4.903510054741673
 31
0.0
  0
LINE
  5
48B
330
2
100
AcDbEntity
  8
L-ZISSEN
100
AcDbLine
 10
690.5857425814796
 20
-4.903510054741673
 30
0.0
 11
686.7467425814792
 21
-4.903510054741673
 31
0.0
  0
LINE
  5
48C
330
2
100
AcDbEntity
  8
L-ZISSEN
100
AcDbLine
 10
692.025367581481
 20
-9.702260054739781
 30
0.0
 11
690.105867581481
 21
-9.702260054739781
 31
0.0
  0
LINE
  5
48D
330
2
100
AcDbEntity
  8
L-ZISSEN
100
AcDbLine
 10
674.48511758148
 20
-2.918010054742808
 30
0.0
 11
674.48511758148
 21
-12.91801005474098
 31
0.0
  0
LINE
  5
48E
330
2
100
AcDbEntity
  8
L-ZISSEN
100
AcDbLine
 10
680.6851175814799
 20
-4.418010054742808
 30
0.0
 11
680.6851175814799
 21
-12.91801005474098
 31
0.0
  0
LINE
  5
48F
330
2
100
AcDbEntity
  8
L-ZISSEN
100
AcDbLine
 10
680.9851175814795
 20
0.5809704455523388
 30
0.0
 11
680.9851175814795
 21
0.2819899452588288
 31
0.0
  0
LINE
  5
490
330
2
100
AcDbEntity
  8
L-ZISSEN
100
AcDbLine
 10
674.48511758148
 20
-12.91801005474098
 30
0.0
 11
681.48511758148
 21
-12.91801005474098
 31
0.0
  0
LINE
  5
491
330
2
100
AcDbEntity
  8
L-ZISSEN
100
AcDbLine
 10
680.6851175814799
 20
-12.91801005474098
 30
0.0
 11
681.9851175814791
 21
-12.91801005474098
 31
0.0
  0
LINE
  5
492
330
2
100
AcDbEntity
  8
L-ZISSEN
100
AcDbLine
 10
680.6851175814799
 20
-4.418010054742808
 30
0.0
 11
681.9851175814791
 21
-4.418010054742808
 31
0.0
  0
LINE
  5
493
330
2
100
AcDbEntity
  8
L-ZISSEN
100
AcDbLine
 10
711.48511758148
 20
-2.918010054740989
 30
0.0
 11
711.48511758148
 21
-12.91801005473917
 31
0.0
  0
LINE
  5
494
330
2
100
AcDbEntity
  8
L-ZISSEN
100
AcDbLine
 10
705.2851175814802
 20
-4.418010054742808
 30
0.0
 11
705.2851175814793
 21
-12.91801005474098
 31
0.0
  0
LINE
  5
495
330
2
100
AcDbEntity
  8
L-ZISSEN
100
AcDbLine
 10
705.2851175814793
 20
-12.91801005474098
 30
0.0
 11
703.9851175814791
 21
-12.91801005474098
 31
0.0
  0
LINE
  5
496
330
2
100
AcDbEntity
  8
L-ZISSEN
100
AcDbLine
 10
705.2851175814793
 20
-12.91801005474098
 30
0.0
 11
703.9851175814791
 21
-12.91801005474098
 31
0.0
  0
LINE
  5
497
330
2
100
AcDbEntity
  8
L-ZISSEN
100
AcDbLine
 10
705.2851175814802
 20
-4.418010054742808
 30
0.0
 11
703.9851175814791
 21
-4.418010054742808
 31
0.0
  0
LINE
  5
498
330
2
100
AcDbEntity
  8
L-ZISSEN
100
AcDbLine
 10
704.9851175814791
 20
0.5809704455532483
 30
0.0
 11
704.9851175814791
 21
0.2819899452588288
 31
0.0
  0
LINE
  5
499
330
2
100
AcDbEntity
  8
L-ZISSEN
100
AcDbLine
 10
711.48511758148
 20
-12.91801005473917
 30
0.0
 11
704.48511758148
 21
-12.91801005474098
 31
0.0
  0
LINE
  5
49A
330
2
100
AcDbEntity
  8
L-ZISSEN
100
AcDbLine
 10
699.2234925814795
 20
-4.903510054739854
 30
0.0
 11
699.2234925814795
 21
-5.863260054739839
 31
0.0
  0
LINE
  5
49B
330
2
100
AcDbEntity
  8
L-ZISSEN
100
AcDbLine
 10
699.2234925814795
 20
-3.943760054739868
 30
0.0
 11
699.2234925814795
 21
-2.984010054739883
 31
0.0
  0
LINE
  5
49C
330
2
100
AcDbEntity
  8
L-ZISSEN
100
AcDbLine
 10
699.2234925814795
 20
-5.863260054739839
 30
0.0
 11
701.6228675814794
 21
-4.423635054740771
 31
0.0
  0
LINE
  5
49D
330
2
100
AcDbEntity
  8
L-ZISSEN
100
AcDbLine
 10
699.2234925814795
 20
-2.984010054739883
 30
0.0
 11
701.6228675814794
 21
-4.423635054740771
 31
0.0
  0
LINE
  5
49E
330
2
100
AcDbEntity
  8
L-ZISSEN
100
AcDbLine
 10
722.2409846429608
 20
-12.91801005474098
 30
0.0
 11
720.5251236409838
 21
-92.16360338568028
 31
0.0
  0
LINE
  5
49F
330
2
100
AcDbEntity
  8
L-ZISSEN
100
AcDbLine
 10
716.9964720197375
 20
-12.91801005473917
 30
0.0
 11
722.2409846429608
 21
-12.91801005473917
 31
0.0
  0
LINE
  5
4A0
330
2
100
AcDbEntity
  8
L-ZISSEN
100
AcDbLine
 10
716.9964720197375
 20
-2.918010054742808
 30
0.0
 11
716.9964720197375
 21
-12.91801005473917
 31
0.0
  0
LINE
  5
4A1
330
2
100
AcDbEntity
  8
L-ZISSEN
100
AcDbLine
 10
723.1214006969052
 20
0.5809704455523388
 30
0.0
 11
722.9411021817067
 21
-12.91801005474098
 31
0.0
  0
LINE
  5
4A2
330
2
100
AcDbEntity
  8
L-ZISSEN
100
AcDbLine
 10
722.2409846429608
 20
-12.91801005474098
 30
0.0
 11
722.9411021817067
 21
-12.91801005474098
 31
0.0
  0
ARC
  5
4A3
330
2
100
AcDbEntity
  8
L-ZISSEN
100
AcDbCircle
 10
591.1726175814806
 20
211.5669004851906
 30
0.0
 40
1.250000000000568
100
AcDbArc
 50
180.0
 51
270.0
  0
LINE
  5
4A4
330
2
100
AcDbEntity
  8
L-ZISSEN
100
AcDbLine
 10
589.9226175814783
 20
219.0669004851906
 30
0.0
 11
592.0706844466463
 21
220.3748749741462
 31
0.0
  0
LINE
  5
4A5
330
2
100
AcDbEntity
  8
L-ZISSEN
100
AcDbLine
 10
603.9851175814805
 20
215.3169004851906
 30
0.0
 11
589.9226175814783
 21
219.0669004851906
 31
0.0
  0
ARC
  5
4A6
330
2
100
AcDbEntity
  8
L-ZISSEN
100
AcDbCircle
 10
603.9851175814783
 20
233.8303060038479
 30
0.0
 40
99.53938471878538
100
AcDbArc
 50
256.0937629349474
 51
263.0758486315302
  0
LINE
  5
4A7
330
2
100
AcDbEntity
  8
L-ZISSEN
100
AcDbLine
 10
483.9851175814806
 20
250.3169004851915
 30
0.0
 11
483.9851175814806
 21
208.9929060309923
 31
0.0
  0
LINE
  5
4A8
330
2
100
AcDbEntity
  8
L-ZISSEN
100
AcDbLine
 10
488.9851175814806
 20
250.3169004851906
 30
0.0
 11
488.9851175814806
 21
229.3169004851915
 31
0.0
  0
LINE
  5
4A9
330
2
100
AcDbEntity
  8
L-ZISSEN
100
AcDbLine
 10
487.2992129060321
 20
222.4274145831805
 30
0.0
 11
487.2992129060321
 21
250.3169004851906
 31
0.0
  0
LINE
  5
4AA
330
2
100
AcDbEntity
  8
L-ZISSEN
100
AcDbLine
 10
423.9851175814778
 20
144.9739108783769
 30
0.0
 11
423.9851175814806
 21
250.3169004851915
 31
0.0
  0
LINE
  5
4AB
330
2
100
AcDbEntity
  8
L-ZISSEN
100
AcDbLine
 10
483.9851175814779
 20
144.9739108783769
 30
0.0
 11
483.9851175814806
 21
250.3169004851915
 31
0.0
  0
LINE
  5
4AC
330
2
100
AcDbEntity
  8
L-ZISSEN
100
AcDbLine
 10
464.9851175814806
 20
122.0169004851914
 30
0.0
 11
442.9851175814806
 21
122.0169004851914
 31
0.0
  0
LINE
  5
4AD
330
2
100
AcDbEntity
  8
L-ZISSEN
100
AcDbLine
 10
441.9851175814805
 20
133.5169004851914
 30
0.0
 11
465.9851175814806
 21
133.5169004851914
 31
0.0
  0
LINE
  5
4AE
330
2
100
AcDbEntity
  8
L-ZISSEN
100
AcDbLine
 10
441.9851175814805
 20
135.0169004851913
 30
0.0
 11
465.9851175814806
 21
135.0169004851913
 31
0.0
  0
LINE
  5
4AF
330
2
100
AcDbEntity
  8
L-ZISSEN
100
AcDbLine
 10
441.9851175814805
 20
131.0169004851914
 30
0.0
 11
465.9851175814806
 21
131.0169004851914
 31
0.0
  0
LINE
  5
4B0
330
2
100
AcDbEntity
  8
L-ZISSEN
100
AcDbLine
 10
443.9851175814806
 20
118.5169004851914
 30
0.0
 11
463.9851175814806
 21
118.5169004851914
 31
0.0
  0
LINE
  5
4B1
330
2
100
AcDbEntity
  8
L-ZISSEN
100
AcDbLine
 10
443.9851175814806
 20
117.8169004851906
 30
0.0
 11
463.9851175814806
 21
117.8169004851906
 31
0.0
  0
LINE
  5
4B2
330
2
100
AcDbEntity
  8
L-ZISSEN
100
AcDbLine
 10
443.9851175814806
 20
104.3169004851906
 30
0.0
 11
463.9851175814806
 21
104.3169004851906
 31
0.0
  0
LINE
  5
4B3
330
2
100
AcDbEntity
  8
L-ZISSEN
100
AcDbLine
 10
428.7051175814781
 20
239.9781615735591
 30
0.0
 11
428.7051175814808
 21
157.4781615735582
 31
0.0
  0
LINE
  5
4B4
330
2
100
AcDbEntity
  8
L-ZISSEN
100
AcDbLine
 10
437.1351175814811
 20
239.9781615735591
 30
0.0
 11
437.1351175814811
 21
157.47816157356
 31
0.0
  0
LINE
  5
4B5
330
2
100
AcDbEntity
  8
L-ZISSEN
100
AcDbLine
 10
441.9851175814805
 20
131.0169004851914
 30
0.0
 11
441.9851175814805
 21
135.0169004851913
 31
0.0
  0
LINE
  5
4B6
330
2
100
AcDbEntity
  8
L-ZISSEN
100
AcDbLine
 10
432.9201175814773
 20
155.4781615735582
 30
0.0
 11
428.7051175814781
 21
157.4781615735592
 31
0.0
  0
LINE
  5
4B7
330
2
100
AcDbEntity
  8
L-ZISSEN
100
AcDbLine
 10
437.1351175814789
 20
157.4781615735592
 30
0.0
 11
432.9201175814773
 21
155.4781615735582
 31
0.0
  0
ARC
  5
4B8
330
2
100
AcDbEntity
  8
L-ZISSEN
100
AcDbCircle
 10
453.9851175814783
 20
233.8303060038479
 30
0.0
 40
99.53938471878538
100
AcDbArc
 50
256.0937629349474
 51
263.0758486315302
  0
ARC
  5
4B9
330
2
100
AcDbEntity
  8
L-ZISSEN
100
AcDbCircle
 10
431.9851175814778
 20
144.9739108783769
 30
0.0
 40
8.000000000000113
100
AcDbArc
 50
180.0
 51
256.0937629347642
  0
LINE
  5
4BA
330
2
100
AcDbEntity
  8
L-ZISSEN
100
AcDbLine
 10
462.9851175814811
 20
117.8169004851906
 30
0.0
 11
462.9851175814805
 21
118.5169004851914
 31
0.0
  0
LINE
  5
4BB
330
2
100
AcDbEntity
  8
L-ZISSEN
100
AcDbLine
 10
444.9851175814806
 20
117.8169004851906
 30
0.0
 11
444.985117581481
 21
118.5169004851914
 31
0.0
  0
LINE
  5
4BC
330
2
100
AcDbEntity
  8
L-ZISSEN
100
AcDbLine
 10
443.9851175814806
 20
118.5169004851914
 30
0.0
 11
443.9851175814806
 21
122.0169004851914
 31
0.0
  0
LINE
  5
4BD
330
2
100
AcDbEntity
  8
L-ZISSEN
100
AcDbLine
 10
443.9851175814806
 20
104.3169004851906
 30
0.0
 11
443.9851175814806
 21
117.8169004851906
 31
0.0
  0
LINE
  5
4BE
330
2
100
AcDbEntity
  8
L-ZISSEN
100
AcDbLine
 10
442.9851175814806
 20
131.0169004851914
 30
0.0
 11
442.9851175814806
 21
122.0169004851914
 31
0.0
  0
LINE
  5
4BF
330
2
100
AcDbEntity
  8
L-ZISSEN
100
AcDbLine
 10
428.7051175814781
 20
239.9781615735591
 30
0.0
 11
437.1351175814811
 21
239.9781615735591
 31
0.0
  0
LINE
  5
4C0
330
2
100
AcDbEntity
  8
L-ZISSEN
100
AcDbLine
 10
470.8351175814778
 20
239.9781615735591
 30
0.0
 11
470.8351175814778
 21
157.4781615735582
 31
0.0
  0
LINE
  5
4C1
330
2
100
AcDbEntity
  8
L-ZISSEN
100
AcDbLine
 10
479.2651175814808
 20
239.9781615735591
 30
0.0
 11
479.265117581478
 21
157.47816157356
 31
0.0
  0
ARC
  5
4C2
330
2
100
AcDbEntity
  8
L-ZISSEN
100
AcDbCircle
 10
475.9851175814765
 20
144.9739108783769
 30
0.0
 40
8.000000000000113
100
AcDbArc
 50
283.9062370650525
 51
0.0
  0
LINE
  5
4C3
330
2
100
AcDbEntity
  8
L-ZISSEN
100
AcDbLine
 10
470.8351175814755
 20
157.4781615735592
 30
0.0
 11
475.0501175814792
 21
155.4781615735582
 31
0.0
  0
LINE
  5
4C4
330
2
100
AcDbEntity
  8
L-ZISSEN
100
AcDbLine
 10
475.0501175814792
 20
155.4781615735582
 30
0.0
 11
479.2651175814762
 21
157.4781615735592
 31
0.0
  0
LINE
  5
4C5
330
2
100
AcDbEntity
  8
L-ZISSEN
100
AcDbLine
 10
465.9851175814806
 20
131.0169004851914
 30
0.0
 11
465.9851175814806
 21
135.0169004851913
 31
0.0
  0
ARC
  5
4C6
330
2
100
AcDbEntity
  8
L-ZISSEN
100
AcDbCircle
 10
453.9851175814783
 20
233.8303060038479
 30
0.0
 40
99.53938471878515
100
AcDbArc
 50
276.9241513684761
 51
283.9062370650399
  0
LINE
  5
4C7
330
2
100
AcDbEntity
  8
L-ZISSEN
100
AcDbLine
 10
463.9851175814806
 20
118.5169004851914
 30
0.0
 11
463.9851175814808
 21
122.0169004851914
 31
0.0
  0
LINE
  5
4C8
330
2
100
AcDbEntity
  8
L-ZISSEN
100
AcDbLine
 10
463.9851175814806
 20
104.3169004851906
 30
0.0
 11
463.9851175814806
 21
117.8169004851906
 31
0.0
  0
LINE
  5
4C9
330
2
100
AcDbEntity
  8
L-ZISSEN
100
AcDbLine
 10
464.9851175814806
 20
131.0169004851914
 30
0.0
 11
464.9851175814806
 21
122.0169004851914
 31
0.0
  0
LINE
  5
4CA
330
2
100
AcDbEntity
  8
L-ZISSEN
100
AcDbLine
 10
487.2992129060321
 20
226.5098781881106
 30
0.0
 11
483.9851175814806
 21
226.5098781881106
 31
0.0
  0
LINE
  5
4CB
330
2
100
AcDbEntity
  8
L-ZISSEN
100
AcDbLine
 10
484.0489549315043
 20
217.1939339705549
 30
0.0
 11
485.8126290752761
 21
224.6739097179988
 31
0.0
  0
LINE
  5
4CC
330
2
100
AcDbEntity
  8
L-ZISSEN
100
AcDbLine
 10
485.5355387622603
 20
216.8434181997318
 30
0.0
 11
483.9851175814806
 21
216.8434181997318
 31
0.0
  0
LINE
  5
4CD
330
2
100
AcDbEntity
  8
L-ZISSEN
100
AcDbLine
 10
479.2651175814808
 20
239.9781615735591
 30
0.0
 11
470.8351175814778
 21
239.9781615735591
 31
0.0
  0
LINE
  5
4CE
330
2
100
AcDbEntity
  8
L-ZISSEN
100
AcDbLine
 10
492.9851175814792
 20
228.6519626794088
 30
0.0
 11
492.9851175814792
 21
224.3677936968106
 31
0.0
  0
LINE
  5
4CF
330
2
100
AcDbEntity
  8
L-ZISSEN
100
AcDbLine
 10
485.5355387622603
 20
216.8434181997318
 30
0.0
 11
487.2992129060321
 21
224.3233939471756
 31
0.0
  0
LINE
  5
4D0
330
2
100
AcDbEntity
  8
L-ZISSEN
100
AcDbLine
 10
485.8126290752761
 20
226.5098781881097
 30
0.0
 11
485.8126290752761
 21
224.6739097179988
 31
0.0
  0
LINE
  5
4D1
330
2
100
AcDbEntity
  8
L-ZISSEN
100
AcDbLine
 10
487.2992129060321
 20
224.3233939471756
 30
0.0
 11
487.2992129060321
 21
226.5098781881106
 31
0.0
  0
LINE
  5
4D2
330
2
100
AcDbEntity
  8
L-ZISSEN
100
AcDbLine
 10
487.485117581482
 20
222.4274145831805
 30
0.0
 11
487.2992129060321
 21
222.4274145831805
 31
0.0
  0
LINE
  5
4D3
330
2
100
AcDbEntity
  8
L-ZISSEN
100
AcDbLine
 10
488.9851175814806
 20
229.3169004851915
 30
0.0
 11
492.9851175814792
 21
228.6519626794088
 31
0.0
  0
LINE
  5
4D4
330
2
100
AcDbEntity
  8
L-ZISSEN
100
AcDbLine
 10
492.9851175814792
 20
224.3677936968106
 30
0.0
 11
487.485117581482
 21
222.4274145831805
 31
0.0
  0
LINE
  5
4D5
330
2
100
AcDbEntity
  8
L-ZISSEN
100
AcDbLine
 10
452.4486750222859
 20
251.5972692845198
 30
0.0
 11
438.9851175814808
 21
262.8169004851906
 31
0.0
  0
LINE
  5
4D6
330
2
100
AcDbEntity
  8
L-ZISSEN
100
AcDbLine
 10
438.9851175814808
 20
262.8169004851906
 30
0.0
 11
436.9851175814808
 21
262.8169004851906
 31
0.0
  0
TEXT
  5
4D7
330
2
100
AcDbEntity
  8
L-ZISSEN
100
AcDbText
 10
425.9851175814808
 20
260.5669004851906
 30
0.0
 40
4.5
  1
P.P
100
AcDbText
  0
SOLID
  5
4D8
330
2
100
AcDbEntity
  8
L-ZISSEN
100
AcDbTrace
 10
452.2352802223976
 20
251.3411955246538
 30
0.0
 11
452.6620698221741
 21
251.8533430443849
 31
0.0
 12
453.9851175814805
 22
250.3169004851906
 32
0.0
 13
453.9851175814805
 23
250.3169004851906
 33
0.0
  0
LINE
  5
4D9
330
2
100
AcDbEntity
  8
L-ZISSEN
100
AcDbLine
 10
589.9226175814783
 20
250.3169004851906
 30
0.0
 11
589.9226175814783
 21
211.5669004851906
 31
0.0
  0
LINE
  5
4DA
330
2
100
AcDbEntity
  8
L-ZISSEN
100
AcDbLine
 10
589.9226175814783
 20
250.3169004851906
 30
0.0
 11
589.9226175814783
 21
226.5276251180575
 31
0.0
  0
LINE
  5
4DB
330
2
100
AcDbEntity
  8
L-ZISSEN
100
AcDbLine
 10
573.9851175814806
 20
144.9739108783769
 30
0.0
 11
573.9851175814806
 21
250.3169004851906
 31
0.0
  0
LINE
  5
4DC
330
2
100
AcDbEntity
  8
L-ZISSEN
100
AcDbLine
 10
578.7051175814804
 20
239.9781615735601
 30
0.0
 11
578.7051175814804
 21
157.4781615735582
 31
0.0
  0
LINE
  5
4DD
330
2
100
AcDbEntity
  8
L-ZISSEN
100
AcDbLine
 10
587.1351175814811
 20
239.9781615735601
 30
0.0
 11
587.1351175814811
 21
157.4781615735582
 31
0.0
  0
LINE
  5
4DE
330
2
100
AcDbEntity
  8
L-ZISSEN
100
AcDbLine
 10
582.9201175814796
 20
155.4781615735582
 30
0.0
 11
578.7051175814804
 21
157.4781615735582
 31
0.0
  0
LINE
  5
4DF
330
2
100
AcDbEntity
  8
L-ZISSEN
100
AcDbLine
 10
587.1351175814811
 20
157.4781615735582
 30
0.0
 11
582.9201175814796
 21
155.4781615735582
 31
0.0
  0
ARC
  5
4E0
330
2
100
AcDbEntity
  8
L-ZISSEN
100
AcDbCircle
 10
581.9851175814778
 20
144.9739108783769
 30
0.0
 40
8.000000000000113
100
AcDbArc
 50
180.0
 51
256.0937629347642
  0
LINE
  5
4E1
330
2
100
AcDbEntity
  8
L-ZISSEN
100
AcDbLine
 10
578.7051175814804
 20
239.9781615735601
 30
0.0
 11
587.1351175814811
 21
239.9781615735601
 31
0.0
  0
LINE
  5
4E2
330
2
100
AcDbEntity
  8
L-ZISSEN
100
AcDbLine
 10
618.0476175814783
 20
250.3169004851906
 30
0.0
 11
618.0476175814783
 21
211.5669004851906
 31
0.0
  0
LINE
  5
4E3
330
2
100
AcDbEntity
  8
L-ZISSEN
100
AcDbLine
 10
618.0476175814783
 20
250.3169004851906
 30
0.0
 11
618.0476175814783
 21
226.5276251180575
 31
0.0
  0
LINE
  5
4E4
330
2
100
AcDbEntity
  8
L-ZISSEN
100
AcDbLine
 10
602.7351175814828
 20
246.5669004851924
 30
0.0
 11
602.7351175814828
 21
236.5669004851925
 31
0.0
  0
LINE
  5
4E5
330
2
100
AcDbEntity
  8
L-ZISSEN
100
AcDbLine
 10
602.7351175814828
 20
246.5669004851924
 30
0.0
 11
602.7351175814828
 21
236.5669004851925
 31
0.0
  0
LINE
  5
4E6
330
2
100
AcDbEntity
  8
L-ZISSEN
100
AcDbLine
 10
605.2351175814829
 20
246.5669004851924
 30
0.0
 11
605.2351175814829
 21
236.5669004851925
 31
0.0
  0
LINE
  5
4E7
330
2
100
AcDbEntity
  8
L-ZISSEN
100
AcDbLine
 10
605.2351175814829
 20
246.5669004851924
 30
0.0
 11
605.2351175814829
 21
236.5669004851925
 31
0.0
  0
LINE
  5
4E8
330
2
100
AcDbEntity
  8
L-ZISSEN
100
AcDbLine
 10
617.1101175814783
 20
250.3169004851906
 30
0.0
 11
617.1101175814783
 21
225.9419004851906
 31
0.0
  0
LINE
  5
4E9
330
2
100
AcDbEntity
  8
L-ZISSEN
100
AcDbLine
 10
612.1101175814806
 20
244.0669004851915
 30
0.0
 11
612.1101175814806
 21
245.3169004851915
 31
0.0
  0
LINE
  5
4EA
330
2
100
AcDbEntity
  8
L-ZISSEN
100
AcDbLine
 10
612.1101175814806
 20
245.3169004851915
 30
0.0
 11
615.2351175814806
 21
243.4419004851915
 31
0.0
  0
LINE
  5
4EB
330
2
100
AcDbEntity
  8
L-ZISSEN
100
AcDbLine
 10
590.8601175814783
 20
250.3169004851906
 30
0.0
 11
590.8601175814783
 21
225.9419004851906
 31
0.0
  0
LINE
  5
4EC
330
2
100
AcDbEntity
  8
L-ZISSEN
100
AcDbLine
 10
595.8601175814806
 20
244.0669004851906
 30
0.0
 11
595.8601175814806
 21
245.3169004851906
 31
0.0
  0
LINE
  5
4ED
330
2
100
AcDbEntity
  8
L-ZISSEN
100
AcDbLine
 10
595.8601175814806
 20
245.3169004851906
 30
0.0
 11
592.7351175814806
 21
243.4419004851906
 31
0.0
  0
LINE
  5
4EE
330
2
100
AcDbEntity
  8
L-ZISSEN
100
AcDbLine
 10
633.9851175814779
 20
144.9739108783769
 30
0.0
 11
633.9851175814806
 21
250.3169004851924
 31
0.0
  0
ARC
  5
4EF
330
2
100
AcDbEntity
  8
L-ZISSEN
100
AcDbCircle
 10
625.9851175814765
 20
144.9739108783769
 30
0.0
 40
8.000000000000113
100
AcDbArc
 50
283.9062370650525
 51
0.0
  0
LINE
  5
4F0
330
2
100
AcDbEntity
  8
L-ZISSEN
100
AcDbLine
 10
629.2651175814808
 20
239.9781615735601
 30
0.0
 11
629.2651175814808
 21
157.4781615735582
 31
0.0
  0
LINE
  5
4F1
330
2
100
AcDbEntity
  8
L-ZISSEN
100
AcDbLine
 10
620.83511758148
 20
239.9781615735601
 30
0.0
 11
620.83511758148
 21
157.4781615735582
 31
0.0
  0
LINE
  5
4F2
330
2
100
AcDbEntity
  8
L-ZISSEN
100
AcDbLine
 10
591.9851175814805
 20
133.5169004851914
 30
0.0
 11
615.9851175814806
 21
133.5169004851914
 31
0.0
  0
LINE
  5
4F3
330
2
100
AcDbEntity
  8
L-ZISSEN
100
AcDbLine
 10
591.9851175814805
 20
135.0169004851913
 30
0.0
 11
615.9851175814806
 21
135.0169004851913
 31
0.0
  0
LINE
  5
4F4
330
2
100
AcDbEntity
  8
L-ZISSEN
100
AcDbLine
 10
591.9851175814805
 20
131.0169004851914
 30
0.0
 11
615.9851175814806
 21
131.0169004851914
 31
0.0
  0
LINE
  5
4F5
330
2
100
AcDbEntity
  8
L-ZISSEN
100
AcDbLine
 10
593.9851175814806
 20
118.5169004851914
 30
0.0
 11
613.9851175814806
 21
118.5169004851914
 31
0.0
  0
LINE
  5
4F6
330
2
100
AcDbEntity
  8
L-ZISSEN
100
AcDbLine
 10
593.9851175814806
 20
117.8169004851906
 30
0.0
 11
613.9851175814806
 21
117.8169004851906
 31
0.0
  0
LINE
  5
4F7
330
2
100
AcDbEntity
  8
L-ZISSEN
100
AcDbLine
 10
593.9851175814806
 20
104.3169004851906
 30
0.0
 11
613.9851175814806
 21
104.3169004851906
 31
0.0
  0
LINE
  5
4F8
330
2
100
AcDbEntity
  8
L-ZISSEN
100
AcDbLine
 10
614.9851175814806
 20
122.0169004851914
 30
0.0
 11
592.9851175814806
 21
122.0169004851914
 31
0.0
  0
LINE
  5
4F9
330
2
100
AcDbEntity
  8
L-ZISSEN
100
AcDbLine
 10
591.9851175814805
 20
131.0169004851914
 30
0.0
 11
591.9851175814805
 21
135.0169004851913
 31
0.0
  0
LINE
  5
4FA
330
2
100
AcDbEntity
  8
L-ZISSEN
100
AcDbLine
 10
594.9851175814806
 20
117.8169004851906
 30
0.0
 11
594.985117581481
 21
118.5169004851914
 31
0.0
  0
LINE
  5
4FB
330
2
100
AcDbEntity
  8
L-ZISSEN
100
AcDbLine
 10
593.9851175814806
 20
118.5169004851914
 30
0.0
 11
593.9851175814806
 21
122.0169004851914
 31
0.0
  0
LINE
  5
4FC
330
2
100
AcDbEntity
  8
L-ZISSEN
100
AcDbLine
 10
593.9851175814806
 20
104.3169004851906
 30
0.0
 11
593.9851175814806
 21
117.8169004851906
 31
0.0
  0
LINE
  5
4FD
330
2
100
AcDbEntity
  8
L-ZISSEN
100
AcDbLine
 10
592.9851175814806
 20
131.0169004851914
 30
0.0
 11
592.9851175814806
 21
122.0169004851914
 31
0.0
  0
LINE
  5
4FE
330
2
100
AcDbEntity
  8
L-ZISSEN
100
AcDbLine
 10
620.83511758148
 20
157.4781615735582
 30
0.0
 11
625.0501175814815
 21
155.4781615735582
 31
0.0
  0
LINE
  5
4FF
330
2
100
AcDbEntity
  8
L-ZISSEN
100
AcDbLine
 10
625.0501175814815
 20
155.4781615735582
 30
0.0
 11
629.2651175814808
 21
157.4781615735582
 31
0.0
  0
LINE
  5
500
330
2
100
AcDbEntity
  8
L-ZISSEN
100
AcDbLine
 10
615.9851175814806
 20
131.0169004851914
 30
0.0
 11
615.9851175814806
 21
135.0169004851913
 31
0.0
  0
LINE
  5
501
330
2
100
AcDbEntity
  8
L-ZISSEN
100
AcDbLine
 10
612.9851175814811
 20
117.8169004851906
 30
0.0
 11
612.9851175814806
 21
118.5169004851914
 31
0.0
  0
LINE
  5
502
330
2
100
AcDbEntity
  8
L-ZISSEN
100
AcDbLine
 10
613.9851175814806
 20
118.5169004851914
 30
0.0
 11
613.9851175814808
 21
122.0169004851914
 31
0.0
  0
LINE
  5
503
330
2
100
AcDbEntity
  8
L-ZISSEN
100
AcDbLine
 10
613.9851175814806
 20
104.3169004851906
 30
0.0
 11
613.9851175814806
 21
117.8169004851906
 31
0.0
  0
LINE
  5
504
330
2
100
AcDbEntity
  8
L-ZISSEN
100
AcDbLine
 10
614.9851175814806
 20
131.0169004851914
 30
0.0
 11
614.9851175814806
 21
122.0169004851914
 31
0.0
  0
ARC
  5
505
330
2
100
AcDbEntity
  8
L-ZISSEN
100
AcDbCircle
 10
603.9851175814783
 20
233.8303060038479
 30
0.0
 40
99.53938471878515
100
AcDbArc
 50
276.9241513684761
 51
283.9062370650399
  0
LINE
  5
506
330
2
100
AcDbEntity
  8
L-ZISSEN
100
AcDbLine
 10
607.1101175814805
 20
244.0669004851915
 30
0.0
 11
612.1101175814806
 21
244.0669004851915
 31
0.0
  0
LINE
  5
507
330
2
100
AcDbEntity
  8
L-ZISSEN
100
AcDbLine
 10
607.1101175814805
 20
244.0669004851915
 30
0.0
 11
612.1101175814806
 21
244.0669004851915
 31
0.0
  0
LINE
  5
508
330
2
100
AcDbEntity
  8
L-ZISSEN
100
AcDbLine
 10
607.1101175814805
 20
242.8169004851915
 30
0.0
 11
612.1101175814806
 21
242.8169004851915
 31
0.0
  0
LINE
  5
509
330
2
100
AcDbEntity
  8
L-ZISSEN
100
AcDbLine
 10
607.1101175814805
 20
242.8169004851915
 30
0.0
 11
612.1101175814806
 21
242.8169004851915
 31
0.0
  0
LINE
  5
50A
330
2
100
AcDbEntity
  8
L-ZISSEN
100
AcDbLine
 10
603.9851175814805
 20
224.0669004851906
 30
0.0
 11
617.1101175814783
 21
225.9419004851906
 31
0.0
  0
LINE
  5
50B
330
2
100
AcDbEntity
  8
L-ZISSEN
100
AcDbLine
 10
603.9851175814805
 20
223.2357282279636
 30
0.0
 11
615.8995507163149
 21
224.937790104368
 31
0.0
  0
LINE
  5
50C
330
2
100
AcDbEntity
  8
L-ZISSEN
100
AcDbLine
 10
615.8995507163149
 20
220.3748749741462
 30
0.0
 11
603.9851175814805
 21
217.8805169997149
 31
0.0
  0
LINE
  5
50D
330
2
100
AcDbEntity
  8
L-ZISSEN
100
AcDbLine
 10
591.1726175814806
 20
210.3169004851906
 30
0.0
 11
616.7976175814806
 21
210.3169004851906
 31
0.0
  0
LINE
  5
50E
330
2
100
AcDbEntity
  8
L-ZISSEN
100
AcDbLine
 10
603.9851175814805
 20
215.3169004851906
 30
0.0
 11
618.0476175814783
 21
219.0669004851906
 31
0.0
  0
LINE
  5
50F
330
2
100
AcDbEntity
  8
L-ZISSEN
100
AcDbLine
 10
600.2351175814829
 20
236.5669004851925
 30
0.0
 11
603.9851175814828
 21
230.3169004851925
 31
0.0
  0
LINE
  5
510
330
2
100
AcDbEntity
  8
L-TYUSIN
100
AcDbLine
 10
601.7983240189255
 20
220.3204457840174
 30
0.0
 11
605.9931039938374
 21
220.3204457840174
 31
0.0
  0
CIRCLE
  5
511
330
2
100
AcDbEntity
  8
L-ZISSEN
100
AcDbCircle
 10
603.9851175814805
 20
220.3204457840174
 30
0.0
 40
1.25
  0
ARC
  5
512
330
2
100
AcDbEntity
  8
L-ZISSEN
100
AcDbCircle
 10
603.9851175814805
 20
214.0669004851906
 30
0.0
 40
1.250000000000568
100
AcDbArc
 50
180.0
 51
0.0
  0
LINE
  5
513
330
2
100
AcDbEntity
  8
L-ZISSEN
100
AcDbLine
 10
602.7351175814828
 20
236.5669004851925
 30
0.0
 11
600.2351175814829
 21
236.5669004851925
 31
0.0
  0
LINE
  5
514
330
2
100
AcDbEntity
  8
L-ZISSEN
100
AcDbLine
 10
602.7351175814783
 20
215.6502338185246
 30
0.0
 11
602.7351175814806
 21
214.0669004851906
 31
0.0
  0
LINE
  5
515
330
2
100
AcDbEntity
  8
L-ZISSEN
100
AcDbLine
 10
600.8601175814805
 20
244.0669004851906
 30
0.0
 11
600.8601175814805
 21
242.8169004851906
 31
0.0
  0
LINE
  5
516
330
2
100
AcDbEntity
  8
L-ZISSEN
100
AcDbLine
 10
603.9851175814805
 20
224.0669004851906
 30
0.0
 11
603.9851175814805
 21
223.2357282279636
 31
0.0
  0
LINE
  5
517
330
2
100
AcDbEntity
  8
L-ZISSEN
100
AcDbLine
 10
603.9851175814805
 20
215.3169004851906
 30
0.0
 11
603.9851175814805
 21
217.8805169997149
 31
0.0
  0
LINE
  5
518
330
2
100
AcDbEntity
  8
L-ZISSEN
100
AcDbLine
 10
605.2351175814806
 20
215.6502338185246
 30
0.0
 11
605.2351175814806
 21
214.0669004851906
 31
0.0
  0
LINE
  5
519
330
2
100
AcDbEntity
  8
L-ZISSEN
100
AcDbLine
 10
607.1101175814805
 20
244.0669004851915
 30
0.0
 11
607.1101175814805
 21
242.8169004851915
 31
0.0
  0
LINE
  5
51A
330
2
100
AcDbEntity
  8
L-ZISSEN
100
AcDbLine
 10
607.7351175814828
 20
236.5669004851925
 30
0.0
 11
603.9851175814828
 21
230.3169004851925
 31
0.0
  0
LINE
  5
51B
330
2
100
AcDbEntity
  8
L-ZISSEN
100
AcDbLine
 10
605.2351175814829
 20
236.5669004851925
 30
0.0
 11
607.7351175814828
 21
236.5669004851925
 31
0.0
  0
LINE
  5
51C
330
2
100
AcDbEntity
  8
L-ZISSEN
100
AcDbLine
 10
592.0706844466463
 20
224.937790104368
 30
0.0
 11
590.8601175814783
 21
225.9419004851906
 31
0.0
  0
LINE
  5
51D
330
2
100
AcDbEntity
  8
L-ZISSEN
100
AcDbLine
 10
592.0706844466463
 20
225.7689623615961
 30
0.0
 11
590.8601175814783
 21
225.9419004851906
 31
0.0
  0
LINE
  5
51E
330
2
100
AcDbEntity
  8
L-ZISSEN
100
AcDbLine
 10
594.6101175814805
 20
217.8169004851915
 30
0.0
 11
594.6101175814783
 21
210.3169004851906
 31
0.0
  0
LINE
  5
51F
330
2
100
AcDbEntity
  8
L-ZISSEN
100
AcDbLine
 10
595.8601175814806
 20
242.8169004851906
 30
0.0
 11
595.8601175814806
 21
241.5669004851906
 31
0.0
  0
LINE
  5
520
330
2
100
AcDbEntity
  8
L-ZISSEN
100
AcDbLine
 10
592.0706844466463
 20
224.937790104368
 30
0.0
 11
592.0706844466463
 21
220.3748749741462
 31
0.0
  0
LINE
  5
521
330
2
100
AcDbEntity
  8
L-ZISSEN
100
AcDbLine
 10
595.8601175814806
 20
241.5669004851906
 30
0.0
 11
592.7351175814806
 21
243.4419004851906
 31
0.0
  0
LINE
  5
522
330
2
100
AcDbEntity
  8
L-ZISSEN
100
AcDbLine
 10
603.9851175814805
 20
224.0669004851906
 30
0.0
 11
590.8601175814783
 21
225.9419004851906
 31
0.0
  0
LINE
  5
523
330
2
100
AcDbEntity
  8
L-ZISSEN
100
AcDbLine
 10
600.8601175814805
 20
244.0669004851906
 30
0.0
 11
595.8601175814806
 21
244.0669004851906
 31
0.0
  0
LINE
  5
524
330
2
100
AcDbEntity
  8
L-ZISSEN
100
AcDbLine
 10
600.8601175814805
 20
244.0669004851906
 30
0.0
 11
595.8601175814806
 21
244.0669004851906
 31
0.0
  0
LINE
  5
525
330
2
100
AcDbEntity
  8
L-ZISSEN
100
AcDbLine
 10
600.8601175814805
 20
242.8169004851906
 30
0.0
 11
595.8601175814806
 21
242.8169004851906
 31
0.0
  0
LINE
  5
526
330
2
100
AcDbEntity
  8
L-ZISSEN
100
AcDbLine
 10
600.8601175814805
 20
242.8169004851906
 30
0.0
 11
595.8601175814806
 21
242.8169004851906
 31
0.0
  0
LINE
  5
527
330
2
100
AcDbEntity
  8
L-ZISSEN
100
AcDbLine
 10
603.9851175814805
 20
223.2357282279636
 30
0.0
 11
592.0706844466463
 21
224.937790104368
 31
0.0
  0
LINE
  5
528
330
2
100
AcDbEntity
  8
L-ZISSEN
100
AcDbLine
 10
592.0706844466463
 20
220.3748749741462
 30
0.0
 11
603.9851175814805
 21
217.8805169997149
 31
0.0
  0
LINE
  5
529
330
2
100
AcDbEntity
  8
L-ZISSEN
100
AcDbLine
 10
629.2651175814808
 20
239.9781615735601
 30
0.0
 11
620.83511758148
 21
239.9781615735601
 31
0.0
  0
LINE
  5
52A
330
2
100
AcDbEntity
  8
L-ZISSEN
100
AcDbLine
 10
613.3601175814783
 20
217.8169004851906
 30
0.0
 11
613.3601175814783
 21
210.3169004851906
 31
0.0
  0
LINE
  5
52B
330
2
100
AcDbEntity
  8
L-ZISSEN
100
AcDbLine
 10
615.8995507163149
 20
224.937790104368
 30
0.0
 11
615.8995507163149
 21
220.3748749741462
 31
0.0
  0
LINE
  5
52C
330
2
100
AcDbEntity
  8
L-ZISSEN
100
AcDbLine
 10
615.8995507163149
 20
225.7689623615961
 30
0.0
 11
617.1101175814783
 21
225.9419004851906
 31
0.0
  0
LINE
  5
52D
330
2
100
AcDbEntity
  8
L-ZISSEN
100
AcDbLine
 10
615.8995507163149
 20
224.937790104368
 30
0.0
 11
617.1101175814783
 21
225.9419004851906
 31
0.0
  0
LINE
  5
52E
330
2
100
AcDbEntity
  8
L-ZISSEN
100
AcDbLine
 10
612.1101175814806
 20
242.8169004851915
 30
0.0
 11
612.1101175814806
 21
241.5669004851916
 31
0.0
  0
LINE
  5
52F
330
2
100
AcDbEntity
  8
L-ZISSEN
100
AcDbLine
 10
612.1101175814806
 20
241.5669004851916
 30
0.0
 11
615.2351175814806
 21
243.4419004851915
 31
0.0
  0
ARC
  5
530
330
2
100
AcDbEntity
  8
L-ZISSEN
100
AcDbCircle
 10
616.7976175814806
 20
211.5669004851906
 30
0.0
 40
1.249999999999715
100
AcDbArc
 50
270.0
 51
0.0
  0
LINE
  5
531
330
2
100
AcDbEntity
  8
L-ZISSEN
100
AcDbLine
 10
618.0476175814783
 20
219.0669004851906
 30
0.0
 11
615.8995507163149
 21
220.3748749741462
 31
0.0
  0
LINE
  5
532
330
2
100
AcDbEntity
  8
L-ZISSEN
100
AcDbLine
 10
633.5186614912848
 20
298.816900485187
 30
0.0
 11
631.5186614912849
 21
298.816900485187
 31
0.0
  0
LINE
  5
533
330
2
100
AcDbEntity
  8
L-ZISSEN
100
AcDbLine
 10
605.2351175814829
 20
246.5669004851924
 30
0.0
 11
602.7351175814828
 21
246.5669004851924
 31
0.0
  0
TEXT
  5
534
330
2
100
AcDbEntity
  8
L-ZISSEN
100
AcDbText
 10
620.5186614912848
 20
296.566900485187
 30
0.0
 40
4.5
  1
P.P
100
AcDbText
  0
SOLID
  5
535
330
2
100
AcDbEntity
  8
L-ZISSEN
100
AcDbTrace
 10
646.7688241322017
 20
287.3411955246492
 30
0.0
 11
647.1956137319781
 21
287.8533430443813
 31
0.0
 12
648.5186614912846
 22
286.316900485187
 32
0.0
 13
648.5186614912846
 23
286.316900485187
 33
0.0
  0
LINE
  5
536
330
2
100
AcDbEntity
  8
L-ZISSEN
100
AcDbLine
 10
646.98221893209
 20
287.5972692845162
 30
0.0
 11
633.5186614912848
 21
298.816900485187
 31
0.0
  0
ENDSEC
  0
SECTION
  2
OBJECTS
  0
DICTIONARY
  5
8
330
0
100
AcDbDictionary
281
     1
  3
ACAD_GROUP
350
24
  3
ACAD_LAYOUT
350
D
  3
ACAD_MLINESTYLE
350
25
  3
ACAD_PLOTSETTINGS
350
26
  3
ACAD_PLOTSTYLENAME
350
7
  0
DICTIONARY
  5
14
330
13
100
AcDbDictionary
280
     1
281
     1
  3
ACAD_LAYERSTATES
360
15
  0
DICTIONARY
  5
3
330
2
100
AcDbDictionary
280
     1
281
     1
  3
ACAD_LAYOUTSELFREF
360
56A
  0
DICTIONARY
  5
F
330
E
100
AcDbDictionary
280
     1
281
     1
  3
ACAD_LAYOUTSELFREF
360
56D
  0
DICTIONARY
  5
24
102
{ACAD_REACTORS
330
8
102
}
330
8
100
AcDbDictionary
281
     1
  0
DICTIONARY
  5
D
102
{ACAD_REACTORS
330
8
102
}
330
8
100
AcDbDictionary
281
     1
  3
Model
350
C
  3
ﾚｲｱｳﾄ1
350
12
  0
DICTIONARY
  5
25
102
{ACAD_REACTORS
330
8
102
}
330
8
100
AcDbDictionary
281
     1
  3
Standard
350
29
  0
DICTIONARY
  5
26
102
{ACAD_REACTORS
330
8
102
}
330
8
100
AcDbDictionary
281
     1
  0
ACDBDICTIONARYWDFLT
  5
7
102
{ACAD_REACTORS
330
8
102
}
330
8
100
AcDbDictionary
281
     1
  3
Normal
350
6
100
AcDbDictionaryWithDefault
340
6
1001
ACAD
1000
TREAT_AS_HARD
1070
     0
1000
TREAT_AS_HARD
1070
     0
1000
TREAT_AS_HARD
1070
     0
1000
TREAT_AS_HARD
1070
     0
1000
TREAT_AS_HARD
1070
     0
1000
TREAT_AS_HARD
1070
     0
1000
TREAT_AS_HARD
1070
     0
1000
TREAT_AS_HARD
1070
     0
1000
TREAT_AS_HARD
1070
     0
1000
TREAT_AS_HARD
1070
     0
1000
TREAT_AS_HARD
1070
     0
1000
TREAT_AS_HARD
1070
     0
1000
TREAT_AS_HARD
1070
     0
1000
TREAT_AS_HARD
1070
     0
1000
TREAT_AS_HARD
1070
     0
  0
DICTIONARY
  5
15
102
{ACAD_REACTORS
330
14
102
}
330
14
100
AcDbDictionary
281
     1
  0
XRECORD
  5
56A
102
{ACAD_REACTORS
330
3
102
}
330
3
100
AcDbXrecord
280
     1
340
2
  0
XRECORD
  5
56D
102
{ACAD_REACTORS
330
F
102
}
330
F
100
AcDbXrecord
280
     1
340
E
  0
LAYOUT
  5
C
102
{ACAD_REACTORS
330
D
102
}
330
D
100
AcDbPlotSettings
  1

  2
DocuCentre-III C4400
  4
A4
  6

 40
4.857749938964843
 41
4.942390441894531
 42
4.942413330078125
 43
4.857757568359375
 44
209.9733276367187
 45
297.0106506347656
 46
-125.0
 47
-100.0
 48
0.0
 49
0.0
140
0.0
141
0.0
142
1.0
143
1.0
 70
 11952
 72
     1
 73
     1
 74
     0
  7
いつもの.ctb
 75
    16
147
1.0
148
-578.2461343728646
149
1081.837667352095
100
AcDbLayout
  1
Model
 70
     1
 71
     0
 10
0.0
 20
0.0
 11
297.0
 21
210.0
 12
0.0
 22
0.0
 32
0.0
 14
-658.5838433092203
 24
-1223.880159070017
 34
0.0
 15
839.9999994789165
 25
593.9999996307184
 35
0.0
146
0.0
 13
0.0
 23
0.0
 33
0.0
 16
1.0
 26
0.0
 36
0.0
 17
0.0
 27
1.0
 37
0.0
 76
     0
330
2
  0
LAYOUT
  5
12
102
{ACAD_REACTORS
330
D
102
}
330
D
100
AcDbPlotSettings
  1

  2
DocuCentre 450E/550E/600 CP
  4

  6

 40
0.0
 41
0.0
 42
0.0
 43
0.0
 44
0.0
 45
0.0
 46
0.0
 47
0.0
 48
0.0
 49
0.0
140
0.0
141
0.0
142
1.0
143
1.0
 70
   688
 72
     0
 73
     1
 74
     5
  7
いつもの.ctb
 75
    16
147
1.0
148
0.0
149
0.0
100
AcDbLayout
  1
ﾚｲｱｳﾄ1
 70
     0
 71
     1
 10
0.0
 20
0.0
 11
0.0
 21
0.0
 12
0.0
 22
0.0
 32
0.0
 14
0.0
 24
0.0
 34
0.0
 15
0.0
 25
0.0
 35
0.0
146
0.0
 13
0.0
 23
0.0
 33
0.0
 16
1.0
 26
0.0
 36
0.0
 17
0.0
 27
1.0
 37
0.0
 76
     0
330
E
  0
MLINESTYLE
  5
29
102
{ACAD_REACTORS
330
25
102
}
330
25
100
AcDbMlineStyle
  2
STANDARD
 70
     0
  3

 62
   256
 51
90.0
 52
90.0
 71
     2
 49
0.5
 62
   256
  6
BYLAYER
 49
-0.5
 62
   256
  6
BYLAYER
  0
ACDBPLACEHOLDER
  5
6
102
{ACAD_REACTORS
330
7
102
}
330
7
  0
ENDSEC
  0
EOF
