  0
SECTION
  2
HEADER
  9
$ACADVER
  1
AC1012
  9
$DWGCODEPAGE
  3
dos932
  9
$INSBASE
 10
0.0
 20
0.0
 30
0.0
  9
$EXTMIN
 10
-718.56947734669
 20
-426.1111237071028
 30
-0.0000000349181948
  9
$EXTMAX
 10
-110.3840147535956
 20
-48.51861827547828
 30
0.0000000814935746
  9
$LIMMIN
 10
0.0
 20
0.0
  9
$LIMMAX
 10
12.0
 20
9.0
  9
$ORTHOMODE
 70
     1
  9
$REGENMODE
 70
     1
  9
$FILLMODE
 70
     1
  9
$QTEXTMODE
 70
     0
  9
$MIRRTEXT
 70
     1
  9
$DRAGMODE
 70
     2
  9
$LTSCALE
 40
1.0
  9
$OSMODE
 70
    39
  9
$ATTMODE
 70
     1
  9
$TEXTSIZE
 40
4.5
  9
$TRACEWID
 40
0.05
  9
$TEXTSTYLE
  7
STANDARD
  9
$CLAYER
  8
L-ZISSEN
  9
$CELTYPE
  6
BYLAYER
  9
$CECOLOR
 62
   256
  9
$CELTSCALE
 40
1.0
  9
$DELOBJ
 70
     1
  9
$DISPSILH
 70
     0
  9
$DIMSCALE
 40
0.0
  9
$DIMASZ
 40
2.0
  9
$DIMEXO
 40
1.0
  9
$DIMDLI
 40
8.0
  9
$DIMRND
 40
0.0
  9
$DIMDLE
 40
0.0
  9
$DIMEXE
 40
1.0
  9
$DIMTP
 40
0.0
  9
$DIMTM
 40
0.0
  9
$DIMTXT
 40
4.5
  9
$DIMCEN
 40
1.5
  9
$DIMTSZ
 40
0.0
  9
$DIMTOL
 70
     0
  9
$DIMLIM
 70
     0
  9
$DIMTIH
 70
     0
  9
$DIMTOH
 70
     0
  9
$DIMSE1
 70
     0
  9
$DIMSE2
 70
     0
  9
$DIMTAD
 70
     1
  9
$DIMZIN
 70
     8
  9
$DIMBLK
  1

  9
$DIMASO
 70
     1
  9
$DIMSHO
 70
     0
  9
$DIMPOST
  1

  9
$DIMAPOST
  1

  9
$DIMALT
 70
     0
  9
$DIMALTD
 70
     2
  9
$DIMALTF
 40
25.4
  9
$DIMLFAC
 40
1.0
  9
$DIMTOFL
 70
     1
  9
$DIMTVP
 40
0.0
  9
$DIMTIX
 70
     1
  9
$DIMSOXD
 70
     0
  9
$DIMSAH
 70
     0
  9
$DIMBLK1
  1

  9
$DIMBLK2
  1

  9
$DIMSTYLE
  2
STANDARD
  9
$DIMCLRD
 70
     0
  9
$DIMCLRE
 70
     0
  9
$DIMCLRT
 70
     0
  9
$DIMTFAC
 40
1.0
  9
$DIMGAP
 40
1.399999999999999
  9
$DIMJUST
 70
     0
  9
$DIMSD1
 70
     0
  9
$DIMSD2
 70
     0
  9
$DIMTOLJ
 70
     1
  9
$DIMTZIN
 70
     8
  9
$DIMALTZ
 70
     0
  9
$DIMALTTZ
 70
     0
  9
$DIMFIT
 70
     3
  9
$DIMUPT
 70
     0
  9
$DIMUNIT
 70
     2
  9
$DIMDEC
 70
     4
  9
$DIMTDEC
 70
     4
  9
$DIMALTU
 70
     2
  9
$DIMALTTD
 70
     2
  9
$DIMTXSTY
  7
STANDARD
  9
$DIMAUNIT
 70
     0
  9
$LUNITS
 70
     2
  9
$LUPREC
 70
     4
  9
$SKETCHINC
 40
0.1
  9
$FILLETRAD
 40
0.0
  9
$AUNITS
 70
     0
  9
$AUPREC
 70
     0
  9
$MENU
  1
acad
  9
$ELEVATION
 40
0.0
  9
$PELEVATION
 40
0.0
  9
$THICKNESS
 40
0.0
  9
$LIMCHECK
 70
     0
  9
$BLIPMODE
 70
     0
  9
$CHAMFERA
 40
1.0
  9
$CHAMFERB
 40
1.0
  9
$CHAMFERC
 40
0.0
  9
$CHAMFERD
 40
0.0
  9
$SKPOLY
 70
     0
  9
$TDCREATE
 40
2450178.569598264
  9
$TDUPDATE
 40
2455065.661203333
  9
$TDINDWG
 40
2.5398915162
  9
$TDUSRTIMER
 40
2.5398915162
  9
$USRTIMER
 70
     1
  9
$ANGBASE
 50
0.0
  9
$ANGDIR
 70
     0
  9
$PDMODE
 70
     0
  9
$PDSIZE
 40
0.0
  9
$PLINEWID
 40
0.0
  9
$COORDS
 70
     2
  9
$SPLFRAME
 70
     0
  9
$SPLINETYPE
 70
     6
  9
$SPLINESEGS
 70
     8
  9
$ATTDIA
 70
     0
  9
$ATTREQ
 70
     1
  9
$HANDLING
 70
-16383
  9
$HANDSEED
  5
755D
  9
$SURFTAB1
 70
     6
  9
$SURFTAB2
 70
     6
  9
$SURFTYPE
 70
     6
  9
$SURFU
 70
     6
  9
$SURFV
 70
     6
  9
$UCSNAME
  2

  9
$UCSORG
 10
0.0
 20
0.0
 30
0.0
  9
$UCSXDIR
 10
1.0
 20
0.0
 30
0.0
  9
$UCSYDIR
 10
0.0
 20
1.0
 30
0.0
  9
$PUCSNAME
  2

  9
$PUCSORG
 10
0.0
 20
0.0
 30
0.0
  9
$PUCSXDIR
 10
1.0
 20
0.0
 30
0.0
  9
$PUCSYDIR
 10
0.0
 20
1.0
 30
0.0
  9
$USERI1
 70
     0
  9
$USERI2
 70
     0
  9
$USERI3
 70
     0
  9
$USERI4
 70
     0
  9
$USERI5
 70
     0
  9
$USERR1
 40
0.0
  9
$USERR2
 40
0.0
  9
$USERR3
 40
0.0
  9
$USERR4
 40
0.0
  9
$USERR5
 40
0.0
  9
$WORLDVIEW
 70
     1
  9
$SHADEDGE
 70
     3
  9
$SHADEDIF
 70
    70
  9
$TILEMODE
 70
     1
  9
$MAXACTVP
 70
    16
  9
$PINSBASE
 10
0.0
 20
0.0
 30
0.0
  9
$PLIMCHECK
 70
     0
  9
$PEXTMIN
 10
1.000000000000000E+20
 20
1.000000000000000E+20
 30
1.000000000000000E+20
  9
$PEXTMAX
 10
-1.000000000000000E+20
 20
-1.000000000000000E+20
 30
-1.000000000000000E+20
  9
$PLIMMIN
 10
0.0
 20
0.0
  9
$PLIMMAX
 10
12.0
 20
9.0
  9
$UNITMODE
 70
     0
  9
$VISRETAIN
 70
     0
  9
$PLINEGEN
 70
     0
  9
$PSLTSCALE
 70
     0
  9
$TREEDEPTH
 70
  3020
  9
$PICKSTYLE
 70
     1
  9
$CMLSTYLE
  2
STANDARD
  9
$CMLJUST
 70
     0
  9
$CMLSCALE
 40
1.0
  9
$SAVEIMAGES
 70
     1
  0
ENDSEC
  0
SECTION
  2
CLASSES
  0
CLASS
  1
ACDBDICTIONARYWDFLT
  2
AcDbDictionaryWithDefault
  3
AutoCAD 2000
 90
    32768
280
     0
281
     0
  0
CLASS
  1
ACDBPLACEHOLDER
  2
AcDbPlaceHolder
  3
AutoCAD 2000
 90
    32768
280
     0
281
     0
  0
CLASS
  1
LAYOUT
  2
AcDbLayout
  3
AutoCAD 2000
 90
    32768
280
     0
281
     0
  0
CLASS
  1
LONG_TRANSACTION
  2
AcDbLongTransaction
  3
AutoCAD 2000
 90
    32768
280
     0
281
     0
  0
CLASS
  1
LWPOLYLINE
  2
AcDbPolyline
  3
AutoCAD 2000
 90
    32768
280
     0
281
     1
  0
CLASS
  1
HATCH
  2
AcDbHatch
  3
AutoCAD 2000
 90
    32768
280
     0
281
     1
  0
CLASS
  1
XRECORD
  2
AcDbXrecord
  3
AutoCAD 2000
 90
    32768
280
     0
281
     0
  0
CLASS
  1
LONG_TRANSACTION
  2
AcDbLongTransaction
  3
AutoCAD 2000
 90
    32768
280
     0
281
     0
  0
CLASS
  1
LWPOLYLINE
  2
AcDbPolyline
  3
AutoCAD 2000
 90
    32768
280
     0
281
     1
  0
CLASS
  1
HATCH
  2
AcDbHatch
  3
AutoCAD 2000
 90
    32768
280
     0
281
     1
  0
CLASS
  1
XRECORD
  2
AcDbXrecord
  3
AutoCAD 2000
 90
    32768
280
     0
281
     0
  0
CLASS
  1
LONG_TRANSACTION
  2
AcDbLongTransaction
  3
AutoCAD 2000
 90
    32768
280
     0
281
     0
  0
CLASS
  1
LWPOLYLINE
  2
AcDbPolyline
  3
AutoCAD 2000
 90
    32768
280
     0
281
     1
  0
CLASS
  1
HATCH
  2
AcDbHatch
  3
AutoCAD 2000
 90
    32768
280
     0
281
     1
  0
CLASS
  1
XRECORD
  2
AcDbXrecord
  3
AutoCAD 2000
 90
    32768
280
     0
281
     0
  0
CLASS
  1
LONG_TRANSACTION
  2
AcDbLongTransaction
  3
AutoCAD 2000
 90
    32768
280
     0
281
     0
  0
CLASS
  1
LWPOLYLINE
  2
AcDbPolyline
  3
AutoCAD 2000
 90
    32768
280
     0
281
     1
  0
CLASS
  1
HATCH
  2
AcDbHatch
  3
AutoCAD 2000
 90
    32768
280
     0
281
     1
  0
CLASS
  1
XRECORD
  2
AcDbXrecord
  3
AutoCAD 2000
 90
    32768
280
     0
281
     0
  0
CLASS
  1
LONG_TRANSACTION
  2
AcDbLongTransaction
  3
AutoCAD 2000
 90
    32768
280
     0
281
     0
  0
CLASS
  1
LWPOLYLINE
  2
AcDbPolyline
  3
AutoCAD 2000
 90
    32768
280
     0
281
     1
  0
CLASS
  1
HATCH
  2
AcDbHatch
  3
AutoCAD 2000
 90
    32768
280
     0
281
     1
  0
CLASS
  1
XRECORD
  2
AcDbXrecord
  3
AutoCAD 2000
 90
    32768
280
     0
281
     0
  0
CLASS
  1
LONG_TRANSACTION
  2
AcDbLongTransaction
  3
AutoCAD 2000
 90
    32768
280
     0
281
     0
  0
CLASS
  1
LWPOLYLINE
  2
AcDbPolyline
  3
AutoCAD 2000
 90
    32768
280
     0
281
     1
  0
CLASS
  1
HATCH
  2
AcDbHatch
  3
AutoCAD 2000
 90
    32768
280
     0
281
     1
  0
CLASS
  1
XRECORD
  2
AcDbXrecord
  3
AutoCAD 2000
 90
    32768
280
     0
281
     0
  0
CLASS
  1
LONG_TRANSACTION
  2
AcDbLongTransaction
  3
AutoCAD 2000
 90
    32768
280
     0
281
     0
  0
CLASS
  1
LWPOLYLINE
  2
AcDbPolyline
  3
AutoCAD 2000
 90
    32768
280
     0
281
     1
  0
CLASS
  1
HATCH
  2
AcDbHatch
  3
AutoCAD 2000
 90
    32768
280
     0
281
     1
  0
CLASS
  1
XRECORD
  2
AcDbXrecord
  3
AutoCAD 2000
 90
    32768
280
     0
281
     0
  0
CLASS
  1
LONG_TRANSACTION
  2
AcDbLongTransaction
  3
AutoCAD 2000
 90
    32768
280
     0
281
     0
  0
CLASS
  1
LWPOLYLINE
  2
AcDbPolyline
  3
AutoCAD 2000
 90
    32768
280
     0
281
     1
  0
CLASS
  1
HATCH
  2
AcDbHatch
  3
AutoCAD 2000
 90
    32768
280
     0
281
     1
  0
CLASS
  1
XRECORD
  2
AcDbXrecord
  3
AutoCAD 2000
 90
    32768
280
     0
281
     0
  0
CLASS
  1
LONG_TRANSACTION
  2
AcDbLongTransaction
  3
AutoCAD 2000
 90
    32768
280
     0
281
     0
  0
CLASS
  1
LWPOLYLINE
  2
AcDbPolyline
  3
AutoCAD 2000
 90
    32768
280
     0
281
     1
  0
CLASS
  1
HATCH
  2
AcDbHatch
  3
AutoCAD 2000
 90
    32768
280
     0
281
     1
  0
CLASS
  1
XRECORD
  2
AcDbXrecord
  3
AutoCAD 2000
 90
    32768
280
     0
281
     0
  0
CLASS
  1
LONG_TRANSACTION
  2
AcDbLongTransaction
  3
AutoCAD 2000
 90
    32768
280
     0
281
     0
  0
CLASS
  1
LWPOLYLINE
  2
AcDbPolyline
  3
AutoCAD 2000
 90
    32768
280
     0
281
     1
  0
CLASS
  1
HATCH
  2
AcDbHatch
  3
AutoCAD 2000
 90
    32768
280
     0
281
     1
  0
CLASS
  1
XRECORD
  2
AcDbXrecord
  3
AutoCAD 2000
 90
    32768
280
     0
281
     0
  0
CLASS
  1
LONG_TRANSACTION
  2
AcDbLongTransaction
  3
AutoCAD 2000
 90
    32768
280
     0
281
     0
  0
CLASS
  1
LWPOLYLINE
  2
AcDbPolyline
  3
AutoCAD 2000
 90
    32768
280
     0
281
     1
  0
CLASS
  1
HATCH
  2
AcDbHatch
  3
AutoCAD 2000
 90
    32768
280
     0
281
     1
  0
CLASS
  1
XRECORD
  2
AcDbXrecord
  3
AutoCAD 2000
 90
    32768
280
     0
281
     0
  0
CLASS
  1
LONG_TRANSACTION
  2
AcDbLongTransaction
  3
AutoCAD 2000
 90
    32768
280
     0
281
     0
  0
CLASS
  1
LWPOLYLINE
  2
AcDbPolyline
  3
AutoCAD 2000
 90
    32768
280
     0
281
     1
  0
CLASS
  1
HATCH
  2
AcDbHatch
  3
AutoCAD 2000
 90
    32768
280
     0
281
     1
  0
CLASS
  1
XRECORD
  2
AcDbXrecord
  3
AutoCAD 2000
 90
    32768
280
     0
281
     0
  0
CLASS
  1
LONG_TRANSACTION
  2
AcDbLongTransaction
  3
AutoCAD 2000
 90
    32768
280
     0
281
     0
  0
CLASS
  1
LWPOLYLINE
  2
AcDbPolyline
  3
AutoCAD 2000
 90
    32768
280
     0
281
     1
  0
CLASS
  1
HATCH
  2
AcDbHatch
  3
AutoCAD 2000
 90
    32768
280
     0
281
     1
  0
CLASS
  1
XRECORD
  2
AcDbXrecord
  3
AutoCAD 2000
 90
    32768
280
     0
281
     0
  0
CLASS
  1
LONG_TRANSACTION
  2
AcDbLongTransaction
  3
AutoCAD 2000
 90
    32768
280
     0
281
     0
  0
CLASS
  1
LWPOLYLINE
  2
AcDbPolyline
  3
AutoCAD 2000
 90
    32768
280
     0
281
     1
  0
CLASS
  1
HATCH
  2
AcDbHatch
  3
AutoCAD 2000
 90
    32768
280
     0
281
     1
  0
CLASS
  1
XRECORD
  2
AcDbXrecord
  3
AutoCAD 2000
 90
    32768
280
     0
281
     0
  0
CLASS
  1
LONG_TRANSACTION
  2
AcDbLongTransaction
  3
AutoCAD 2000
 90
    32768
280
     0
281
     0
  0
CLASS
  1
LWPOLYLINE
  2
AcDbPolyline
  3
AutoCAD 2000
 90
    32768
280
     0
281
     1
  0
CLASS
  1
HATCH
  2
AcDbHatch
  3
AutoCAD 2000
 90
    32768
280
     0
281
     1
  0
CLASS
  1
XRECORD
  2
AcDbXrecord
  3
AutoCAD 2000
 90
    32768
280
     0
281
     0
  0
CLASS
  1
LONG_TRANSACTION
  2
AcDbLongTransaction
  3
AutoCAD 2000
 90
    32768
280
     0
281
     0
  0
CLASS
  1
LWPOLYLINE
  2
AcDbPolyline
  3
AutoCAD 2000
 90
    32768
280
     0
281
     1
  0
CLASS
  1
HATCH
  2
AcDbHatch
  3
AutoCAD 2000
 90
    32768
280
     0
281
     1
  0
CLASS
  1
XRECORD
  2
AcDbXrecord
  3
AutoCAD 2000
 90
    32768
280
     0
281
     0
  0
CLASS
  1
LONG_TRANSACTION
  2
AcDbLongTransaction
  3
AutoCAD 2000
 90
    32768
280
     0
281
     0
  0
CLASS
  1
LWPOLYLINE
  2
AcDbPolyline
  3
AutoCAD 2000
 90
    32768
280
     0
281
     1
  0
CLASS
  1
HATCH
  2
AcDbHatch
  3
AutoCAD 2000
 90
    32768
280
     0
281
     1
  0
CLASS
  1
XRECORD
  2
AcDbXrecord
  3
AutoCAD 2000
 90
    32768
280
     0
281
     0
  0
CLASS
  1
LONG_TRANSACTION
  2
AcDbLongTransaction
  3
AutoCAD 2000
 90
    32768
280
     0
281
     0
  0
CLASS
  1
LWPOLYLINE
  2
AcDbPolyline
  3
AutoCAD 2000
 90
    32768
280
     0
281
     1
  0
CLASS
  1
HATCH
  2
AcDbHatch
  3
AutoCAD 2000
 90
    32768
280
     0
281
     1
  0
CLASS
  1
XRECORD
  2
AcDbXrecord
  3
AutoCAD 2000
 90
    32768
280
     0
281
     0
  0
CLASS
  1
LONG_TRANSACTION
  2
AcDbLongTransaction
  3
AutoCAD 2000
 90
    32768
280
     0
281
     0
  0
CLASS
  1
LWPOLYLINE
  2
AcDbPolyline
  3
AutoCAD 2000
 90
    32768
280
     0
281
     1
  0
CLASS
  1
HATCH
  2
AcDbHatch
  3
AutoCAD 2000
 90
    32768
280
     0
281
     1
  0
CLASS
  1
XRECORD
  2
AcDbXrecord
  3
AutoCAD 2000
 90
    32768
280
     0
281
     0
  0
CLASS
  1
LONG_TRANSACTION
  2
AcDbLongTransaction
  3
AutoCAD 2000
 90
    32768
280
     0
281
     0
  0
CLASS
  1
LWPOLYLINE
  2
AcDbPolyline
  3
AutoCAD 2000
 90
    32768
280
     0
281
     1
  0
CLASS
  1
HATCH
  2
AcDbHatch
  3
AutoCAD 2000
 90
    32768
280
     0
281
     1
  0
CLASS
  1
XRECORD
  2
AcDbXrecord
  3
AutoCAD 2000
 90
    32768
280
     0
281
     0
  0
CLASS
  1
LONG_TRANSACTION
  2
AcDbLongTransaction
  3
AutoCAD 2000
 90
    32768
280
     0
281
     0
  0
CLASS
  1
LWPOLYLINE
  2
AcDbPolyline
  3
AutoCAD 2000
 90
    32768
280
     0
281
     1
  0
CLASS
  1
HATCH
  2
AcDbHatch
  3
AutoCAD 2000
 90
    32768
280
     0
281
     1
  0
CLASS
  1
XRECORD
  2
AcDbXrecord
  3
AutoCAD 2000
 90
    32768
280
     0
281
     0
  0
CLASS
  1
LONG_TRANSACTION
  2
AcDbLongTransaction
  3
AutoCAD 2000
 90
    32768
280
     0
281
     0
  0
CLASS
  1
LWPOLYLINE
  2
AcDbPolyline
  3
AutoCAD 2000
 90
    32768
280
     0
281
     1
  0
CLASS
  1
HATCH
  2
AcDbHatch
  3
AutoCAD 2000
 90
    32768
280
     0
281
     1
  0
CLASS
  1
XRECORD
  2
AcDbXrecord
  3
AutoCAD 2000
 90
    32768
280
     0
281
     0
  0
CLASS
  1
LONG_TRANSACTION
  2
AcDbLongTransaction
  3
AutoCAD 2000
 90
    32768
280
     0
281
     0
  0
CLASS
  1
LWPOLYLINE
  2
AcDbPolyline
  3
AutoCAD 2000
 90
    32768
280
     0
281
     1
  0
CLASS
  1
HATCH
  2
AcDbHatch
  3
AutoCAD 2000
 90
    32768
280
     0
281
     1
  0
CLASS
  1
XRECORD
  2
AcDbXrecord
  3
AutoCAD 2000
 90
    32768
280
     0
281
     0
  0
CLASS
  1
LONG_TRANSACTION
  2
AcDbLongTransaction
  3
AutoCAD 2000
 90
    32768
280
     0
281
     0
  0
CLASS
  1
LWPOLYLINE
  2
AcDbPolyline
  3
AutoCAD 2000
 90
    32768
280
     0
281
     1
  0
CLASS
  1
HATCH
  2
AcDbHatch
  3
AutoCAD 2000
 90
    32768
280
     0
281
     1
  0
CLASS
  1
XRECORD
  2
AcDbXrecord
  3
AutoCAD 2000
 90
    32768
280
     0
281
     0
  0
CLASS
  1
LONG_TRANSACTION
  2
AcDbLongTransaction
  3
AutoCAD 2000
 90
    32768
280
     0
281
     0
  0
CLASS
  1
LWPOLYLINE
  2
AcDbPolyline
  3
AutoCAD 2000
 90
    32768
280
     0
281
     1
  0
CLASS
  1
HATCH
  2
AcDbHatch
  3
AutoCAD 2000
 90
    32768
280
     0
281
     1
  0
CLASS
  1
XRECORD
  2
AcDbXrecord
  3
AutoCAD 2000
 90
    32768
280
     0
281
     0
  0
CLASS
  1
LONG_TRANSACTION
  2
AcDbLongTransaction
  3
AutoCAD 2000
 90
    32768
280
     0
281
     0
  0
CLASS
  1
LWPOLYLINE
  2
AcDbPolyline
  3
AutoCAD 2000
 90
    32768
280
     0
281
     1
  0
CLASS
  1
HATCH
  2
AcDbHatch
  3
AutoCAD 2000
 90
    32768
280
     0
281
     1
  0
CLASS
  1
XRECORD
  2
AcDbXrecord
  3
AutoCAD 2000
 90
    32768
280
     0
281
     0
  0
CLASS
  1
LONG_TRANSACTION
  2
AcDbLongTransaction
  3
AutoCAD 2000
 90
    32768
280
     0
281
     0
  0
CLASS
  1
LWPOLYLINE
  2
AcDbPolyline
  3
AutoCAD 2000
 90
    32768
280
     0
281
     1
  0
CLASS
  1
HATCH
  2
AcDbHatch
  3
AutoCAD 2000
 90
    32768
280
     0
281
     1
  0
CLASS
  1
XRECORD
  2
AcDbXrecord
  3
AutoCAD 2000
 90
    32768
280
     0
281
     0
  0
CLASS
  1
LONG_TRANSACTION
  2
AcDbLongTransaction
  3
AutoCAD 2000
 90
    32768
280
     0
281
     0
  0
CLASS
  1
LWPOLYLINE
  2
AcDbPolyline
  3
AutoCAD 2000
 90
    32768
280
     0
281
     1
  0
CLASS
  1
HATCH
  2
AcDbHatch
  3
AutoCAD 2000
 90
    32768
280
     0
281
     1
  0
CLASS
  1
XRECORD
  2
AcDbXrecord
  3
AutoCAD 2000
 90
    32768
280
     0
281
     0
  0
CLASS
  1
LONG_TRANSACTION
  2
AcDbLongTransaction
  3
AutoCAD 2000
 90
    32768
280
     0
281
     0
  0
CLASS
  1
LWPOLYLINE
  2
AcDbPolyline
  3
AutoCAD 2000
 90
    32768
280
     0
281
     1
  0
CLASS
  1
HATCH
  2
AcDbHatch
  3
AutoCAD 2000
 90
    32768
280
     0
281
     1
  0
CLASS
  1
XRECORD
  2
AcDbXrecord
  3
AutoCAD 2000
 90
    32768
280
     0
281
     0
  0
CLASS
  1
LONG_TRANSACTION
  2
AcDbLongTransaction
  3
AutoCAD 2000
 90
    32768
280
     0
281
     0
  0
CLASS
  1
LWPOLYLINE
  2
AcDbPolyline
  3
AutoCAD 2000
 90
    32768
280
     0
281
     1
  0
CLASS
  1
HATCH
  2
AcDbHatch
  3
AutoCAD 2000
 90
    32768
280
     0
281
     1
  0
CLASS
  1
XRECORD
  2
AcDbXrecord
  3
AutoCAD 2000
 90
    32768
280
     0
281
     0
  0
CLASS
  1
LONG_TRANSACTION
  2
AcDbLongTransaction
  3
AutoCAD 2000
 90
    32768
280
     0
281
     0
  0
CLASS
  1
LWPOLYLINE
  2
AcDbPolyline
  3
AutoCAD 2000
 90
    32768
280
     0
281
     1
  0
CLASS
  1
HATCH
  2
AcDbHatch
  3
AutoCAD 2000
 90
    32768
280
     0
281
     1
  0
CLASS
  1
XRECORD
  2
AcDbXrecord
  3
AutoCAD 2000
 90
    32768
280
     0
281
     0
  0
CLASS
  1
LONG_TRANSACTION
  2
AcDbLongTransaction
  3
AutoCAD 2000
 90
    32768
280
     0
281
     0
  0
CLASS
  1
LWPOLYLINE
  2
AcDbPolyline
  3
AutoCAD 2000
 90
    32768
280
     0
281
     1
  0
CLASS
  1
HATCH
  2
AcDbHatch
  3
AutoCAD 2000
 90
    32768
280
     0
281
     1
  0
CLASS
  1
XRECORD
  2
AcDbXrecord
  3
AutoCAD 2000
 90
    32768
280
     0
281
     0
  0
CLASS
  1
LONG_TRANSACTION
  2
AcDbLongTransaction
  3
AutoCAD 2000
 90
    32768
280
     0
281
     0
  0
CLASS
  1
LWPOLYLINE
  2
AcDbPolyline
  3
AutoCAD 2000
 90
    32768
280
     0
281
     1
  0
CLASS
  1
HATCH
  2
AcDbHatch
  3
AutoCAD 2000
 90
    32768
280
     0
281
     1
  0
CLASS
  1
XRECORD
  2
AcDbXrecord
  3
AutoCAD 2000
 90
    32768
280
     0
281
     0
  0
CLASS
  1
LONG_TRANSACTION
  2
AcDbLongTransaction
  3
AutoCAD 2000
 90
    32768
280
     0
281
     0
  0
CLASS
  1
LWPOLYLINE
  2
AcDbPolyline
  3
AutoCAD 2000
 90
    32768
280
     0
281
     1
  0
CLASS
  1
HATCH
  2
AcDbHatch
  3
AutoCAD 2000
 90
    32768
280
     0
281
     1
  0
CLASS
  1
XRECORD
  2
AcDbXrecord
  3
AutoCAD 2000
 90
    32768
280
     0
281
     0
  0
ENDSEC
  0
SECTION
  2
TABLES
  0
TABLE
  2
VPORT
  5
12
330
0
100
AcDbSymbolTable
 70
     3
  0
VPORT
  5
7535
330
12
100
AcDbSymbolTableRecord
100
AcDbViewportTableRecord
  2
*ACTIVE
 70
     0
 10
0.0
 20
0.0
 11
1.0
 21
1.0
 12
-414.4767460501428
 22
-237.3148709912905
 13
0.0
 23
0.0
 14
1.0
 24
1.0
 15
0.0
 25
0.0
 16
0.0
 26
0.0
 36
1.0
 17
0.0
 27
0.0
 37
0.0
 40
379.9844132771737
 41
1.60759493670886
 42
50.0
 43
0.0
 44
0.0
 50
0.0
 51
0.0
 71
     0
 72
   100
 73
     1
 74
     0
 75
     0
 76
     0
 77
     0
 78
     0
  0
ENDTAB
  0
TABLE
  2
LTYPE
  5
D
330
0
100
AcDbSymbolTable
 70
     3
  0
LTYPE
  5
E
330
D
100
AcDbSymbolTableRecord
100
AcDbLinetypeTableRecord
  2
BYBLOCK
 70
     0
  3

 72
    65
 73
     0
 40
0.0
  0
LTYPE
  5
F
330
D
100
AcDbSymbolTableRecord
100
AcDbLinetypeTableRecord
  2
BYLAYER
 70
     0
  3

 72
    65
 73
     0
 40
0.0
  0
LTYPE
  5
5
330
D
100
AcDbSymbolTableRecord
100
AcDbLinetypeTableRecord
  2
CONTINUOUS
 70
     0
  3
Solid line
 72
    65
 73
     0
 40
0.0
  0
LTYPE
  5
30
330
D
100
AcDbSymbolTableRecord
100
AcDbLinetypeTableRecord
  2
CENTER
 70
     0
  3
----- - ----- - ----- - ----- - -----
 72
    65
 73
     4
 40
35.0
 49
30.0
 74
     0
 49
-1.5
 74
     0
 49
2.0
 74
     0
 49
-1.5
 74
     0
  0
LTYPE
  5
2D
330
D
100
AcDbSymbolTableRecord
100
AcDbLinetypeTableRecord
  2
PHANTOM
 70
     0
  3
----- - - ----- - - ----- - - ----- - - -----
 72
    65
 73
     6
 40
22.5
 49
15.0
 74
     0
 49
-1.5
 74
     0
 49
1.5
 74
     0
 49
-1.5
 74
     0
 49
1.5
 74
     0
 49
-1.5
 74
     0
  0
ENDTAB
  0
TABLE
  2
LAYER
  5
A
102
{ACAD_XDICTIONARY
360
9CB
102
}
330
0
100
AcDbSymbolTable
 70
     6
  0
LAYER
  5
4
330
A
100
AcDbSymbolTableRecord
100
AcDbLayerTableRecord
  2
0
 70
     0
 62
     7
  6
CONTINUOUS
  0
LAYER
  5
23
330
A
100
AcDbSymbolTableRecord
100
AcDbLayerTableRecord
  2
L-ZISSEN
 70
     0
 62
     7
  6
CONTINUOUS
  0
LAYER
  5
2F
330
A
100
AcDbSymbolTableRecord
100
AcDbLayerTableRecord
  2
L-TYUSIN
 70
     0
 62
     1
  6
CENTER
  0
LAYER
  5
25
330
A
100
AcDbSymbolTableRecord
100
AcDbLayerTableRecord
  2
L-SAISEN
 70
     0
 62
     6
  6
CONTINUOUS
  0
LAYER
  5
2C
330
A
100
AcDbSymbolTableRecord
100
AcDbLayerTableRecord
  2
L-SOUZOU
 70
     0
 62
     2
  6
PHANTOM
  0
LAYER
  5
3E49
330
A
100
AcDbSymbolTableRecord
100
AcDbLayerTableRecord
  2
SUNPOU
 70
     0
 62
     3
  6
CONTINUOUS
  0
ENDTAB
  0
TABLE
  2
STYLE
  5
B
330
0
100
AcDbSymbolTable
 70
     1
  0
STYLE
  5
C
330
B
100
AcDbSymbolTableRecord
100
AcDbTextStyleTableRecord
  2
STANDARD
 70
     0
 40
0.0
 41
1.0
 50
0.0
 71
     0
 42
4.5
  3
txt.shx
  4

  0
ENDTAB
  0
TABLE
  2
VIEW
  5
10
330
0
100
AcDbSymbolTable
 70
     0
  0
ENDTAB
  0
TABLE
  2
UCS
  5
11
330
0
100
AcDbSymbolTable
 70
     0
  0
ENDTAB
  0
TABLE
  2
APPID
  5
14
330
0
100
AcDbSymbolTable
 70
     2
  0
APPID
  5
15
330
14
100
AcDbSymbolTableRecord
100
AcDbRegAppTableRecord
  2
ACAD
 70
     0
  0
APPID
  5
4DD9
330
14
100
AcDbSymbolTableRecord
100
AcDbRegAppTableRecord
  2
CONTENTBLOCKICON
 70
     0
  0
ENDTAB
  0
TABLE
  2
DIMSTYLE
  5
16
330
0
100
AcDbSymbolTable
 70
     1
  0
DIMSTYLE
105
1E
330
16
100
AcDbSymbolTableRecord
100
AcDbDimStyleTableRecord
  2
STANDARD
 70
     0
  3

  4

  5

  6

  7

 40
1.0
 41
0.18
 42
0.0625
 43
0.38
 44
0.18
 45
0.0
 46
0.0
 47
0.0
 48
0.0
140
0.18
141
0.09
142
0.0
143
25.4
144
1.0
145
0.0
146
1.0
147
0.09
 71
     0
 72
     0
 73
     1
 74
     1
 75
     0
 76
     0
 77
     0
 78
     0
170
     0
171
     2
172
     0
173
     0
174
     0
175
     0
176
     0
177
     0
178
     0
270
     2
271
     4
272
     4
273
     2
274
     2
340
C
275
     0
280
     0
281
     0
282
     0
283
     1
284
     0
285
     0
286
     0
287
     3
288
     0
  0
ENDTAB
  0
TABLE
  2
BLOCK_RECORD
  5
1
330
0
100
AcDbSymbolTable
 70
     0
  0
BLOCK_RECORD
  5
2
102
{ACAD_XDICTIONARY
360
FC4
102
}
330
1
100
AcDbSymbolTableRecord
100
AcDbBlockTableRecord
  2
*MODEL_SPACE
  0
BLOCK_RECORD
  5
7
102
{ACAD_XDICTIONARY
360
FC6
102
}
330
1
100
AcDbSymbolTableRecord
100
AcDbBlockTableRecord
  2
*PAPER_SPACE
  0
ENDTAB
  0
ENDSEC
  0
SECTION
  2
BLOCKS
  0
BLOCK
  5
3
330
2
100
AcDbEntity
  8
0
100
AcDbBlockBegin
  2
*MODEL_SPACE
 70
     0
 10
0.0
 20
0.0
 30
0.0
  3
*MODEL_SPACE
  1

  0
ENDBLK
  5
6
330
2
100
AcDbEntity
  8
0
100
AcDbBlockEnd
  0
BLOCK
  5
8
330
7
100
AcDbEntity
 67
     1
  8
0
100
AcDbBlockBegin
  2
*PAPER_SPACE
 70
     0
 10
0.0
 20
0.0
 30
0.0
  3
*PAPER_SPACE
  1

  0
ENDBLK
  5
9
330
7
100
AcDbEntity
 67
     1
  8
0
100
AcDbBlockEnd
  0
ENDSEC
  0
SECTION
  2
ENTITIES
  0
LINE
  5
67E2
330
2
100
AcDbEntity
  8
L-TYUSIN
100
AcDbLine
 10
-110.417026630909
 20
-244.6406653759818
 30
0.0
 11
-374.0671529967755
 21
-244.6406653759818
 31
0.0
  0
ARC
  5
67E7
330
2
100
AcDbEntity
  8
L-ZISSEN
100
AcDbCircle
 10
-227.5894321250684
 20
-181.8348856646998
 30
0.0
 40
6.057142857142703
100
AcDbArc
 50
180.0
 51
256.0937629349081
  0
LINE
  5
67E8
330
2
100
AcDbEntity
  8
L-TYUSIN
100
AcDbLine
 10
-374.0671529967755
 20
-53.56930748443892
 30
0.0
 11
-374.0671529967755
 21
-426.0824324709706
 31
0.0
  0
TEXT
  5
695D
330
2
100
AcDbEntity
  8
L-ZISSEN
100
AcDbText
 10
-351.1775653091224
 20
-274.3633150252494
 30
0.0
 40
4.5
  1
MODEL NO. CJ3-*00-*04*
100
AcDbText
  0
TEXT
  5
695E
330
2
100
AcDbEntity
  8
L-ZISSEN
100
AcDbText
 10
-351.1775653091224
 20
-61.55890398209203
 30
0.0
 40
4.5
  1
MODEL NO. CJ3-*00-*02*
100
AcDbText
  0
LINE
  5
695F
330
2
100
AcDbEntity
  8
L-ZISSEN
100
AcDbLine
 10
-293.2202892679249
 20
-101.9942271217728
 30
0.0
 11
-299.6030035536407
 21
-101.9942271217728
 31
0.0
  0
LINE
  5
6960
330
2
100
AcDbEntity
  8
L-ZISSEN
100
AcDbLine
 10
-299.6030035536407
 20
-164.9942271217728
 30
0.0
 11
-296.4116464107835
 21
-166.5085128360592
 31
0.0
  0
ARC
  5
6961
330
2
100
AcDbEntity
  8
L-ZISSEN
100
AcDbCircle
 10
-205.8178623918679
 20
-587.1933279369991
 30
0.0
 40
409.1493902604269
100
AcDbArc
 50
102.4819253224898
 51
103.2574110033569
  0
ARC
  5
6962
330
2
100
AcDbEntity
  8
L-ZISSEN
100
AcDbCircle
 10
-327.5894321250687
 20
-181.8348856646998
 30
0.0
 40
6.057142857142703
100
AcDbArc
 50
180.0
 51
256.0937629349081
  0
TEXT
  5
6963
330
2
100
AcDbEntity
  8
L-ZISSEN
100
AcDbText
 10
-339.6465749822116
 20
-305.3979309213932
 30
0.0
 40
4.5
  1
P.P
100
AcDbText
  0
LINE
  5
6964
330
2
100
AcDbEntity
  8
L-ZISSEN
100
AcDbLine
 10
-313.1830175414065
 20
-314.3675621220641
 30
0.0
 11
-326.6465749822116
 21
-303.1479309213932
 31
0.0
  0
LINE
  5
6965
330
2
100
AcDbEntity
  8
L-ZISSEN
100
AcDbLine
 10
-326.6465749822116
 20
-303.1479309213932
 30
0.0
 11
-328.6465749822116
 21
-303.1479309213932
 31
0.0
  0
SOLID
  5
6966
330
2
100
AcDbEntity
  8
L-ZISSEN
100
AcDbTrace
 10
-313.3964123412947
 20
-314.6236358819301
 30
0.0
 11
-312.9696227415184
 21
-314.1114883621985
 31
0.0
 12
-311.6465749822118
 22
-315.6479309213932
 32
0.0
 13
-311.6465749822118
 23
-315.6479309213932
 33
0.0
  0
LINE
  5
6967
330
2
100
AcDbEntity
  8
L-ZISSEN
100
AcDbLine
 10
-321.646574982212
 20
-219.6479309213932
 30
0.0
 11
-301.6465749822121
 21
-219.6479309213932
 31
0.0
  0
LINE
  5
6968
330
2
100
AcDbEntity
  8
L-ZISSEN
100
AcDbLine
 10
-321.646574982212
 20
-206.1479309213932
 30
0.0
 11
-301.6465749822121
 21
-206.1479309213932
 31
0.0
  0
LINE
  5
6969
330
2
100
AcDbEntity
  8
L-ZISSEN
100
AcDbLine
 10
-321.646574982212
 20
-205.4479309213934
 30
0.0
 11
-301.6465749822121
 21
-205.4479309213934
 31
0.0
  0
LINE
  5
696A
330
2
100
AcDbEntity
  8
L-ZISSEN
100
AcDbLine
 10
-300.646574982212
 20
-201.9479309213934
 30
0.0
 11
-322.646574982212
 21
-201.9479309213934
 31
0.0
  0
LINE
  5
696B
330
2
100
AcDbEntity
  8
L-ZISSEN
100
AcDbLine
 10
-323.646574982212
 20
-192.9479309213929
 30
0.0
 11
-299.6465749822121
 21
-192.9479309213929
 31
0.0
  0
LINE
  5
696C
330
2
100
AcDbEntity
  8
L-ZISSEN
100
AcDbLine
 10
-323.646574982212
 20
-188.9479309213929
 30
0.0
 11
-299.6465749822121
 21
-188.9479309213929
 31
0.0
  0
LINE
  5
696D
330
2
100
AcDbEntity
  8
L-ZISSEN
100
AcDbLine
 10
-323.646574982212
 20
-190.4479309213929
 30
0.0
 11
-299.6465749822121
 21
-190.4479309213929
 31
0.0
  0
ARC
  5
696E
330
2
100
AcDbEntity
  8
L-ZISSEN
100
AcDbCircle
 10
-417.4752875725562
 20
-587.1933279369991
 30
0.0
 40
409.1493902604269
100
AcDbArc
 50
76.74258899664303
 51
77.51807467751013
  0
LINE
  5
696F
330
2
100
AcDbEntity
  8
L-ZISSEN
100
AcDbLine
 10
-321.646574982212
 20
-205.4479309213934
 30
0.0
 11
-321.646574982212
 21
-201.9479309213934
 31
0.0
  0
LINE
  5
6970
330
2
100
AcDbEntity
  8
L-ZISSEN
100
AcDbLine
 10
-322.646574982212
 20
-192.9479309213934
 30
0.0
 11
-322.646574982212
 21
-201.9479309213934
 31
0.0
  0
LINE
  5
6971
330
2
100
AcDbEntity
  8
L-ZISSEN
100
AcDbLine
 10
-323.646574982212
 20
-192.9479309213929
 30
0.0
 11
-323.646574982212
 21
-188.9479309213929
 31
0.0
  0
LINE
  5
6972
330
2
100
AcDbEntity
  8
L-ZISSEN
100
AcDbLine
 10
-320.646574982212
 20
-206.1479309213932
 30
0.0
 11
-320.6465749822116
 21
-205.4479309213934
 31
0.0
  0
LINE
  5
6973
330
2
100
AcDbEntity
  8
L-ZISSEN
100
AcDbLine
 10
-321.646574982212
 20
-219.6479309213932
 30
0.0
 11
-321.646574982212
 21
-206.1479309213932
 31
0.0
  0
LINE
  5
6974
330
2
100
AcDbEntity
  8
L-ZISSEN
100
AcDbLine
 10
-301.6465749822121
 20
-205.4479309213934
 30
0.0
 11
-301.6465749822118
 21
-201.9479309213934
 31
0.0
  0
LINE
  5
6975
330
2
100
AcDbEntity
  8
L-ZISSEN
100
AcDbLine
 10
-300.646574982212
 20
-192.9479309213934
 30
0.0
 11
-300.646574982212
 21
-201.9479309213934
 31
0.0
  0
LINE
  5
6976
330
2
100
AcDbEntity
  8
L-ZISSEN
100
AcDbLine
 10
-299.6465749822121
 20
-192.9479309213929
 30
0.0
 11
-299.6465749822121
 21
-188.9479309213929
 31
0.0
  0
LINE
  5
6977
330
2
100
AcDbEntity
  8
L-ZISSEN
100
AcDbLine
 10
-302.6465749822116
 20
-206.1479309213932
 30
0.0
 11
-302.646574982212
 21
-205.4479309213934
 31
0.0
  0
LINE
  5
6978
330
2
100
AcDbEntity
  8
L-ZISSEN
100
AcDbLine
 10
-301.6465749822121
 20
-219.6479309213932
 30
0.0
 11
-301.6465749822121
 21
-206.1479309213932
 31
0.0
  0
TEXT
  5
6979
330
2
100
AcDbEntity
  8
L-ZISSEN
100
AcDbText
 10
-339.6465749822118
 20
-85.39793092139325
 30
0.0
 40
4.5
  1
P.P
100
AcDbText
  0
LINE
  5
697A
330
2
100
AcDbEntity
  8
L-ZISSEN
100
AcDbLine
 10
-330.7004945584342
 20
-101.9942271217728
 30
0.0
 11
-324.317780272717
 21
-101.9942271217728
 31
0.0
  0
LINE
  5
697B
330
2
100
AcDbEntity
  8
L-ZISSEN
100
AcDbLine
 10
-327.509137415577
 20
-166.5085128360592
 30
0.0
 11
-330.7004945584342
 21
-164.9942271217728
 31
0.0
  0
LINE
  5
697C
330
2
100
AcDbEntity
  8
L-ZISSEN
100
AcDbLine
 10
-330.7004945584342
 20
-101.9942271217728
 30
0.0
 11
-330.7004945584344
 21
-164.9942271217728
 31
0.0
  0
LINE
  5
697D
330
2
100
AcDbEntity
  8
L-ZISSEN
100
AcDbLine
 10
-333.6465749822118
 20
-181.8348856646998
 30
0.0
 11
-333.6465749822127
 21
-95.64793092139325
 31
0.0
  0
LINE
  5
697E
330
2
100
AcDbEntity
  8
L-ZISSEN
100
AcDbLine
 10
-299.6030035536407
 20
-101.9942271217728
 30
0.0
 11
-299.6030035536407
 21
-164.9942271217728
 31
0.0
  0
LINE
  5
697F
330
2
100
AcDbEntity
  8
L-ZISSEN
100
AcDbLine
 10
-324.317780272717
 20
-101.9942271217728
 30
0.0
 11
-324.317780272717
 21
-164.9942271217728
 31
0.0
  0
LINE
  5
6980
330
2
100
AcDbEntity
  8
L-ZISSEN
100
AcDbLine
 10
-324.317780272717
 20
-164.9942271217728
 30
0.0
 11
-327.509137415577
 21
-166.5085128360592
 31
0.0
  0
LINE
  5
6981
330
2
100
AcDbEntity
  8
L-ZISSEN
100
AcDbLine
 10
-313.1830175414068
 20
-94.36756212206409
 30
0.0
 11
-326.6465749822118
 21
-83.14793092139325
 31
0.0
  0
LINE
  5
6982
330
2
100
AcDbEntity
  8
L-ZISSEN
100
AcDbLine
 10
-326.6465749822118
 20
-83.14793092139325
 30
0.0
 11
-328.6465749822118
 21
-83.14793092139325
 31
0.0
  0
SOLID
  5
6983
330
2
100
AcDbEntity
  8
L-ZISSEN
100
AcDbTrace
 10
-313.3964123412949
 20
-94.62363588193012
 30
0.0
 11
-312.9696227415186
 21
-94.11148836219854
 31
0.0
 12
-311.6465749822121
 22
-95.64793092139325
 32
0.0
 13
-311.6465749822121
 23
-95.64793092139325
 33
0.0
  0
ARC
  5
6984
330
2
100
AcDbEntity
  8
L-ZISSEN
100
AcDbCircle
 10
-295.7037178393554
 20
-181.8348856646998
 30
0.0
 40
6.057142857142703
100
AcDbArc
 50
283.9062370650918
 51
0.0
  0
LINE
  5
6989
330
2
100
AcDbEntity
  8
L-ZISSEN
100
AcDbLine
 10
-289.6465749822112
 20
-111.9076846483781
 30
0.0
 11
-289.6465749822112
 21
-125.4544920325738
 31
0.0
  0
LINE
  5
698A
330
2
100
AcDbEntity
  8
L-ZISSEN
100
AcDbLine
 10
-293.2202892679249
 20
-101.9942271217728
 30
0.0
 11
-293.2202892679265
 21
-164.9942271217732
 31
0.0
  0
LINE
  5
698B
330
2
100
AcDbEntity
  8
L-ZISSEN
100
AcDbLine
 10
-289.6465749822123
 20
-181.8348856646998
 30
0.0
 11
-289.6465749822116
 21
-111.9076846483781
 31
0.0
  0
LINE
  5
698C
330
2
100
AcDbEntity
  8
L-ZISSEN
100
AcDbLine
 10
-296.4116464107835
 20
-166.5085128360592
 30
0.0
 11
-293.2202892679263
 21
-164.9942271217728
 31
0.0
  0
LINE
  5
698E
330
2
100
AcDbEntity
  8
L-ZISSEN
100
AcDbLine
 10
-289.6837544486238
 20
-95.64793092139371
 30
0.0
 11
-289.6837544486241
 21
-96.25479024837796
 31
0.0
  0
LINE
  5
698F
330
2
100
AcDbEntity
  8
L-ZISSEN
100
AcDbLine
 10
-288.205618046232
 20
-95.64793092139325
 30
0.0
 11
-288.205618046232
 21
-96.25479024837796
 31
0.0
  0
LINE
  5
6990
330
2
100
AcDbEntity
  8
L-ZISSEN
100
AcDbLine
 10
-287.6818336301173
 20
-116.1954753876557
 30
0.0
 11
-287.6608271869151
 21
-95.64793092139325
 31
0.0
  0
LINE
  5
6991
330
2
100
AcDbEntity
  8
L-ZISSEN
100
AcDbLine
 10
-283.1093268462325
 20
-114.7827986731613
 30
0.0
 11
-287.113555646232
 21
-116.1954753876557
 31
0.0
  0
LINE
  5
6992
330
2
100
AcDbEntity
  8
L-ZISSEN
100
AcDbLine
 10
-286.021493246232
 20
-95.89076944837826
 30
0.0
 11
-286.021493246232
 21
-111.1796430483777
 31
0.0
  0
LINE
  5
6993
330
2
100
AcDbEntity
  8
L-ZISSEN
100
AcDbLine
 10
-286.021493246232
 20
-111.1796430483777
 30
0.0
 11
-283.1093268462325
 21
-111.6637454324004
 31
0.0
  0
LINE
  5
6994
330
2
100
AcDbEntity
  8
L-ZISSEN
100
AcDbLine
 10
-287.113555646232
 20
-116.1954753876557
 30
0.0
 11
-287.6818336301173
 21
-116.1954753876557
 31
0.0
  0
LINE
  5
6995
330
2
100
AcDbEntity
  8
L-ZISSEN
100
AcDbLine
 10
-283.1093268462325
 20
-111.6637454324004
 30
0.0
 11
-283.1093268462325
 21
-114.7827986731613
 31
0.0
  0
LINE
  5
6996
330
2
100
AcDbEntity
  8
L-ZISSEN
100
AcDbLine
 10
-287.6818336301173
 20
-111.9076846483781
 30
0.0
 11
-289.6617012462327
 21
-111.9076846483781
 31
0.0
  0
ARC
  5
6997
330
2
100
AcDbEntity
  8
L-ZISSEN
100
AcDbCircle
 10
-299.9500352089723
 20
-112.5018559930049
 30
0.0
 40
12.28258155137619
100
AcDbArc
 50
327.0207379071564
 51
2.772772323679118
  0
LINE
  5
6998
330
2
100
AcDbEntity
  8
L-ZISSEN
100
AcDbLine
 10
-288.205618046232
 20
-96.25479024837796
 30
0.0
 11
-290.0257220462324
 21
-96.25479024837796
 31
0.0
  0
LINE
  5
6999
330
2
100
AcDbEntity
  8
L-ZISSEN
100
AcDbLine
 10
-287.113555646232
 20
-95.64793092139325
 30
0.0
 11
-287.113555646232
 21
-95.89076944837826
 31
0.0
  0
LINE
  5
699A
330
2
100
AcDbEntity
  8
L-ZISSEN
100
AcDbLine
 10
-287.113555646232
 20
-95.89076944837826
 30
0.0
 11
-286.021493246232
 21
-95.89076944837826
 31
0.0
  0
LINE
  5
699B
330
2
100
AcDbEntity
  8
L-ZISSEN
100
AcDbLine
 10
-291.2711871918825
 20
-96.25479024837796
 30
0.0
 11
-291.2711871918825
 21
-111.9076846483781
 31
0.0
  0
LINE
  5
699C
330
2
100
AcDbEntity
  8
L-ZISSEN
100
AcDbLine
 10
-291.2711871918825
 20
-111.9076846483781
 30
0.0
 11
-287.6818336301173
 21
-111.9076846483781
 31
0.0
  0
LINE
  5
699D
330
2
100
AcDbEntity
  8
L-ZISSEN
100
AcDbLine
 10
-288.8953983040944
 20
-96.25479024837796
 30
0.0
 11
-291.2711871918825
 21
-96.25479024837796
 31
0.0
  0
LINE
  5
699E
330
2
100
AcDbEntity
  8
L-ZISSEN
100
AcDbLine
 10
-233.6465749822116
 20
-181.8348856646998
 30
0.0
 11
-233.6465749822125
 21
-95.64793092139325
 31
0.0
  0
ARC
  5
6A22
330
2
100
AcDbEntity
  8
L-ZISSEN
100
AcDbCircle
 10
-195.7037178393552
 20
-181.8348856646998
 30
0.0
 40
6.057142857142703
100
AcDbArc
 50
283.9062370650918
 51
0.0
  0
LINE
  5
6A23
330
2
100
AcDbEntity
  8
L-ZISSEN
100
AcDbLine
 10
-223.6465749822118
 20
-190.4479309213929
 30
0.0
 11
-199.6465749822118
 21
-190.4479309213929
 31
0.0
  0
LINE
  5
6A24
330
2
100
AcDbEntity
  8
L-ZISSEN
100
AcDbLine
 10
-223.6465749822118
 20
-188.9479309213929
 30
0.0
 11
-199.6465749822118
 21
-188.9479309213929
 31
0.0
  0
LINE
  5
6A25
330
2
100
AcDbEntity
  8
L-ZISSEN
100
AcDbLine
 10
-223.6465749822118
 20
-192.9479309213929
 30
0.0
 11
-199.6465749822118
 21
-192.9479309213929
 31
0.0
  0
LINE
  5
6A2C
330
2
100
AcDbEntity
  8
L-ZISSEN
100
AcDbLine
 10
-200.6465749822118
 20
-201.9479309213934
 30
0.0
 11
-222.6465749822118
 21
-201.9479309213934
 31
0.0
  0
LINE
  5
6A2D
330
2
100
AcDbEntity
  8
L-ZISSEN
100
AcDbLine
 10
-221.6465749822118
 20
-205.4479309213934
 30
0.0
 11
-201.6465749822118
 21
-205.4479309213934
 31
0.0
  0
LINE
  5
6A2E
330
2
100
AcDbEntity
  8
L-ZISSEN
100
AcDbLine
 10
-221.6465749822118
 20
-206.1479309213932
 30
0.0
 11
-201.6465749822118
 21
-206.1479309213932
 31
0.0
  0
LINE
  5
6A2F
330
2
100
AcDbEntity
  8
L-ZISSEN
100
AcDbLine
 10
-221.6465749822118
 20
-219.6479309213932
 30
0.0
 11
-201.6465749822118
 21
-219.6479309213932
 31
0.0
  0
LINE
  5
6A30
330
2
100
AcDbEntity
  8
L-ZISSEN
100
AcDbLine
 10
-222.6465749822118
 20
-192.9479309213934
 30
0.0
 11
-222.6465749822118
 21
-201.9479309213934
 31
0.0
  0
LINE
  5
6A31
330
2
100
AcDbEntity
  8
L-ZISSEN
100
AcDbLine
 10
-221.6465749822118
 20
-205.4479309213934
 30
0.0
 11
-221.6465749822118
 21
-201.9479309213934
 31
0.0
  0
LINE
  5
6A32
330
2
100
AcDbEntity
  8
L-ZISSEN
100
AcDbLine
 10
-223.6465749822118
 20
-192.9479309213929
 30
0.0
 11
-223.6465749822118
 21
-188.9479309213929
 31
0.0
  0
ARC
  5
6A33
330
2
100
AcDbEntity
  8
L-ZISSEN
100
AcDbCircle
 10
-317.4752875725559
 20
-587.1933279369991
 30
0.0
 40
409.1493902604269
100
AcDbArc
 50
76.74258899664303
 51
77.51807467751013
  0
LINE
  5
6A34
330
2
100
AcDbEntity
  8
L-ZISSEN
100
AcDbLine
 10
-220.646574982212
 20
-206.1479309213932
 30
0.0
 11
-220.6465749822116
 21
-205.4479309213934
 31
0.0
  0
LINE
  5
6A35
330
2
100
AcDbEntity
  8
L-ZISSEN
100
AcDbLine
 10
-221.6465749822118
 20
-219.6479309213932
 30
0.0
 11
-221.6465749822118
 21
-206.1479309213932
 31
0.0
  0
LINE
  5
6A36
330
2
100
AcDbEntity
  8
L-ZISSEN
100
AcDbLine
 10
-200.6465749822118
 20
-192.9479309213934
 30
0.0
 11
-200.6465749822118
 21
-201.9479309213934
 31
0.0
  0
LINE
  5
6A37
330
2
100
AcDbEntity
  8
L-ZISSEN
100
AcDbLine
 10
-201.6465749822118
 20
-205.4479309213934
 30
0.0
 11
-201.6465749822116
 21
-201.9479309213934
 31
0.0
  0
LINE
  5
6A38
330
2
100
AcDbEntity
  8
L-ZISSEN
100
AcDbLine
 10
-202.6465749822116
 20
-206.1479309213932
 30
0.0
 11
-202.646574982212
 21
-205.4479309213934
 31
0.0
  0
LINE
  5
6A39
330
2
100
AcDbEntity
  8
L-ZISSEN
100
AcDbLine
 10
-201.6465749822118
 20
-219.6479309213932
 30
0.0
 11
-201.6465749822118
 21
-206.1479309213932
 31
0.0
  0
LINE
  5
6A3A
330
2
100
AcDbEntity
  8
L-ZISSEN
100
AcDbLine
 10
-199.6465749822118
 20
-192.9479309213929
 30
0.0
 11
-199.6465749822118
 21
-188.9479309213929
 31
0.0
  0
ARC
  5
6A3B
330
2
100
AcDbEntity
  8
L-ZISSEN
100
AcDbCircle
 10
-105.8178623918677
 20
-587.1933279369991
 30
0.0
 40
409.1493902604269
100
AcDbArc
 50
102.4819253224898
 51
103.2574110033569
  0
LINE
  5
6A3C
330
2
100
AcDbEntity
  8
L-ZISSEN
100
AcDbLine
 10
-224.4990749822034
 20
-102.182129706463
 30
0.0
 11
-224.4990749822038
 21
-164.9942271217737
 31
0.0
  0
LINE
  5
6A3D
330
2
100
AcDbEntity
  8
L-ZISSEN
100
AcDbLine
 10
-230.8817892679196
 20
-102.182129706463
 30
0.0
 11
-230.8817892679192
 21
-164.9942271217732
 31
0.0
  0
LINE
  5
6A3E
330
2
100
AcDbEntity
  8
L-ZISSEN
100
AcDbLine
 10
-224.4990749822038
 20
-164.9942271217737
 30
0.0
 11
-227.6904321250638
 21
-166.5085128360592
 31
0.0
  0
LINE
  5
6A3F
330
2
100
AcDbEntity
  8
L-ZISSEN
100
AcDbLine
 10
-227.6904321250638
 20
-166.5085128360592
 30
0.0
 11
-230.8817892679196
 21
-164.9942271217732
 31
0.0
  0
LINE
  5
6A41
330
2
100
AcDbEntity
  8
L-ZISSEN
100
AcDbLine
 10
-213.4666789822151
 20
-100.1785601876581
 30
0.0
 11
-216.3788453822151
 21
-100.1785601876581
 31
0.0
  0
LINE
  5
6A42
330
2
100
AcDbEntity
  8
L-ZISSEN
100
AcDbLine
 10
-213.4666789822151
 20
-100.1785601876581
 30
0.0
 11
-216.3788453822151
 21
-100.1785601876581
 31
0.0
  0
LINE
  5
6A43
330
2
100
AcDbEntity
  8
L-ZISSEN
100
AcDbLine
 10
-213.4666789822151
 20
-99.45051858765829
 30
0.0
 11
-216.3788453822151
 21
-99.45051858765829
 31
0.0
  0
LINE
  5
6A44
330
2
100
AcDbEntity
  8
L-ZISSEN
100
AcDbLine
 10
-213.4666789822151
 20
-99.45051858765829
 30
0.0
 11
-216.3788453822151
 21
-99.45051858765829
 31
0.0
  0
LINE
  5
6A45
330
2
100
AcDbEntity
  8
L-ZISSEN
100
AcDbLine
 10
-218.5859373522751
 20
-113.2495427158969
 30
0.0
 11
-211.6465749822125
 21
-114.7023398124388
 31
0.0
  0
LINE
  5
6A46
330
2
100
AcDbEntity
  8
L-ZISSEN
100
AcDbLine
 10
-211.6465749822125
 20
-111.5832865716779
 30
0.0
 11
-218.5859373522751
 21
-110.5919490902401
 31
0.0
  0
LINE
  5
6A47
330
2
100
AcDbEntity
  8
L-ZISSEN
100
AcDbLine
 10
-202.7280653822124
 20
-95.81031058765574
 30
0.0
 11
-220.5650845822126
 21
-95.81031058765574
 31
0.0
  0
LINE
  5
6A48
330
2
100
AcDbEntity
  8
L-ZISSEN
100
AcDbLine
 10
-204.0021381822123
 20
-95.81031058765574
 30
0.0
 11
-219.2910117822118
 21
-95.81031058765574
 31
0.0
  0
LINE
  5
6A49
330
2
100
AcDbEntity
  8
L-ZISSEN
100
AcDbLine
 10
-219.8370429822123
 20
-95.81031058765574
 30
0.0
 11
-203.4561069822118
 21
-95.81031058765574
 31
0.0
  0
LINE
  5
6A4A
330
2
100
AcDbEntity
  8
L-ZISSEN
100
AcDbLine
 10
-211.6465749822125
 20
-111.0991841876552
 30
0.0
 11
-219.2910117822118
 21
-110.0071217876552
 31
0.0
  0
LINE
  5
6A4B
330
2
100
AcDbEntity
  8
L-ZISSEN
100
AcDbLine
 10
-211.6465749822125
 20
-116.1954753876557
 30
0.0
 11
-219.8370429822123
 21
-114.0113505876556
 31
0.0
  0
LINE
  5
6A4D
330
2
100
AcDbEntity
  8
L-ZISSEN
100
AcDbLine
 10
-216.3788453822151
 20
-100.1785601876581
 30
0.0
 11
-216.3788453822151
 21
-100.906601787658
 31
0.0
  0
LINE
  5
6A4E
330
2
100
AcDbEntity
  8
L-ZISSEN
100
AcDbLine
 10
-216.3788453822151
 20
-99.45051858765829
 30
0.0
 11
-216.3788453822151
 21
-98.72247698765796
 31
0.0
  0
LINE
  5
6A4F
330
2
100
AcDbEntity
  8
L-ZISSEN
100
AcDbLine
 10
-216.9327562243131
 20
-114.8422770441679
 30
0.0
 11
-216.9327562243131
 21
-119.3756030959098
 31
0.0
  0
LINE
  5
6A50
330
2
100
AcDbEntity
  8
L-ZISSEN
100
AcDbLine
 10
-218.5859373522751
 20
-110.5919490902401
 30
0.0
 11
-218.5859373522751
 21
-113.2495427158969
 31
0.0
  0
LINE
  5
6A51
330
2
100
AcDbEntity
  8
L-ZISSEN
100
AcDbLine
 10
-230.8817892679196
 20
-102.182129706463
 30
0.0
 11
-224.4990749822034
 21
-102.182129706463
 31
0.0
  0
LINE
  5
6A52
330
2
100
AcDbEntity
  8
L-ZISSEN
100
AcDbLine
 10
-219.8370429822123
 20
-95.81031058765574
 30
0.0
 11
-219.8370429822123
 21
-109.665976268558
 31
0.0
  0
LINE
  5
6A53
330
2
100
AcDbEntity
  8
L-ZISSEN
100
AcDbLine
 10
-219.8370429822123
 20
-95.81031058765574
 30
0.0
 11
-219.8370429822123
 21
-114.0113505876556
 31
0.0
  0
LINE
  5
6A54
330
2
100
AcDbEntity
  8
L-ZISSEN
100
AcDbLine
 10
-220.5650845822126
 20
-119.3756030959098
 30
0.0
 11
-220.5650845822126
 21
-95.81031058765574
 31
0.0
  0
LINE
  5
6A55
330
2
100
AcDbEntity
  8
L-ZISSEN
100
AcDbLine
 10
-219.2910117822118
 20
-95.81031058765574
 30
0.0
 11
-219.2910117822118
 21
-110.0071217876552
 31
0.0
  0
LINE
  5
6A56
330
2
100
AcDbEntity
  8
L-ZISSEN
100
AcDbLine
 10
-220.5650845822126
 20
-95.81031058765574
 30
0.0
 11
-220.5650845822126
 21
-95.64793092139325
 31
0.0
  0
LINE
  5
6A57
330
2
100
AcDbEntity
  8
L-ZISSEN
100
AcDbLine
 10
-219.8370429822123
 20
-114.0113505876556
 30
0.0
 11
-218.5859373522751
 21
-113.2495427158969
 31
0.0
  0
LINE
  5
6A58
330
2
100
AcDbEntity
  8
L-ZISSEN
100
AcDbLine
 10
-218.5859373522751
 20
-110.1078467062184
 30
0.0
 11
-219.2910117822118
 21
-110.0071217876552
 31
0.0
  0
LINE
  5
6A59
330
2
100
AcDbEntity
  8
L-ZISSEN
100
AcDbLine
 10
-218.5859373522751
 20
-110.5919490902401
 30
0.0
 11
-219.2910117822118
 21
-110.0071217876552
 31
0.0
  0
LINE
  5
6A5A
330
2
100
AcDbEntity
  8
L-ZISSEN
100
AcDbLine
 10
-216.3788453822151
 20
-100.906601787658
 30
0.0
 11
-218.198949382215
 21
-99.81453938765799
 31
0.0
  0
LINE
  5
6A5B
330
2
100
AcDbEntity
  8
L-ZISSEN
100
AcDbLine
 10
-216.3788453822151
 20
-98.72247698765796
 30
0.0
 11
-218.198949382215
 21
-99.81453938765799
 31
0.0
  0
LINE
  5
6A5C
330
2
100
AcDbEntity
  8
L-ZISSEN
100
AcDbLine
 10
-216.9327562243131
 20
-119.3756030959098
 30
0.0
 11
-220.5650845822126
 21
-119.3756030959098
 31
0.0
  0
LINE
  5
6A5E
330
2
100
AcDbEntity
  8
L-ZISSEN
100
AcDbLine
 10
-204.7072126121508
 20
-113.2495427158969
 30
0.0
 11
-211.6465749822125
 21
-114.7023398124388
 31
0.0
  0
LINE
  5
6A5F
330
2
100
AcDbEntity
  8
L-ZISSEN
100
AcDbLine
 10
-211.6465749822125
 20
-111.5832865716779
 30
0.0
 11
-204.7072126121508
 21
-110.5919490902401
 31
0.0
  0
LINE
  5
6A60
330
2
100
AcDbEntity
  8
L-ZISSEN
100
AcDbLine
 10
-211.6465749822125
 20
-111.0991841876552
 30
0.0
 11
-204.0021381822123
 21
-110.0071217876552
 31
0.0
  0
LINE
  5
6A61
330
2
100
AcDbEntity
  8
L-ZISSEN
100
AcDbLine
 10
-211.6465749822125
 20
-116.1954753876557
 30
0.0
 11
-203.4561069822118
 21
-114.0113505876556
 31
0.0
  0
LINE
  5
6A62
330
2
100
AcDbEntity
  8
L-ZISSEN
100
AcDbLine
 10
-206.3603937401139
 20
-119.3756030959098
 30
0.0
 11
-202.7280653822145
 21
-119.3756030959098
 31
0.0
  0
LINE
  5
6A63
330
2
100
AcDbEntity
  8
L-ZISSEN
100
AcDbLine
 10
-212.3746165822135
 20
-97.99443538765627
 30
0.0
 11
-212.3746165822135
 21
-103.8187681876565
 31
0.0
  0
LINE
  5
6A64
330
2
100
AcDbEntity
  8
L-ZISSEN
100
AcDbLine
 10
-212.3746165822135
 20
-97.99443538765627
 30
0.0
 11
-212.3746165822135
 21
-103.8187681876565
 31
0.0
  0
LINE
  5
6A65
330
2
100
AcDbEntity
  8
L-ZISSEN
100
AcDbLine
 10
-210.9185333822135
 20
-97.99443538765627
 30
0.0
 11
-210.9185333822135
 21
-103.8187681876565
 31
0.0
  0
LINE
  5
6A66
330
2
100
AcDbEntity
  8
L-ZISSEN
100
AcDbLine
 10
-210.9185333822135
 20
-97.99443538765627
 30
0.0
 11
-210.9185333822135
 21
-103.8187681876565
 31
0.0
  0
LINE
  5
6A67
330
2
100
AcDbEntity
  8
L-ZISSEN
100
AcDbLine
 10
-203.4561069822118
 20
-95.81031058765574
 30
0.0
 11
-203.4561069822118
 21
-114.0113505876556
 31
0.0
  0
LINE
  5
6A68
330
2
100
AcDbEntity
  8
L-ZISSEN
100
AcDbLine
 10
-204.0021381822123
 20
-95.81031058765574
 30
0.0
 11
-204.0021381822123
 21
-110.0071217876552
 31
0.0
  0
LINE
  5
6A69
330
2
100
AcDbEntity
  8
L-ZISSEN
100
AcDbLine
 10
-203.4561069822118
 20
-95.81031058765574
 30
0.0
 11
-203.4561069822118
 21
-109.665976268558
 31
0.0
  0
LINE
  5
6A6A
330
2
100
AcDbEntity
  8
L-ZISSEN
100
AcDbLine
 10
-202.7280653822145
 20
-119.3756030959098
 30
0.0
 11
-202.7280653822145
 21
-95.81031058765574
 31
0.0
  0
LINE
  5
6A6B
330
2
100
AcDbEntity
  8
L-ZISSEN
100
AcDbLine
 10
-210.9185333822135
 20
-97.99443538765627
 30
0.0
 11
-212.3746165822135
 21
-97.99443538765627
 31
0.0
  0
LINE
  5
6A6C
330
2
100
AcDbEntity
  8
L-ZISSEN
100
AcDbLine
 10
-213.4666789822151
 20
-99.45051858765829
 30
0.0
 11
-213.4666789822151
 21
-100.1785601876581
 31
0.0
  0
LINE
  5
6A6D
330
2
100
AcDbEntity
  8
L-ZISSEN
100
AcDbLine
 10
-209.8264709822108
 20
-100.1785601876581
 30
0.0
 11
-206.9143045822108
 21
-100.1785601876581
 31
0.0
  0
LINE
  5
6A6E
330
2
100
AcDbEntity
  8
L-ZISSEN
100
AcDbLine
 10
-209.8264709822108
 20
-100.1785601876581
 30
0.0
 11
-206.9143045822108
 21
-100.1785601876581
 31
0.0
  0
LINE
  5
6A6F
330
2
100
AcDbEntity
  8
L-ZISSEN
100
AcDbLine
 10
-209.8264709822108
 20
-99.45051858765829
 30
0.0
 11
-206.9143045822108
 21
-99.45051858765829
 31
0.0
  0
LINE
  5
6A70
330
2
100
AcDbEntity
  8
L-ZISSEN
100
AcDbLine
 10
-209.8264709822108
 20
-99.45051858765829
 30
0.0
 11
-206.9143045822108
 21
-99.45051858765829
 31
0.0
  0
LINE
  5
6A71
330
2
100
AcDbEntity
  8
L-ZISSEN
100
AcDbLine
 10
-209.8264709822108
 20
-99.45051858765829
 30
0.0
 11
-209.8264709822108
 21
-100.1785601876581
 31
0.0
  0
LINE
  5
6A72
330
2
100
AcDbEntity
  8
L-ZISSEN
100
AcDbLine
 10
-206.9143045822108
 20
-100.1785601876581
 30
0.0
 11
-206.9143045822108
 21
-100.906601787658
 31
0.0
  0
LINE
  5
6A73
330
2
100
AcDbEntity
  8
L-ZISSEN
100
AcDbLine
 10
-206.9143045822108
 20
-99.45051858765829
 30
0.0
 11
-206.9143045822108
 21
-98.72247698765796
 31
0.0
  0
LINE
  5
6A74
330
2
100
AcDbEntity
  8
L-ZISSEN
100
AcDbLine
 10
-206.9143045822108
 20
-100.906601787658
 30
0.0
 11
-205.0942005822109
 21
-99.81453938765799
 31
0.0
  0
LINE
  5
6A75
330
2
100
AcDbEntity
  8
L-ZISSEN
100
AcDbLine
 10
-206.9143045822108
 20
-98.72247698765796
 30
0.0
 11
-205.0942005822109
 21
-99.81453938765799
 31
0.0
  0
LINE
  5
6A76
330
2
100
AcDbEntity
  8
L-ZISSEN
100
AcDbLine
 10
-204.7072126121508
 20
-110.5919490902401
 30
0.0
 11
-204.7072126121508
 21
-113.2495427158969
 31
0.0
  0
LINE
  5
6A77
330
2
100
AcDbEntity
  8
L-ZISSEN
100
AcDbLine
 10
-204.7072126121508
 20
-110.5919490902401
 30
0.0
 11
-204.0021381822123
 21
-110.0071217876552
 31
0.0
  0
LINE
  5
6A78
330
2
100
AcDbEntity
  8
L-ZISSEN
100
AcDbLine
 10
-204.7072126121508
 20
-110.1078467062184
 30
0.0
 11
-204.0021381822123
 21
-110.0071217876552
 31
0.0
  0
LINE
  5
6A79
330
2
100
AcDbEntity
  8
L-ZISSEN
100
AcDbLine
 10
-203.4561069822118
 20
-114.0113505876556
 30
0.0
 11
-204.7072126121508
 21
-113.2495427158969
 31
0.0
  0
LINE
  5
6A7A
330
2
100
AcDbEntity
  8
L-ZISSEN
100
AcDbLine
 10
-213.8306997822135
 20
-103.8187681876565
 30
0.0
 11
-211.6465749822136
 21
-107.4589761876563
 31
0.0
  0
LINE
  5
6A7B
330
2
100
AcDbEntity
  8
L-ZISSEN
100
AcDbLine
 10
-212.3746165822135
 20
-103.8187681876565
 30
0.0
 11
-213.8306997822135
 21
-103.8187681876565
 31
0.0
  0
LINE
  5
6A7C
330
2
100
AcDbEntity
  8
L-ZISSEN
100
AcDbLine
 10
-209.4624501822136
 20
-103.8187681876565
 30
0.0
 11
-211.6465749822136
 21
-107.4589761876563
 31
0.0
  0
LINE
  5
6A7D
330
2
100
AcDbEntity
  8
L-ZISSEN
100
AcDbLine
 10
-210.9185333822135
 20
-103.8187681876565
 30
0.0
 11
-209.4624501822136
 21
-103.8187681876565
 31
0.0
  0
LINE
  5
6A7E
330
2
100
AcDbEntity
  8
L-ZISSEN
100
AcDbLine
 10
-211.6465749822125
 20
-116.1954753876557
 30
0.0
 11
-211.6465749822125
 21
-111.5832865716779
 31
0.0
  0
LINE
  5
6A7F
330
2
100
AcDbEntity
  8
L-ZISSEN
100
AcDbLine
 10
-211.6465749822125
 20
-116.1954753876557
 30
0.0
 11
-211.6465749822125
 21
-111.0991841876552
 31
0.0
  0
LINE
  5
6A80
330
2
100
AcDbEntity
  8
L-ZISSEN
100
AcDbLine
 10
-206.3603937401139
 20
-114.8422770441679
 30
0.0
 11
-206.3603937401139
 21
-119.3756030959098
 31
0.0
  0
LINE
  5
6A81
330
2
100
AcDbEntity
  8
L-ZISSEN
100
AcDbLine
 10
-202.7280653822126
 20
-95.64793092139325
 30
0.0
 11
-202.7280653822124
 21
-95.81031058765574
 31
0.0
  0
LINE
  5
6A82
330
2
100
AcDbEntity
  8
L-ZISSEN
100
AcDbLine
 10
-189.646574982212
 20
-181.8348856646998
 30
0.0
 11
-189.6465749822113
 21
-95.64793092139325
 31
0.0
  0
LINE
  5
6A83
330
2
100
AcDbEntity
  8
L-ZISSEN
100
AcDbLine
 10
-192.6006464107743
 20
-102.182129706463
 30
0.0
 11
-192.6006464107736
 21
-164.9942271217728
 31
0.0
  0
LINE
  5
6A84
330
2
100
AcDbEntity
  8
L-ZISSEN
100
AcDbLine
 10
-198.9833606964887
 20
-102.182129706463
 30
0.0
 11
-198.9833606964887
 21
-164.9942271217737
 31
0.0
  0
LINE
  5
6A85
330
2
100
AcDbEntity
  8
L-ZISSEN
100
AcDbLine
 10
-198.9833606964891
 20
-164.9942271217737
 30
0.0
 11
-195.7920035536333
 21
-166.5085128360592
 31
0.0
  0
LINE
  5
6A86
330
2
100
AcDbEntity
  8
L-ZISSEN
100
AcDbLine
 10
-195.7920035536333
 20
-166.5085128360592
 30
0.0
 11
-192.6006464107743
 21
-164.9942271217732
 31
0.0
  0
LINE
  5
6A87
330
2
100
AcDbEntity
  8
L-ZISSEN
100
AcDbLine
 10
-192.6006464107743
 20
-102.182129706463
 30
0.0
 11
-198.9833606964887
 21
-102.182129706463
 31
0.0
  0
POLYLINE
  5
6A88
330
2
100
AcDbEntity
  8
L-ZISSEN
100
AcDb2dPolyline
 66
     1
 10
0.0
 20
0.0
 30
0.0
 70
     1
  0
VERTEX
  5
7538
330
6A88
100
AcDbEntity
  8
L-ZISSEN
100
AcDbVertex
100
AcDb2dVertex
 10
-465.1465749822117
 20
-245.1479309213946
 30
0.0
  0
VERTEX
  5
7539
330
6A88
100
AcDbEntity
  8
L-ZISSEN
100
AcDbVertex
100
AcDb2dVertex
 10
-465.1465749822116
 20
-248.1479309213946
 30
0.0
 42
-0.4142135623730951
  0
VERTEX
  5
753A
330
6A88
100
AcDbEntity
  8
L-ZISSEN
100
AcDbVertex
100
AcDb2dVertex
 10
-468.6465749822116
 20
-251.6479309213946
 30
0.0
  0
VERTEX
  5
753B
330
6A88
100
AcDbEntity
  8
L-ZISSEN
100
AcDbVertex
100
AcDb2dVertex
 10
-468.6465749822116
 20
-251.6479309213946
 30
0.0
 42
-0.4142135623730951
  0
VERTEX
  5
753C
330
6A88
100
AcDbEntity
  8
L-ZISSEN
100
AcDbVertex
100
AcDb2dVertex
 10
-472.1465749822116
 20
-248.1479309213946
 30
0.0
  0
VERTEX
  5
753D
330
6A88
100
AcDbEntity
  8
L-ZISSEN
100
AcDbVertex
100
AcDb2dVertex
 10
-472.1465749822116
 20
-245.1479309213946
 30
0.0
 42
-0.4142135623730951
  0
VERTEX
  5
753E
330
6A88
100
AcDbEntity
  8
L-ZISSEN
100
AcDbVertex
100
AcDb2dVertex
 10
-468.6465749822117
 20
-241.6479309213946
 30
0.0
  0
VERTEX
  5
753F
330
6A88
100
AcDbEntity
  8
L-ZISSEN
100
AcDbVertex
100
AcDb2dVertex
 10
-468.6465749822117
 20
-241.6479309213946
 30
0.0
 42
-0.4142135623730951
  0
SEQEND
  5
7540
330
6A88
100
AcDbEntity
  8
L-ZISSEN
  0
LINE
  5
6A8A
330
2
100
AcDbEntity
  8
L-ZISSEN
100
AcDbLine
 10
-414.456642251607
 20
-376.5974737439632
 30
0.0
 11
-414.456642251607
 21
-308.6479309213937
 31
0.0
  0
LINE
  5
6A8B
330
2
100
AcDbEntity
  8
L-ZISSEN
100
AcDbLine
 10
-427.7280653822137
 20
-332.3756030959102
 30
0.0
 11
-427.7280653822137
 21
-308.8103105876562
 31
0.0
  0
LINE
  5
6A8C
330
2
100
AcDbEntity
  8
L-ZISSEN
100
AcDbLine
 10
-431.3603937401133
 20
-327.8422770441684
 30
0.0
 11
-431.3603937401133
 21
-332.3756030959102
 31
0.0
  0
LINE
  5
6A8D
330
2
100
AcDbEntity
  8
L-ZISSEN
100
AcDbLine
 10
-445.5650845822119
 20
-332.3756030959102
 30
0.0
 11
-445.5650845822119
 21
-308.8103105876562
 31
0.0
  0
LINE
  5
6A8E
330
2
100
AcDbEntity
  8
L-ZISSEN
100
AcDbLine
 10
-441.9327562243124
 20
-327.8422770441684
 30
0.0
 11
-441.9327562243124
 21
-332.3756030959102
 31
0.0
  0
LINE
  5
6A8F
330
2
100
AcDbEntity
  8
L-ZISSEN
100
AcDbLine
 10
-449.4990749822027
 20
-315.1821297064634
 30
0.0
 11
-449.4990749822031
 21
-367.4512925893509
 31
0.0
  0
LINE
  5
6A90
330
2
100
AcDbEntity
  8
L-ZISSEN
100
AcDbLine
 10
-455.8817892679189
 20
-315.1821297064634
 30
0.0
 11
-455.8817892679187
 21
-367.4512925893504
 31
0.0
  0
LINE
  5
6A91
330
2
100
AcDbEntity
  8
L-ZISSEN
100
AcDbLine
 10
-459.2748831476071
 20
-308.6479309213937
 30
0.0
 11
-459.2748831476071
 21
-376.5974737439632
 31
0.0
  0
LINE
  5
6A92
330
2
100
AcDbEntity
  8
L-ZISSEN
100
AcDbLine
 10
-417.6006464107736
 20
-315.1821297064634
 30
0.0
 11
-417.6006464107731
 21
-367.4512925893509
 31
0.0
  0
LINE
  5
6A93
330
2
100
AcDbEntity
  8
L-ZISSEN
100
AcDbLine
 10
-423.983360696488
 20
-315.1821297064634
 30
0.0
 11
-423.983360696488
 21
-367.4512925893513
 31
0.0
  0
LINE
  5
6A94
330
2
100
AcDbEntity
  8
L-TYUSIN
100
AcDbLine
 10
-436.6465749822119
 20
-238.6479309213933
 30
0.0
 11
-436.6465749822119
 21
-394.1479309213933
 31
0.0
  0
ARC
  5
6AE3
330
2
100
AcDbEntity
  8
L-ZISSEN
100
AcDbCircle
 10
-453.2177402904633
 20
-376.5974737439632
 30
0.0
 40
6.057142857143803
100
AcDbArc
 50
180.0
 51
256.0937629349113
  0
ARC
  5
6AE6
330
2
100
AcDbEntity
  8
L-ZISSEN
100
AcDbCircle
 10
-438.5579982221525
 20
-302.6592958282159
 30
0.0
 40
82.1652436468231
100
AcDbArc
 50
276.0961398375399
 51
283.7287723653963
  0
LINE
  5
6AE7
330
2
100
AcDbEntity
  8
L-ZISSEN
100
AcDbLine
 10
-429.8322892679236
 20
-389.1479309213933
 30
0.0
 11
-443.4608606964977
 21
-389.1479309213933
 31
0.0
  0
LINE
  5
6AE8
330
2
100
AcDbEntity
  8
L-ZISSEN
100
AcDbLine
 10
-429.8322892679236
 20
-384.3599033338391
 30
0.0
 11
-443.555503553635
 21
-384.359903333841
 31
0.0
  0
LINE
  5
6AE9
330
2
100
AcDbEntity
  8
L-ZISSEN
100
AcDbLine
 10
-443.4608606964977
 20
-389.1479309213933
 30
0.0
 11
-443.4608606964977
 21
-384.3599033338391
 31
0.0
  0
ARC
  5
6AEA
330
2
100
AcDbEntity
  8
L-ZISSEN
100
AcDbCircle
 10
-436.5898122765243
 20
-309.4607886852608
 30
0.0
 40
75.22232534366962
100
AcDbArc
 50
256.0896801379939
 51
264.686719531158
  0
LINE
  5
6AEB
330
2
100
AcDbEntity
  8
L-ZISSEN
100
AcDbLine
 10
-443.4608606964977
 20
-385.2712017339422
 30
0.0
 11
-443.4608606964977
 21
-384.3599033338391
 31
0.0
  0
LINE
  5
6AEC
330
2
100
AcDbEntity
  8
L-ZISSEN
100
AcDbLine
 10
-429.8322892679236
 20
-389.1479309213933
 30
0.0
 11
-429.8322892679236
 21
-384.3599033338391
 31
0.0
  0
LINE
  5
6AED
330
2
100
AcDbEntity
  8
L-ZISSEN
100
AcDbLine
 10
-449.4990749822031
 20
-367.4512925893509
 30
0.0
 11
-452.6904321250631
 21
-368.9655783036364
 31
0.0
  0
LINE
  5
6AEE
330
2
100
AcDbEntity
  8
L-ZISSEN
100
AcDbLine
 10
-452.6904321250631
 20
-368.9655783036364
 30
0.0
 11
-455.8817892679189
 21
-367.4512925893504
 31
0.0
  0
ARC
  5
6AEF
330
2
100
AcDbEntity
  8
L-ZISSEN
100
AcDbCircle
 10
-420.5137851087499
 20
-376.5974737439632
 30
0.0
 40
6.057142857142908
100
AcDbArc
 50
283.9062370650886
 51
0.0
  0
LINE
  5
6AF0
330
2
100
AcDbEntity
  8
L-ZISSEN
100
AcDbLine
 10
-423.9833606964884
 20
-367.4512925893509
 30
0.0
 11
-420.7920035536326
 21
-368.9655783036364
 31
0.0
  0
LINE
  5
6AF1
330
2
100
AcDbEntity
  8
L-ZISSEN
100
AcDbLine
 10
-420.7920035536326
 20
-368.9655783036364
 30
0.0
 11
-417.6006464107736
 21
-367.4512925893504
 31
0.0
  0
LINE
  5
6AF2
330
2
100
AcDbEntity
  8
L-ZISSEN
100
AcDbLine
 10
-431.3603937401133
 20
-332.3756030959102
 30
0.0
 11
-427.7280653822137
 21
-332.3756030959102
 31
0.0
  0
LINE
  5
6AF3
330
2
100
AcDbEntity
  8
L-ZISSEN
100
AcDbLine
 10
-441.9327562243124
 20
-332.3756030959102
 30
0.0
 11
-445.5650845822119
 21
-332.3756030959102
 31
0.0
  0
LINE
  5
6BB4
330
2
100
AcDbEntity
  8
L-ZISSEN
100
AcDbLine
 10
-476.6465749822118
 20
-236.6479309213946
 30
0.0
 11
-476.6465749822118
 21
-241.6858666144023
 31
0.0
  0
LINE
  5
6BB5
330
2
100
AcDbEntity
  8
L-ZISSEN
100
AcDbLine
 10
-460.6465749822119
 20
-267.6479309213937
 30
0.0
 11
-460.6465749822119
 21
-236.6479309213946
 31
0.0
  0
LINE
  5
6BB6
330
2
100
AcDbEntity
  8
L-ZISSEN
100
AcDbLine
 10
-462.1465749822118
 20
-264.4479309213946
 30
0.0
 11
-461.6465749822118
 21
-267.4479309213946
 31
0.0
  0
LINE
  5
6BB7
330
2
100
AcDbEntity
  8
L-ZISSEN
100
AcDbLine
 10
-475.6465749822118
 20
-267.4479309213946
 30
0.0
 11
-475.1465749822118
 21
-264.4479309213946
 31
0.0
  0
LINE
  5
6BB9
330
2
100
AcDbEntity
  8
L-ZISSEN
100
AcDbLine
 10
-424.8965749822118
 20
-257.6479309213933
 30
0.0
 11
-424.8965749822118
 21
-267.6479309213933
 31
0.0
  0
LINE
  5
6BBA
330
2
100
AcDbEntity
  8
L-ZISSEN
100
AcDbLine
 10
-437.8965749822117
 20
-257.6479309213933
 30
0.0
 11
-437.8965749822117
 21
-267.6479309213933
 31
0.0
  0
LINE
  5
6BBB
330
2
100
AcDbEntity
  8
L-ZISSEN
100
AcDbLine
 10
-451.4465749822119
 20
-267.6479309213937
 30
0.0
 11
-451.4465749822119
 21
-258.1479309213934
 31
0.0
  0
LINE
  5
6BBC
330
2
100
AcDbEntity
  8
L-TYUSIN
100
AcDbLine
 10
-441.4465749822119
 20
-243.1479309213933
 30
0.0
 11
-441.4465749822119
 21
-282.2608601173161
 31
0.0
  0
LINE
  5
6BBD
330
2
100
AcDbEntity
  8
L-TYUSIN
100
AcDbLine
 10
-431.3965749822118
 20
-248.6479309213933
 30
0.0
 11
-431.3965749822118
 21
-275.4669270700616
 31
0.0
  0
LINE
  5
6BBF
330
2
100
AcDbEntity
  8
L-ZISSEN
100
AcDbLine
 10
-449.8465749822147
 20
-290.6479309213951
 30
0.0
 11
-486.8465749822147
 21
-290.6479309213951
 31
0.0
  0
LINE
  5
6BC0
330
2
100
AcDbEntity
  8
L-ZISSEN
100
AcDbLine
 10
-486.8465749822147
 20
-272.6479309213952
 30
0.0
 11
-450.1465749822147
 21
-272.6479309213952
 31
0.0
  0
LINE
  5
6BC1
330
2
100
AcDbEntity
  8
L-ZISSEN
100
AcDbLine
 10
-459.1465749822118
 20
-269.1622166356792
 30
0.0
 11
-442.6465535536403
 21
-269.1622166356792
 31
0.0
  0
LINE
  5
6BC2
330
2
100
AcDbEntity
  8
L-ZISSEN
100
AcDbLine
 10
-460.8751464107836
 20
-290.6479309213937
 30
0.0
 11
-412.4180035536403
 21
-290.6479309213937
 31
0.0
  0
LINE
  5
6BC3
330
2
100
AcDbEntity
  8
L-TYUSIN
100
AcDbLine
 10
-406.3608606964974
 20
-281.6479309213937
 30
0.0
 11
-517.4351240266385
 21
-281.6479309213946
 31
0.0
  0
LINE
  5
6BC4
330
2
100
AcDbEntity
  8
L-ZISSEN
100
AcDbLine
 10
-463.1465749822118
 20
-267.6479309213937
 30
0.0
 11
-410.1465749822118
 21
-267.6479309213937
 31
0.0
  0
LINE
  5
6BC5
330
2
100
AcDbEntity
  8
L-ZISSEN
100
AcDbLine
 10
-463.1465749822118
 20
-308.6479309213937
 30
0.0
 11
-410.1465749822102
 21
-308.6479309213937
 31
0.0
  0
LINE
  5
6BC6
330
2
100
AcDbEntity
  8
L-ZISSEN
100
AcDbLine
 10
-462.1465749822118
 20
-298.1479309213937
 30
0.0
 11
-461.6465749822118
 21
-295.1479309213937
 31
0.0
  0
LINE
  5
6BC7
330
2
100
AcDbEntity
  8
L-ZISSEN
100
AcDbLine
 10
-475.6465749822118
 20
-295.1479309213937
 30
0.0
 11
-475.1465749822118
 21
-298.1479309213937
 31
0.0
  0
LINE
  5
6BC8
330
2
100
AcDbEntity
  8
L-ZISSEN
100
AcDbLine
 10
-461.1465749822118
 20
-298.3479309213935
 30
0.0
 11
-461.1465749822118
 21
-295.1479309213941
 31
0.0
  0
LINE
  5
6BC9
330
2
100
AcDbEntity
  8
L-ZISSEN
100
AcDbLine
 10
-457.4680035536391
 20
-308.6479309213937
 30
0.0
 11
-457.4680035536391
 21
-290.6479309213937
 31
0.0
  0
LINE
  5
6BCA
330
2
100
AcDbEntity
  8
L-ZISSEN
100
AcDbLine
 10
-460.4965749822134
 20
-308.6479309213937
 30
0.0
 11
-460.4965749822128
 21
-290.6479309213937
 31
0.0
  0
ARC
  5
6BD6
330
2
100
AcDbEntity
  8
L-ZISSEN
100
AcDbCircle
 10
-468.6465749822116
 20
-315.1479309213946
 30
0.0
 40
3.5
100
AcDbArc
 50
90.0
 51
180.0
  0
ARC
  5
6BD7
330
2
100
AcDbEntity
  8
L-ZISSEN
100
AcDbCircle
 10
-468.6465749822116
 20
-315.1479309213946
 30
0.0
 40
3.5
100
AcDbArc
 50
0.0
 51
90.0
  0
LINE
  5
6BD8
330
2
100
AcDbEntity
  8
L-ZISSEN
100
AcDbLine
 10
-460.6465749822119
 20
-326.6479309213946
 30
0.0
 11
-460.6465749822119
 21
-308.6479309213937
 31
0.0
  0
LINE
  5
6BD9
330
2
100
AcDbEntity
  8
L-TYUSIN
100
AcDbLine
 10
-468.6465749822115
 20
-236.1479309213946
 30
0.0
 11
-468.6465749822114
 21
-327.1479309213946
 31
0.0
  0
ARC
  5
6BDC
330
2
100
AcDbEntity
  8
L-ZISSEN
100
AcDbCircle
 10
-468.6465749822117
 20
-318.1479309213946
 30
0.0
 40
3.5
100
AcDbArc
 50
180.0
 51
270.0
  0
LINE
  5
6BDD
330
2
100
AcDbEntity
  8
L-ZISSEN
100
AcDbLine
 10
-476.6465749822118
 20
-326.6479309213946
 30
0.0
 11
-460.6465749822119
 21
-326.6479309213946
 31
0.0
  0
LINE
  5
6BDE
330
2
100
AcDbEntity
  8
L-TYUSIN
100
AcDbLine
 10
-461.7337216582146
 20
-316.6479309213946
 30
0.0
 11
-475.2292648715104
 21
-316.6479309213946
 31
0.0
  0
LINE
  5
6BDF
330
2
100
AcDbEntity
  8
L-ZISSEN
100
AcDbLine
 10
-476.6465749822119
 20
-308.6479309213946
 30
0.0
 11
-476.6465749822118
 21
-326.6479309213946
 31
0.0
  0
LINE
  5
6BE5
330
2
100
AcDbEntity
  8
L-ZISSEN
100
AcDbLine
 10
-472.1465749822116
 20
-315.1479309213946
 30
0.0
 11
-472.1465749822116
 21
-318.1479309213946
 31
0.0
  0
ARC
  5
6BE8
330
2
100
AcDbEntity
  8
L-ZISSEN
100
AcDbCircle
 10
-468.6465749822117
 20
-318.1479309213946
 30
0.0
 40
3.5
100
AcDbArc
 50
270.0
 51
0.0
  0
LINE
  5
6BE9
330
2
100
AcDbEntity
  8
SUNPOU
100
AcDbLine
 10
-468.6465749822117
 20
-322.1479309213946
 30
0.0
 11
-468.6465749822117
 21
-322.1479309213946
 31
0.0
  0
LINE
  5
6BEA
330
2
100
AcDbEntity
  8
L-ZISSEN
100
AcDbLine
 10
-465.1465749822117
 20
-318.1479309213946
 30
0.0
 11
-465.1465749822116
 21
-315.1479309213946
 31
0.0
  0
LINE
  5
6BEB
330
2
100
AcDbEntity
  8
L-ZISSEN
100
AcDbLine
 10
-475.1465749822118
 20
-298.1479309213937
 30
0.0
 11
-462.1465749822118
 21
-298.1479309213937
 31
0.0
  0
LINE
  5
6BF9
330
2
100
AcDbEntity
  8
L-ZISSEN
100
AcDbLine
 10
-463.1465749822116
 20
-308.6479309213941
 30
0.0
 11
-463.1465749822118
 21
-298.3479309213935
 31
0.0
  0
LINE
  5
6BFA
330
2
100
AcDbEntity
  8
SUNPOU
100
AcDbLine
 10
-468.6465749822116
 20
-312.1479309213946
 30
0.0
 11
-468.6465749822116
 21
-312.1479309213946
 31
0.0
  0
LINE
  5
6BFB
330
2
100
AcDbEntity
  8
L-ZISSEN
100
AcDbLine
 10
-463.1465749822118
 20
-298.3479309213935
 30
0.0
 11
-461.1465749822118
 21
-298.3479309213935
 31
0.0
  0
LINE
  5
6BFE
330
2
100
AcDbEntity
  8
L-ZISSEN
100
AcDbLine
 10
-486.8465749822147
 20
-290.6479309213951
 30
0.0
 11
-486.8465749822147
 21
-272.6479309213952
 31
0.0
  0
CIRCLE
  5
6C11
330
2
100
AcDbEntity
  8
L-ZISSEN
100
AcDbCircle
 10
-468.6465749822118
 20
-281.6479309213946
 30
0.0
 40
2.75
  0
CIRCLE
  5
6C12
330
2
100
AcDbEntity
  8
L-ZISSEN
100
AcDbCircle
 10
-468.6465749822118
 20
-281.6479309213946
 30
0.0
 40
5.0
  0
LINE
  5
6C13
330
2
100
AcDbEntity
  8
L-ZISSEN
100
AcDbLine
 10
-474.1465749822118
 20
-295.1479309213937
 30
0.0
 11
-463.1465749822118
 21
-295.1479309213937
 31
0.0
  0
LINE
  5
6C15
330
2
100
AcDbEntity
  8
L-ZISSEN
100
AcDbLine
 10
-475.6465749822118
 20
-295.1479309213937
 30
0.0
 11
-474.1465749822118
 21
-295.1479309213937
 31
0.0
  0
LINE
  5
6C17
330
2
100
AcDbEntity
  8
L-ZISSEN
100
AcDbLine
 10
-463.1465749822118
 20
-295.1479309213937
 30
0.0
 11
-463.1465749822118
 21
-290.6479309213946
 31
0.0
  0
LINE
  5
6C18
330
2
100
AcDbEntity
  8
L-ZISSEN
100
AcDbLine
 10
-461.6465749822118
 20
-295.1479309213937
 30
0.0
 11
-463.1465749822118
 21
-295.1479309213937
 31
0.0
  0
LINE
  5
6C19
330
2
100
AcDbEntity
  8
L-ZISSEN
100
AcDbLine
 10
-463.1465749822116
 20
-295.1479309213941
 30
0.0
 11
-461.1465749822116
 21
-295.1479309213937
 31
0.0
  0
LINE
  5
6C1A
330
2
100
AcDbEntity
  8
L-ZISSEN
100
AcDbLine
 10
-463.1465749822118
 20
-267.4479309213946
 30
0.0
 11
-474.1465749822118
 21
-267.4479309213946
 31
0.0
  0
LINE
  5
6C21
330
2
100
AcDbEntity
  8
L-ZISSEN
100
AcDbLine
 10
-475.6465749822118
 20
-267.4479309213946
 30
0.0
 11
-474.1465749822118
 21
-267.4479309213946
 31
0.0
  0
LINE
  5
6C29
330
2
100
AcDbEntity
  8
L-ZISSEN
100
AcDbLine
 10
-463.1465749822118
 20
-272.6479309213946
 30
0.0
 11
-463.1465749822118
 21
-267.4479309213946
 31
0.0
  0
LINE
  5
6C2A
330
2
100
AcDbEntity
  8
L-ZISSEN
100
AcDbLine
 10
-461.6465749822118
 20
-267.4479309213946
 30
0.0
 11
-463.1465749822118
 21
-267.4479309213946
 31
0.0
  0
LINE
  5
6C2B
330
2
100
AcDbEntity
  8
L-ZISSEN
100
AcDbLine
 10
-459.1465749822118
 20
-269.1622166356792
 30
0.0
 11
-459.1465749822118
 21
-272.6479309213952
 31
0.0
  0
LINE
  5
6C2D
330
2
100
AcDbEntity
  8
L-ZISSEN
100
AcDbLine
 10
-463.1465749822118
 20
-267.6479309213937
 30
0.0
 11
-459.3608606964976
 21
-267.6479309213937
 31
0.0
  0
LINE
  5
6C2E
330
2
100
AcDbEntity
  8
L-ZISSEN
100
AcDbLine
 10
-463.1465749822118
 20
-272.1907880642511
 30
0.0
 11
-460.8751464107833
 21
-272.1907880642511
 31
0.0
  0
LINE
  5
6C2F
330
2
100
AcDbEntity
  8
L-ZISSEN
100
AcDbLine
 10
-460.8751464107833
 20
-272.1907880642511
 30
0.0
 11
-460.8751464107833
 21
-272.6479309213952
 31
0.0
  0
LINE
  5
6C30
330
2
100
AcDbEntity
  8
L-ZISSEN
100
AcDbLine
 10
-460.8751464107833
 20
-272.1907880642511
 30
0.0
 11
-459.1465749822118
 21
-269.1622166356792
 31
0.0
  0
LINE
  5
6C31
330
2
100
AcDbEntity
  8
L-ZISSEN
100
AcDbLine
 10
-415.8251464107818
 20
-308.6479309213937
 30
0.0
 11
-415.8251464107833
 21
-290.6479309213937
 31
0.0
  0
LINE
  5
6C32
330
2
100
AcDbEntity
  8
L-ZISSEN
100
AcDbLine
 10
-412.796574982209
 20
-308.6479309213937
 30
0.0
 11
-412.7965749822087
 21
-290.6479309213937
 31
0.0
  0
LINE
  5
6C33
330
2
100
AcDbEntity
  8
L-ZISSEN
100
AcDbLine
 10
-410.1465749822104
 20
-308.6479309213937
 30
0.0
 11
-410.1465749822118
 21
-297.1765023499638
 31
0.0
  0
LINE
  5
6C34
330
2
100
AcDbEntity
  8
L-ZISSEN
100
AcDbLine
 10
-428.4561069822111
 20
-327.0113505876561
 30
0.0
 11
-429.7072126121502
 21
-326.2495427158974
 31
0.0
  0
LINE
  5
6C35
330
2
100
AcDbEntity
  8
L-ZISSEN
100
AcDbLine
 10
-436.6465749822118
 20
-329.1954753876562
 30
0.0
 11
-428.4561069822111
 21
-327.0113505876561
 31
0.0
  0
LINE
  5
6C36
330
2
100
AcDbEntity
  8
L-ZISSEN
100
AcDbLine
 10
-427.7280653822117
 20
-308.8103105876562
 30
0.0
 11
-445.5650845822119
 21
-308.8103105876562
 31
0.0
  0
LINE
  5
6C37
330
2
100
AcDbEntity
  8
L-ZISSEN
100
AcDbLine
 10
-444.8370429822116
 20
-308.8103105876562
 30
0.0
 11
-428.4561069822111
 21
-308.8103105876562
 31
0.0
  0
LINE
  5
6C38
330
2
100
AcDbEntity
  8
L-ZISSEN
100
AcDbLine
 10
-431.9143045822102
 20
-313.1785601876586
 30
0.0
 11
-431.9143045822102
 21
-313.9066017876584
 31
0.0
  0
LINE
  5
6C39
330
2
100
AcDbEntity
  8
L-ZISSEN
100
AcDbLine
 10
-431.9143045822102
 20
-313.9066017876584
 30
0.0
 11
-430.0942005822102
 21
-312.8145393876584
 31
0.0
  0
LINE
  5
6C3A
330
2
100
AcDbEntity
  8
L-ZISSEN
100
AcDbLine
 10
-437.3746165822129
 20
-310.9944353876567
 30
0.0
 11
-437.3746165822129
 21
-316.818768187657
 31
0.0
  0
LINE
  5
6C3B
330
2
100
AcDbEntity
  8
L-ZISSEN
100
AcDbLine
 10
-437.3746165822129
 20
-310.9944353876567
 30
0.0
 11
-437.3746165822129
 21
-316.818768187657
 31
0.0
  0
LINE
  5
6C3C
330
2
100
AcDbEntity
  8
L-ZISSEN
100
AcDbLine
 10
-435.9185333822129
 20
-310.9944353876567
 30
0.0
 11
-435.9185333822129
 21
-316.818768187657
 31
0.0
  0
LINE
  5
6C3D
330
2
100
AcDbEntity
  8
L-ZISSEN
100
AcDbLine
 10
-435.9185333822129
 20
-310.9944353876567
 30
0.0
 11
-435.9185333822129
 21
-316.818768187657
 31
0.0
  0
LINE
  5
6C3E
330
2
100
AcDbEntity
  8
L-ZISSEN
100
AcDbLine
 10
-429.0021381822116
 20
-308.8103105876562
 30
0.0
 11
-429.0021381822116
 21
-323.0071217876556
 31
0.0
  0
LINE
  5
6C3F
330
2
100
AcDbEntity
  8
L-ZISSEN
100
AcDbLine
 10
-441.3788453822144
 20
-313.1785601876586
 30
0.0
 11
-441.3788453822144
 21
-313.9066017876584
 31
0.0
  0
LINE
  5
6C40
330
2
100
AcDbEntity
  8
L-ZISSEN
100
AcDbLine
 10
-441.3788453822144
 20
-313.9066017876584
 30
0.0
 11
-443.1989493822142
 21
-312.8145393876584
 31
0.0
  0
LINE
  5
6C41
330
2
100
AcDbEntity
  8
L-ZISSEN
100
AcDbLine
 10
-444.8370429822116
 20
-308.8103105876562
 30
0.0
 11
-444.8370429822116
 21
-322.6659762685585
 31
0.0
  0
LINE
  5
6C42
330
2
100
AcDbEntity
  8
L-ZISSEN
100
AcDbLine
 10
-444.8370429822116
 20
-308.8103105876562
 30
0.0
 11
-444.8370429822116
 21
-327.0113505876561
 31
0.0
  0
LINE
  5
6C43
330
2
100
AcDbEntity
  8
L-ZISSEN
100
AcDbLine
 10
-444.2910117822111
 20
-308.8103105876562
 30
0.0
 11
-444.2910117822111
 21
-323.0071217876556
 31
0.0
  0
LINE
  5
6C44
330
2
100
AcDbEntity
  8
L-ZISSEN
100
AcDbLine
 10
-443.5859373522744
 20
-326.2495427158974
 30
0.0
 11
-436.6465749822118
 21
-327.7023398124392
 31
0.0
  0
LINE
  5
6C45
330
2
100
AcDbEntity
  8
L-ZISSEN
100
AcDbLine
 10
-436.6465749822118
 20
-324.5832865716784
 30
0.0
 11
-443.5859373522744
 21
-323.5919490902406
 31
0.0
  0
LINE
  5
6C46
330
2
100
AcDbEntity
  8
L-ZISSEN
100
AcDbLine
 10
-436.6465749822118
 20
-324.0991841876557
 30
0.0
 11
-444.2910117822111
 21
-323.0071217876556
 31
0.0
  0
LINE
  5
6C47
330
2
100
AcDbEntity
  8
L-ZISSEN
100
AcDbLine
 10
-436.6465749822118
 20
-329.1954753876562
 30
0.0
 11
-444.8370429822116
 21
-327.0113505876561
 31
0.0
  0
LINE
  5
6C48
330
2
100
AcDbEntity
  8
L-ZISSEN
100
AcDbLine
 10
-443.5859373522744
 20
-323.1078467062189
 30
0.0
 11
-444.2910117822111
 21
-323.0071217876556
 31
0.0
  0
LINE
  5
6C49
330
2
100
AcDbEntity
  8
L-ZISSEN
100
AcDbLine
 10
-443.5859373522744
 20
-323.5919490902406
 30
0.0
 11
-444.2910117822111
 21
-323.0071217876556
 31
0.0
  0
LINE
  5
6C4A
330
2
100
AcDbEntity
  8
L-ZISSEN
100
AcDbLine
 10
-444.8370429822116
 20
-327.0113505876561
 30
0.0
 11
-443.5859373522744
 21
-326.2495427158974
 31
0.0
  0
LINE
  5
6C4B
330
2
100
AcDbEntity
  8
L-ZISSEN
100
AcDbLine
 10
-443.5859373522744
 20
-323.5919490902406
 30
0.0
 11
-443.5859373522744
 21
-326.2495427158974
 31
0.0
  0
LINE
  5
6C4C
330
2
100
AcDbEntity
  8
L-ZISSEN
100
AcDbLine
 10
-455.8817892679189
 20
-315.1821297064634
 30
0.0
 11
-449.4990749822027
 21
-315.1821297064634
 31
0.0
  0
LINE
  5
6C4D
330
2
100
AcDbEntity
  8
L-ZISSEN
100
AcDbLine
 10
-429.7072126121502
 20
-326.2495427158974
 30
0.0
 11
-436.6465749822118
 21
-327.7023398124392
 31
0.0
  0
LINE
  5
6C4E
330
2
100
AcDbEntity
  8
L-ZISSEN
100
AcDbLine
 10
-436.6465749822118
 20
-324.5832865716784
 30
0.0
 11
-429.7072126121502
 21
-323.5919490902406
 31
0.0
  0
LINE
  5
6C4F
330
2
100
AcDbEntity
  8
L-ZISSEN
100
AcDbLine
 10
-436.6465749822118
 20
-324.0991841876557
 30
0.0
 11
-429.0021381822116
 21
-323.0071217876556
 31
0.0
  0
LINE
  5
6C50
330
2
100
AcDbEntity
  8
L-ZISSEN
100
AcDbLine
 10
-436.6465749822118
 20
-329.1954753876562
 30
0.0
 11
-436.6465749822118
 21
-324.5832865716784
 31
0.0
  0
LINE
  5
6C51
330
2
100
AcDbEntity
  8
L-ZISSEN
100
AcDbLine
 10
-436.6465749822118
 20
-329.1954753876562
 30
0.0
 11
-436.6465749822118
 21
-324.0991841876557
 31
0.0
  0
LINE
  5
6C52
330
2
100
AcDbEntity
  8
L-ZISSEN
100
AcDbLine
 10
-429.7072126121502
 20
-323.5919490902406
 30
0.0
 11
-429.0021381822116
 21
-323.0071217876556
 31
0.0
  0
LINE
  5
6C53
330
2
100
AcDbEntity
  8
L-ZISSEN
100
AcDbLine
 10
-429.7072126121502
 20
-323.1078467062189
 30
0.0
 11
-429.0021381822116
 21
-323.0071217876556
 31
0.0
  0
LINE
  5
6C54
330
2
100
AcDbEntity
  8
L-ZISSEN
100
AcDbLine
 10
-429.7072126121502
 20
-323.5919490902406
 30
0.0
 11
-429.7072126121502
 21
-326.2495427158974
 31
0.0
  0
LINE
  5
6C55
330
2
100
AcDbEntity
  8
L-ZISSEN
100
AcDbLine
 10
-435.9185333822129
 20
-316.818768187657
 30
0.0
 11
-434.4624501822129
 21
-316.818768187657
 31
0.0
  0
LINE
  5
6C56
330
2
100
AcDbEntity
  8
L-ZISSEN
100
AcDbLine
 10
-434.4624501822129
 20
-316.818768187657
 30
0.0
 11
-436.646574982213
 21
-320.4589761876568
 31
0.0
  0
LINE
  5
6C57
330
2
100
AcDbEntity
  8
L-ZISSEN
100
AcDbLine
 10
-438.8306997822128
 20
-316.818768187657
 30
0.0
 11
-436.646574982213
 21
-320.4589761876568
 31
0.0
  0
LINE
  5
6C58
330
2
100
AcDbEntity
  8
L-ZISSEN
100
AcDbLine
 10
-437.3746165822129
 20
-316.818768187657
 30
0.0
 11
-438.8306997822128
 21
-316.818768187657
 31
0.0
  0
LINE
  5
6C59
330
2
100
AcDbEntity
  8
L-ZISSEN
100
AcDbLine
 10
-441.3788453822144
 20
-311.7224769876584
 30
0.0
 11
-443.1989493822142
 21
-312.8145393876584
 31
0.0
  0
LINE
  5
6C5A
330
2
100
AcDbEntity
  8
L-ZISSEN
100
AcDbLine
 10
-429.0021381822116
 20
-308.8103105876562
 30
0.0
 11
-444.2910117822111
 21
-308.8103105876562
 31
0.0
  0
LINE
  5
6C5B
330
2
100
AcDbEntity
  8
L-ZISSEN
100
AcDbLine
 10
-445.5650845822119
 20
-308.8103105876562
 30
0.0
 11
-445.5650845822119
 21
-308.6479309213937
 31
0.0
  0
LINE
  5
6C5C
330
2
100
AcDbEntity
  8
L-ZISSEN
100
AcDbLine
 10
-435.9185333822129
 20
-310.9944353876567
 30
0.0
 11
-437.3746165822129
 21
-310.9944353876567
 31
0.0
  0
LINE
  5
6C5D
330
2
100
AcDbEntity
  8
L-ZISSEN
100
AcDbLine
 10
-438.4666789822144
 20
-312.4505185876587
 30
0.0
 11
-438.4666789822144
 21
-313.1785601876586
 31
0.0
  0
LINE
  5
6C5E
330
2
100
AcDbEntity
  8
L-ZISSEN
100
AcDbLine
 10
-441.3788453822144
 20
-312.4505185876587
 30
0.0
 11
-441.3788453822144
 21
-311.7224769876584
 31
0.0
  0
LINE
  5
6C5F
330
2
100
AcDbEntity
  8
L-ZISSEN
100
AcDbLine
 10
-438.4666789822144
 20
-313.1785601876586
 30
0.0
 11
-441.3788453822144
 21
-313.1785601876586
 31
0.0
  0
LINE
  5
6C60
330
2
100
AcDbEntity
  8
L-ZISSEN
100
AcDbLine
 10
-438.4666789822144
 20
-313.1785601876586
 30
0.0
 11
-441.3788453822144
 21
-313.1785601876586
 31
0.0
  0
LINE
  5
6C61
330
2
100
AcDbEntity
  8
L-ZISSEN
100
AcDbLine
 10
-438.4666789822144
 20
-312.4505185876587
 30
0.0
 11
-441.3788453822144
 21
-312.4505185876587
 31
0.0
  0
LINE
  5
6C62
330
2
100
AcDbEntity
  8
L-ZISSEN
100
AcDbLine
 10
-438.4666789822144
 20
-312.4505185876587
 30
0.0
 11
-441.3788453822144
 21
-312.4505185876587
 31
0.0
  0
LINE
  5
6C63
330
2
100
AcDbEntity
  8
L-ZISSEN
100
AcDbLine
 10
-431.9143045822102
 20
-312.4505185876587
 30
0.0
 11
-431.9143045822102
 21
-311.7224769876584
 31
0.0
  0
LINE
  5
6C64
330
2
100
AcDbEntity
  8
L-ZISSEN
100
AcDbLine
 10
-431.9143045822102
 20
-311.7224769876584
 30
0.0
 11
-430.0942005822102
 21
-312.8145393876584
 31
0.0
  0
LINE
  5
6C65
330
2
100
AcDbEntity
  8
L-ZISSEN
100
AcDbLine
 10
-434.8264709822101
 20
-312.4505185876587
 30
0.0
 11
-434.8264709822101
 21
-313.1785601876586
 31
0.0
  0
LINE
  5
6C66
330
2
100
AcDbEntity
  8
L-ZISSEN
100
AcDbLine
 10
-434.8264709822101
 20
-313.1785601876586
 30
0.0
 11
-431.9143045822102
 21
-313.1785601876586
 31
0.0
  0
LINE
  5
6C67
330
2
100
AcDbEntity
  8
L-ZISSEN
100
AcDbLine
 10
-434.8264709822101
 20
-313.1785601876586
 30
0.0
 11
-431.9143045822102
 21
-313.1785601876586
 31
0.0
  0
LINE
  5
6C68
330
2
100
AcDbEntity
  8
L-ZISSEN
100
AcDbLine
 10
-434.8264709822101
 20
-312.4505185876587
 30
0.0
 11
-431.9143045822102
 21
-312.4505185876587
 31
0.0
  0
LINE
  5
6C69
330
2
100
AcDbEntity
  8
L-ZISSEN
100
AcDbLine
 10
-434.8264709822101
 20
-312.4505185876587
 30
0.0
 11
-431.9143045822102
 21
-312.4505185876587
 31
0.0
  0
LINE
  5
6C6A
330
2
100
AcDbEntity
  8
L-ZISSEN
100
AcDbLine
 10
-428.4561069822111
 20
-308.8103105876562
 30
0.0
 11
-428.4561069822111
 21
-327.0113505876561
 31
0.0
  0
LINE
  5
6C6B
330
2
100
AcDbEntity
  8
L-ZISSEN
100
AcDbLine
 10
-428.4561069822111
 20
-308.8103105876562
 30
0.0
 11
-428.4561069822111
 21
-322.6659762685585
 31
0.0
  0
LINE
  5
6C6C
330
2
100
AcDbEntity
  8
L-ZISSEN
100
AcDbLine
 10
-417.6006464107736
 20
-315.1821297064634
 30
0.0
 11
-423.983360696488
 21
-315.1821297064634
 31
0.0
  0
LINE
  5
6C6D
330
2
100
AcDbEntity
  8
L-ZISSEN
100
AcDbLine
 10
-427.728065382212
 20
-308.6479309213937
 30
0.0
 11
-427.7280653822117
 21
-308.8103105876562
 31
0.0
  0
LINE
  5
6C6E
330
2
100
AcDbEntity
  8
L-ZISSEN
100
AcDbLine
 10
-450.1465749822147
 20
-272.6479309213952
 30
0.0
 11
-450.1465749822147
 21
-290.6479309213951
 31
0.0
  0
LINE
  5
6C6F
330
2
100
AcDbEntity
  8
L-ZISSEN
100
AcDbLine
 10
-439.1465749822118
 20
-267.6479309213937
 30
0.0
 11
-439.1465749822118
 21
-290.6479309213937
 31
0.0
  0
LINE
  5
6C70
330
2
100
AcDbEntity
  8
L-ZISSEN
100
AcDbLine
 10
-449.1465749822118
 20
-272.6479309213936
 30
0.0
 11
-449.1465749822118
 21
-290.6479309213937
 31
0.0
  0
LINE
  5
6C71
330
2
100
AcDbEntity
  8
L-ZISSEN
100
AcDbLine
 10
-441.4465749822119
 20
-267.6479309213937
 30
0.0
 11
-451.4465749822119
 21
-267.6479309213937
 31
0.0
  0
LINE
  5
6C72
330
2
100
AcDbEntity
  8
L-ZISSEN
100
AcDbLine
 10
-452.6465535536403
 20
-272.6479309213936
 30
0.0
 11
-439.1465749822118
 21
-272.6479309213936
 31
0.0
  0
LINE
  5
6C73
330
2
100
AcDbEntity
  8
L-ZISSEN
100
AcDbLine
 10
-442.6465535536404
 20
-272.6479309213936
 30
0.0
 11
-442.6465535536403
 21
-267.6479309213937
 31
0.0
  0
LINE
  5
6C74
330
2
100
AcDbEntity
  8
L-ZISSEN
100
AcDbLine
 10
-414.1465749822118
 20
-269.1622166356792
 30
0.0
 11
-414.1465749822102
 21
-290.6479309213946
 31
0.0
  0
LINE
  5
6C75
330
2
100
AcDbEntity
  8
L-ZISSEN
100
AcDbLine
 10
-412.4180035536403
 20
-272.1907880642502
 30
0.0
 11
-412.4180035536403
 21
-290.6479309213937
 31
0.0
  0
LINE
  5
6C76
330
2
100
AcDbEntity
  8
L-ZISSEN
100
AcDbLine
 10
-410.1465749822118
 20
-272.1907880642502
 30
0.0
 11
-410.1465749822118
 21
-294.5265023499641
 31
0.0
  0
LINE
  5
6C77
330
2
100
AcDbEntity
  8
L-ZISSEN
100
AcDbLine
 10
-420.6465964107817
 20
-290.6479309213937
 30
0.0
 11
-420.6465964107834
 21
-267.6479309213937
 31
0.0
  0
LINE
  5
6C78
330
2
100
AcDbEntity
  8
L-ZISSEN
100
AcDbLine
 10
-424.1465749822118
 20
-267.6479309213937
 30
0.0
 11
-424.1465749822118
 21
-290.6479309213937
 31
0.0
  0
LINE
  5
6C79
330
2
100
AcDbEntity
  8
L-ZISSEN
100
AcDbLine
 10
-412.0394321250675
 20
-297.1765023499638
 30
0.0
 11
-412.0394321250675
 21
-294.5265023499641
 31
0.0
  0
LINE
  5
6C7A
330
2
100
AcDbEntity
  8
L-ZISSEN
100
AcDbLine
 10
-410.1465749822118
 20
-297.1765023499638
 30
0.0
 11
-412.0394321250675
 21
-297.1765023499638
 31
0.0
  0
LINE
  5
6C7B
330
2
100
AcDbEntity
  8
L-ZISSEN
100
AcDbLine
 10
-410.1465749822118
 20
-294.5265023499641
 30
0.0
 11
-412.0394321250675
 21
-294.5265023499641
 31
0.0
  0
LINE
  5
6C7C
330
2
100
AcDbEntity
  8
L-ZISSEN
100
AcDbLine
 10
-414.1465749822118
 20
-269.1622166356792
 30
0.0
 11
-412.4180035536403
 21
-272.1907880642502
 31
0.0
  0
LINE
  5
6C7D
330
2
100
AcDbEntity
  8
L-ZISSEN
100
AcDbLine
 10
-420.6465964107834
 20
-269.1622166356792
 30
0.0
 11
-414.1465749822118
 21
-269.1622166356792
 31
0.0
  0
LINE
  5
6C7E
330
2
100
AcDbEntity
  8
L-ZISSEN
100
AcDbLine
 10
-410.1465749822118
 20
-272.1907880642502
 30
0.0
 11
-412.4180035536403
 21
-272.1907880642502
 31
0.0
  0
LINE
  5
6C7F
330
2
100
AcDbEntity
  8
L-ZISSEN
100
AcDbLine
 10
-410.1465749822118
 20
-267.6479309213937
 30
0.0
 11
-410.1465749822118
 21
-272.1907880642502
 31
0.0
  0
LINE
  5
6C8A
330
2
100
AcDbEntity
  8
L-ZISSEN
100
AcDbLine
 10
-475.1465749822118
 20
-264.4479309213946
 30
0.0
 11
-462.1465749822118
 21
-264.4479309213946
 31
0.0
  0
LINE
  5
6C8E
330
2
100
AcDbEntity
  8
L-ZISSEN
100
AcDbLine
 10
-460.6465749822119
 20
-236.6479309213946
 30
0.0
 11
-476.6465749822118
 21
-236.6479309213946
 31
0.0
  0
LINE
  5
6C8F
330
2
100
AcDbEntity
  8
L-TYUSIN
100
AcDbLine
 10
-461.7337216582146
 20
-246.6479309213946
 30
0.0
 11
-475.2292648715104
 21
-246.6479309213946
 31
0.0
  0
LINE
  5
6C91
330
2
100
AcDbEntity
  8
L-ZISSEN
100
AcDbLine
 10
-434.4465749822119
 20
-253.6479309213933
 30
0.0
 11
-427.8965749822118
 21
-253.6479309213933
 31
0.0
  0
LINE
  5
6C92
330
2
100
AcDbEntity
  8
L-ZISSEN
100
AcDbLine
 10
-437.8965749822119
 20
-257.6479309213933
 30
0.0
 11
-424.8965749822118
 21
-257.6479309213933
 31
0.0
  0
LINE
  5
6C93
330
2
100
AcDbEntity
  8
L-ZISSEN
100
AcDbLine
 10
-448.4465749822118
 20
-258.1479309213933
 30
0.0
 11
-448.4465749822118
 21
-243.1479309213933
 31
0.0
  0
LINE
  5
6C94
330
2
100
AcDbEntity
  8
L-ZISSEN
100
AcDbLine
 10
-434.4465749822118
 20
-257.6479309213933
 30
0.0
 11
-434.4465749822118
 21
-243.1479309213933
 31
0.0
  0
LINE
  5
6C95
330
2
100
AcDbEntity
  8
L-ZISSEN
100
AcDbLine
 10
-437.8965749822119
 20
-261.6479309213933
 30
0.0
 11
-451.4465749822118
 21
-261.6479309213933
 31
0.0
  0
LINE
  5
6C96
330
2
100
AcDbEntity
  8
L-ZISSEN
100
AcDbLine
 10
-437.8965749822119
 20
-258.1479309213934
 30
0.0
 11
-451.4465749822118
 21
-258.1479309213934
 31
0.0
  0
LINE
  5
6C97
330
2
100
AcDbEntity
  8
L-ZISSEN
100
AcDbLine
 10
-446.6427274049184
 20
-258.1479309213934
 30
0.0
 11
-446.6427274049184
 21
-261.6479309213933
 31
0.0
  0
LINE
  5
6C98
330
2
100
AcDbEntity
  8
L-ZISSEN
100
AcDbLine
 10
-441.4465749822118
 20
-258.1479309213933
 30
0.0
 11
-437.8965749822117
 21
-258.1479309213933
 31
0.0
  0
LINE
  5
6C99
330
2
100
AcDbEntity
  8
L-ZISSEN
100
AcDbLine
 10
-431.3965749822118
 20
-253.6479309213933
 30
0.0
 11
-434.4465749822119
 21
-253.6479309213933
 31
0.0
  0
LINE
  5
6C9A
330
2
100
AcDbEntity
  8
L-ZISSEN
100
AcDbLine
 10
-434.4465749822118
 20
-243.1479309213933
 30
0.0
 11
-448.4465749822118
 21
-243.1479309213933
 31
0.0
  0
LINE
  5
6C9B
330
2
100
AcDbEntity
  8
L-ZISSEN
100
AcDbLine
 10
-426.3965749822118
 20
-257.6479309213933
 30
0.0
 11
-426.3965749822118
 21
-256.2460071327467
 31
0.0
  0
LINE
  5
6C9C
330
2
100
AcDbEntity
  8
L-ZISSEN
100
AcDbLine
 10
-427.8965749822118
 20
-253.6479309213933
 30
0.0
 11
-426.3965749822118
 21
-256.2460071327468
 31
0.0
  0
LINE
  5
6C9D
330
2
100
AcDbEntity
  8
L-TYUSIN
100
AcDbLine
 10
-500.6465749822118
 20
-189.6479309213937
 30
0.0
 11
-500.6465749822118
 21
-404.6479309213941
 31
0.0
  0
TEXT
  5
6C9F
330
2
100
AcDbEntity
  8
L-ZISSEN
100
AcDbText
 10
-567.7822644416787
 20
-268.1038967059189
 30
0.0
 40
4.5
  1
Rc3/8
100
AcDbText
  0
LINE
  5
6CA0
330
2
100
AcDbEntity
  8
L-ZISSEN
100
AcDbLine
 10
-568.3290875037775
 20
-254.1144225087378
 30
0.0
 11
-544.233803835425
 21
-254.1144225087378
 31
0.0
  0
TEXT
  5
6CA1
330
2
100
AcDbEntity
  8
L-ZISSEN
100
AcDbText
 10
-567.7822644416787
 20
-260.6038967059189
 30
0.0
 40
4.5
  1
Rc1/4
100
AcDbText
  0
TEXT
  5
6CA2
330
2
100
AcDbEntity
  8
L-ZISSEN
100
AcDbText
 10
-567.7822644416787
 20
-253.1038967059189
 30
0.0
 40
4.5
  1
IN
100
AcDbText
  0
LINE
  5
6CA3
330
2
100
AcDbEntity
  8
L-ZISSEN
100
AcDbLine
 10
-491.7280653822138
 20
-332.3756030959111
 30
0.0
 11
-491.7280653822138
 21
-308.8103105876571
 31
0.0
  0
LINE
  5
6CA4
330
2
100
AcDbEntity
  8
L-ZISSEN
100
AcDbLine
 10
-492.4561069822111
 20
-308.8103105876571
 30
0.0
 11
-492.4561069822111
 21
-327.011350587657
 31
0.0
  0
LINE
  5
6CA5
330
2
100
AcDbEntity
  8
L-ZISSEN
100
AcDbLine
 10
-487.983360696488
 20
-315.1821297064643
 30
0.0
 11
-487.983360696488
 21
-367.4512925893523
 31
0.0
  0
LINE
  5
6CA6
330
2
100
AcDbEntity
  8
L-ZISSEN
100
AcDbLine
 10
-481.6006464107736
 20
-315.1821297064643
 30
0.0
 11
-481.6006464107731
 21
-367.4512925893518
 31
0.0
  0
LINE
  5
6CA7
330
2
100
AcDbEntity
  8
L-ZISSEN
100
AcDbLine
 10
-478.456642251607
 20
-376.5974737439642
 30
0.0
 11
-478.456642251607
 21
-308.6479309213946
 31
0.0
  0
LINE
  5
6CA8
330
2
100
AcDbEntity
  8
L-ZISSEN
100
AcDbLine
 10
-493.7072126121502
 20
-323.5919490902415
 30
0.0
 11
-493.7072126121502
 21
-326.2495427158983
 31
0.0
  0
LINE
  5
6CA9
330
2
100
AcDbEntity
  8
L-ZISSEN
100
AcDbLine
 10
-508.8370429822116
 20
-308.8103105876571
 30
0.0
 11
-508.8370429822116
 21
-327.011350587657
 31
0.0
  0
LINE
  5
6CAA
330
2
100
AcDbEntity
  8
L-ZISSEN
100
AcDbLine
 10
-507.5859373522744
 20
-323.5919490902415
 30
0.0
 11
-507.5859373522744
 21
-326.2495427158983
 31
0.0
  0
LINE
  5
6CAB
330
2
100
AcDbEntity
  8
L-ZISSEN
100
AcDbLine
 10
-500.6465749822118
 20
-324.0991841876566
 30
0.0
 11
-508.2910117822112
 21
-323.0071217876566
 31
0.0
  0
LINE
  5
6CAC
330
2
100
AcDbEntity
  8
L-ZISSEN
100
AcDbLine
 10
-500.6465749822118
 20
-324.5832865716792
 30
0.0
 11
-507.5859373522744
 21
-323.5919490902415
 31
0.0
  0
LINE
  5
6CAD
330
2
100
AcDbEntity
  8
L-ZISSEN
100
AcDbLine
 10
-500.6465749822118
 20
-324.0991841876566
 30
0.0
 11
-493.0021381822116
 21
-323.0071217876566
 31
0.0
  0
LINE
  5
6CAE
330
2
100
AcDbEntity
  8
L-ZISSEN
100
AcDbLine
 10
-500.6465749822118
 20
-324.5832865716792
 30
0.0
 11
-493.7072126121502
 21
-323.5919490902415
 31
0.0
  0
LINE
  5
6CAF
330
2
100
AcDbEntity
  8
L-ZISSEN
100
AcDbLine
 10
-519.881789267919
 20
-315.1821297064643
 30
0.0
 11
-519.8817892679187
 21
-367.4512925893513
 31
0.0
  0
LINE
  5
6CB0
330
2
100
AcDbEntity
  8
L-ZISSEN
100
AcDbLine
 10
-509.5650845822119
 20
-332.3756030959111
 30
0.0
 11
-509.5650845822119
 21
-308.8103105876571
 31
0.0
  0
LINE
  5
6CB1
330
2
100
AcDbEntity
  8
L-ZISSEN
100
AcDbLine
 10
-513.4990749822027
 20
-315.1821297064643
 30
0.0
 11
-513.4990749822032
 21
-367.4512925893518
 31
0.0
  0
LINE
  5
6CB2
330
2
100
AcDbEntity
  8
L-ZISSEN
100
AcDbLine
 10
-523.2748831476071
 20
-308.6479309213946
 30
0.0
 11
-523.2748831476071
 21
-376.5974737439642
 31
0.0
  0
LINE
  5
6CB4
330
2
100
AcDbEntity
  8
L-ZISSEN
100
AcDbLine
 10
-495.6385839774206
 20
-389.5890963318861
 30
0.0
 11
-495.1385839774211
 21
-389.0890963318861
 31
0.0
  0
LINE
  5
6CB5
330
2
100
AcDbEntity
  8
L-ZISSEN
100
AcDbLine
 10
-495.6385839774165
 20
-387.6492771838174
 30
0.0
 11
-495.6385839774206
 21
-389.5890963318861
 31
0.0
  0
LINE
  5
6CB6
330
2
100
AcDbEntity
  8
L-ZISSEN
100
AcDbLine
 10
-505.638583977422
 20
-389.5890963318861
 30
0.0
 11
-506.1385839774193
 21
-389.0890963318861
 31
0.0
  0
LINE
  5
6CB7
330
2
100
AcDbEntity
  8
L-ZISSEN
100
AcDbLine
 10
-505.6385839774179
 20
-387.6486275325232
 30
0.0
 11
-505.638583977422
 21
-389.5890963318861
 31
0.0
  0
LINE
  5
6CB8
330
2
100
AcDbEntity
  8
L-ZISSEN
100
AcDbLine
 10
-497.6385839774207
 20
-389.5890963318861
 30
0.0
 11
-495.1385839774206
 21
-389.5890963318861
 31
0.0
  0
LINE
  5
6CB9
330
2
100
AcDbEntity
  8
L-ZISSEN
100
AcDbLine
 10
-494.9385839774208
 20
-399.6479309213946
 30
0.0
 11
-506.3385839774196
 21
-399.6479309213946
 31
0.0
  0
LINE
  5
6CBA
330
2
100
AcDbEntity
  8
L-ZISSEN
100
AcDbLine
 10
-498.6385839774198
 20
-389.5890963318861
 30
0.0
 11
-498.6385839774198
 21
-399.6479309213946
 31
0.0
  0
LINE
  5
6CBB
330
2
100
AcDbEntity
  8
L-ZISSEN
100
AcDbLine
 10
-497.6385839774207
 20
-389.5890963318861
 30
0.0
 11
-497.6385839774207
 21
-399.6479309213946
 31
0.0
  0
LINE
  5
6CBC
330
2
100
AcDbEntity
  8
L-ZISSEN
100
AcDbLine
 10
-496.638583977417
 20
-389.5890963318861
 30
0.0
 11
-496.638583977417
 21
-399.6479309213946
 31
0.0
  0
LINE
  5
6CBD
330
2
100
AcDbEntity
  8
L-ZISSEN
100
AcDbLine
 10
-495.638583977418
 20
-389.5890963318861
 30
0.0
 11
-495.6385839774161
 21
-399.6479309213946
 31
0.0
  0
LINE
  5
6CBE
330
2
100
AcDbEntity
  8
L-ZISSEN
100
AcDbLine
 10
-506.6385839774195
 20
-399.3479309213948
 30
0.0
 11
-506.6385839774193
 21
-390.0890963318861
 31
0.0
  0
LINE
  5
6CBF
330
2
100
AcDbEntity
  8
L-ZISSEN
100
AcDbLine
 10
-505.6385839774202
 20
-389.5890963318861
 30
0.0
 11
-505.6385839774202
 21
-399.6479309213946
 31
0.0
  0
LINE
  5
6CC0
330
2
100
AcDbEntity
  8
L-ZISSEN
100
AcDbLine
 10
-504.6385839774211
 20
-389.5890963318861
 30
0.0
 11
-504.6385839774211
 21
-399.6479309213946
 31
0.0
  0
LINE
  5
6CC1
330
2
100
AcDbEntity
  8
L-ZISSEN
100
AcDbLine
 10
-503.6385839774197
 20
-389.5890963318861
 30
0.0
 11
-503.6385839774197
 21
-399.6479309213946
 31
0.0
  0
LINE
  5
6CC2
330
2
100
AcDbEntity
  8
L-ZISSEN
100
AcDbLine
 10
-502.6385839774184
 20
-389.5890963318861
 30
0.0
 11
-502.6385839774184
 21
-399.6479309213946
 31
0.0
  0
LINE
  5
6CC3
330
2
100
AcDbEntity
  8
L-ZISSEN
100
AcDbLine
 10
-501.6385839774193
 20
-389.5890963318861
 30
0.0
 11
-501.6385839774193
 21
-399.6479309213946
 31
0.0
  0
LINE
  5
6CC4
330
2
100
AcDbEntity
  8
L-ZISSEN
100
AcDbLine
 10
-500.6385839774179
 20
-389.5890963318861
 30
0.0
 11
-500.6385839774179
 21
-399.6479309213946
 31
0.0
  0
LINE
  5
6CC5
330
2
100
AcDbEntity
  8
L-ZISSEN
100
AcDbLine
 10
-499.6385839774188
 20
-389.5890963318861
 30
0.0
 11
-499.6385839774188
 21
-399.6479309213946
 31
0.0
  0
LINE
  5
6CC6
330
2
100
AcDbEntity
  8
L-ZISSEN
100
AcDbLine
 10
-506.3385839774196
 20
-399.6479309213946
 30
0.0
 11
-506.6385839774193
 21
-399.3479309213953
 31
0.0
  0
LINE
  5
6CC7
330
2
100
AcDbEntity
  8
L-ZISSEN
100
AcDbLine
 10
-506.138583977422
 20
-389.5890963318861
 30
0.0
 11
-497.6385839774207
 21
-389.5890963318861
 31
0.0
  0
LINE
  5
6CC8
330
2
100
AcDbEntity
  8
L-ZISSEN
100
AcDbLine
 10
-506.138583977422
 20
-389.5890963318861
 30
0.0
 11
-506.6385839774193
 21
-390.0890963318861
 31
0.0
  0
LINE
  5
6CC9
330
2
100
AcDbEntity
  8
L-ZISSEN
100
AcDbLine
 10
-494.6385839774211
 20
-390.0890963318861
 30
0.0
 11
-494.6385839774211
 21
-399.3479309213948
 31
0.0
  0
LINE
  5
6CCA
330
2
100
AcDbEntity
  8
L-ZISSEN
100
AcDbLine
 10
-494.9385839774208
 20
-399.6479309213946
 30
0.0
 11
-494.6385839774211
 21
-399.3479309213953
 31
0.0
  0
LINE
  5
6CCB
330
2
100
AcDbEntity
  8
L-ZISSEN
100
AcDbLine
 10
-495.1385839774206
 20
-389.5890963318861
 30
0.0
 11
-494.6385839774211
 21
-390.0890963318861
 31
0.0
  0
LINE
  5
6CCC
330
2
100
AcDbEntity
  8
L-ZISSEN
100
AcDbLine
 10
-493.7072126121502
 20
-326.2495427158983
 30
0.0
 11
-500.6465749822118
 21
-327.7023398124402
 31
0.0
  0
LINE
  5
6CCD
330
2
100
AcDbEntity
  8
L-ZISSEN
100
AcDbLine
 10
-493.8322892679236
 20
-384.35990333384
 30
0.0
 11
-507.6501464107698
 21
-384.3599033338418
 31
0.0
  0
LINE
  5
6CCE
330
2
100
AcDbEntity
  8
L-ZISSEN
100
AcDbLine
 10
-496.1037178393548
 20
-385.3775415392297
 30
0.0
 11
-495.4715240123257
 21
-385.3775415392297
 31
0.0
  0
ARC
  5
6CCF
330
2
100
AcDbEntity
  8
L-ZISSEN
100
AcDbCircle
 10
-495.5640884510719
 20
-389.3676179841781
 30
0.0
 40
3.991149986138381
100
AcDbArc
 50
64.28835488517359
 51
115.2591066833833
  0
LINE
  5
6CD0
330
2
100
AcDbEntity
  8
L-ZISSEN
100
AcDbLine
 10
-493.8322892679236
 20
-385.2712017339431
 30
0.0
 11
-496.1037178393548
 21
-385.2712017339431
 31
0.0
  0
LINE
  5
6CD1
330
2
100
AcDbEntity
  8
L-ZISSEN
100
AcDbLine
 10
-493.8322892679236
 20
-385.2712017339431
 30
0.0
 11
-496.1037178393548
 21
-385.2712017339431
 31
0.0
  0
LINE
  5
6CD2
330
2
100
AcDbEntity
  8
L-ZISSEN
100
AcDbLine
 10
-500.6465749822121
 20
-387.6489701106588
 30
0.0
 11
-495.4715240123325
 21
-387.6489701106588
 31
0.0
  0
ARC
  5
6CD3
330
2
100
AcDbEntity
  8
L-ZISSEN
100
AcDbCircle
 10
-495.5640884510719
 20
-383.6588936657103
 30
0.0
 40
3.991149986138576
100
AcDbArc
 50
244.7408933166166
 51
295.7116451148264
  0
LINE
  5
6CD4
330
2
100
AcDbEntity
  8
L-ZISSEN
100
AcDbLine
 10
-500.6465749822118
 20
-329.195475387657
 30
0.0
 11
-492.4561069822111
 21
-327.011350587657
 31
0.0
  0
ARC
  5
6CD5
330
2
100
AcDbEntity
  8
L-ZISSEN
100
AcDbCircle
 10
-500.5605974333205
 20
-309.3204888632503
 30
0.0
 40
75.36553414422333
100
AcDbArc
 50
256.0937629349081
 51
264.6679223051358
  0
ARC
  5
6CD6
330
2
100
AcDbEntity
  8
L-ZISSEN
100
AcDbCircle
 10
-517.2177402904633
 20
-376.5974737439642
 30
0.0
 40
6.057142857143803
100
AcDbArc
 50
180.0
 51
256.0937629349081
  0
LINE
  5
6CD7
330
2
100
AcDbEntity
  8
L-ZISSEN
100
AcDbLine
 10
-505.8399951605408
 20
-385.3775415392297
 30
0.0
 11
-496.1037178393548
 21
-385.3775415392297
 31
0.0
  0
LINE
  5
6CD8
330
2
100
AcDbEntity
  8
L-ZISSEN
100
AcDbLine
 10
-496.1037178393548
 20
-385.2712017339431
 30
0.0
 11
-507.4608606964978
 21
-385.2712017339431
 31
0.0
  0
LINE
  5
6CD9
330
2
100
AcDbEntity
  8
L-ZISSEN
100
AcDbLine
 10
-496.1037178393548
 20
-385.2712017339431
 30
0.0
 11
-507.4608606964978
 21
-385.2712017339431
 31
0.0
  0
LINE
  5
6CDA
330
2
100
AcDbEntity
  8
L-ZISSEN
100
AcDbLine
 10
-505.8399951605272
 20
-387.6489701106588
 30
0.0
 11
-500.6465749822121
 21
-387.6489701106588
 31
0.0
  0
ARC
  5
6CDB
330
2
100
AcDbEntity
  8
L-ZISSEN
100
AcDbCircle
 10
-500.6465749822121
 20
-401.0057747066244
 30
0.0
 40
15.62823316739414
100
AcDbArc
 50
77.50558048153568
 51
102.6763186877809
  0
ARC
  5
6CDC
330
2
100
AcDbEntity
  8
L-ZISSEN
100
AcDbCircle
 10
-500.6465749822121
 20
-372.0207369432642
 30
0.0
 40
15.62823316739414
100
AcDbArc
 50
257.323681312219
 51
282.4944195184642
  0
ARC
  5
6CDD
330
2
100
AcDbEntity
  8
L-ZISSEN
100
AcDbCircle
 10
-505.7787282347107
 20
-389.3682212527187
 30
0.0
 40
3.991149986137005
100
AcDbArc
 50
64.74766100334594
 51
114.9228807251047
  0
ARC
  5
6CDE
330
2
100
AcDbEntity
  8
L-ZISSEN
100
AcDbCircle
 10
-505.7787282347107
 20
-383.6582903971698
 30
0.0
 40
3.991149986138089
100
AcDbArc
 50
245.0771192748952
 51
295.2523389966541
  0
LINE
  5
6CDF
330
2
100
AcDbEntity
  8
L-ZISSEN
100
AcDbLine
 10
-507.4608606964978
 20
-385.2712017339431
 30
0.0
 11
-507.4608606964978
 21
-384.35990333384
 31
0.0
  0
LINE
  5
6CE0
330
2
100
AcDbEntity
  8
L-ZISSEN
100
AcDbLine
 10
-507.4608606964978
 20
-385.2712017339431
 30
0.0
 11
-507.4608606964978
 21
-384.35990333384
 31
0.0
  0
LINE
  5
6CE1
330
2
100
AcDbEntity
  8
L-ZISSEN
100
AcDbLine
 10
-507.4605908659882
 20
-385.7487439007586
 30
0.0
 11
-507.4605908659882
 21
-387.2777677491308
 31
0.0
  0
LINE
  5
6CE2
330
2
100
AcDbEntity
  8
L-ZISSEN
100
AcDbLine
 10
-504.0760810515669
 20
-385.7584746159632
 30
0.0
 11
-504.0760810515641
 21
-387.2680370339271
 31
0.0
  0
LINE
  5
6CE3
330
2
100
AcDbEntity
  8
L-ZISSEN
100
AcDbLine
 10
-506.1385839774193
 20
-389.0890963318861
 30
0.0
 11
-506.1385839774193
 21
-387.6479309213946
 31
0.0
  0
LINE
  5
6CE4
330
2
100
AcDbEntity
  8
L-ZISSEN
100
AcDbLine
 10
-498.3751464107822
 20
-385.3775415392297
 30
0.0
 11
-498.3751464107822
 21
-385.2712017339431
 31
0.0
  0
LINE
  5
6CE5
330
2
100
AcDbEntity
  8
L-ZISSEN
100
AcDbLine
 10
-497.2671619998993
 20
-385.7580724865925
 30
0.0
 11
-497.2671619998993
 21
-387.268439163296
 31
0.0
  0
LINE
  5
6CE6
330
2
100
AcDbEntity
  8
L-ZISSEN
100
AcDbLine
 10
-516.6904321250631
 20
-368.9655783036373
 30
0.0
 11
-519.881789267919
 21
-367.4512925893513
 31
0.0
  0
LINE
  5
6CE7
330
2
100
AcDbEntity
  8
L-ZISSEN
100
AcDbLine
 10
-513.4990749822032
 20
-367.4512925893518
 30
0.0
 11
-516.6904321250631
 21
-368.9655783036373
 31
0.0
  0
LINE
  5
6CE9
330
2
100
AcDbEntity
  8
L-ZISSEN
100
AcDbLine
 10
-505.9327562243124
 20
-327.8422770441693
 30
0.0
 11
-505.9327562243124
 21
-332.3756030959111
 31
0.0
  0
LINE
  5
6CEA
330
2
100
AcDbEntity
  8
L-ZISSEN
100
AcDbLine
 10
-505.9327562243124
 20
-332.3756030959111
 30
0.0
 11
-509.5650845822119
 21
-332.3756030959111
 31
0.0
  0
LINE
  5
6CEB
330
2
100
AcDbEntity
  8
L-ZISSEN
100
AcDbLine
 10
-500.6465749822118
 20
-329.195475387657
 30
0.0
 11
-508.8370429822116
 21
-327.011350587657
 31
0.0
  0
LINE
  5
6CEC
330
2
100
AcDbEntity
  8
L-ZISSEN
100
AcDbLine
 10
-507.5859373522744
 20
-326.2495427158983
 30
0.0
 11
-500.6465749822118
 21
-327.7023398124402
 31
0.0
  0
LINE
  5
6CED
330
2
100
AcDbEntity
  8
L-ZISSEN
100
AcDbLine
 10
-508.8370429822116
 20
-327.011350587657
 30
0.0
 11
-507.5859373522744
 21
-326.2495427158983
 31
0.0
  0
LINE
  5
6CEE
330
2
100
AcDbEntity
  8
L-ZISSEN
100
AcDbLine
 10
-500.6465749822118
 20
-329.195475387657
 30
0.0
 11
-500.6465749822118
 21
-324.0991841876566
 31
0.0
  0
LINE
  5
6CEF
330
2
100
AcDbEntity
  8
L-ZISSEN
100
AcDbLine
 10
-500.6465749822118
 20
-329.195475387657
 30
0.0
 11
-500.6465749822118
 21
-324.5832865716792
 31
0.0
  0
ARC
  5
6CF0
330
2
100
AcDbEntity
  8
L-ZISSEN
100
AcDbCircle
 10
-484.5137851087499
 20
-376.5974737439642
 30
0.0
 40
6.057142857142908
100
AcDbArc
 50
283.9062370650918
 51
0.0
  0
ARC
  5
6CF1
330
2
100
AcDbEntity
  8
L-ZISSEN
100
AcDbCircle
 10
-501.1709279658928
 20
-309.3204888632503
 30
0.0
 40
75.36553414422368
100
AcDbArc
 50
275.3320776948642
 51
283.9062370650918
  0
LINE
  5
6CF2
330
2
100
AcDbEntity
  8
L-ZISSEN
100
AcDbLine
 10
-493.8322892679236
 20
-385.2712017339431
 30
0.0
 11
-493.8322892679236
 21
-384.35990333384
 31
0.0
  0
LINE
  5
6CF3
330
2
100
AcDbEntity
  8
L-ZISSEN
100
AcDbLine
 10
-493.8322892679236
 20
-385.2712017339431
 30
0.0
 11
-493.8322892679236
 21
-384.35990333384
 31
0.0
  0
LINE
  5
6CF4
330
2
100
AcDbEntity
  8
L-ZISSEN
100
AcDbLine
 10
-493.6430035536529
 20
-384.3599033338418
 30
0.0
 11
-493.8322892679236
 21
-384.35990333384
 31
0.0
  0
LINE
  5
6CF5
330
2
100
AcDbEntity
  8
L-ZISSEN
100
AcDbLine
 10
-493.8325590984345
 20
-385.7716362944588
 30
0.0
 11
-493.8325590984345
 21
-387.2548753554297
 31
0.0
  0
LINE
  5
6CF6
330
2
100
AcDbEntity
  8
L-ZISSEN
100
AcDbLine
 10
-495.1385839774211
 20
-389.0890963318861
 30
0.0
 11
-495.1385839774211
 21
-387.6479309213946
 31
0.0
  0
LINE
  5
6CF7
330
2
100
AcDbEntity
  8
L-ZISSEN
100
AcDbLine
 10
-484.7920035536326
 20
-368.9655783036373
 30
0.0
 11
-481.6006464107736
 21
-367.4512925893513
 31
0.0
  0
LINE
  5
6CF8
330
2
100
AcDbEntity
  8
L-ZISSEN
100
AcDbLine
 10
-487.9833606964885
 20
-367.4512925893518
 30
0.0
 11
-484.7920035536326
 21
-368.9655783036373
 31
0.0
  0
LINE
  5
6CF9
330
2
100
AcDbEntity
  8
L-ZISSEN
100
AcDbLine
 10
-495.3603937401132
 20
-327.8422770441693
 30
0.0
 11
-495.3603937401132
 21
-332.3756030959111
 31
0.0
  0
LINE
  5
6CFA
330
2
100
AcDbEntity
  8
L-ZISSEN
100
AcDbLine
 10
-495.3603937401132
 20
-332.3756030959111
 30
0.0
 11
-491.7280653822138
 21
-332.3756030959111
 31
0.0
  0
LINE
  5
6CFB
330
2
100
AcDbEntity
  8
L-ZISSEN
100
AcDbLine
 10
-492.4561069822111
 20
-327.011350587657
 30
0.0
 11
-493.7072126121502
 21
-326.2495427158983
 31
0.0
  0
LINE
  5
6CFC
330
2
100
AcDbEntity
  8
L-ZISSEN
100
AcDbLine
 10
-474.1465749822118
 20
-253.7407880642504
 30
0.0
 11
-474.1465749822117
 21
-264.3258609705342
 31
0.0
  0
LINE
  5
6CFD
330
2
100
AcDbEntity
  8
L-ZISSEN
100
AcDbLine
 10
-527.1465749822119
 20
-253.7407880642504
 30
0.0
 11
-527.1465749822119
 21
-264.6479309213964
 31
0.0
  0
LINE
  5
6CFE
330
2
100
AcDbEntity
  8
L-ZISSEN
100
AcDbLine
 10
-528.2011877582944
 20
-279.9485804888704
 30
0.0
 11
-544.233803835425
 21
-254.1144225087378
 31
0.0
  0
LINE
  5
6CFF
330
2
100
AcDbEntity
  8
L-ZISSEN
100
AcDbLine
 10
-495.9143045822101
 20
-311.7224769876593
 30
0.0
 11
-494.0942005822103
 21
-312.8145393876593
 31
0.0
  0
LINE
  5
6D00
330
2
100
AcDbEntity
  8
L-ZISSEN
100
AcDbLine
 10
-495.9143045822101
 20
-313.9066017876594
 30
0.0
 11
-494.0942005822103
 21
-312.8145393876593
 31
0.0
  0
LINE
  5
6D01
330
2
100
AcDbEntity
  8
L-ZISSEN
100
AcDbLine
 10
-493.0021381822116
 20
-308.8103105876571
 30
0.0
 11
-508.2910117822112
 21
-308.8103105876571
 31
0.0
  0
LINE
  5
6D02
330
2
100
AcDbEntity
  8
L-ZISSEN
100
AcDbLine
 10
-527.1465749822119
 20
-308.6479309213946
 30
0.0
 11
-474.1465749822102
 21
-308.6479309213946
 31
0.0
  0
LINE
  5
6D03
330
2
100
AcDbEntity
  8
L-ZISSEN
100
AcDbLine
 10
-508.8370429822116
 20
-308.8103105876571
 30
0.0
 11
-492.4561069822111
 21
-308.8103105876571
 31
0.0
  0
LINE
  5
6D04
330
2
100
AcDbEntity
  8
L-ZISSEN
100
AcDbLine
 10
-491.7280653822117
 20
-308.8103105876571
 30
0.0
 11
-509.5650845822119
 21
-308.8103105876571
 31
0.0
  0
CIRCLE
  5
6D05
330
2
100
AcDbEntity
  8
L-SOUZOU
100
AcDbCircle
 10
-500.6465749822118
 20
-281.647930921395
 30
0.0
 40
21.0
  0
LINE
  5
6D06
330
2
100
AcDbEntity
  8
L-SOUZOU
100
AcDbLine
 10
-493.0097749822159
 20
-275.707930921395
 30
0.0
 11
-498.7289749822141
 21
-281.0807309213951
 31
0.0
  0
LINE
  5
6D07
330
2
100
AcDbEntity
  8
L-SOUZOU
100
AcDbLine
 10
-494.7065749822154
 20
-274.0111309213948
 30
0.0
 11
-500.0793749822155
 21
-279.7303309213948
 31
0.0
  0
LINE
  5
6D08
330
2
100
AcDbEntity
  8
L-TYUSIN
100
AcDbLine
 10
-470.3608606964974
 20
-281.6479309213946
 30
0.0
 11
-530.9322892679258
 21
-281.6479309213955
 31
0.0
  0
LINE
  5
6D09
330
2
100
AcDbEntity
  8
L-ZISSEN
100
AcDbLine
 10
-524.8751464107836
 20
-291.147930921395
 30
0.0
 11
-476.4180035536403
 21
-291.147930921395
 31
0.0
  0
CIRCLE
  5
6D0A
330
2
100
AcDbEntity
  8
L-SOUZOU
100
AcDbCircle
 10
-500.6465749822118
 20
-281.647930921395
 30
0.0
 40
18.0
  0
LINE
  5
6D0B
330
2
100
AcDbEntity
  8
L-SOUZOU
100
AcDbLine
 10
-492.2249749822163
 20
-273.2263309213949
 30
0.0
 11
-512.948174982218
 21
-293.9495309213944
 31
0.0
  0
LINE
  5
6D0C
330
2
100
AcDbEntity
  8
L-ZISSEN
100
AcDbLine
 10
-527.1465749822119
 20
-261.147930921395
 30
0.0
 11
-474.1465749822118
 21
-261.1479309213946
 31
0.0
  0
LINE
  5
6D0D
330
2
100
AcDbEntity
  8
L-ZISSEN
100
AcDbLine
 10
-527.1465749822119
 20
-261.1479309213927
 30
0.0
 11
-474.1465749822118
 21
-261.1479309213927
 31
0.0
  0
LINE
  5
6D0E
330
2
100
AcDbEntity
  8
L-ZISSEN
100
AcDbLine
 10
-476.4180035536385
 20
-272.647930921395
 30
0.0
 11
-524.8751464107815
 21
-272.647930921395
 31
0.0
  0
LINE
  5
6D0F
330
2
100
AcDbEntity
  8
L-ZISSEN
100
AcDbLine
 10
-524.4965749822133
 20
-308.6479309213946
 30
0.0
 11
-524.4965749822131
 21
-291.147930921395
 31
0.0
  0
LINE
  5
6D10
330
2
100
AcDbEntity
  8
L-ZISSEN
100
AcDbLine
 10
-521.4680035536392
 20
-308.6479309213946
 30
0.0
 11
-521.4680035536392
 21
-291.147930921395
 31
0.0
  0
LINE
  5
6D11
330
2
100
AcDbEntity
  8
L-SOUZOU
100
AcDbLine
 10
-502.5249749822162
 20
-282.3335309213948
 30
0.0
 11
-511.9777749822153
 21
-292.3959309213946
 31
0.0
  0
LINE
  5
6D12
330
2
100
AcDbEntity
  8
L-SOUZOU
100
AcDbLine
 10
-501.3321749822148
 20
-283.5263309213951
 30
0.0
 11
-511.3945749822157
 21
-292.9791309213947
 31
0.0
  0
LINE
  5
6D13
330
2
100
AcDbEntity
  8
L-ZISSEN
100
AcDbLine
 10
-527.1465749822119
 20
-267.647930921395
 30
0.0
 11
-527.1465749822116
 21
-295.6479309213955
 31
0.0
  0
LINE
  5
6D14
330
2
100
AcDbEntity
  8
L-ZISSEN
100
AcDbLine
 10
-527.1465749822116
 20
-308.647930921395
 30
0.0
 11
-527.1465749822119
 21
-298.6479309213946
 31
0.0
  0
LINE
  5
6D15
330
2
100
AcDbEntity
  8
L-ZISSEN
100
AcDbLine
 10
-525.1465749822118
 20
-298.6479309213946
 30
0.0
 11
-525.1465749822121
 21
-295.6479309213955
 31
0.0
  0
LINE
  5
6D16
330
2
100
AcDbEntity
  8
L-ZISSEN
100
AcDbLine
 10
-527.1465749822116
 20
-295.6479309213955
 30
0.0
 11
-525.1465749822116
 21
-295.647930921395
 31
0.0
  0
LINE
  5
6D17
330
2
100
AcDbEntity
  8
L-ZISSEN
100
AcDbLine
 10
-527.1465749822119
 20
-298.6479309213946
 30
0.0
 11
-525.1465749822118
 21
-298.6479309213946
 31
0.0
  0
LINE
  5
6D18
330
2
100
AcDbEntity
  8
L-ZISSEN
100
AcDbLine
 10
-519.881789267919
 20
-315.1821297064643
 30
0.0
 11
-513.4990749822027
 21
-315.1821297064643
 31
0.0
  0
LINE
  5
6D19
330
2
100
AcDbEntity
  8
L-ZISSEN
100
AcDbLine
 10
-508.2910117822112
 20
-308.8103105876571
 30
0.0
 11
-508.2910117822112
 21
-323.0071217876566
 31
0.0
  0
LINE
  5
6D1A
330
2
100
AcDbEntity
  8
L-ZISSEN
100
AcDbLine
 10
-508.8370429822116
 20
-308.8103105876571
 30
0.0
 11
-508.8370429822116
 21
-322.6659762685594
 31
0.0
  0
LINE
  5
6D1B
330
2
100
AcDbEntity
  8
L-ZISSEN
100
AcDbLine
 10
-499.9185333822128
 20
-310.9944353876576
 30
0.0
 11
-499.9185333822128
 21
-316.8187681876579
 31
0.0
  0
LINE
  5
6D1C
330
2
100
AcDbEntity
  8
L-ZISSEN
100
AcDbLine
 10
-499.9185333822128
 20
-310.9944353876576
 30
0.0
 11
-499.9185333822128
 21
-316.8187681876579
 31
0.0
  0
LINE
  5
6D1D
330
2
100
AcDbEntity
  8
L-ZISSEN
100
AcDbLine
 10
-501.3746165822128
 20
-310.9944353876576
 30
0.0
 11
-501.3746165822128
 21
-316.8187681876579
 31
0.0
  0
LINE
  5
6D1E
330
2
100
AcDbEntity
  8
L-ZISSEN
100
AcDbLine
 10
-501.3746165822128
 20
-310.9944353876576
 30
0.0
 11
-501.3746165822128
 21
-316.8187681876579
 31
0.0
  0
LINE
  5
6D1F
330
2
100
AcDbEntity
  8
L-ZISSEN
100
AcDbLine
 10
-501.3746165822128
 20
-316.8187681876579
 30
0.0
 11
-502.8306997822128
 21
-316.8187681876579
 31
0.0
  0
LINE
  5
6D20
330
2
100
AcDbEntity
  8
L-ZISSEN
100
AcDbLine
 10
-502.8306997822128
 20
-316.8187681876579
 30
0.0
 11
-500.646574982213
 21
-320.4589761876577
 31
0.0
  0
LINE
  5
6D21
330
2
100
AcDbEntity
  8
L-ZISSEN
100
AcDbLine
 10
-507.5859373522744
 20
-323.5919490902415
 30
0.0
 11
-508.2910117822112
 21
-323.0071217876566
 31
0.0
  0
LINE
  5
6D22
330
2
100
AcDbEntity
  8
L-ZISSEN
100
AcDbLine
 10
-507.5859373522744
 20
-323.1078467062197
 30
0.0
 11
-508.2910117822112
 21
-323.0071217876566
 31
0.0
  0
LINE
  5
6D23
330
2
100
AcDbEntity
  8
L-ZISSEN
100
AcDbLine
 10
-499.9185333822128
 20
-316.8187681876579
 30
0.0
 11
-498.4624501822129
 21
-316.8187681876579
 31
0.0
  0
LINE
  5
6D24
330
2
100
AcDbEntity
  8
L-ZISSEN
100
AcDbLine
 10
-498.4624501822129
 20
-316.8187681876579
 30
0.0
 11
-500.646574982213
 21
-320.4589761876577
 31
0.0
  0
LINE
  5
6D25
330
2
100
AcDbEntity
  8
L-ZISSEN
100
AcDbLine
 10
-502.4666789822145
 20
-312.4505185876596
 30
0.0
 11
-505.3788453822144
 21
-312.4505185876596
 31
0.0
  0
LINE
  5
6D26
330
2
100
AcDbEntity
  8
L-ZISSEN
100
AcDbLine
 10
-502.4666789822145
 20
-312.4505185876596
 30
0.0
 11
-505.3788453822144
 21
-312.4505185876596
 31
0.0
  0
LINE
  5
6D27
330
2
100
AcDbEntity
  8
L-ZISSEN
100
AcDbLine
 10
-502.4666789822145
 20
-313.1785601876595
 30
0.0
 11
-505.3788453822144
 21
-313.1785601876595
 31
0.0
  0
LINE
  5
6D28
330
2
100
AcDbEntity
  8
L-ZISSEN
100
AcDbLine
 10
-502.4666789822145
 20
-313.1785601876595
 30
0.0
 11
-505.3788453822144
 21
-313.1785601876595
 31
0.0
  0
LINE
  5
6D29
330
2
100
AcDbEntity
  8
L-ZISSEN
100
AcDbLine
 10
-505.3788453822144
 20
-312.4505185876596
 30
0.0
 11
-505.3788453822144
 21
-311.7224769876593
 31
0.0
  0
LINE
  5
6D2A
330
2
100
AcDbEntity
  8
L-ZISSEN
100
AcDbLine
 10
-505.3788453822144
 20
-311.7224769876593
 30
0.0
 11
-507.1989493822143
 21
-312.8145393876593
 31
0.0
  0
LINE
  5
6D2B
330
2
100
AcDbEntity
  8
L-ZISSEN
100
AcDbLine
 10
-505.3788453822144
 20
-313.1785601876595
 30
0.0
 11
-505.3788453822144
 21
-313.9066017876594
 31
0.0
  0
LINE
  5
6D2C
330
2
100
AcDbEntity
  8
L-ZISSEN
100
AcDbLine
 10
-505.3788453822144
 20
-313.9066017876594
 30
0.0
 11
-507.1989493822143
 21
-312.8145393876593
 31
0.0
  0
LINE
  5
6D2D
330
2
100
AcDbEntity
  8
L-ZISSEN
100
AcDbLine
 10
-509.5650845822119
 20
-308.8103105876571
 30
0.0
 11
-509.5650845822119
 21
-308.6479309213946
 31
0.0
  0
LINE
  5
6D2E
330
2
100
AcDbEntity
  8
L-ZISSEN
100
AcDbLine
 10
-495.9143045822101
 20
-312.4505185876596
 30
0.0
 11
-495.9143045822101
 21
-311.7224769876593
 31
0.0
  0
LINE
  5
6D2F
330
2
100
AcDbEntity
  8
L-ZISSEN
100
AcDbLine
 10
-495.9143045822101
 20
-313.1785601876595
 30
0.0
 11
-495.9143045822101
 21
-313.9066017876594
 31
0.0
  0
LINE
  5
6D30
330
2
100
AcDbEntity
  8
L-ZISSEN
100
AcDbLine
 10
-498.8264709822101
 20
-312.4505185876596
 30
0.0
 11
-498.8264709822101
 21
-313.1785601876595
 31
0.0
  0
LINE
  5
6D31
330
2
100
AcDbEntity
  8
L-ZISSEN
100
AcDbLine
 10
-498.8264709822101
 20
-312.4505185876596
 30
0.0
 11
-495.9143045822101
 21
-312.4505185876596
 31
0.0
  0
LINE
  5
6D32
330
2
100
AcDbEntity
  8
L-ZISSEN
100
AcDbLine
 10
-498.8264709822101
 20
-312.4505185876596
 30
0.0
 11
-495.9143045822101
 21
-312.4505185876596
 31
0.0
  0
LINE
  5
6D33
330
2
100
AcDbEntity
  8
L-ZISSEN
100
AcDbLine
 10
-498.8264709822101
 20
-313.1785601876595
 30
0.0
 11
-495.9143045822101
 21
-313.1785601876595
 31
0.0
  0
LINE
  5
6D34
330
2
100
AcDbEntity
  8
L-ZISSEN
100
AcDbLine
 10
-498.8264709822101
 20
-313.1785601876595
 30
0.0
 11
-495.9143045822101
 21
-313.1785601876595
 31
0.0
  0
LINE
  5
6D35
330
2
100
AcDbEntity
  8
L-ZISSEN
100
AcDbLine
 10
-502.4666789822145
 20
-312.4505185876596
 30
0.0
 11
-502.4666789822145
 21
-313.1785601876595
 31
0.0
  0
LINE
  5
6D36
330
2
100
AcDbEntity
  8
L-ZISSEN
100
AcDbLine
 10
-499.9185333822128
 20
-310.9944353876576
 30
0.0
 11
-501.3746165822128
 21
-310.9944353876576
 31
0.0
  0
LINE
  5
6D38
330
2
100
AcDbEntity
  8
L-SOUZOU
100
AcDbLine
 10
-511.9601749822175
 20
-292.961530921395
 30
0.0
 11
-511.9513749822186
 21
-292.970330921395
 31
0.0
  0
LINE
  5
6D39
330
2
100
AcDbEntity
  8
L-SOUZOU
100
AcDbLine
 10
-511.9601749822175
 20
-292.961530921395
 30
0.0
 11
-511.9689749822164
 21
-292.9527309213944
 31
0.0
  0
ARC
  5
6D3A
330
2
100
AcDbEntity
  8
L-SOUZOU
100
AcDbCircle
 10
-511.685774982217
 20
-292.6703309213953
 30
0.0
 40
0.4
100
AcDbArc
 50
136.7899999998976
 51
225.0000000000921
  0
ARC
  5
6D3B
330
2
100
AcDbEntity
  8
L-SOUZOU
100
AcDbCircle
 10
-511.6689749822164
 20
-292.6871309213948
 30
0.0
 40
0.4
100
AcDbArc
 50
225.0000000000921
 51
313.2099999998258
  0
LINE
  5
6D3C
330
2
100
AcDbEntity
  8
L-ZISSEN
100
AcDbLine
 10
-524.8751464107818
 20
-291.1050737785367
 30
0.0
 11
-524.8751464107815
 21
-272.647930921395
 31
0.0
  0
SOLID
  5
6D3D
330
2
100
AcDbEntity
  8
L-ZISSEN
100
AcDbTrace
 10
-528.4844128303818
 20
-280.1243492848843
 30
0.0
 11
-527.9179626862068
 21
-279.7728116928569
 31
0.0
 12
-527.1465749822119
 22
-281.6479309213955
 32
0.0
 13
-527.1465749822119
 23
-281.6479309213955
 33
0.0
  0
LINE
  5
6D3E
330
2
100
AcDbEntity
  8
L-ZISSEN
100
AcDbLine
 10
-524.4965749822113
 20
-261.1479309213927
 30
0.0
 11
-524.4965749822113
 21
-272.647930921395
 31
0.0
  0
LINE
  5
6D3F
330
2
100
AcDbEntity
  8
L-ZISSEN
100
AcDbLine
 10
-525.1465749822118
 20
-267.647930921395
 30
0.0
 11
-525.1465749822121
 21
-264.647930921396
 31
0.0
  0
LINE
  5
6D40
330
2
100
AcDbEntity
  8
L-ZISSEN
100
AcDbLine
 10
-527.1465749822119
 20
-267.647930921395
 30
0.0
 11
-525.1465749822118
 21
-267.647930921395
 31
0.0
  0
LINE
  5
6D41
330
2
100
AcDbEntity
  8
L-ZISSEN
100
AcDbLine
 10
-527.1465749822116
 20
-264.647930921396
 30
0.0
 11
-525.1465749822116
 21
-264.6479309213955
 31
0.0
  0
LINE
  5
6D42
330
2
100
AcDbEntity
  8
L-ZISSEN
100
AcDbLine
 10
-516.6465749822118
 20
-272.647930921395
 30
0.0
 11
-516.6465749822121
 21
-291.147930921395
 31
0.0
  0
LINE
  5
6D43
330
2
100
AcDbEntity
  8
L-ZISSEN
100
AcDbLine
 10
-513.3965749822118
 20
-272.647930921395
 30
0.0
 11
-513.3965749822118
 21
-291.147930921395
 31
0.0
  0
LINE
  5
6D44
330
2
100
AcDbEntity
  8
L-ZISSEN
100
AcDbLine
 10
-523.360860696499
 20
-291.1479309213946
 30
0.0
 11
-523.360860696499
 21
-272.647930921395
 31
0.0
  0
CIRCLE
  5
6D45
330
2
100
AcDbEntity
  8
L-ZISSEN
100
AcDbCircle
 10
-500.6465749822118
 20
-281.647930921395
 30
0.0
 40
4.283
  0
CIRCLE
  5
6D46
330
2
100
AcDbEntity
  8
L-SAISEN
100
AcDbCircle
 10
-500.6465749822118
 20
-281.647930921395
 30
0.0
 40
4.863999999999999
  0
ARC
  5
6D47
330
2
100
AcDbEntity
  8
L-SOUZOU
100
AcDbCircle
 10
-500.6465749822118
 20
-281.647930921395
 30
0.0
 40
2.0
100
AcDbArc
 50
249.9399999997778
 51
16.48050000005301
  0
ARC
  5
6D48
330
2
100
AcDbEntity
  8
L-SOUZOU
100
AcDbCircle
 10
-500.6465749822118
 20
-281.647930921395
 30
0.0
 40
2.0
100
AcDbArc
 50
73.51949999986814
 51
200.0599999999717
  0
CIRCLE
  5
6D49
330
2
100
AcDbEntity
  8
L-SOUZOU
100
AcDbCircle
 10
-500.6465749822118
 20
-281.647930921395
 30
0.0
 40
1.2
  0
LINE
  5
6D4A
330
2
100
AcDbEntity
  8
L-ZISSEN
100
AcDbLine
 10
-521.46800355364
 20
-272.647930921395
 30
0.0
 11
-521.46800355364
 21
-261.1479309213927
 31
0.0
  0
LINE
  5
6D4B
330
2
100
AcDbEntity
  8
L-ZISSEN
100
AcDbLine
 10
-476.7965749822089
 20
-308.6479309213946
 30
0.0
 11
-476.7965749822088
 21
-291.147930921395
 31
0.0
  0
LINE
  5
6D4C
330
2
100
AcDbEntity
  8
L-ZISSEN
100
AcDbLine
 10
-479.8251464107818
 20
-308.6479309213946
 30
0.0
 11
-479.8251464107834
 21
-291.147930921395
 31
0.0
  0
LINE
  5
6D4D
330
2
100
AcDbEntity
  8
L-ZISSEN
100
AcDbLine
 10
-474.1465749822118
 20
-267.5258609705335
 30
0.0
 11
-474.1465749822118
 21
-272.6479309213952
 31
0.0
  0
LINE
  5
6D4E
330
2
100
AcDbEntity
  8
L-ZISSEN
100
AcDbLine
 10
-474.1465749822104
 20
-308.6479309213946
 30
0.0
 11
-474.1465749822117
 21
-298.3479309213935
 31
0.0
  0
LINE
  5
6D4F
330
2
100
AcDbEntity
  8
L-ZISSEN
100
AcDbLine
 10
-492.4561069822111
 20
-308.8103105876571
 30
0.0
 11
-492.4561069822111
 21
-322.6659762685594
 31
0.0
  0
LINE
  5
6D50
330
2
100
AcDbEntity
  8
L-ZISSEN
100
AcDbLine
 10
-493.0021381822116
 20
-308.8103105876571
 30
0.0
 11
-493.0021381822116
 21
-323.0071217876566
 31
0.0
  0
LINE
  5
6D51
330
2
100
AcDbEntity
  8
L-ZISSEN
100
AcDbLine
 10
-493.7072126121502
 20
-323.1078467062197
 30
0.0
 11
-493.0021381822116
 21
-323.0071217876566
 31
0.0
  0
LINE
  5
6D52
330
2
100
AcDbEntity
  8
L-ZISSEN
100
AcDbLine
 10
-493.7072126121502
 20
-323.5919490902415
 30
0.0
 11
-493.0021381822116
 21
-323.0071217876566
 31
0.0
  0
LINE
  5
6D53
330
2
100
AcDbEntity
  8
L-ZISSEN
100
AcDbLine
 10
-491.7280653822119
 20
-308.6479309213946
 30
0.0
 11
-491.7280653822117
 21
-308.8103105876571
 31
0.0
  0
LINE
  5
6D54
330
2
100
AcDbEntity
  8
L-ZISSEN
100
AcDbLine
 10
-481.6006464107736
 20
-315.1821297064643
 30
0.0
 11
-487.983360696488
 21
-315.1821297064643
 31
0.0
  0
LINE
  5
6D5A
330
2
100
AcDbEntity
  8
L-ZISSEN
100
AcDbLine
 10
-487.8965749822119
 20
-272.647930921395
 30
0.0
 11
-487.8965749822119
 21
-291.147930921395
 31
0.0
  0
LINE
  5
6D5C
330
2
100
AcDbEntity
  8
L-SOUZOU
100
AcDbLine
 10
-494.7065749822154
 20
-274.0111309213948
 30
0.0
 11
-493.0097749822159
 21
-275.707930921395
 31
0.0
  0
LINE
  5
6D5E
330
2
100
AcDbEntity
  8
L-ZISSEN
100
AcDbLine
 10
-476.7965749822098
 20
-261.1479309213927
 30
0.0
 11
-476.7965749822101
 21
-272.647930921395
 31
0.0
  0
LINE
  5
6D5F
330
2
100
AcDbEntity
  8
L-ZISSEN
100
AcDbLine
 10
-479.8251464107825
 20
-261.1479309213927
 30
0.0
 11
-479.8251464107827
 21
-272.647930921395
 31
0.0
  0
LINE
  5
6D62
330
2
100
AcDbEntity
  8
L-ZISSEN
100
AcDbLine
 10
-482.9689054525486
 20
-248.209208637862
 30
0.0
 11
-518.3242445118757
 21
-248.209208637862
 31
0.0
  0
LINE
  5
6D63
330
2
100
AcDbEntity
  8
L-ZISSEN
100
AcDbLine
 10
-474.1465749822118
 20
-249.647930921395
 30
0.0
 11
-527.1465749822119
 21
-249.647930921395
 31
0.0
  0
LINE
  5
6D65
330
2
100
AcDbEntity
  8
L-ZISSEN
100
AcDbLine
 10
-483.9625119107815
 20
-194.6479309213937
 30
0.0
 11
-517.330638053638
 21
-194.6479309213937
 31
0.0
  0
LINE
  5
6D66
330
2
100
AcDbEntity
  8
L-ZISSEN
100
AcDbLine
 10
-516.9251464107833
 20
-235.53364500113
 30
0.0
 11
-484.368003553639
 21
-235.53364500113
 31
0.0
  0
LINE
  5
6D67
330
2
100
AcDbEntity
  8
L-ZISSEN
100
AcDbLine
 10
-482.9689054525486
 20
-241.209208637862
 30
0.0
 11
-518.3242445118757
 21
-241.209208637862
 31
0.0
  0
LINE
  5
6D68
330
2
100
AcDbEntity
  8
L-ZISSEN
100
AcDbLine
 10
-520.3680190890581
 20
-240.2251802586506
 30
0.0
 11
-480.9251308753665
 21
-240.2251802586506
 31
0.0
  0
LINE
  5
6D6A
330
2
100
AcDbEntity
  8
L-ZISSEN
100
AcDbLine
 10
-482.9599036090494
 20
-234.2899123785364
 30
0.0
 11
-500.6465749822118
 21
-234.2899123785364
 31
0.0
  0
ARC
  5
6D6B
330
2
100
AcDbEntity
  8
L-ZISSEN
100
AcDbCircle
 10
-500.6465749822123
 20
-325.22413934528
 30
0.0
 40
84.01493070741805
100
AcDbArc
 50
82.91995048528553
 51
97.08004951471446
  0
ARC
  5
6D6C
330
2
100
AcDbEntity
  8
L-ZISSEN
100
AcDbCircle
 10
-500.6465749822123
 20
-164.194277930444
 30
0.0
 40
84.01493070741805
100
AcDbArc
 50
262.9199504852855
 51
277.0800495147144
  0
LINE
  5
6D6D
330
2
100
AcDbEntity
  8
L-ZISSEN
100
AcDbLine
 10
-518.8180035536427
 20
-196.4327695213942
 30
0.0
 11
-519.3858606964984
 21
-232.7447293077621
 31
0.0
  0
ARC
  5
6D6F
330
2
100
AcDbEntity
  8
L-ZISSEN
100
AcDbCircle
 10
-523.8362985664332
 20
-254.0198333694533
 30
0.0
 40
2.056022658905677
100
AcDbArc
 50
88.75673479219155
 51
185.0977525317109
  0
LINE
  5
6D70
330
2
100
AcDbEntity
  8
L-ZISSEN
100
AcDbLine
 10
-520.7793277434393
 20
-255.0680374015078
 30
0.0
 11
-525.8841887337758
 21
-255.0680374015078
 31
0.0
  0
LINE
  5
6D71
330
2
100
AcDbEntity
  8
L-ZISSEN
100
AcDbLine
 10
-525.8841887337758
 20
-254.2025217282293
 30
0.0
 11
-520.7793277434393
 21
-254.2025217282298
 31
0.0
  0
LINE
  5
6D72
330
2
100
AcDbEntity
  8
L-ZISSEN
100
AcDbLine
 10
-519.5169414950035
 20
-255.0680374015078
 30
0.0
 11
-527.1465749822116
 21
-255.0680374015078
 31
0.0
  0
ARC
  5
6D73
330
2
100
AcDbEntity
  8
L-ZISSEN
100
AcDbCircle
 10
-518.324244511876
 20
-283.3768292182576
 30
0.0
 40
42.16762058039566
100
AcDbArc
 50
79.99999999999483
 51
100.0000000000051
  0
ARC
  5
6D74
330
2
100
AcDbEntity
  8
L-ZISSEN
100
AcDbCircle
 10
-518.324244511876
 20
-206.0415880574664
 30
0.0
 40
42.16762058039566
100
AcDbArc
 50
259.9999999999948
 51
280.0000000000051
  0
LINE
  5
6D76
330
2
100
AcDbEntity
  8
L-ZISSEN
100
AcDbLine
 10
-525.6465749822123
 20
-241.849829544607
 30
0.0
 11
-525.6465749822123
 21
-247.568587731117
 31
0.0
  0
LINE
  5
6D78
330
2
100
AcDbEntity
  8
L-ZISSEN
100
AcDbLine
 10
-527.1465749822119
 20
-253.8617825559899
 30
0.0
 11
-527.1465749822119
 21
-249.647930921395
 31
0.0
  0
LINE
  5
6D79
330
2
100
AcDbEntity
  8
L-ZISSEN
100
AcDbLine
 10
-525.8841887337758
 20
-255.0680374015078
 30
0.0
 11
-525.8841887337758
 21
-254.2025217282293
 31
0.0
  0
LINE
  5
6D7B
330
2
100
AcDbEntity
  8
L-ZISSEN
100
AcDbLine
 10
-511.0019140415397
 20
-241.849829544607
 30
0.0
 11
-511.0019140415397
 21
-247.568587731117
 31
0.0
  0
LINE
  5
6D7C
330
2
100
AcDbEntity
  8
L-ZISSEN
100
AcDbLine
 10
-519.5169414950036
 20
-249.647930921395
 30
0.0
 11
-519.5169414950036
 21
-255.0680374015078
 31
0.0
  0
ARC
  5
6D7D
330
2
100
AcDbEntity
  8
L-ZISSEN
100
AcDbCircle
 10
-522.8272179107805
 20
-254.0198333694533
 30
0.0
 40
2.056022658905287
100
AcDbArc
 50
354.9022474682891
 51
91.24326520780845
  0
LINE
  5
6D7E
330
2
100
AcDbEntity
  8
L-ZISSEN
100
AcDbLine
 10
-520.7793277434393
 20
-254.2025217282298
 30
0.0
 11
-520.7793277434393
 21
-255.0680374015078
 31
0.0
  0
LINE
  5
6D7F
330
2
100
AcDbEntity
  8
L-ZISSEN
100
AcDbLine
 10
-522.871828192177
 20
-251.96429473038
 30
0.0
 11
-522.871828192177
 21
-252.7100908417287
 31
0.0
  0
LINE
  5
6D80
330
2
100
AcDbEntity
  8
L-ZISSEN
100
AcDbLine
 10
-523.7916882850381
 20
-252.7100908417287
 30
0.0
 11
-523.7916882850381
 21
-251.96429473038
 31
0.0
  0
LINE
  5
6D81
330
2
100
AcDbEntity
  8
L-ZISSEN
100
AcDbLine
 10
-522.871828192177
 20
-252.7100908417287
 30
0.0
 11
-523.7916882850381
 21
-252.7100908417287
 31
0.0
  0
LINE
  5
6D82
330
2
100
AcDbEntity
  8
L-ZISSEN
100
AcDbLine
 10
-518.3332463553715
 20
-234.2899123785364
 30
0.0
 11
-500.6465749822118
 21
-234.2899123785364
 31
0.0
  0
ARC
  5
6D83
330
2
100
AcDbEntity
  8
L-ZISSEN
100
AcDbCircle
 10
-517.6404622370892
 20
-232.6868477438429
 30
0.0
 40
1.746357940845507
100
AcDbArc
 50
181.899368244253
 51
246.6278188173633
  0
LINE
  5
6D85
330
2
100
AcDbEntity
  8
L-ZISSEN
100
AcDbLine
 10
-515.9787178393533
 20
-234.2899123785364
 30
0.0
 11
-515.9787178393533
 21
-235.53364500113
 31
0.0
  0
LINE
  5
6D87
330
2
100
AcDbEntity
  8
L-SAISEN
100
AcDbLine
 10
-520.3680190890581
 20
-240.2251802586506
 30
0.0
 11
-520.3680190890581
 21
-241.2587664554729
 31
0.0
  0
LINE
  5
6D88
330
2
100
AcDbEntity
  8
L-ZISSEN
100
AcDbLine
 10
-521.6465749822122
 20
-240.778983209062
 30
0.0
 11
-521.6465749822122
 21
-241.3402933755162
 31
0.0
  0
LINE
  5
6D89
330
2
100
AcDbEntity
  8
L-ZISSEN
100
AcDbLine
 10
-520.3680190890581
 20
-240.2251802586506
 30
0.0
 11
-521.6465749822122
 21
-240.778983209062
 31
0.0
  0
LINE
  5
6D8B
330
2
100
AcDbEntity
  8
L-ZISSEN
100
AcDbLine
 10
-516.9251464107833
 20
-235.53364500113
 30
0.0
 11
-516.9251464107833
 21
-240.2251802586506
 31
0.0
  0
LINE
  5
6D8D
330
2
100
AcDbEntity
  8
L-ZISSEN
100
AcDbLine
 10
-518.818003553639
 20
-196.4327695213942
 30
0.0
 11
-517.330638053638
 21
-194.6479309213937
 31
0.0
  0
LINE
  5
6D8E
330
2
100
AcDbEntity
  8
L-ZISSEN
100
AcDbLine
 10
-482.4751464107818
 20
-196.4327695213942
 30
0.0
 11
-481.9072892679262
 21
-232.7447293077621
 31
0.0
  0
LINE
  5
6D8F
330
2
100
AcDbEntity
  8
L-ZISSEN
100
AcDbLine
 10
-475.6465749822123
 20
-241.849829544607
 30
0.0
 11
-475.6465749822123
 21
-247.568587731117
 31
0.0
  0
LINE
  5
6D90
330
2
100
AcDbEntity
  8
L-ZISSEN
100
AcDbLine
 10
-475.6465749822123
 20
-245.5859488797518
 30
0.0
 11
-475.6465749822123
 21
-241.849829544607
 31
0.0
  0
LINE
  5
6D91
330
2
100
AcDbEntity
  8
L-ZISSEN
100
AcDbLine
 10
-490.2912359228849
 20
-241.849829544607
 30
0.0
 11
-490.2912359228849
 21
-247.568587731117
 31
0.0
  0
ARC
  5
6D93
330
2
100
AcDbEntity
  8
L-ZISSEN
100
AcDbCircle
 10
-482.9689054525486
 20
-206.0415880574664
 30
0.0
 40
42.16762058039566
100
AcDbArc
 50
259.9999999999948
 51
280.0000000000051
  0
LINE
  5
6D94
330
2
100
AcDbEntity
  8
L-ZISSEN
100
AcDbLine
 10
-481.7762084694186
 20
-255.0680374015078
 30
0.0
 11
-474.1465749822118
 21
-255.0680374015078
 31
0.0
  0
LINE
  5
6D95
330
2
100
AcDbEntity
  8
L-ZISSEN
100
AcDbLine
 10
-481.7762084694186
 20
-249.647930921395
 30
0.0
 11
-481.7762084694186
 21
-255.0680374015073
 31
0.0
  0
LINE
  5
6D96
330
2
100
AcDbEntity
  8
L-ZISSEN
100
AcDbLine
 10
-474.1465749822118
 20
-253.8617825559899
 30
0.0
 11
-474.1465749822118
 21
-249.647930921395
 31
0.0
  0
LINE
  5
6D97
330
2
100
AcDbEntity
  8
L-ZISSEN
100
AcDbLine
 10
-475.4089612306463
 20
-254.2025217282298
 30
0.0
 11
-475.4089612306463
 21
-255.0680374015078
 31
0.0
  0
ARC
  5
6D98
330
2
100
AcDbEntity
  8
L-ZISSEN
100
AcDbCircle
 10
-478.4659320536413
 20
-254.0198333694533
 30
0.0
 40
2.056022658906106
100
AcDbArc
 50
88.75673479219155
 51
185.0977525317109
  0
LINE
  5
6D99
330
2
100
AcDbEntity
  8
L-ZISSEN
100
AcDbLine
 10
-480.5138222209855
 20
-255.0680374015078
 30
0.0
 11
-480.5138222209855
 21
-254.2025217282293
 31
0.0
  0
LINE
  5
6D9A
330
2
100
AcDbEntity
  8
L-ZISSEN
100
AcDbLine
 10
-477.5014616793852
 20
-251.96429473038
 30
0.0
 11
-477.5014616793852
 21
-252.7100908417287
 31
0.0
  0
LINE
  5
6D9B
330
2
100
AcDbEntity
  8
L-ZISSEN
100
AcDbLine
 10
-478.4213217722451
 20
-252.7100908417287
 30
0.0
 11
-478.4213217722451
 21
-251.96429473038
 31
0.0
  0
LINE
  5
6D9C
330
2
100
AcDbEntity
  8
L-ZISSEN
100
AcDbLine
 10
-477.5014616793852
 20
-252.7100908417287
 30
0.0
 11
-478.4213217722451
 21
-252.7100908417287
 31
0.0
  0
ARC
  5
6D9D
330
2
100
AcDbEntity
  8
L-ZISSEN
100
AcDbCircle
 10
-477.4568513979902
 20
-254.0198333694533
 30
0.0
 40
2.056022658905287
100
AcDbArc
 50
354.9022474682891
 51
91.24326520780845
  0
LINE
  5
6D9E
330
2
100
AcDbEntity
  8
L-ZISSEN
100
AcDbLine
 10
-475.4089612306463
 20
-255.0680374015078
 30
0.0
 11
-480.5138222209855
 21
-255.0680374015078
 31
0.0
  0
LINE
  5
6D9F
330
2
100
AcDbEntity
  8
L-ZISSEN
100
AcDbLine
 10
-480.5138222209855
 20
-254.2025217282293
 30
0.0
 11
-475.4089612306463
 21
-254.2025217282298
 31
0.0
  0
ARC
  5
6DA0
330
2
100
AcDbEntity
  8
L-ZISSEN
100
AcDbCircle
 10
-482.9689054525486
 20
-283.3768292182576
 30
0.0
 40
42.16762058039566
100
AcDbArc
 50
79.99999999999483
 51
100.0000000000051
  0
ARC
  5
6DA3
330
2
100
AcDbEntity
  8
L-ZISSEN
100
AcDbCircle
 10
-483.6526877273354
 20
-232.6868477438429
 30
0.0
 40
1.746357940845507
100
AcDbArc
 50
293.3721811826366
 51
358.1006317557469
  0
LINE
  5
6DA4
330
2
100
AcDbEntity
  8
L-ZISSEN
100
AcDbLine
 10
-485.3144321250677
 20
-234.2899123785364
 30
0.0
 11
-485.3144321250677
 21
-235.53364500113
 31
0.0
  0
LINE
  5
6DA5
330
2
100
AcDbEntity
  8
L-ZISSEN
100
AcDbLine
 10
-484.368003553639
 20
-235.53364500113
 30
0.0
 11
-484.368003553639
 21
-240.2251802586506
 31
0.0
  0
LINE
  5
6DA8
330
2
100
AcDbEntity
  8
L-ZISSEN
100
AcDbLine
 10
-480.9251308753665
 20
-240.2251802586506
 30
0.0
 11
-479.6465749822123
 21
-240.778983209062
 31
0.0
  0
LINE
  5
6DAA
330
2
100
AcDbEntity
  8
L-SAISEN
100
AcDbLine
 10
-480.9251308753665
 20
-240.2251802586506
 30
0.0
 11
-480.9251308753665
 21
-241.2587664554729
 31
0.0
  0
LINE
  5
6DAB
330
2
100
AcDbEntity
  8
L-ZISSEN
100
AcDbLine
 10
-479.6465749822123
 20
-240.778983209062
 30
0.0
 11
-479.6465749822124
 21
-241.3402933755162
 31
0.0
  0
LINE
  5
6DAE
330
2
100
AcDbEntity
  8
L-ZISSEN
100
AcDbLine
 10
-482.4751464107818
 20
-196.4327695213942
 30
0.0
 11
-483.9625119107815
 21
-194.6479309213937
 31
0.0
  0
LINE
  5
6DAF
330
2
100
AcDbEntity
  8
L-ZISSEN
100
AcDbLine
 10
-521.6465749822122
 20
-248.0781239002078
 30
0.0
 11
-521.6465749822122
 21
-249.647930921395
 31
0.0
  0
LINE
  5
6DB0
330
2
100
AcDbEntity
  8
L-SAISEN
100
AcDbLine
 10
-520.3680190890581
 20
-248.1596508202511
 30
0.0
 11
-520.3680190890581
 21
-249.647930921395
 31
0.0
  0
LINE
  5
6DB1
330
2
100
AcDbEntity
  8
L-ZISSEN
100
AcDbLine
 10
-479.6465749822124
 20
-248.0781239002078
 30
0.0
 11
-479.6465749822123
 21
-249.647930921395
 31
0.0
  0
LINE
  5
6DB2
330
2
100
AcDbEntity
  8
L-SAISEN
100
AcDbLine
 10
-480.9251308753665
 20
-248.1596508202511
 30
0.0
 11
-480.9251308753665
 21
-249.647930921395
 31
0.0
  0
LINE
  5
6DB3
330
2
100
AcDbEntity
  8
L-ZISSEN
100
AcDbLine
 10
-476.1465749822118
 20
-298.3479309213935
 30
0.0
 11
-476.1465749822118
 21
-295.1479309213941
 31
0.0
  0
LINE
  5
6DB4
330
2
100
AcDbEntity
  8
L-ZISSEN
100
AcDbLine
 10
-474.1465749822118
 20
-298.3479309213935
 30
0.0
 11
-476.1465749822118
 21
-298.3479309213935
 31
0.0
  0
LINE
  5
6DB5
330
2
100
AcDbEntity
  8
L-ZISSEN
100
AcDbLine
 10
-474.146574982212
 20
-295.1479309213941
 30
0.0
 11
-476.1465749822121
 21
-295.1479309213937
 31
0.0
  0
LINE
  5
6DB6
330
2
100
AcDbEntity
  8
L-ZISSEN
100
AcDbLine
 10
-476.1465749822118
 20
-264.3258609705342
 30
0.0
 11
-476.1465749822118
 21
-267.5258609705335
 31
0.0
  0
LINE
  5
6DB7
330
2
100
AcDbEntity
  8
L-ZISSEN
100
AcDbLine
 10
-474.1465749822118
 20
-264.3258609705342
 30
0.0
 11
-476.1465749822118
 21
-264.3258609705342
 31
0.0
  0
LINE
  5
6DB8
330
2
100
AcDbEntity
  8
L-ZISSEN
100
AcDbLine
 10
-474.146574982212
 20
-267.5258609705335
 30
0.0
 11
-476.1465749822121
 21
-267.525860970534
 31
0.0
  0
LINE
  5
6DB9
330
2
100
AcDbEntity
  8
L-ZISSEN
100
AcDbLine
 10
-476.6465749822118
 20
-247.7325506613217
 30
0.0
 11
-476.6465749822118
 21
-249.647930921395
 31
0.0
  0
LINE
  5
6DBA
330
2
100
AcDbEntity
  8
L-ZISSEN
100
AcDbLine
 10
-474.1465749822118
 20
-290.6479309213951
 30
0.0
 11
-474.1465749822118
 21
-295.1479309213937
 31
0.0
  0
LINE
  5
6DBB
330
2
100
AcDbEntity
  8
L-ZISSEN
100
AcDbLine
 10
-476.4180035536403
 20
-291.147930921395
 30
0.0
 11
-476.4180035536403
 21
-290.6479309213951
 31
0.0
  0
LINE
  5
6DBC
330
2
100
AcDbEntity
  8
L-SOUZOU
100
AcDbLine
 10
-481.1465749822118
 20
-151.8478158734465
 30
0.0
 11
-520.1465749822118
 21
-151.8478158734465
 31
0.0
  0
LINE
  5
6DBD
330
2
100
AcDbEntity
  8
L-SOUZOU
100
AcDbLine
 10
-481.7465749822117
 20
-126.8478158734465
 30
0.0
 11
-519.5465749822119
 21
-126.8478158734465
 31
0.0
  0
LINE
  5
6DBE
330
2
100
AcDbEntity
  8
L-SOUZOU
100
AcDbLine
 10
-479.6465749822118
 20
-142.8478158734464
 30
0.0
 11
-521.6465749822118
 21
-142.8478158734464
 31
0.0
  0
LINE
  5
6DBF
330
2
100
AcDbEntity
  8
L-ZISSEN
100
AcDbLine
 10
-480.6465749822118
 20
-122.0263873020208
 30
0.0
 11
-520.6465749822118
 21
-122.0263873020208
 31
0.0
  0
CIRCLE
  5
6DC0
330
2
100
AcDbEntity
  8
L-ZISSEN
100
AcDbCircle
 10
-483.1465749822118
 20
-118.5263873020208
 30
0.0
 40
3.25
  0
LINE
  5
6DC1
330
2
100
AcDbEntity
  8
L-ZISSEN
100
AcDbLine
 10
-490.2912359228844
 20
-120.5263873020208
 30
0.0
 11
-475.6465749822118
 21
-105.8817263613482
 31
0.0
  0
LINE
  5
6DC4
330
2
100
AcDbEntity
  8
L-ZISSEN
100
AcDbLine
 10
-520.6465749822118
 20
-69.02638730202081
 30
0.0
 11
-480.6465749822118
 21
-69.02638730202081
 31
0.0
  0
LINE
  5
6DC5
330
2
100
AcDbEntity
  8
L-ZISSEN
100
AcDbLine
 10
-475.6465749822118
 20
-85.17104824269337
 30
0.0
 11
-490.2912359228844
 21
-70.5263873020208
 31
0.0
  0
CIRCLE
  5
6DC6
330
2
100
AcDbEntity
  8
L-ZISSEN
100
AcDbCircle
 10
-483.1465749822118
 20
-72.52638730202083
 30
0.0
 40
3.25
  0
CIRCLE
  5
6DC7
330
2
100
AcDbEntity
  8
L-ZISSEN
100
AcDbCircle
 10
-500.6465749822118
 20
-95.52638730202081
 30
0.0
 40
18.73928571428837
  0
CIRCLE
  5
6DC8
330
2
100
AcDbEntity
  8
L-ZISSEN
100
AcDbCircle
 10
-500.6465749822118
 20
-95.52638730202081
 30
0.0
 40
21.0
  0
CIRCLE
  5
6DC9
330
2
100
AcDbEntity
  8
L-ZISSEN
100
AcDbCircle
 10
-500.6465749822118
 20
-95.52638730202081
 30
0.0
 40
25.0
  0
LINE
  5
6DCD
330
2
100
AcDbEntity
  8
L-ZISSEN
100
AcDbLine
 10
-511.0019140415393
 20
-70.5263873020208
 30
0.0
 11
-525.6465749822118
 21
-85.17104824269337
 31
0.0
  0
LINE
  5
6DCE
330
2
100
AcDbEntity
  8
L-ZISSEN
100
AcDbLine
 10
-524.6465749822118
 20
-80.52638730202081
 30
0.0
 11
-520.6465749822118
 21
-69.02638730202081
 31
0.0
  0
LINE
  5
6DD0
330
2
100
AcDbEntity
  8
L-TYUSIN
100
AcDbLine
 10
-500.6465749822118
 20
-64.02638730202079
 30
0.0
 11
-500.6465749822118
 21
-156.8478158734465
 31
0.0
  0
CIRCLE
  5
6DD2
330
2
100
AcDbEntity
  8
L-ZISSEN
100
AcDbCircle
 10
-518.1465749822118
 20
-72.52638730202082
 30
0.0
 40
3.25
  0
LINE
  5
6DD3
330
2
100
AcDbEntity
  8
L-ZISSEN
100
AcDbLine
 10
-490.2912359228844
 20
-70.5263873020208
 30
0.0
 11
-511.0019140415393
 21
-70.5263873020208
 31
0.0
  0
LINE
  5
6DD4
330
2
100
AcDbEntity
  8
L-SOUZOU
100
AcDbLine
 10
-521.0465749822119
 20
-128.3478158734465
 30
0.0
 11
-521.0465749822119
 21
-142.8478158734464
 31
0.0
  0
LINE
  5
6DD5
330
2
100
AcDbEntity
  8
L-ZISSEN
100
AcDbLine
 10
-525.6465749822118
 20
-105.8817263613482
 30
0.0
 11
-511.0019140415393
 21
-120.5263873020208
 31
0.0
  0
CIRCLE
  5
6DD6
330
2
100
AcDbEntity
  8
L-ZISSEN
100
AcDbCircle
 10
-500.6465749822118
 20
-95.52638730202081
 30
0.0
 40
16.65714285714284
  0
LINE
  5
6DD7
330
2
100
AcDbEntity
  8
L-ZISSEN
100
AcDbLine
 10
-527.1465749822119
 20
-80.52638730202081
 30
0.0
 11
-527.1465749822119
 21
-110.5263873020208
 31
0.0
  0
LINE
  5
6DD8
330
2
100
AcDbEntity
  8
L-ZISSEN
100
AcDbLine
 10
-525.6465749822118
 20
-85.17104824269337
 30
0.0
 11
-525.6465749822118
 21
-105.8817263613482
 31
0.0
  0
LINE
  5
6DD9
330
2
100
AcDbEntity
  8
L-ZISSEN
100
AcDbLine
 10
-524.6465749822118
 20
-80.52638730202081
 30
0.0
 11
-527.1465749822119
 21
-80.52638730202081
 31
0.0
  0
CIRCLE
  5
6DDA
330
2
100
AcDbEntity
  8
L-ZISSEN
100
AcDbCircle
 10
-518.1465749822118
 20
-118.5263873020208
 30
0.0
 40
3.25
  0
LINE
  5
6DDB
330
2
100
AcDbEntity
  8
L-ZISSEN
100
AcDbLine
 10
-524.6465749822118
 20
-110.5263873020208
 30
0.0
 11
-520.6465749822118
 21
-122.0263873020208
 31
0.0
  0
LINE
  5
6DDC
330
2
100
AcDbEntity
  8
L-ZISSEN
100
AcDbLine
 10
-527.1465749822119
 20
-110.5263873020208
 30
0.0
 11
-524.6465749822118
 21
-110.5263873020208
 31
0.0
  0
ARC
  5
6DDD
330
2
100
AcDbEntity
  8
L-SOUZOU
100
AcDbCircle
 10
-519.5465749822119
 20
-128.3478158734465
 30
0.0
 40
1.5
100
AcDbArc
 50
89.99999999999998
 51
180.0
  0
LINE
  5
6DDE
330
2
100
AcDbEntity
  8
L-SOUZOU
100
AcDbLine
 10
-495.2965749822119
 20
-120.8478158734465
 30
0.0
 11
-505.9965749822118
 21
-120.8478158734465
 31
0.0
  0
LINE
  5
6DDF
330
2
100
AcDbEntity
  8
L-SOUZOU
100
AcDbLine
 10
-495.6566311885445
 20
-119.3478158734465
 30
0.0
 11
-505.6365187758792
 21
-119.3478158734465
 31
0.0
  0
LINE
  5
6DE0
330
2
100
AcDbEntity
  8
L-ZISSEN
100
AcDbLine
 10
-511.0019140415393
 20
-120.5263873020208
 30
0.0
 11
-490.2912359228844
 21
-120.5263873020208
 31
0.0
  0
LINE
  5
6DE1
330
2
100
AcDbEntity
  8
L-SOUZOU
100
AcDbLine
 10
-505.5427640907669
 20
-116.3478158734465
 30
0.0
 11
-505.6833961184357
 21
-120.8478158734465
 31
0.0
  0
LINE
  5
6DE2
330
2
100
AcDbEntity
  8
L-SOUZOU
100
AcDbLine
 10
-505.0505187758794
 20
-119.3478158734465
 30
0.0
 11
-505.6554229768408
 21
-119.9527200744078
 31
0.0
  0
LINE
  5
6DE3
330
2
100
AcDbEntity
  8
L-SOUZOU
100
AcDbLine
 10
-504.9567640907671
 20
-116.3478158734465
 30
0.0
 11
-505.0505187758794
 21
-119.3478158734465
 31
0.0
  0
LINE
  5
6DE4
330
2
100
AcDbEntity
  8
L-SOUZOU
100
AcDbLine
 10
-505.9965749822118
 20
-120.8478158734465
 30
0.0
 11
-505.9965749822118
 21
-126.8478158734465
 31
0.0
  0
LINE
  5
6DE5
330
2
100
AcDbEntity
  8
L-SOUZOU
100
AcDbLine
 10
-495.7503858736563
 20
-116.3478158734465
 30
0.0
 11
-495.609753845988
 21
-120.8478158734465
 31
0.0
  0
LINE
  5
6DE6
330
2
100
AcDbEntity
  8
L-SOUZOU
100
AcDbLine
 10
-496.2426311885442
 20
-119.3478158734465
 30
0.0
 11
-495.6377269875829
 21
-119.9527200744078
 31
0.0
  0
LINE
  5
6DE7
330
2
100
AcDbEntity
  8
L-SOUZOU
100
AcDbLine
 10
-496.3363858736565
 20
-116.3478158734465
 30
0.0
 11
-496.2426311885442
 21
-119.3478158734465
 31
0.0
  0
LINE
  5
6DE8
330
2
100
AcDbEntity
  8
L-SOUZOU
100
AcDbLine
 10
-495.2965749822119
 20
-126.8478158734465
 30
0.0
 11
-495.2965749822119
 21
-120.8478158734465
 31
0.0
  0
LINE
  5
6DE9
330
2
100
AcDbEntity
  8
L-SOUZOU
100
AcDbLine
 10
-521.6465749822118
 20
-142.8478158734464
 30
0.0
 11
-521.6465749822118
 21
-150.3478158734464
 31
0.0
  0
ARC
  5
6DEA
330
2
100
AcDbEntity
  8
L-SOUZOU
100
AcDbCircle
 10
-520.1465749822118
 20
-150.3478158734465
 30
0.0
 40
1.5
100
AcDbArc
 50
180.0
 51
270.0
  0
LINE
  5
6DEB
330
2
100
AcDbEntity
  8
L-ZISSEN
100
AcDbLine
 10
-476.6465749822118
 20
-80.52638730202081
 30
0.0
 11
-480.6465749822118
 21
-69.02638730202081
 31
0.0
  0
LINE
  5
6DEE
330
2
100
AcDbEntity
  8
L-SOUZOU
100
AcDbLine
 10
-480.2465749822117
 20
-128.3478158734465
 30
0.0
 11
-480.2465749822117
 21
-142.8478158734464
 31
0.0
  0
LINE
  5
6DEF
330
2
100
AcDbEntity
  8
L-ZISSEN
100
AcDbLine
 10
-474.1465749822118
 20
-80.52638730202081
 30
0.0
 11
-474.1465749822118
 21
-110.5263873020208
 31
0.0
  0
LINE
  5
6DF0
330
2
100
AcDbEntity
  8
L-ZISSEN
100
AcDbLine
 10
-475.6465749822118
 20
-105.8817263613482
 30
0.0
 11
-475.6465749822118
 21
-85.17104824269337
 31
0.0
  0
LINE
  5
6DF1
330
2
100
AcDbEntity
  8
L-ZISSEN
100
AcDbLine
 10
-476.6465749822118
 20
-80.52638730202081
 30
0.0
 11
-474.1465749822118
 21
-80.52638730202081
 31
0.0
  0
LINE
  5
6DF2
330
2
100
AcDbEntity
  8
L-ZISSEN
100
AcDbLine
 10
-476.6465749822118
 20
-110.5263873020208
 30
0.0
 11
-480.6465749822118
 21
-122.0263873020208
 31
0.0
  0
LINE
  5
6DF3
330
2
100
AcDbEntity
  8
L-ZISSEN
100
AcDbLine
 10
-474.1465749822118
 20
-110.5263873020208
 30
0.0
 11
-476.6465749822118
 21
-110.5263873020208
 31
0.0
  0
ARC
  5
6DF4
330
2
100
AcDbEntity
  8
L-SOUZOU
100
AcDbCircle
 10
-481.7465749822117
 20
-128.3478158734465
 30
0.0
 40
1.5
100
AcDbArc
 50
0.0
 51
89.99999999999998
  0
LINE
  5
6DF5
330
2
100
AcDbEntity
  8
L-SOUZOU
100
AcDbLine
 10
-479.6465749822118
 20
-142.8478158734464
 30
0.0
 11
-479.6465749822118
 21
-150.3478158734464
 31
0.0
  0
ARC
  5
6DF6
330
2
100
AcDbEntity
  8
L-SOUZOU
100
AcDbCircle
 10
-481.1465749822118
 20
-150.3478158734465
 30
0.0
 40
1.5
100
AcDbArc
 50
270.0
 51
0.0
  0
LINE
  5
6DF9
330
2
100
AcDbEntity
  8
L-TYUSIN
100
AcDbLine
 10
-468.6465749822118
 20
-48.5263873020208
 30
0.0
 11
-468.6465749822118
 21
-124.3924127058052
 31
0.0
  0
LINE
  5
6E00
330
2
100
AcDbEntity
  8
L-ZISSEN
100
AcDbLine
 10
-460.6465749822119
 20
-72.02638730202081
 30
0.0
 11
-460.6465749822119
 21
-55.5263873020208
 31
0.0
  0
LINE
  5
6E01
330
2
100
AcDbEntity
  8
L-ZISSEN
100
AcDbLine
 10
-476.6465749822118
 20
-55.52638730202081
 30
0.0
 11
-476.6465749822118
 21
-72.02638730202079
 31
0.0
  0
LINE
  5
6E05
330
2
100
AcDbEntity
  8
L-ZISSEN
100
AcDbLine
 10
-416.6465749822118
 20
-69.02638730202081
 30
0.0
 11
-413.3490030459852
 21
-80.52638730202081
 31
0.0
  0
LINE
  5
6E06
330
2
100
AcDbEntity
  8
L-ZISSEN
100
AcDbLine
 10
-456.6465749822119
 20
-69.02638730202081
 30
0.0
 11
-457.5068111394882
 21
-72.02638730202079
 31
0.0
  0
LINE
  5
6E07
330
2
100
AcDbEntity
  8
L-TYUSIN
100
AcDbLine
 10
-436.6465749822118
 20
-64.02638730202081
 30
0.0
 11
-436.6465749822118
 21
-127.0263873020208
 31
0.0
  0
LINE
  5
6E13
330
2
100
AcDbEntity
  8
L-TYUSIN
100
AcDbLine
 10
-532.1465749822118
 20
-95.5263873020208
 30
0.0
 11
-405.1465749822118
 21
-95.52638730202081
 31
0.0
  0
LINE
  5
6E5C
330
2
100
AcDbEntity
  8
L-ZISSEN
100
AcDbLine
 10
-459.2031993092379
 20
-83.02638730202074
 30
0.0
 11
-453.414524174643
 21
-83.02638730202074
 31
0.0
  0
LINE
  5
6E5D
330
2
100
AcDbEntity
  8
L-ZISSEN
100
AcDbLine
 10
-459.414524174643
 20
-108.3924127058052
 30
0.0
 11
-453.414524174643
 21
-108.3924127058052
 31
0.0
  0
LINE
  5
6E5E
330
2
100
AcDbEntity
  8
L-ZISSEN
100
AcDbLine
 10
-451.486858408087
 20
-119.3924127058052
 30
0.0
 11
-479.7304099052674
 21
-119.3924127058052
 31
0.0
  0
LINE
  5
6E5F
330
2
100
AcDbEntity
  8
L-ZISSEN
100
AcDbLine
 10
-451.1465749822118
 20
-72.02638730202081
 30
0.0
 11
-479.6030967213423
 21
-72.02638730202079
 31
0.0
  0
LINE
  5
6E60
330
2
100
AcDbEntity
  8
L-ZISSEN
100
AcDbLine
 10
-458.9185193293124
 20
-107.2763873020208
 30
0.0
 11
-441.9519986478726
 21
-107.2763873020208
 31
0.0
  0
LINE
  5
6E61
330
2
100
AcDbEntity
  8
L-ZISSEN
100
AcDbLine
 10
-458.9185193293133
 20
-83.77638730202034
 30
0.0
 11
-441.9519986478726
 21
-83.77638730202052
 31
0.0
  0
LINE
  5
6E62
330
2
100
AcDbEntity
  8
L-ZISSEN
100
AcDbLine
 10
-410.1465749822118
 20
-85.52638730202081
 30
0.0
 11
-463.1465749822123
 21
-85.52638730202081
 31
0.0
  0
LINE
  5
6E63
330
2
100
AcDbEntity
  8
L-ZISSEN
100
AcDbLine
 10
-410.1465749822118
 20
-105.5263873020208
 30
0.0
 11
-463.1465749822123
 21
-105.5263873020208
 31
0.0
  0
LINE
  5
6E64
330
2
100
AcDbEntity
  8
L-ZISSEN
100
AcDbLine
 10
-461.6465749822118
 20
-105.5263873020208
 30
0.0
 11
-461.6465749822118
 21
-85.52638730202081
 31
0.0
  0
LINE
  5
6E77
330
2
100
AcDbEntity
  8
L-ZISSEN
100
AcDbLine
 10
-461.1465749822118
 20
-111.3924127058052
 30
0.0
 11
-476.1465749822118
 21
-111.3924127058052
 31
0.0
  0
LINE
  5
6E78
330
2
100
AcDbEntity
  8
L-ZISSEN
100
AcDbLine
 10
-463.1465749822118
 20
-110.0263873020208
 30
0.0
 11
-474.1465749822118
 21
-110.0263873020208
 31
0.0
  0
LINE
  5
6E79
330
2
100
AcDbEntity
  8
L-ZISSEN
100
AcDbLine
 10
-461.6465749822118
 20
-105.5263873020208
 30
0.0
 11
-474.1465749822118
 21
-105.5263873020208
 31
0.0
  0
LINE
  5
6E7C
330
2
100
AcDbEntity
  8
L-ZISSEN
100
AcDbLine
 10
-476.1465749822118
 20
-111.3924127058052
 30
0.0
 11
-476.6465749822118
 21
-110.5263873020207
 31
0.0
  0
LINE
  5
6E81
330
2
100
AcDbEntity
  8
L-ZISSEN
100
AcDbLine
 10
-461.1465749822118
 20
-111.3924127058052
 30
0.0
 11
-459.414524174643
 21
-108.3924127058052
 31
0.0
  0
LINE
  5
6E82
330
2
100
AcDbEntity
  8
L-ZISSEN
100
AcDbLine
 10
-463.1465749822118
 20
-105.5263873020208
 30
0.0
 11
-463.1465749822118
 21
-110.5263873020208
 31
0.0
  0
LINE
  5
6E83
330
2
100
AcDbEntity
  8
L-ZISSEN
100
AcDbLine
 10
-460.6465749822119
 20
-110.5263873020208
 30
0.0
 11
-458.9185193293124
 21
-107.2763873020208
 31
0.0
  0
LINE
  5
6E84
330
2
100
AcDbEntity
  8
L-ZISSEN
100
AcDbLine
 10
-463.1465749822118
 20
-110.5263873020208
 30
0.0
 11
-460.6465749822119
 21
-110.5263873020208
 31
0.0
  0
LINE
  5
6E8A
330
2
100
AcDbEntity
  8
L-ZISSEN
100
AcDbLine
 10
-463.1465749822118
 20
-80.52638730202081
 30
0.0
 11
-463.1465749822118
 21
-85.52638730202081
 31
0.0
  0
LINE
  5
6E8B
330
2
100
AcDbEntity
  8
L-ZISSEN
100
AcDbLine
 10
-461.6465749822118
 20
-85.52638730202081
 30
0.0
 11
-474.1465749822118
 21
-85.5263873020208
 31
0.0
  0
LINE
  5
6E8D
330
2
100
AcDbEntity
  8
L-ZISSEN
100
AcDbLine
 10
-474.1465749822118
 20
-81.02638730202079
 30
0.0
 11
-463.1465749822118
 21
-81.02638730202079
 31
0.0
  0
LINE
  5
6E92
330
2
100
AcDbEntity
  8
SUNPOU
100
AcDbLine
 10
-476.357899847617
 20
-80.02638730202079
 30
0.0
 11
-476.6465749822118
 21
-80.52638730202081
 31
0.0
  0
LINE
  5
6E93
330
2
100
AcDbEntity
  8
L-ZISSEN
100
AcDbLine
 10
-472.6465749822118
 20
-81.02638730202079
 30
0.0
 11
-472.6465749822118
 21
-80.02638730202079
 31
0.0
  0
LINE
  5
6E94
330
2
100
AcDbEntity
  8
L-ZISSEN
100
AcDbLine
 10
-472.6465749822118
 20
-80.02638730202079
 30
0.0
 11
-476.357899847617
 21
-80.02638730202079
 31
0.0
  0
LINE
  5
6E96
330
2
100
AcDbEntity
  8
L-ZISSEN
100
AcDbLine
 10
-464.6465749822119
 20
-80.02638730202081
 30
0.0
 11
-460.9352501168066
 21
-80.02638730202082
 31
0.0
  0
LINE
  5
6E97
330
2
100
AcDbEntity
  8
L-ZISSEN
100
AcDbLine
 10
-464.6465749822119
 20
-81.0263873020208
 30
0.0
 11
-464.6465749822119
 21
-80.02638730202081
 31
0.0
  0
LINE
  5
6E98
330
2
100
AcDbEntity
  8
L-ZISSEN
100
AcDbLine
 10
-460.9352501168066
 20
-80.02638730202084
 30
0.0
 11
-459.2031993092378
 21
-83.02638730202081
 31
0.0
  0
LINE
  5
6E99
330
2
100
AcDbEntity
  8
L-ZISSEN
100
AcDbLine
 10
-463.1465749822118
 20
-80.52638730202081
 30
0.0
 11
-460.6465749822118
 21
-80.52638730202081
 31
0.0
  0
LINE
  5
6E9A
330
2
100
AcDbEntity
  8
L-ZISSEN
100
AcDbLine
 10
-460.6465749822119
 20
-80.52638730202081
 30
0.0
 11
-458.9185193293124
 21
-83.77638730202081
 31
0.0
  0
LINE
  5
6E9B
330
2
100
AcDbEntity
  8
L-ZISSEN
100
AcDbLine
 10
-410.1465749822118
 20
-80.52638730202081
 30
0.0
 11
-410.1465749822118
 21
-110.5263873020208
 31
0.0
  0
CIRCLE
  5
6E9C
330
2
100
AcDbEntity
  8
L-ZISSEN
100
AcDbCircle
 10
-441.4465749822118
 20
-95.52638730202078
 30
0.0
 40
10.0
  0
LINE
  5
6E9D
330
2
100
AcDbEntity
  8
L-ZISSEN
100
AcDbLine
 10
-424.1465749822118
 20
-119.5263873020208
 30
0.0
 11
-449.1465749822118
 21
-119.5263873020208
 31
0.0
  0
LINE
  5
6E9E
330
2
100
AcDbEntity
  8
L-ZISSEN
100
AcDbLine
 10
-416.6465749822118
 20
-122.0263873020208
 30
0.0
 11
-456.6465749822119
 21
-122.0263873020208
 31
0.0
  0
CIRCLE
  5
6E9F
330
2
100
AcDbEntity
  8
L-ZISSEN
100
AcDbCircle
 10
-431.3965749822117
 20
-112.0263873020207
 30
0.0
 40
6.5
  0
LINE
  5
6EA0
330
2
100
AcDbEntity
  8
L-ZISSEN
100
AcDbLine
 10
-453.414524174643
 20
-108.3924127058052
 30
0.0
 11
-450.528266818998
 21
-118.1076282867657
 31
0.0
  0
LINE
  5
6EA1
330
2
100
AcDbEntity
  8
L-ZISSEN
100
AcDbLine
 10
-449.1465749822118
 20
-119.5263873020208
 30
0.0
 11
-452.6592059577569
 21
-107.2763873020208
 31
0.0
  0
LINE
  5
6EA2
330
2
100
AcDbEntity
  8
L-ZISSEN
100
AcDbLine
 10
-442.3399643074977
 20
-105.5263873020208
 30
0.0
 11
-439.2362390304966
 21
-119.5263873020208
 31
0.0
  0
ARC
  5
6EA3
330
2
100
AcDbEntity
  8
L-ZISSEN
100
AcDbCircle
 10
-451.486858408087
 20
-118.3924127058052
 30
0.0
 40
1.0
100
AcDbArc
 50
270.0
 51
16.54596271091898
  0
LINE
  5
6EA4
330
2
100
AcDbEntity
  8
L-ZISSEN
100
AcDbLine
 10
-456.6465749822119
 20
-122.0263873020208
 30
0.0
 11
-457.4018550438825
 21
-119.3924127058052
 31
0.0
  0
LINE
  5
6EA5
330
2
100
AcDbEntity
  8
L-ZISSEN
100
AcDbLine
 10
-424.1465749822118
 20
-119.5263873020208
 30
0.0
 11
-420.1321395815888
 21
-105.5263873020208
 31
0.0
  0
CIRCLE
  5
6EA6
330
2
100
AcDbEntity
  8
L-ZISSEN
100
AcDbCircle
 10
-419.1465749822113
 20
-117.5263873020207
 30
0.0
 40
1.75
  0
LINE
  5
6EA7
330
2
100
AcDbEntity
  8
L-ZISSEN
100
AcDbLine
 10
-416.6465749822118
 20
-122.0263873020208
 30
0.0
 11
-413.3490030459852
 21
-110.5263873020208
 31
0.0
  0
LINE
  5
6EA8
330
2
100
AcDbEntity
  8
L-ZISSEN
100
AcDbLine
 10
-412.6465749822118
 20
-110.5263873020208
 30
0.0
 11
-414.3746306351113
 21
-107.2763873020208
 31
0.0
  0
LINE
  5
6EA9
330
2
100
AcDbEntity
  8
L-ZISSEN
100
AcDbLine
 10
-420.6339440066667
 20
-107.2763873020208
 30
0.0
 11
-414.4325749822119
 21
-107.2763873020208
 31
0.0
  0
LINE
  5
6EAA
330
2
100
AcDbEntity
  8
L-ZISSEN
100
AcDbLine
 10
-410.1465749822118
 20
-110.5263873020208
 30
0.0
 11
-413.3490030459852
 21
-110.5263873020208
 31
0.0
  0
CIRCLE
  5
6EAB
330
2
100
AcDbEntity
  8
L-ZISSEN
100
AcDbCircle
 10
-431.3965749822117
 20
-81.02638730202079
 30
0.0
 40
5.099999999999999
  0
LINE
  5
6EAC
330
2
100
AcDbEntity
  8
L-ZISSEN
100
AcDbLine
 10
-424.1465749822118
 20
-71.52638730202081
 30
0.0
 11
-449.1465749822118
 21
-71.52638730202081
 31
0.0
  0
LINE
  5
6EAD
330
2
100
AcDbEntity
  8
L-ZISSEN
100
AcDbLine
 10
-442.3399643074978
 20
-85.52638730202081
 30
0.0
 11
-439.2362390304966
 21
-71.52638730202081
 31
0.0
  0
LINE
  5
6EAE
330
2
100
AcDbEntity
  8
L-ZISSEN
100
AcDbLine
 10
-453.414524174643
 20
-83.02638730202074
 30
0.0
 11
-450.5252078279323
 21
-72.95193425822647
 31
0.0
  0
LINE
  5
6EAF
330
2
100
AcDbEntity
  8
L-ZISSEN
100
AcDbLine
 10
-449.1465749822118
 20
-71.52638730202081
 30
0.0
 11
-452.6592059577569
 21
-83.77638730202081
 31
0.0
  0
LINE
  5
6EB0
330
2
100
AcDbEntity
  8
L-ZISSEN
100
AcDbLine
 10
-450.5252078279323
 20
-72.95193425822647
 30
0.0
 11
-451.1465749822118
 21
-72.02638730202081
 31
0.0
  0
LINE
  5
6EB1
330
2
100
AcDbEntity
  8
L-ZISSEN
100
AcDbLine
 10
-424.1465749822118
 20
-71.52638730202081
 30
0.0
 11
-420.1321395815888
 21
-85.52638730202081
 31
0.0
  0
LINE
  5
6EB2
330
2
100
AcDbEntity
  8
L-ZISSEN
100
AcDbLine
 10
-412.6465749822118
 20
-80.52638730202081
 30
0.0
 11
-414.3746306351113
 21
-83.77638730202081
 31
0.0
  0
LINE
  5
6EB3
330
2
100
AcDbEntity
  8
L-ZISSEN
100
AcDbLine
 10
-420.6339440066668
 20
-83.77638730202075
 30
0.0
 11
-414.3746306351113
 21
-83.77638730202081
 31
0.0
  0
CIRCLE
  5
6EB4
330
2
100
AcDbEntity
  8
L-ZISSEN
100
AcDbCircle
 10
-419.1465749822113
 20
-73.52638730202078
 30
0.0
 40
1.75
  0
LINE
  5
6EB5
330
2
100
AcDbEntity
  8
L-ZISSEN
100
AcDbLine
 10
-410.1465749822118
 20
-80.52638730202081
 30
0.0
 11
-413.3490030459852
 21
-80.52638730202081
 31
0.0
  0
LINE
  5
6EBA
330
2
100
AcDbEntity
  8
L-ZISSEN
100
AcDbLine
 10
-460.6465749822119
 20
-55.5263873020208
 30
0.0
 11
-476.6465749822118
 21
-55.5263873020208
 31
0.0
  0
LINE
  5
6EBB
330
2
100
AcDbEntity
  8
L-ZISSEN
100
AcDbLine
 10
-460.6465749822119
 20
-62.52638730202081
 30
0.0
 11
-476.6465749822118
 21
-62.52638730202081
 31
0.0
  0
LINE
  5
6EBC
330
2
100
AcDbEntity
  8
L-ZISSEN
100
AcDbLine
 10
-416.6465749822118
 20
-69.02638730202081
 30
0.0
 11
-456.6465749822119
 21
-69.02638730202081
 31
0.0
  0
LINE
  5
6FB4
330
2
100
AcDbEntity
  8
L-ZISSEN
100
AcDbLine
 10
-705.64415418359
 20
-342.2434025341517
 30
0.0
 11
-707.6441541835899
 21
-342.2434025341517
 31
0.0
  0
TEXT
  5
6FB5
330
2
100
AcDbEntity
  8
L-ZISSEN
100
AcDbText
 10
-718.5145432514929
 20
-344.4900767621029
 30
0.0
 40
4.5
  1
P.P
100
AcDbText
  0
LINE
  5
6FBA
330
2
100
AcDbEntity
  8
L-ZISSEN
100
AcDbLine
 10
-640.4484795540356
 20
-196.4650737785409
 30
0.0
 11
-639.8806224111786
 21
-232.7770335649083
 31
0.0
  0
LINE
  5
6FBB
330
2
100
AcDbEntity
  8
L-ZISSEN
100
AcDbLine
 10
-676.7913366968928
 20
-196.4650737785409
 30
0.0
 11
-677.3591938397498
 21
-232.7770335649083
 31
0.0
  0
LINE
  5
6FBC
330
2
100
AcDbEntity
  8
L-TYUSIN
100
AcDbLine
 10
-658.6199081254615
 20
-404.6479309213959
 30
0.0
 11
-658.6199081254615
 21
-189.6479309213978
 31
0.0
  0
LINE
  5
6FBD
330
2
100
AcDbEntity
  8
L-ZISSEN
100
AcDbLine
 10
-645.7753991302543
 20
-314.9942271217751
 30
0.0
 11
-645.7753991302543
 21
-367.4512925893523
 31
0.0
  0
LINE
  5
6FBE
330
2
100
AcDbEntity
  8
L-ZISSEN
100
AcDbLine
 10
-639.3926848445385
 20
-314.9942271217751
 30
0.0
 11
-639.3926848445398
 21
-367.4512925893527
 31
0.0
  0
LINE
  5
6FBF
330
2
100
AcDbEntity
  8
L-ZISSEN
100
AcDbLine
 10
-635.8189705588261
 20
-376.5974737439642
 30
0.0
 11
-635.8189705588252
 21
-324.9076846483804
 31
0.0
  0
LINE
  5
6FC0
330
2
100
AcDbEntity
  8
L-ZISSEN
100
AcDbLine
 10
-677.6738277016836
 20
-314.9942271217751
 30
0.0
 11
-677.6738277016836
 21
-367.4512925893527
 31
0.0
  0
LINE
  5
6FC1
330
2
100
AcDbEntity
  8
L-ZISSEN
100
AcDbLine
 10
-671.2911134159664
 20
-314.9942271217751
 30
0.0
 11
-671.2911134159664
 21
-367.4512925893527
 31
0.0
  0
LINE
  5
6FC2
330
2
100
AcDbEntity
  8
L-ZISSEN
100
AcDbLine
 10
-681.247541987396
 20
-376.5974737439642
 30
0.0
 11
-681.247541987396
 21
-308.6479309213955
 31
0.0
  0
LINE
  5
6FC3
330
2
100
AcDbEntity
  8
L-ZISSEN
100
AcDbLine
 10
-660.2472649947135
 20
-309.8105613958368
 30
0.0
 11
-705.64415418359
 21
-342.2434025341517
 31
0.0
  0
LINE
  5
6FC4
330
2
100
AcDbEntity
  8
L-ZISSEN
100
AcDbLine
 10
-663.454684844539
 20
-385.2712017339431
 30
0.0
 11
-652.4761134159676
 21
-385.2712017339431
 31
0.0
  0
LINE
  5
6FC5
330
2
100
AcDbEntity
  8
L-ZISSEN
100
AcDbLine
 10
-663.8213193085682
 20
-387.6489701106597
 30
0.0
 11
-658.6278991302533
 21
-387.6489701106597
 31
0.0
  0
ARC
  5
6FC6
330
2
100
AcDbEntity
  8
L-ZISSEN
100
AcDbCircle
 10
-658.6278991302533
 20
-372.020736943265
 30
0.0
 40
15.62823316739414
100
AcDbArc
 50
257.323681312219
 51
282.4944195184642
  0
ARC
  5
6FC7
330
2
100
AcDbEntity
  8
L-ZISSEN
100
AcDbCircle
 10
-658.6278991302533
 20
-401.0057747066244
 30
0.0
 40
15.62823316739393
100
AcDbArc
 50
77.50558048153568
 51
102.6763186877809
  0
LINE
  5
6FC8
330
2
100
AcDbEntity
  8
L-ZISSEN
100
AcDbLine
 10
-663.8213193085821
 20
-385.3775415392297
 30
0.0
 11
-654.0850419873975
 21
-385.3775415392297
 31
0.0
  0
LINE
  5
6FC9
330
2
100
AcDbEntity
  8
L-ZISSEN
100
AcDbLine
 10
-651.7189705588245
 20
-384.359903333841
 30
0.0
 11
-665.5368277016832
 21
-384.359903333841
 31
0.0
  0
LINE
  5
6FCA
330
2
100
AcDbEntity
  8
L-ZISSEN
100
AcDbLine
 10
-652.9199081254621
 20
-399.6479309213955
 30
0.0
 11
-664.3199081254608
 21
-399.6479309213955
 31
0.0
  0
LINE
  5
6FCB
330
2
100
AcDbEntity
  8
L-ZISSEN
100
AcDbLine
 10
-653.990399130256
 20
-385.2712017339431
 30
0.0
 11
-665.3475419873989
 21
-385.2712017339431
 31
0.0
  0
LINE
  5
6FCC
330
2
100
AcDbEntity
  8
L-ZISSEN
100
AcDbLine
 10
-664.1199081254633
 20
-389.589096331887
 30
0.0
 11
-655.6199081254619
 21
-389.589096331887
 31
0.0
  0
LINE
  5
6FCD
330
2
100
AcDbEntity
  8
L-ZISSEN
100
AcDbLine
 10
-663.6199081254614
 20
-389.589096331887
 30
0.0
 11
-663.6199081254614
 21
-399.6479309213955
 31
0.0
  0
LINE
  5
6FCE
330
2
100
AcDbEntity
  8
L-ZISSEN
100
AcDbLine
 10
-662.6199081254624
 20
-389.589096331887
 30
0.0
 11
-662.6199081254624
 21
-399.6479309213955
 31
0.0
  0
LINE
  5
6FCF
330
2
100
AcDbEntity
  8
L-ZISSEN
100
AcDbLine
 10
-661.619908125461
 20
-389.589096331887
 30
0.0
 11
-661.619908125461
 21
-399.6479309213955
 31
0.0
  0
LINE
  5
6FD0
330
2
100
AcDbEntity
  8
L-ZISSEN
100
AcDbLine
 10
-660.6199081254596
 20
-389.589096331887
 30
0.0
 11
-660.6199081254596
 21
-399.6479309213955
 31
0.0
  0
LINE
  5
6FD1
330
2
100
AcDbEntity
  8
L-ZISSEN
100
AcDbLine
 10
-659.6199081254606
 20
-389.589096331887
 30
0.0
 11
-659.6199081254606
 21
-399.6479309213955
 31
0.0
  0
LINE
  5
6FD2
330
2
100
AcDbEntity
  8
L-ZISSEN
100
AcDbLine
 10
-664.6199081254608
 20
-399.3479309213958
 30
0.0
 11
-664.6199081254605
 21
-390.089096331887
 31
0.0
  0
LINE
  5
6FD3
330
2
100
AcDbEntity
  8
L-ZISSEN
100
AcDbLine
 10
-664.3199081254608
 20
-399.6479309213955
 30
0.0
 11
-664.6199081254605
 21
-399.3479309213962
 31
0.0
  0
ARC
  5
6FD4
330
2
100
AcDbEntity
  8
L-ZISSEN
100
AcDbCircle
 10
-658.5332562731105
 20
-309.3204888632512
 30
0.0
 40
75.36553414422357
100
AcDbArc
 50
256.0937629349081
 51
264.6679223051358
  0
ARC
  5
6FD5
330
2
100
AcDbEntity
  8
L-ZISSEN
100
AcDbCircle
 10
-675.1903991302533
 20
-376.5974737439642
 30
0.0
 40
6.057142857143116
100
AcDbArc
 50
180.0
 51
256.0937629349081
  0
LINE
  5
6FD6
330
2
100
AcDbEntity
  8
L-ZISSEN
100
AcDbLine
 10
-660.8993277016818
 20
-385.3775415392297
 30
0.0
 11
-660.8993277016818
 21
-385.2712017339431
 31
0.0
  0
LINE
  5
6FD7
330
2
100
AcDbEntity
  8
L-ZISSEN
100
AcDbLine
 10
-661.1372074502533
 20
-385.2712017339431
 30
0.0
 11
-662.0051911759676
 21
-385.2712017339431
 31
0.0
  0
LINE
  5
6FD8
330
2
100
AcDbEntity
  8
L-ZISSEN
100
AcDbLine
 10
-662.0574051996079
 20
-385.7584746159632
 30
0.0
 11
-662.0574051996052
 21
-387.2680370339271
 31
0.0
  0
LINE
  5
6FD9
330
2
100
AcDbEntity
  8
L-ZISSEN
100
AcDbLine
 10
-663.6199081254592
 20
-387.6486275325241
 30
0.0
 11
-663.6199081254633
 21
-389.589096331887
 31
0.0
  0
LINE
  5
6FDA
330
2
100
AcDbEntity
  8
L-ZISSEN
100
AcDbLine
 10
-665.3475419873989
 20
-385.2712017339431
 30
0.0
 11
-665.3475419873989
 21
-384.359903333841
 31
0.0
  0
LINE
  5
6FDB
330
2
100
AcDbEntity
  8
L-ZISSEN
100
AcDbLine
 10
-665.4419150140336
 20
-385.7487439007586
 30
0.0
 11
-665.4419150140336
 21
-387.2777677491299
 31
0.0
  0
LINE
  5
6FDC
330
2
100
AcDbEntity
  8
L-ZISSEN
100
AcDbLine
 10
-664.1199081254633
 20
-389.589096331887
 30
0.0
 11
-664.6199081254605
 21
-390.089096331887
 31
0.0
  0
LINE
  5
6FDD
330
2
100
AcDbEntity
  8
L-ZISSEN
100
AcDbLine
 10
-664.1199081254606
 20
-389.089096331887
 30
0.0
 11
-664.1199081254606
 21
-387.6479309213955
 31
0.0
  0
LINE
  5
6FDE
330
2
100
AcDbEntity
  8
L-ZISSEN
100
AcDbLine
 10
-664.5903991302546
 20
-385.2712017339431
 30
0.0
 11
-663.454684844539
 21
-385.2712017339431
 31
0.0
  0
ARC
  5
6FDF
330
2
100
AcDbEntity
  8
L-ZISSEN
100
AcDbCircle
 10
-663.760052382752
 20
-389.3682212527187
 30
0.0
 40
3.991149986138121
100
AcDbArc
 50
64.74766100334594
 51
114.9228807252198
  0
ARC
  5
6FE0
330
2
100
AcDbEntity
  8
L-ZISSEN
100
AcDbCircle
 10
-663.760052382752
 20
-383.6582903971698
 30
0.0
 40
3.991149986138101
100
AcDbArc
 50
245.0771192747801
 51
295.2523389966541
  0
LINE
  5
6FE1
330
2
100
AcDbEntity
  8
L-ZISSEN
100
AcDbLine
 10
-663.6199081254633
 20
-389.589096331887
 30
0.0
 11
-664.1199081254606
 21
-389.089096331887
 31
0.0
  0
LINE
  5
6FE2
330
2
100
AcDbEntity
  8
L-ZISSEN
100
AcDbLine
 10
-671.2911134159664
 20
-367.4512925893527
 30
0.0
 11
-674.4824705588264
 21
-368.9655783036391
 31
0.0
  0
LINE
  5
6FE3
330
2
100
AcDbEntity
  8
L-ZISSEN
100
AcDbLine
 10
-674.4824705588264
 20
-368.9655783036391
 30
0.0
 11
-677.6738277016836
 21
-367.4512925893527
 31
0.0
  0
ARC
  5
6FE4
330
2
100
AcDbEntity
  8
L-ZISSEN
100
AcDbCircle
 10
-641.876113415969
 20
-376.5974737439642
 30
0.0
 40
6.057142857142703
100
AcDbArc
 50
283.9062370650918
 51
0.0
  0
LINE
  5
6FE5
330
2
100
AcDbEntity
  8
L-ZISSEN
100
AcDbLine
 10
-656.619908125461
 20
-389.589096331887
 30
0.0
 11
-656.619908125461
 21
-399.6479309213955
 31
0.0
  0
LINE
  5
6FE6
330
2
100
AcDbEntity
  8
L-ZISSEN
100
AcDbLine
 10
-655.6199081254619
 20
-389.589096331887
 30
0.0
 11
-655.6199081254619
 21
-399.6479309213955
 31
0.0
  0
LINE
  5
6FE7
330
2
100
AcDbEntity
  8
L-ZISSEN
100
AcDbLine
 10
-654.6199081254583
 20
-389.589096331887
 30
0.0
 11
-654.6199081254583
 21
-399.6479309213955
 31
0.0
  0
LINE
  5
6FE8
330
2
100
AcDbEntity
  8
L-ZISSEN
100
AcDbLine
 10
-658.6199081254592
 20
-389.589096331887
 30
0.0
 11
-658.6199081254592
 21
-399.6479309213955
 31
0.0
  0
LINE
  5
6FE9
330
2
100
AcDbEntity
  8
L-ZISSEN
100
AcDbLine
 10
-657.6199081254601
 20
-389.589096331887
 30
0.0
 11
-657.6199081254601
 21
-399.6479309213955
 31
0.0
  0
LINE
  5
6FEA
330
2
100
AcDbEntity
  8
L-ZISSEN
100
AcDbLine
 10
-653.6199081254592
 20
-389.589096331887
 30
0.0
 11
-653.6199081254574
 21
-399.6479309213955
 31
0.0
  0
LINE
  5
6FEB
330
2
100
AcDbEntity
  8
L-ZISSEN
100
AcDbLine
 10
-652.6199081254624
 20
-390.089096331887
 30
0.0
 11
-652.6199081254624
 21
-399.3479309213958
 31
0.0
  0
LINE
  5
6FEC
330
2
100
AcDbEntity
  8
L-ZISSEN
100
AcDbLine
 10
-652.9199081254621
 20
-399.6479309213955
 30
0.0
 11
-652.6199081254624
 21
-399.3479309213962
 31
0.0
  0
ARC
  5
6FED
330
2
100
AcDbEntity
  8
L-ZISSEN
100
AcDbCircle
 10
-658.5332562731105
 20
-309.3204888632512
 30
0.0
 40
75.36553414422328
100
AcDbArc
 50
275.3320776948642
 51
283.9062370650918
  0
LINE
  5
6FEE
330
2
100
AcDbEntity
  8
L-ZISSEN
100
AcDbLine
 10
-654.0850419873975
 20
-385.3775415392297
 30
0.0
 11
-653.4528481603667
 21
-385.3775415392297
 31
0.0
  0
ARC
  5
6FEF
330
2
100
AcDbEntity
  8
L-ZISSEN
100
AcDbCircle
 10
-653.5454125991131
 20
-389.367617984179
 30
0.0
 40
3.991149986138392
100
AcDbArc
 50
64.28835488517359
 51
115.2591066833833
  0
ARC
  5
6FF0
330
2
100
AcDbEntity
  8
L-ZISSEN
100
AcDbCircle
 10
-653.5454125991131
 20
-383.6588936657103
 30
0.0
 40
3.991149986138198
100
AcDbArc
 50
244.7408933166166
 51
295.7116451148264
  0
LINE
  5
6FF1
330
2
100
AcDbEntity
  8
L-ZISSEN
100
AcDbLine
 10
-651.813613415969
 20
-385.2712017339431
 30
0.0
 11
-654.0850419873975
 21
-385.2712017339431
 31
0.0
  0
LINE
  5
6FF2
330
2
100
AcDbEntity
  8
L-ZISSEN
100
AcDbLine
 10
-655.6199081254619
 20
-389.589096331887
 30
0.0
 11
-653.1199081254619
 21
-389.589096331887
 31
0.0
  0
LINE
  5
6FF3
330
2
100
AcDbEntity
  8
L-ZISSEN
100
AcDbLine
 10
-658.6278991302533
 20
-387.6489701106597
 30
0.0
 11
-653.4528481603738
 21
-387.6489701106597
 31
0.0
  0
LINE
  5
6FF4
330
2
100
AcDbEntity
  8
L-ZISSEN
100
AcDbLine
 10
-655.9293050959674
 20
-385.2712017339431
 30
0.0
 11
-655.0613213702545
 21
-385.2712017339431
 31
0.0
  0
LINE
  5
6FF5
330
2
100
AcDbEntity
  8
L-ZISSEN
100
AcDbLine
 10
-655.2484861479406
 20
-385.7580724865925
 30
0.0
 11
-655.2484861479406
 21
-387.268439163296
 31
0.0
  0
LINE
  5
6FF6
330
2
100
AcDbEntity
  8
L-ZISSEN
100
AcDbLine
 10
-656.3564705588273
 20
-385.3775415392297
 30
0.0
 11
-656.3564705588273
 21
-385.2712017339431
 31
0.0
  0
LINE
  5
6FF7
330
2
100
AcDbEntity
  8
L-ZISSEN
100
AcDbLine
 10
-651.5296848445388
 20
-384.359903333841
 30
0.0
 11
-651.7189705588245
 21
-384.359903333841
 31
0.0
  0
LINE
  5
6FF8
330
2
100
AcDbEntity
  8
L-ZISSEN
100
AcDbLine
 10
-651.813613415969
 20
-385.2712017339431
 30
0.0
 11
-651.813613415969
 21
-384.359903333841
 31
0.0
  0
LINE
  5
6FF9
330
2
100
AcDbEntity
  8
L-ZISSEN
100
AcDbLine
 10
-651.8138832464756
 20
-385.7716362944588
 30
0.0
 11
-651.8138832464756
 21
-387.2548753554306
 31
0.0
  0
LINE
  5
6FFA
330
2
100
AcDbEntity
  8
L-ZISSEN
100
AcDbLine
 10
-653.1199081254619
 20
-389.589096331887
 30
0.0
 11
-652.6199081254624
 21
-390.089096331887
 31
0.0
  0
LINE
  5
6FFB
330
2
100
AcDbEntity
  8
L-ZISSEN
100
AcDbLine
 10
-653.6199081254619
 20
-389.589096331887
 30
0.0
 11
-653.1199081254624
 21
-389.089096331887
 31
0.0
  0
LINE
  5
6FFC
330
2
100
AcDbEntity
  8
L-ZISSEN
100
AcDbLine
 10
-653.1199081254624
 20
-389.089096331887
 30
0.0
 11
-653.1199081254624
 21
-387.6479309213955
 31
0.0
  0
LINE
  5
6FFD
330
2
100
AcDbEntity
  8
L-ZISSEN
100
AcDbLine
 10
-653.6199081254578
 20
-387.6492771838184
 30
0.0
 11
-653.6199081254619
 21
-389.589096331887
 31
0.0
  0
LINE
  5
6FFE
330
2
100
AcDbEntity
  8
L-ZISSEN
100
AcDbLine
 10
-645.7753991302543
 20
-367.4512925893527
 30
0.0
 11
-642.5840419873971
 21
-368.9655783036391
 31
0.0
  0
LINE
  5
6FFF
330
2
100
AcDbEntity
  8
L-ZISSEN
100
AcDbLine
 10
-642.5840419873971
 20
-368.9655783036391
 30
0.0
 11
-639.3926848445398
 21
-367.4512925893527
 31
0.0
  0
LINE
  5
7000
330
2
100
AcDbEntity
  8
L-SOUZOU
100
AcDbLine
 10
-622.6199081254614
 20
-261.2479309213954
 30
0.0
 11
-608.1199081254615
 21
-261.2479309213954
 31
0.0
  0
LINE
  5
7001
330
2
100
AcDbEntity
  8
L-TYUSIN
100
AcDbLine
 10
-687.6199081254615
 20
-281.6479309213955
 30
0.0
 11
-594.1199081254615
 21
-281.6479309213955
 31
0.0
  0
LINE
  5
7002
330
2
100
AcDbEntity
  8
L-SOUZOU
100
AcDbLine
 10
-622.6199081254614
 20
-302.0479309213956
 30
0.0
 11
-608.1199081254615
 21
-302.0479309213956
 31
0.0
  0
LINE
  5
7003
330
2
100
AcDbEntity
  8
L-SOUZOU
100
AcDbLine
 10
-624.1199081254615
 20
-262.7479309213954
 30
0.0
 11
-624.1199081254615
 21
-300.5479309213956
 31
0.0
  0
LINE
  5
7004
330
2
100
AcDbEntity
  8
L-ZISSEN
100
AcDbLine
 10
-632.1199081254601
 20
-264.2265023499685
 30
0.0
 11
-632.1199081254601
 21
-272.2693594928241
 31
0.0
  0
LINE
  5
7005
330
2
100
AcDbEntity
  8
L-ZISSEN
100
AcDbLine
 10
-685.1199081254629
 20
-264.2265023499685
 30
0.0
 11
-685.1199081254629
 21
-272.2693594928241
 31
0.0
  0
LINE
  5
7006
330
2
100
AcDbEntity
  8
L-ZISSEN
100
AcDbLine
 10
-672.2484795540342
 20
-261.1479309213955
 30
0.0
 11
-672.2484795540342
 21
-308.6479309213955
 31
0.0
  0
LINE
  5
7007
330
2
100
AcDbEntity
  8
L-ZISSEN
100
AcDbLine
 10
-644.9913366968931
 20
-261.1479309213955
 30
0.0
 11
-644.9913366968885
 21
-308.6479309213955
 31
0.0
  0
CIRCLE
  5
7008
330
2
100
AcDbEntity
  8
L-SAISEN
100
AcDbCircle
 10
-658.6199081254615
 20
-281.6479309213955
 30
0.0
 40
7.934857142857117
  0
CIRCLE
  5
7009
330
2
100
AcDbEntity
  8
L-ZISSEN
100
AcDbCircle
 10
-658.6199081254615
 20
-281.6479309213955
 30
0.0
 40
7.052785714285691
  0
LINE
  5
700A
330
2
100
AcDbEntity
  8
L-ZISSEN
100
AcDbLine
 10
-672.2484795540342
 20
-295.6479309213955
 30
0.0
 11
-644.9913366968928
 21
-295.6479309213955
 31
0.0
  0
LINE
  5
700B
330
2
100
AcDbEntity
  8
L-ZISSEN
100
AcDbLine
 10
-672.2484795540342
 20
-298.6479309213955
 30
0.0
 11
-644.9913366968928
 21
-298.6479309213955
 31
0.0
  0
SOLID
  5
700C
330
2
100
AcDbEntity
  8
L-ZISSEN
100
AcDbTrace
 10
-660.4410367404536
 20
-309.5393352509609
 30
0.0
 11
-660.0534932489733
 21
-310.0817875407119
 31
0.0
 12
-658.6199081254615
 22
-308.6479309213955
 32
0.0
 13
-658.6199081254615
 23
-308.6479309213955
 33
0.0
  0
LINE
  5
700D
330
2
100
AcDbEntity
  8
L-ZISSEN
100
AcDbLine
 10
-632.1199081254628
 20
-308.6479309213955
 30
0.0
 11
-685.1199081254629
 21
-308.6479309213955
 31
0.0
  0
LINE
  5
700E
330
2
100
AcDbEntity
  8
L-ZISSEN
100
AcDbLine
 10
-685.119908125463
 20
-291.5265023499669
 30
0.0
 11
-685.119908125463
 21
-308.6479309213955
 31
0.0
  0
LINE
  5
700F
330
2
100
AcDbEntity
  8
L-ZISSEN
100
AcDbLine
 10
-677.6738277016836
 20
-314.9942271217751
 30
0.0
 11
-671.2911134159664
 21
-314.9942271217751
 31
0.0
  0
LINE
  5
7010
330
2
100
AcDbEntity
  8
L-ZISSEN
100
AcDbLine
 10
-684.7413366968915
 20
-272.6479309213955
 30
0.0
 11
-672.2484795540342
 21
-272.6479309213955
 31
0.0
  0
LINE
  5
7011
330
2
100
AcDbEntity
  8
L-ZISSEN
100
AcDbLine
 10
-684.7413366968915
 20
-291.1479309213955
 30
0.0
 11
-672.2484795540342
 21
-291.1479309213955
 31
0.0
  0
LINE
  5
7012
330
2
100
AcDbEntity
  8
L-ZISSEN
100
AcDbLine
 10
-672.2484795540342
 20
-291.1479309213955
 30
0.0
 11
-684.7413366968915
 21
-291.1479309213955
 31
0.0
  0
LINE
  5
7013
330
2
100
AcDbEntity
  8
L-ZISSEN
100
AcDbLine
 10
-682.6199081254615
 20
-272.6479309213955
 30
0.0
 11
-682.6199081254615
 21
-291.1479309213955
 31
0.0
  0
ARC
  5
7014
330
2
100
AcDbEntity
  8
L-ZISSEN
100
AcDbCircle
 10
-684.7413366968915
 20
-291.5265023499669
 30
0.0
 40
0.3785714285715134
100
AcDbArc
 50
90.0
 51
180.0
  0
ARC
  5
7015
330
2
100
AcDbEntity
  8
L-ZISSEN
100
AcDbCircle
 10
-684.7413366968915
 20
-291.5265023499669
 30
0.0
 40
0.3785714285715134
100
AcDbArc
 50
90.0
 51
180.0
  0
ARC
  5
7016
330
2
100
AcDbEntity
  8
L-ZISSEN
100
AcDbCircle
 10
-684.7413366968915
 20
-272.2693594928241
 30
0.0
 40
0.3785714285715134
100
AcDbArc
 50
180.0
 51
270.0
  0
ARC
  5
7017
330
2
100
AcDbEntity
  8
L-ZISSEN
100
AcDbCircle
 10
-684.7413366968915
 20
-272.2693594928241
 30
0.0
 40
0.3785714285715134
100
AcDbArc
 50
180.0
 51
270.0
  0
LINE
  5
7018
330
2
100
AcDbEntity
  8
L-ZISSEN
100
AcDbLine
 10
-632.1199081254599
 20
-291.5265023499669
 30
0.0
 11
-632.1199081254599
 21
-308.6479309213955
 31
0.0
  0
LINE
  5
7019
330
2
100
AcDbEntity
  8
L-ZISSEN
100
AcDbLine
 10
-637.443582768496
 20
-324.9076846483804
 30
0.0
 11
-633.8542292067309
 21
-324.9076846483804
 31
0.0
  0
ARC
  5
701A
330
2
100
AcDbEntity
  8
L-ZISSEN
100
AcDbCircle
 10
-646.1224307855859
 20
-325.5018559930072
 30
0.0
 40
12.28258155137619
100
AcDbArc
 50
327.0207379071564
 51
2.772772323679118
  0
LINE
  5
701B
330
2
100
AcDbEntity
  8
L-ZISSEN
100
AcDbLine
 10
-633.8542292067309
 20
-324.9076846483804
 30
0.0
 11
-635.8340968228462
 21
-324.9076846483804
 31
0.0
  0
LINE
  5
701C
330
2
100
AcDbEntity
  8
L-ZISSEN
100
AcDbLine
 10
-635.067793880708
 20
-309.2547902483802
 30
0.0
 11
-637.443582768496
 21
-309.2547902483802
 31
0.0
  0
LINE
  5
701D
330
2
100
AcDbEntity
  8
L-ZISSEN
100
AcDbLine
 10
-634.3780136228456
 20
-309.2547902483802
 30
0.0
 11
-636.198117622846
 21
-309.2547902483802
 31
0.0
  0
LINE
  5
701E
330
2
100
AcDbEntity
  8
L-ZISSEN
100
AcDbLine
 10
-637.443582768496
 20
-309.2547902483802
 30
0.0
 11
-637.443582768496
 21
-324.9076846483804
 31
0.0
  0
LINE
  5
701F
330
2
100
AcDbEntity
  8
L-ZISSEN
100
AcDbLine
 10
-635.8189705588247
 20
-324.9076846483804
 30
0.0
 11
-635.8189705588247
 21
-338.4544920325761
 31
0.0
  0
LINE
  5
7020
330
2
100
AcDbEntity
  8
L-ZISSEN
100
AcDbLine
 10
-639.3926848445385
 20
-314.9942271217751
 30
0.0
 11
-645.7753991302543
 21
-314.9942271217751
 31
0.0
  0
LINE
  5
7021
330
2
100
AcDbEntity
  8
L-ZISSEN
100
AcDbLine
 10
-635.8561500252374
 20
-308.6479309213959
 30
0.0
 11
-635.8561500252376
 21
-309.2547902483802
 31
0.0
  0
LINE
  5
7022
330
2
100
AcDbEntity
  8
L-ZISSEN
100
AcDbLine
 10
-633.8542292067309
 20
-329.195475387658
 30
0.0
 11
-633.8332227635287
 21
-308.6479309213955
 31
0.0
  0
LINE
  5
7023
330
2
100
AcDbEntity
  8
L-ZISSEN
100
AcDbLine
 10
-632.1938888228455
 20
-308.8907694483805
 30
0.0
 11
-632.1938888228455
 21
-324.17964304838
 31
0.0
  0
LINE
  5
7024
330
2
100
AcDbEntity
  8
L-ZISSEN
100
AcDbLine
 10
-629.2817224228461
 20
-324.6637454324027
 30
0.0
 11
-629.2817224228461
 21
-327.7827986731636
 31
0.0
  0
LINE
  5
7025
330
2
100
AcDbEntity
  8
L-ZISSEN
100
AcDbLine
 10
-633.2859512228456
 20
-329.195475387658
 30
0.0
 11
-633.8542292067309
 21
-329.195475387658
 31
0.0
  0
LINE
  5
7026
330
2
100
AcDbEntity
  8
L-ZISSEN
100
AcDbLine
 10
-632.1938888228455
 20
-324.17964304838
 30
0.0
 11
-629.2817224228461
 21
-324.6637454324027
 31
0.0
  0
LINE
  5
7027
330
2
100
AcDbEntity
  8
L-ZISSEN
100
AcDbLine
 10
-629.2817224228461
 20
-327.7827986731636
 30
0.0
 11
-633.2859512228456
 21
-329.195475387658
 31
0.0
  0
LINE
  5
7028
330
2
100
AcDbEntity
  8
L-ZISSEN
100
AcDbLine
 10
-633.2859512228456
 20
-308.8907694483805
 30
0.0
 11
-632.1938888228455
 21
-308.8907694483805
 31
0.0
  0
LINE
  5
7029
330
2
100
AcDbEntity
  8
L-ZISSEN
100
AcDbLine
 10
-633.2859512228456
 20
-308.6479309213955
 30
0.0
 11
-633.2859512228456
 21
-308.8907694483805
 31
0.0
  0
LINE
  5
702A
330
2
100
AcDbEntity
  8
L-ZISSEN
100
AcDbLine
 10
-634.3780136228456
 20
-308.6479309213955
 30
0.0
 11
-634.3780136228456
 21
-309.2547902483802
 31
0.0
  0
LINE
  5
702B
330
2
100
AcDbEntity
  8
L-ZISSEN
100
AcDbLine
 10
-632.4984795540342
 20
-272.6479309213955
 30
0.0
 11
-644.9913366968901
 21
-272.6479309213955
 31
0.0
  0
LINE
  5
702C
330
2
100
AcDbEntity
  8
L-ZISSEN
100
AcDbLine
 10
-632.4984795540342
 20
-291.1479309213955
 30
0.0
 11
-644.9913366968901
 21
-291.1479309213955
 31
0.0
  0
LINE
  5
702D
330
2
100
AcDbEntity
  8
L-ZISSEN
100
AcDbLine
 10
-632.4984795540315
 20
-291.1479309213955
 30
0.0
 11
-644.9913366968901
 21
-291.1479309213955
 31
0.0
  0
LINE
  5
702E
330
2
100
AcDbEntity
  8
L-ZISSEN
100
AcDbLine
 10
-644.9913366968928
 20
-296.6193594928258
 30
0.0
 11
-644.9913366968928
 21
-299.2693594928259
 31
0.0
  0
LINE
  5
702F
330
2
100
AcDbEntity
  8
L-ZISSEN
100
AcDbLine
 10
-634.6199081254614
 20
-272.6479309213955
 30
0.0
 11
-634.6199081254614
 21
-291.1479309213959
 31
0.0
  0
ARC
  5
7030
330
2
100
AcDbEntity
  8
L-SOUZOU
100
AcDbCircle
 10
-622.6199081254614
 20
-300.5479309213956
 30
0.0
 40
1.5
100
AcDbArc
 50
180.0
 51
270.0
  0
ARC
  5
7031
330
2
100
AcDbEntity
  8
L-ZISSEN
100
AcDbCircle
 10
-632.4984795540315
 20
-291.5265023499669
 30
0.0
 40
0.3785714285715134
100
AcDbArc
 50
0.0
 51
90.0
  0
ARC
  5
7032
330
2
100
AcDbEntity
  8
L-ZISSEN
100
AcDbCircle
 10
-632.4984795540315
 20
-291.5265023499669
 30
0.0
 40
0.3785714285715134
100
AcDbArc
 50
0.0
 51
90.0
  0
LINE
  5
7033
330
2
100
AcDbEntity
  8
L-SOUZOU
100
AcDbLine
 10
-630.1199081254615
 20
-276.2979309213956
 30
0.0
 11
-630.1199081254615
 21
-286.9979309213954
 31
0.0
  0
LINE
  5
7034
330
2
100
AcDbEntity
  8
L-SOUZOU
100
AcDbLine
 10
-624.1199081254615
 20
-276.2979309213956
 30
0.0
 11
-630.1199081254615
 21
-276.2979309213956
 31
0.0
  0
LINE
  5
7035
330
2
100
AcDbEntity
  8
L-SOUZOU
100
AcDbLine
 10
-630.1199081254615
 20
-286.9979309213954
 30
0.0
 11
-624.1199081254615
 21
-286.9979309213954
 31
0.0
  0
LINE
  5
7036
330
2
100
AcDbEntity
  8
L-SOUZOU
100
AcDbLine
 10
-634.6199081254614
 20
-277.3377418128402
 30
0.0
 11
-631.6199081254615
 21
-277.2439871277279
 31
0.0
  0
LINE
  5
7037
330
2
100
AcDbEntity
  8
L-SOUZOU
100
AcDbLine
 10
-634.6199081254614
 20
-285.9581200299508
 30
0.0
 11
-631.6199081254615
 21
-286.0518747150631
 31
0.0
  0
LINE
  5
7038
330
2
100
AcDbEntity
  8
L-SOUZOU
100
AcDbLine
 10
-631.6199081254615
 20
-276.6579871277281
 30
0.0
 11
-631.6199081254615
 21
-286.6378747150629
 31
0.0
  0
ARC
  5
7039
330
2
100
AcDbEntity
  8
L-ZISSEN
100
AcDbCircle
 10
-632.4984795540315
 20
-272.2693594928241
 30
0.0
 40
0.3785714285715134
100
AcDbArc
 50
270.0
 51
0.0
  0
ARC
  5
703A
330
2
100
AcDbEntity
  8
L-ZISSEN
100
AcDbCircle
 10
-632.4984795540315
 20
-272.2693594928241
 30
0.0
 40
0.3785714285715134
100
AcDbArc
 50
270.0
 51
0.0
  0
LINE
  5
703B
330
2
100
AcDbEntity
  8
L-SOUZOU
100
AcDbLine
 10
-631.6199081254615
 20
-277.2439871277279
 30
0.0
 11
-631.0150039245002
 21
-276.6390829267665
 31
0.0
  0
LINE
  5
703C
330
2
100
AcDbEntity
  8
L-SOUZOU
100
AcDbLine
 10
-634.6199081254614
 20
-276.75174181284
 30
0.0
 11
-630.1199081254615
 21
-276.6111097851717
 31
0.0
  0
LINE
  5
703D
330
2
100
AcDbEntity
  8
L-SOUZOU
100
AcDbLine
 10
-631.6199081254615
 20
-286.0518747150631
 30
0.0
 11
-631.0150039245002
 21
-286.6567789160244
 31
0.0
  0
LINE
  5
703E
330
2
100
AcDbEntity
  8
L-SOUZOU
100
AcDbLine
 10
-634.6199081254614
 20
-286.5441200299505
 30
0.0
 11
-630.1199081254615
 21
-286.6847520576193
 31
0.0
  0
LINE
  5
703F
330
2
100
AcDbEntity
  8
L-ZISSEN
100
AcDbLine
 10
-685.1199081254629
 20
-261.1479309213955
 30
0.0
 11
-632.1199081254628
 21
-261.1479309213955
 31
0.0
  0
LINE
  5
7040
330
2
100
AcDbEntity
  8
L-ZISSEN
100
AcDbLine
 10
-644.9913366968928
 20
-267.6479309213955
 30
0.0
 11
-672.2484795540342
 21
-267.6479309213955
 31
0.0
  0
LINE
  5
7041
330
2
100
AcDbEntity
  8
L-ZISSEN
100
AcDbLine
 10
-678.3413522323074
 20
-240.2251802586538
 30
0.0
 11
-638.8984640186156
 21
-240.2251802586538
 31
0.0
  0
LINE
  5
7042
330
2
100
AcDbEntity
  8
L-ZISSEN
100
AcDbLine
 10
-674.8984795540329
 20
-235.5336450011332
 30
0.0
 11
-642.34133669689
 21
-235.5336450011332
 31
0.0
  0
LINE
  5
7043
330
2
100
AcDbEntity
  8
L-ZISSEN
100
AcDbLine
 10
-676.3065794986239
 20
-234.3222166356831
 30
0.0
 11
-658.6199081254615
 21
-234.3222166356831
 31
0.0
  0
LINE
  5
7044
330
2
100
AcDbEntity
  8
L-ZISSEN
100
AcDbLine
 10
-632.1199081254628
 20
-249.6479309213955
 30
0.0
 11
-685.1199081254629
 21
-249.6479309213955
 31
0.0
  0
LINE
  5
7045
330
2
100
AcDbEntity
  8
L-ZISSEN
100
AcDbLine
 10
-640.9422385957977
 20
-241.2092086378652
 30
0.0
 11
-676.2975776551252
 21
-241.2092086378652
 31
0.0
  0
LINE
  5
7046
330
2
100
AcDbEntity
  8
L-ZISSEN
100
AcDbLine
 10
-640.9422385957977
 20
-248.2092086378652
 30
0.0
 11
-676.2975776551252
 21
-248.2092086378652
 31
0.0
  0
ARC
  5
7047
330
2
100
AcDbEntity
  8
L-ZISSEN
100
AcDbCircle
 10
-658.6199081254615
 20
-325.2241393452832
 30
0.0
 40
84.01493070741805
100
AcDbArc
 50
82.91995048528553
 51
97.08004951471446
  0
ARC
  5
7048
330
2
100
AcDbEntity
  8
L-ZISSEN
100
AcDbCircle
 10
-658.6199081254615
 20
-164.1942779304472
 30
0.0
 40
84.01493070741805
100
AcDbArc
 50
262.9199504852855
 51
277.0800495147144
  0
LINE
  5
7049
330
2
100
AcDbEntity
  8
L-ZISSEN
100
AcDbLine
 10
-644.9913366968928
 20
-264.6479309213955
 30
0.0
 11
-672.2484795540342
 21
-264.6479309213955
 31
0.0
  0
LINE
  5
704B
330
2
100
AcDbEntity
  8
L-ZISSEN
100
AcDbLine
 10
-674.8984795540329
 20
-235.5336450011336
 30
0.0
 11
-674.8984795540329
 21
-240.2251802586538
 31
0.0
  0
ARC
  5
704C
330
2
100
AcDbEntity
  8
L-ZISSEN
100
AcDbCircle
 10
-681.8096317096858
 20
-253.5997268893416
 30
0.0
 40
2.056022658905709
100
AcDbArc
 50
88.75673479208732
 51
185.0977525317109
  0
ARC
  5
704D
330
2
100
AcDbEntity
  8
L-ZISSEN
100
AcDbCircle
 10
-676.2975776551252
 20
-283.3768292182607
 30
0.0
 40
42.16762058039566
100
AcDbArc
 50
79.99999999999483
 51
100.0000000000051
  0
ARC
  5
704E
330
2
100
AcDbEntity
  8
L-ZISSEN
100
AcDbCircle
 10
-676.2975776551252
 20
-206.0415880574696
 30
0.0
 40
42.16762058039566
100
AcDbArc
 50
259.9999999999948
 51
280.0000000000051
  0
LINE
  5
704F
330
2
100
AcDbEntity
  8
L-ZISSEN
100
AcDbLine
 10
-678.7526608866905
 20
-254.6479309213955
 30
0.0
 11
-683.8575218770297
 21
-254.6479309213955
 31
0.0
  0
LINE
  5
7050
330
2
100
AcDbEntity
  8
L-ZISSEN
100
AcDbLine
 10
-683.8575218770297
 20
-253.782415248118
 30
0.0
 11
-678.7526608866892
 21
-253.782415248118
 31
0.0
  0
LINE
  5
7051
330
2
100
AcDbEntity
  8
L-ZISSEN
100
AcDbLine
 10
-677.4902746382533
 20
-254.6479309213955
 30
0.0
 11
-685.1199081254629
 21
-254.6479309213955
 31
0.0
  0
LINE
  5
7052
330
2
100
AcDbEntity
  8
L-ZISSEN
100
AcDbLine
 10
-683.8575218770297
 20
-254.6479309213955
 30
0.0
 11
-683.8575218770297
 21
-253.782415248118
 31
0.0
  0
LINE
  5
7053
330
2
100
AcDbEntity
  8
L-ZISSEN
100
AcDbLine
 10
-685.119908125463
 20
-255.0680374015109
 30
0.0
 11
-685.1199081254629
 21
-249.6479309213977
 31
0.0
  0
LINE
  5
7054
330
2
100
AcDbEntity
  8
L-ZISSEN
100
AcDbLine
 10
-685.1199081254629
 20
-255.0680374015109
 30
0.0
 11
-685.1199081254629
 21
-264.2265023499685
 31
0.0
  0
LINE
  5
7055
330
2
100
AcDbEntity
  8
L-ZISSEN
100
AcDbLine
 10
-683.6199081254615
 20
-241.8498295446102
 30
0.0
 11
-683.6199081254615
 21
-247.5685877311202
 31
0.0
  0
LINE
  5
7056
330
2
100
AcDbEntity
  8
L-ZISSEN
100
AcDbLine
 10
-677.4902746382533
 20
-249.6479309213973
 30
0.0
 11
-677.4902746382533
 21
-254.6479309213959
 31
0.0
  0
LINE
  5
7057
330
2
100
AcDbEntity
  8
L-ZISSEN
100
AcDbLine
 10
-678.7526608866892
 20
-253.782415248118
 30
0.0
 11
-678.7526608866905
 21
-254.6479309213955
 31
0.0
  0
LINE
  5
7058
330
2
100
AcDbEntity
  8
L-SAISEN
100
AcDbLine
 10
-678.3413522323074
 20
-240.2251802586538
 30
0.0
 11
-678.3413522323074
 21
-241.258766455476
 31
0.0
  0
LINE
  5
7059
330
2
100
AcDbEntity
  8
L-ZISSEN
100
AcDbLine
 10
-679.6199081254615
 20
-240.7789832090652
 30
0.0
 11
-679.6199081254615
 21
-241.3402933755194
 31
0.0
  0
LINE
  5
705A
330
2
100
AcDbEntity
  8
L-ZISSEN
100
AcDbLine
 10
-678.3413522323074
 20
-240.2251802586538
 30
0.0
 11
-679.6199081254615
 21
-240.7789832090652
 31
0.0
  0
LINE
  5
705B
330
2
100
AcDbEntity
  8
L-ZISSEN
100
AcDbLine
 10
-680.8451613354268
 20
-251.5441882502682
 30
0.0
 11
-680.8451613354268
 21
-252.2899843616169
 31
0.0
  0
LINE
  5
705C
330
2
100
AcDbEntity
  8
L-ZISSEN
100
AcDbLine
 10
-681.7650214282894
 20
-252.2899843616169
 30
0.0
 11
-681.7650214282894
 21
-251.5441882502682
 31
0.0
  0
LINE
  5
705D
330
2
100
AcDbEntity
  8
L-ZISSEN
100
AcDbLine
 10
-680.8451613354268
 20
-252.2899843616169
 30
0.0
 11
-681.7650214282894
 21
-252.2899843616169
 31
0.0
  0
ARC
  5
705E
330
2
100
AcDbEntity
  8
L-ZISSEN
100
AcDbCircle
 10
-680.8005510540333
 20
-253.5997268893416
 30
0.0
 40
2.05602265890528
100
AcDbArc
 50
354.9022474682891
 51
91.24326520780845
  0
LINE
  5
705F
330
2
100
AcDbEntity
  8
L-ZISSEN
100
AcDbLine
 10
-668.9752471847889
 20
-241.8498295446102
 30
0.0
 11
-668.9752471847889
 21
-247.5685877311202
 31
0.0
  0
ARC
  5
7060
330
2
100
AcDbEntity
  8
L-ZISSEN
100
AcDbCircle
 10
-675.6137953803379
 20
-232.7191520009892
 30
0.0
 40
1.746357940845932
100
AcDbArc
 50
181.899368244253
 51
246.6278188173633
  0
LINE
  5
7061
330
2
100
AcDbEntity
  8
L-ZISSEN
100
AcDbLine
 10
-673.952050982607
 20
-234.28991237854
 30
0.0
 11
-673.952050982607
 21
-235.5336450011332
 31
0.0
  0
LINE
  5
7062
330
2
100
AcDbEntity
  8
L-ZISSEN
100
AcDbLine
 10
-642.3413366968897
 20
-235.5336450011336
 30
0.0
 11
-642.34133669689
 21
-240.2251802586538
 31
0.0
  0
LINE
  5
7063
330
2
100
AcDbEntity
  8
L-ZISSEN
100
AcDbLine
 10
-639.7495416126723
 20
-254.6479309213955
 30
0.0
 11
-632.1199081254628
 21
-254.6479309213955
 31
0.0
  0
LINE
  5
7064
330
2
100
AcDbEntity
  8
L-ZISSEN
100
AcDbLine
 10
-633.3822943738987
 20
-254.6479309213955
 30
0.0
 11
-638.4871553642365
 21
-254.6479309213955
 31
0.0
  0
LINE
  5
7065
330
2
100
AcDbEntity
  8
L-ZISSEN
100
AcDbLine
 10
-638.4871553642365
 20
-253.782415248118
 30
0.0
 11
-633.3822943738987
 21
-253.782415248118
 31
0.0
  0
ARC
  5
7066
330
2
100
AcDbEntity
  8
L-ZISSEN
100
AcDbCircle
 10
-635.4301845412399
 20
-253.5997268893416
 30
0.0
 40
2.056022658904637
100
AcDbArc
 50
354.9022474682891
 51
91.24326520780845
  0
ARC
  5
7067
330
2
100
AcDbEntity
  8
L-ZISSEN
100
AcDbCircle
 10
-640.9422385957977
 20
-283.3768292182607
 30
0.0
 40
42.16762058039566
100
AcDbArc
 50
79.99999999999483
 51
100.0000000000051
  0
ARC
  5
7068
330
2
100
AcDbEntity
  8
L-ZISSEN
100
AcDbCircle
 10
-640.9422385957977
 20
-206.0415880574696
 30
0.0
 40
42.16762058039566
100
AcDbArc
 50
259.9999999999948
 51
280.0000000000051
  0
LINE
  5
7069
330
2
100
AcDbEntity
  8
L-ZISSEN
100
AcDbLine
 10
-639.7495416126723
 20
-249.6479309213955
 30
0.0
 11
-639.7495416126723
 21
-254.6479309213959
 31
0.0
  0
LINE
  5
706A
330
2
100
AcDbEntity
  8
L-ZISSEN
100
AcDbLine
 10
-638.4871553642365
 20
-254.6479309213955
 30
0.0
 11
-638.4871553642365
 21
-253.782415248118
 31
0.0
  0
LINE
  5
706B
330
2
100
AcDbEntity
  8
L-ZISSEN
100
AcDbLine
 10
-644.9913366968928
 20
-266.1193594928259
 30
0.0
 11
-644.9913366968928
 21
-268.7693594928259
 31
0.0
  0
LINE
  5
706C
330
2
100
AcDbEntity
  8
L-ZISSEN
100
AcDbLine
 10
-648.2645690661341
 20
-241.8498295446102
 30
0.0
 11
-648.2645690661341
 21
-247.5685877311202
 31
0.0
  0
LINE
  5
706D
330
2
100
AcDbEntity
  8
L-ZISSEN
100
AcDbLine
 10
-635.4747948226363
 20
-251.5441882502682
 30
0.0
 11
-635.4747948226363
 21
-252.2899843616169
 31
0.0
  0
LINE
  5
706E
330
2
100
AcDbEntity
  8
L-ZISSEN
100
AcDbLine
 10
-636.3946549154961
 20
-252.2899843616169
 30
0.0
 11
-636.3946549154961
 21
-251.5441882502682
 31
0.0
  0
LINE
  5
706F
330
2
100
AcDbEntity
  8
L-ZISSEN
100
AcDbLine
 10
-635.4747948226363
 20
-252.2899843616169
 30
0.0
 11
-636.3946549154961
 21
-252.2899843616169
 31
0.0
  0
ARC
  5
7070
330
2
100
AcDbEntity
  8
L-ZISSEN
100
AcDbCircle
 10
-636.4392651968923
 20
-253.5997268893416
 30
0.0
 40
2.056022658905709
100
AcDbArc
 50
88.75673479219155
 51
185.0977525317109
  0
LINE
  5
7071
330
2
100
AcDbEntity
  8
L-ZISSEN
100
AcDbLine
 10
-637.6199081254615
 20
-240.7789832090652
 30
0.0
 11
-637.6199081254615
 21
-241.3402933755194
 31
0.0
  0
LINE
  5
7072
330
2
100
AcDbEntity
  8
L-SAISEN
100
AcDbLine
 10
-638.8984640186156
 20
-240.2251802586538
 30
0.0
 11
-638.8984640186155
 21
-241.2587664554761
 31
0.0
  0
LINE
  5
7073
330
2
100
AcDbEntity
  8
L-ZISSEN
100
AcDbLine
 10
-638.8984640186156
 20
-240.2251802586538
 30
0.0
 11
-637.6199081254615
 21
-240.7789832090652
 31
0.0
  0
LINE
  5
7074
330
2
100
AcDbEntity
  8
L-ZISSEN
100
AcDbLine
 10
-632.1199081254628
 20
-255.0680374015109
 30
0.0
 11
-632.1199081254628
 21
-249.6479309213955
 31
0.0
  0
LINE
  5
7075
330
2
100
AcDbEntity
  8
L-ZISSEN
100
AcDbLine
 10
-633.3822943738987
 20
-253.782415248118
 30
0.0
 11
-633.3822943738987
 21
-254.6479309213955
 31
0.0
  0
ARC
  5
7076
330
2
100
AcDbEntity
  8
L-SOUZOU
100
AcDbCircle
 10
-622.6199081254614
 20
-262.7479309213954
 30
0.0
 40
1.5
100
AcDbArc
 50
90.0
 51
180.0
  0
LINE
  5
7077
330
2
100
AcDbEntity
  8
L-ZISSEN
100
AcDbLine
 10
-632.1199081254626
 20
-255.0680374015109
 30
0.0
 11
-632.1199081254628
 21
-264.2265023499685
 31
0.0
  0
LINE
  5
7079
330
2
100
AcDbEntity
  8
L-ZISSEN
100
AcDbLine
 10
-633.6199081254615
 20
-245.585948879755
 30
0.0
 11
-633.6199081254615
 21
-241.8498295446102
 31
0.0
  0
LINE
  5
707A
330
2
100
AcDbEntity
  8
L-ZISSEN
100
AcDbLine
 10
-633.6199081254615
 20
-241.8498295446102
 30
0.0
 11
-633.6199081254615
 21
-247.5685877311202
 31
0.0
  0
LINE
  5
707B
330
2
100
AcDbEntity
  8
L-ZISSEN
100
AcDbLine
 10
-640.9332367523018
 20
-234.3222166356831
 30
0.0
 11
-658.6199081254615
 21
-234.3222166356831
 31
0.0
  0
ARC
  5
707C
330
2
100
AcDbEntity
  8
L-ZISSEN
100
AcDbCircle
 10
-641.6260208705878
 20
-232.7191520009892
 30
0.0
 40
1.746357940846056
100
AcDbArc
 50
293.3721811826366
 51
358.1006317557469
  0
LINE
  5
707D
330
2
100
AcDbEntity
  8
L-ZISSEN
100
AcDbLine
 10
-643.2877652683214
 20
-234.28991237854
 30
0.0
 11
-643.2877652683214
 21
-235.5336450011332
 31
0.0
  0
LINE
  5
707E
330
2
100
AcDbEntity
  8
L-SOUZOU
100
AcDbLine
 10
-599.1199081254615
 20
-262.1479309213955
 30
0.0
 11
-599.1199081254615
 21
-301.1479309213955
 31
0.0
  0
LINE
  5
707F
330
2
100
AcDbEntity
  8
L-SOUZOU
100
AcDbLine
 10
-608.1199081254615
 20
-260.6479309213955
 30
0.0
 11
-608.1199081254615
 21
-302.6479309213955
 31
0.0
  0
ARC
  5
7080
330
2
100
AcDbEntity
  8
L-SOUZOU
100
AcDbCircle
 10
-600.6199081254615
 20
-301.1479309213955
 30
0.0
 40
1.5
100
AcDbArc
 50
270.0
 51
0.0
  0
LINE
  5
7081
330
2
100
AcDbEntity
  8
L-SOUZOU
100
AcDbLine
 10
-608.1199081254615
 20
-302.6479309213955
 30
0.0
 11
-600.6199081254615
 21
-302.6479309213955
 31
0.0
  0
ARC
  5
7082
330
2
100
AcDbEntity
  8
L-SOUZOU
100
AcDbCircle
 10
-600.6199081254615
 20
-262.1479309213955
 30
0.0
 40
1.5
100
AcDbArc
 50
0.0
 51
90.0
  0
LINE
  5
7083
330
2
100
AcDbEntity
  8
L-SOUZOU
100
AcDbLine
 10
-608.1199081254615
 20
-260.6479309213955
 30
0.0
 11
-600.6199081254615
 21
-260.6479309213955
 31
0.0
  0
LINE
  5
7084
330
2
100
AcDbEntity
  8
L-ZISSEN
100
AcDbLine
 10
-641.9627652683186
 20
-194.6479309213978
 30
0.0
 11
-675.2770509826056
 21
-194.6479309213978
 31
0.0
  0
LINE
  5
7085
330
2
100
AcDbEntity
  8
L-ZISSEN
100
AcDbLine
 10
-676.7913366968928
 20
-196.4650737785409
 30
0.0
 11
-675.2770509826056
 21
-194.6479309213978
 31
0.0
  0
LINE
  5
7086
330
2
100
AcDbEntity
  8
L-ZISSEN
100
AcDbLine
 10
-640.4484795540356
 20
-196.4650737785409
 30
0.0
 11
-641.9627652683186
 21
-194.6479309213978
 31
0.0
  0
LINE
  5
7088
330
2
100
AcDbEntity
  8
L-ZISSEN
100
AcDbLine
 10
-637.6199081254614
 20
-248.078123900211
 30
0.0
 11
-637.6199081254614
 21
-249.6479309213955
 31
0.0
  0
LINE
  5
7089
330
2
100
AcDbEntity
  8
L-SAISEN
100
AcDbLine
 10
-638.8984640186155
 20
-248.1596508202543
 30
0.0
 11
-638.8984640186156
 21
-249.6479309213955
 31
0.0
  0
LINE
  5
708A
330
2
100
AcDbEntity
  8
L-ZISSEN
100
AcDbLine
 10
-679.6199081254615
 20
-248.078123900211
 30
0.0
 11
-679.6199081254615
 21
-249.6479309213955
 31
0.0
  0
LINE
  5
708B
330
2
100
AcDbEntity
  8
L-SAISEN
100
AcDbLine
 10
-678.3413522323073
 20
-248.1596508202543
 30
0.0
 11
-678.3413522323073
 21
-249.6479309213955
 31
0.0
  0
LINE
  5
7091
330
2
100
AcDbEntity
  8
L-ZISSEN
100
AcDbLine
 10
-698.6199081254621
 20
-236.6479309213955
 30
0.0
 11
-698.6199081254621
 21
-326.6479309213955
 31
0.0
  0
LINE
  5
7092
330
2
100
AcDbEntity
  8
L-ZISSEN
100
AcDbLine
 10
-691.6199081254622
 20
-326.6479309213955
 30
0.0
 11
-691.6199081254622
 21
-295.4479309213955
 31
0.0
  0
LINE
  5
7093
330
2
100
AcDbEntity
  8
L-ZISSEN
100
AcDbLine
 10
-698.6199081254621
 20
-326.6479309213955
 30
0.0
 11
-691.6199081254622
 21
-326.6479309213955
 31
0.0
  0
LINE
  5
7094
330
2
100
AcDbEntity
  8
L-TYUSIN
100
AcDbLine
 10
-685.5192458159049
 20
-316.6479309213955
 30
0.0
 11
-706.1555882465991
 21
-316.6479309213955
 31
0.0
  0
LINE
  5
7095
330
2
100
AcDbEntity
  8
L-ZISSEN
100
AcDbLine
 10
-691.6199081254622
 20
-295.4479309213955
 30
0.0
 11
-685.1199081254621
 21
-291.5479309213955
 31
0.0
  0
LINE
  5
7096
330
2
100
AcDbEntity
  8
L-ZISSEN
100
AcDbLine
 10
-691.6199081254622
 20
-267.8479309213955
 30
0.0
 11
-691.6199081254622
 21
-236.6479309213955
 31
0.0
  0
LINE
  5
7097
330
2
100
AcDbEntity
  8
L-ZISSEN
100
AcDbLine
 10
-691.6199081254622
 20
-267.8479309213954
 30
0.0
 11
-685.1199081254629
 21
-271.7479309213951
 31
0.0
  0
LINE
  5
7098
330
2
100
AcDbEntity
  8
L-TYUSIN
100
AcDbLine
 10
-685.5192458159049
 20
-246.6479309213955
 30
0.0
 11
-706.1555882465991
 21
-246.6479309213955
 31
0.0
  0
LINE
  5
7099
330
2
100
AcDbEntity
  8
L-ZISSEN
100
AcDbLine
 10
-691.6199081254622
 20
-236.6479309213955
 30
0.0
 11
-698.6199081254621
 21
-236.6479309213955
 31
0.0
  0
LINE
  5
709A
330
2
100
AcDbEntity
  8
L-ZISSEN
100
AcDbLine
 10
-682.6199081254635
 20
-272.6479309213955
 30
0.0
 11
-683.6199081254622
 21
-272.6479309213955
 31
0.0
  0
TEXT
  5
709E
330
2
100
AcDbEntity
  8
L-ZISSEN
100
AcDbText
 10
-704.1117907568007
 20
-61.55890398209203
 30
0.0
 40
4.5
  1
MODEL NO. CJ3-*00-*01*
100
AcDbText
  0
LINE
  5
712E
330
2
100
AcDbEntity
  8
L-ZISSEN
100
AcDbLine
 10
-467.9656330292345
 20
-279.7674208691279
 30
0.0
 11
-450.1720914038373
 21
-230.6282339741024
 31
0.0
  0
TEXT
  5
712F
330
2
100
AcDbEntity
  8
L-ZISSEN
100
AcDbText
 10
-446.5739587325392
 20
-232.8782339741024
 30
0.0
 40
4.5
  1
P.P
100
AcDbText
  0
LINE
  5
7130
330
2
100
AcDbEntity
  8
L-ZISSEN
100
AcDbLine
 10
-450.1720914038373
 20
-230.6282339741024
 30
0.0
 11
-448.1720914038374
 21
-230.6282339741024
 31
0.0
  0
SOLID
  5
7131
330
2
100
AcDbEntity
  8
L-ZISSEN
100
AcDbTrace
 10
-468.2790513712793
 20
-279.6539305436317
 30
0.0
 11
-467.6522146871904
 21
-279.8809111946241
 31
0.0
 12
-468.6465749822115
 22
-281.6479309213946
 32
0.0
 13
-468.6465749822115
 23
-281.6479309213946
 33
0.0
  0
LINE
  5
7132
330
2
100
AcDbEntity
  8
L-ZISSEN
100
AcDbLine
 10
-181.1830175414065
 20
-287.3675621220641
 30
0.0
 11
-194.6465749822115
 21
-276.1479309213932
 31
0.0
  0
TEXT
  5
7133
330
2
100
AcDbEntity
  8
L-ZISSEN
100
AcDbText
 10
-207.6465749822115
 20
-278.3979309213932
 30
0.0
 40
4.5
  1
P.P
100
AcDbText
  0
LINE
  5
7134
330
2
100
AcDbEntity
  8
L-ZISSEN
100
AcDbLine
 10
-194.6465749822115
 20
-276.1479309213932
 30
0.0
 11
-196.6465749822115
 21
-276.1479309213932
 31
0.0
  0
SOLID
  5
7135
330
2
100
AcDbEntity
  8
L-ZISSEN
100
AcDbTrace
 10
-181.3964123412947
 20
-287.6236358819301
 30
0.0
 11
-180.9696227415183
 21
-287.1114883621985
 31
0.0
 12
-179.6465749822118
 22
-288.6479309213932
 32
0.0
 13
-179.6465749822118
 23
-288.6479309213932
 33
0.0
  0
TEXT
  5
7137
330
2
100
AcDbEntity
  8
L-ZISSEN
100
AcDbText
 10
-207.6465749822115
 20
-58.39793092139325
 30
0.0
 40
4.5
  1
P.P
100
AcDbText
  0
LINE
  5
7138
330
2
100
AcDbEntity
  8
L-ZISSEN
100
AcDbLine
 10
-181.1830175414064
 20
-67.3675621220641
 30
0.0
 11
-194.6465749822115
 21
-56.14793092139326
 31
0.0
  0
SOLID
  5
7139
330
2
100
AcDbEntity
  8
L-ZISSEN
100
AcDbTrace
 10
-181.3964123412946
 20
-67.62363588193011
 30
0.0
 11
-180.9696227415182
 21
-67.11148836219854
 31
0.0
 12
-179.6465749822117
 22
-68.64793092139326
 32
0.0
 13
-179.6465749822117
 23
-68.64793092139326
 33
0.0
  0
LINE
  5
713A
330
2
100
AcDbEntity
  8
L-ZISSEN
100
AcDbLine
 10
-194.6465749822115
 20
-56.14793092139326
 30
0.0
 11
-196.6465749822115
 21
-56.14793092139326
 31
0.0
  0
LINE
  5
71D7
330
2
100
AcDbEntity
  8
L-ZISSEN
100
AcDbLine
 10
-189.3373182179034
 20
-315.8103105876557
 30
0.0
 11
-191.5447593356928
 21
-395.4938355812737
 31
0.0
  0
LINE
  5
71D8
330
2
100
AcDbEntity
  8
L-ZISSEN
100
AcDbLine
 10
-233.9558317465191
 20
-315.8103105876557
 30
0.0
 11
-231.7483906287307
 21
-395.4938355812732
 31
0.0
  0
LINE
  5
71D9
330
2
100
AcDbEntity
  8
L-ZISSEN
100
AcDbLine
 10
-202.8965749822118
 20
-321.3542273876559
 30
0.0
 11
-202.89657498221
 21
-398.354227387656
 31
0.0
  0
LINE
  5
71DA
330
2
100
AcDbEntity
  8
L-ZISSEN
100
AcDbLine
 10
-214.1465749822118
 20
-386.854227387656
 30
0.0
 11
-214.1465749822118
 21
-332.854227387656
 31
0.0
  0
LINE
  5
71DB
330
2
100
AcDbEntity
  8
L-ZISSEN
100
AcDbLine
 10
-209.1465749822118
 20
-332.854227387656
 30
0.0
 11
-209.1465749822118
 21
-386.854227387656
 31
0.0
  0
LINE
  5
71DC
330
2
100
AcDbEntity
  8
L-ZISSEN
100
AcDbLine
 10
-220.3965749822118
 20
-321.3542273876559
 30
0.0
 11
-220.39657498221
 21
-398.354227387656
 31
0.0
  0
ARC
  5
71DD
330
2
100
AcDbEntity
  8
L-ZISSEN
100
AcDbCircle
 10
-218.3920918204607
 20
-407.9186399769445
 30
0.0
 40
5.271330170370607
100
AcDbArc
 50
64.74766100341475
 51
114.9228807251761
  0
LINE
  5
71DE
330
2
100
AcDbEntity
  8
L-ZISSEN
100
AcDbLine
 10
-217.1137762039579
 20
-407.5890963318848
 30
0.0
 11
-217.6137762039552
 21
-408.0890963318847
 31
0.0
  0
ARC
  5
71DF
330
2
100
AcDbEntity
  8
L-ZISSEN
100
AcDbCircle
 10
-218.3920918204607
 20
-400.3772218658427
 30
0.0
 40
5.271330170370607
100
AcDbArc
 50
245.0771192748237
 51
295.2523389966427
  0
LINE
  5
71E0
330
2
100
AcDbEntity
  8
L-ZISSEN
100
AcDbLine
 10
-205.9137762039568
 20
-417.6479309213932
 30
0.0
 11
-217.3137762039555
 21
-417.6479309213932
 31
0.0
  0
LINE
  5
71E1
330
2
100
AcDbEntity
  8
L-ZISSEN
100
AcDbLine
 10
-218.3920918204607
 20
-402.6473098065748
 30
0.0
 11
-204.9010581439624
 21
-402.6465130368037
 31
0.0
  0
LINE
  5
71E2
330
2
100
AcDbEntity
  8
L-TYUSIN
100
AcDbLine
 10
-205.3965749822118
 20
-393.1042273876564
 30
0.0
 11
-217.8965749822118
 21
-393.1042273876564
 31
0.0
  0
LINE
  5
71E3
330
2
100
AcDbEntity
  8
L-ZISSEN
100
AcDbLine
 10
-221.9965749822117
 20
-402.6469114216893
 30
0.0
 11
-201.2965749822117
 21
-402.6469114216893
 31
0.0
  0
LINE
  5
71E4
330
2
100
AcDbEntity
  8
L-ZISSEN
100
AcDbLine
 10
-221.9965749822117
 20
-400.354227387656
 30
0.0
 11
-201.2965749822119
 21
-400.354227387656
 31
0.0
  0
LINE
  5
71E5
330
2
100
AcDbEntity
  8
L-ZISSEN
100
AcDbLine
 10
-220.3965749822118
 20
-398.354227387656
 30
0.0
 11
-202.8965749822118
 21
-398.3542273876569
 31
0.0
  0
LINE
  5
71E6
330
2
100
AcDbEntity
  8
L-ZISSEN
100
AcDbLine
 10
-218.3920918204607
 20
-405.6485520362135
 30
0.0
 11
-204.9010581439624
 21
-405.6493488059845
 31
0.0
  0
LINE
  5
71E7
330
2
100
AcDbEntity
  8
L-ZISSEN
100
AcDbLine
 10
-217.6137762039554
 20
-417.3479309213935
 30
0.0
 11
-217.6137762039552
 21
-408.0890963318847
 31
0.0
  0
LINE
  5
71E8
330
2
100
AcDbEntity
  8
L-ZISSEN
100
AcDbLine
 10
-217.3137762039555
 20
-417.6479309213932
 30
0.0
 11
-217.6137762039552
 21
-417.347930921394
 31
0.0
  0
ARC
  5
71E9
330
2
100
AcDbEntity
  8
L-ZISSEN
100
AcDbCircle
 10
-227.7953303904489
 20
-395.4884489842456
 30
0.0
 40
3.95306390827567
100
AcDbArc
 50
180.0780734585509
 51
244.0113010331028
  0
ARC
  5
71EA
330
2
100
AcDbEntity
  8
L-ZISSEN
100
AcDbCircle
 10
-222.1909277494814
 20
-379.206466835003
 30
0.0
 40
21.14865360703842
100
AcDbArc
 50
249.7017647719361
 51
270.5265465241192
  0
LINE
  5
71EB
330
2
100
AcDbEntity
  8
L-ZISSEN
100
AcDbLine
 10
-221.9965749822115
 20
-402.6469114216893
 30
0.0
 11
-221.9965749822117
 21
-400.354227387656
 31
0.0
  0
LINE
  5
71EC
330
2
100
AcDbEntity
  8
L-ZISSEN
100
AcDbLine
 10
-220.6134198240401
 20
-403.1381981913368
 30
0.0
 11
-220.6134198240401
 21
-405.1576636514496
 31
0.0
  0
LINE
  5
71ED
330
2
100
AcDbEntity
  8
L-ZISSEN
100
AcDbLine
 10
-214.6137762039557
 20
-407.5890963318848
 30
0.0
 11
-214.6137762039557
 21
-417.6479309213932
 31
0.0
  0
LINE
  5
71EE
330
2
100
AcDbEntity
  8
L-ZISSEN
100
AcDbLine
 10
-215.613776203957
 20
-407.5890963318848
 30
0.0
 11
-215.613776203957
 21
-417.6479309213932
 31
0.0
  0
LINE
  5
71EF
330
2
100
AcDbEntity
  8
L-ZISSEN
100
AcDbLine
 10
-216.6137762039561
 20
-407.5890963318848
 30
0.0
 11
-216.6137762039561
 21
-417.6479309213932
 31
0.0
  0
LINE
  5
71F0
330
2
100
AcDbEntity
  8
L-ZISSEN
100
AcDbLine
 10
-205.613776203957
 20
-408.0890963318847
 30
0.0
 11
-205.613776203957
 21
-417.3479309213935
 31
0.0
  0
LINE
  5
71F1
330
2
100
AcDbEntity
  8
L-ZISSEN
100
AcDbLine
 10
-206.6137762039538
 20
-407.5890963318848
 30
0.0
 11
-206.613776203952
 21
-417.6479309213932
 31
0.0
  0
LINE
  5
71F2
330
2
100
AcDbEntity
  8
L-ZISSEN
100
AcDbLine
 10
-207.6137762039529
 20
-407.5890963318848
 30
0.0
 11
-207.6137762039529
 21
-417.6479309213932
 31
0.0
  0
LINE
  5
71F3
330
2
100
AcDbEntity
  8
L-ZISSEN
100
AcDbLine
 10
-208.6137762039566
 20
-407.5890963318848
 30
0.0
 11
-208.6137762039566
 21
-417.6479309213932
 31
0.0
  0
LINE
  5
71F4
330
2
100
AcDbEntity
  8
L-ZISSEN
100
AcDbLine
 10
-209.6137762039556
 20
-407.5890963318848
 30
0.0
 11
-209.6137762039556
 21
-417.6479309213932
 31
0.0
  0
LINE
  5
71F5
330
2
100
AcDbEntity
  8
L-ZISSEN
100
AcDbLine
 10
-210.6137762039547
 20
-407.5890963318848
 30
0.0
 11
-210.6137762039547
 21
-417.6479309213932
 31
0.0
  0
LINE
  5
71F6
330
2
100
AcDbEntity
  8
L-ZISSEN
100
AcDbLine
 10
-211.6137762039538
 20
-407.5890963318848
 30
0.0
 11
-211.6137762039538
 21
-417.6479309213932
 31
0.0
  0
LINE
  5
71F7
330
2
100
AcDbEntity
  8
L-ZISSEN
100
AcDbLine
 10
-212.6137762039552
 20
-407.5890963318848
 30
0.0
 11
-212.6137762039552
 21
-417.6479309213932
 31
0.0
  0
LINE
  5
71F8
330
2
100
AcDbEntity
  8
L-ZISSEN
100
AcDbLine
 10
-213.6137762039543
 20
-407.5890963318848
 30
0.0
 11
-213.6137762039543
 21
-417.6479309213932
 31
0.0
  0
LINE
  5
71F9
330
2
100
AcDbEntity
  8
L-ZISSEN
100
AcDbLine
 10
-205.9137762039568
 20
-417.6479309213932
 30
0.0
 11
-205.613776203957
 21
-417.347930921394
 31
0.0
  0
ARC
  5
71FA
330
2
100
AcDbEntity
  8
L-ZISSEN
100
AcDbCircle
 10
-201.1022222149422
 20
-379.206466835003
 30
0.0
 40
21.14865360703842
100
AcDbArc
 50
269.4734534758807
 51
290.2982352280637
  0
ARC
  5
71FB
330
2
100
AcDbEntity
  8
L-ZISSEN
100
AcDbCircle
 10
-204.9010581439624
 20
-407.9178432071744
 30
0.0
 40
5.271330170371789
100
AcDbArc
 50
64.28835488513754
 51
115.259106683419
  0
ARC
  5
71FC
330
2
100
AcDbEntity
  8
L-ZISSEN
100
AcDbCircle
 10
-204.9010581439624
 20
-400.3780186356129
 30
0.0
 40
5.271330170371532
100
AcDbArc
 50
244.7408933165809
 51
295.7116451148624
  0
ARC
  5
71FD
330
2
100
AcDbEntity
  8
L-ZISSEN
100
AcDbCircle
 10
-211.6137762039561
 20
-423.2889935953103
 30
0.0
 40
20.64106267391679
100
AcDbArc
 50
77.50558048156889
 51
102.6763186877476
  0
LINE
  5
71FE
330
2
100
AcDbEntity
  8
L-ZISSEN
100
AcDbLine
 10
-217.1137762039579
 20
-407.5890963318848
 30
0.0
 11
-208.6137762039566
 21
-407.5890963318848
 31
0.0
  0
ARC
  5
71FF
330
2
100
AcDbEntity
  8
L-ZISSEN
100
AcDbCircle
 10
-211.6137762039561
 20
-385.0068682474761
 30
0.0
 40
20.64106267391694
100
AcDbArc
 50
257.3236813122657
 51
282.4944195184311
  0
LINE
  5
7200
330
2
100
AcDbEntity
  8
L-ZISSEN
100
AcDbLine
 10
-216.6137762039539
 20
-405.6486275325219
 30
0.0
 11
-216.6137762039579
 21
-407.5890963318848
 31
0.0
  0
LINE
  5
7201
330
2
100
AcDbEntity
  8
L-ZISSEN
100
AcDbLine
 10
-216.6137762039579
 20
-407.5890963318848
 30
0.0
 11
-217.1137762039552
 21
-407.0890963318848
 31
0.0
  0
LINE
  5
7202
330
2
100
AcDbEntity
  8
L-ZISSEN
100
AcDbLine
 10
-217.1137762039552
 20
-407.0890963318848
 30
0.0
 11
-217.1137762039552
 21
-405.6479309213932
 31
0.0
  0
LINE
  5
7203
330
2
100
AcDbEntity
  8
L-ZISSEN
100
AcDbLine
 10
-216.1433125219746
 20
-403.1510500793424
 30
0.0
 11
-216.1433125219677
 21
-405.1448117634459
 31
0.0
  0
LINE
  5
7204
330
2
100
AcDbEntity
  8
L-ZISSEN
100
AcDbLine
 10
-206.6137762039525
 20
-405.6492771838161
 30
0.0
 11
-206.6137762039566
 21
-407.5890963318848
 31
0.0
  0
LINE
  5
7205
330
2
100
AcDbEntity
  8
L-ZISSEN
100
AcDbLine
 10
-206.6137762039566
 20
-407.5890963318848
 30
0.0
 11
-206.113776203957
 21
-407.0890963318848
 31
0.0
  0
LINE
  5
7206
330
2
100
AcDbEntity
  8
L-ZISSEN
100
AcDbLine
 10
-208.6137762039566
 20
-407.5890963318848
 30
0.0
 11
-206.1137762039566
 21
-407.5890963318848
 31
0.0
  0
LINE
  5
7207
330
2
100
AcDbEntity
  8
L-ZISSEN
100
AcDbLine
 10
-206.1137762039566
 20
-407.5890963318848
 30
0.0
 11
-205.613776203957
 21
-408.0890963318847
 31
0.0
  0
LINE
  5
7208
330
2
100
AcDbEntity
  8
L-ZISSEN
100
AcDbLine
 10
-206.113776203957
 20
-407.0890963318848
 30
0.0
 11
-206.113776203957
 21
-405.6479309213932
 31
0.0
  0
LINE
  5
7209
330
2
100
AcDbEntity
  8
L-ZISSEN
100
AcDbLine
 10
-207.1504005669389
 20
-403.1505189650801
 30
0.0
 11
-207.1504005669389
 21
-405.145342877708
 31
0.0
  0
LINE
  5
720A
330
2
100
AcDbEntity
  8
L-ZISSEN
100
AcDbLine
 10
-201.2965749822117
 20
-402.6469114216893
 30
0.0
 11
-201.2965749822119
 21
-400.354227387656
 31
0.0
  0
LINE
  5
720B
330
2
100
AcDbEntity
  8
L-ZISSEN
100
AcDbLine
 10
-202.6141325838698
 20
-403.1684334282995
 30
0.0
 11
-202.6141325838698
 21
-405.1274284144869
 31
0.0
  0
LINE
  5
720C
330
2
100
AcDbEntity
  8
L-ZISSEN
100
AcDbLine
 10
-209.1465749822118
 20
-386.854227387656
 30
0.0
 11
-214.1465749822118
 21
-386.854227387656
 31
0.0
  0
CIRCLE
  5
720D
330
2
100
AcDbEntity
  8
L-ZISSEN
100
AcDbCircle
 10
-211.6465749822118
 20
-393.1042273876564
 30
0.0
 40
3.75
  0
POLYLINE
  5
720E
330
2
100
AcDbEntity
  8
L-ZISSEN
100
AcDb2dPolyline
 66
     1
 10
0.0
 20
0.0
 30
0.0
 70
     1
  0
VERTEX
  5
7541
330
720E
100
AcDbEntity
  8
L-ZISSEN
100
AcDbVertex
100
AcDb2dVertex
 10
-212.8965749822118
 20
-392.3825395511694
 30
0.0
  0
VERTEX
  5
7542
330
720E
100
AcDbEntity
  8
L-ZISSEN
100
AcDbVertex
100
AcDb2dVertex
 10
-211.6465749822118
 20
-391.6608517146824
 30
0.0
  0
VERTEX
  5
7543
330
720E
100
AcDbEntity
  8
L-ZISSEN
100
AcDbVertex
100
AcDb2dVertex
 10
-210.3965749822118
 20
-392.3825395511694
 30
0.0
  0
VERTEX
  5
7544
330
720E
100
AcDbEntity
  8
L-ZISSEN
100
AcDbVertex
100
AcDb2dVertex
 10
-210.3965749822118
 20
-393.8259152241434
 30
0.0
  0
VERTEX
  5
7545
330
720E
100
AcDbEntity
  8
L-ZISSEN
100
AcDbVertex
100
AcDb2dVertex
 10
-211.6465749822118
 20
-394.5476030606305
 30
0.0
  0
VERTEX
  5
7546
330
720E
100
AcDbEntity
  8
L-ZISSEN
100
AcDbVertex
100
AcDb2dVertex
 10
-212.8965749822118
 20
-393.8259152241434
 30
0.0
  0
SEQEND
  5
7547
330
720E
100
AcDbEntity
  8
L-ZISSEN
  0
ARC
  5
720F
330
2
100
AcDbEntity
  8
L-ZISSEN
100
AcDbCircle
 10
-195.4978195739747
 20
-395.4884489842456
 30
0.0
 40
3.95306390827567
100
AcDbArc
 50
295.9886989668971
 51
359.9219265414491
  0
LINE
  5
7210
330
2
100
AcDbEntity
  8
L-TYUSIN
100
AcDbLine
 10
-205.3965749822118
 20
-326.604227387656
 30
0.0
 11
-217.8965749822118
 21
-326.604227387656
 31
0.0
  0
LINE
  5
7211
330
2
100
AcDbEntity
  8
L-ZISSEN
100
AcDbLine
 10
-220.3965749822118
 20
-321.3542273876559
 30
0.0
 11
-202.8965749822118
 21
-321.3542273876559
 31
0.0
  0
LINE
  5
7212
330
2
100
AcDbEntity
  8
L-ZISSEN
100
AcDbLine
 10
-229.8965749822109
 20
-323.8231095961382
 30
0.0
 11
-229.8965749822109
 21
-332.8542273876555
 31
0.0
  0
LINE
  5
7213
330
2
100
AcDbEntity
  8
L-ZISSEN
100
AcDbLine
 10
-224.8965749822107
 20
-323.8231095961382
 30
0.0
 11
-224.8965749822109
 21
-332.8542273876555
 31
0.0
  0
LINE
  5
7214
330
2
100
AcDbEntity
  8
L-ZISSEN
100
AcDbLine
 10
-229.8965749822109
 20
-332.8542273876555
 30
0.0
 11
-233.4836708731702
 21
-332.8542273876555
 31
0.0
  0
LINE
  5
7215
330
2
100
AcDbEntity
  8
L-ZISSEN
100
AcDbLine
 10
-224.8965749822118
 20
-332.8542273876555
 30
0.0
 11
-220.3965749822116
 21
-332.8542273876555
 31
0.0
  0
LINE
  5
7216
330
2
100
AcDbEntity
  8
L-ZISSEN
100
AcDbLine
 10
-224.8965749822109
 20
-323.8231095961382
 30
0.0
 11
-229.8965749822109
 21
-323.8231095961382
 31
0.0
  0
LINE
  5
7217
330
2
100
AcDbEntity
  8
L-ZISSEN
100
AcDbLine
 10
-187.4217066339849
 20
-337.8103105876557
 30
0.0
 11
-187.4217066339849
 21
-354.9542273876545
 31
0.0
  0
LINE
  5
7218
330
2
100
AcDbEntity
  8
L-ZISSEN
100
AcDbLine
 10
-187.4217066339849
 20
-354.9542273876545
 30
0.0
 11
-190.4900156580254
 21
-357.4200253564199
 31
0.0
  0
LINE
  5
7219
330
2
100
AcDbEntity
  8
L-ZISSEN
100
AcDbLine
 10
-198.3965749822127
 20
-323.8231095961382
 30
0.0
 11
-193.3965749822127
 21
-323.8231095961382
 31
0.0
  0
LINE
  5
721A
330
2
100
AcDbEntity
  8
L-ZISSEN
100
AcDbLine
 10
-198.3965749822127
 20
-323.8231095961382
 30
0.0
 11
-198.3965749822127
 21
-332.8542273876555
 31
0.0
  0
CIRCLE
  5
721B
330
2
100
AcDbEntity
  8
L-ZISSEN
100
AcDbCircle
 10
-211.6465749822118
 20
-326.604227387656
 30
0.0
 40
3.75
  0
LINE
  5
721C
330
2
100
AcDbEntity
  8
L-ZISSEN
100
AcDbLine
 10
-214.1465749822118
 20
-332.8542273876555
 30
0.0
 11
-209.1465749822118
 21
-332.854227387656
 31
0.0
  0
LINE
  5
721D
330
2
100
AcDbEntity
  8
L-ZISSEN
100
AcDbLine
 10
-198.3965749822118
 20
-332.8542273876555
 30
0.0
 11
-202.8965749822116
 21
-332.8542273876555
 31
0.0
  0
POLYLINE
  5
721E
330
2
100
AcDbEntity
  8
L-ZISSEN
100
AcDb2dPolyline
 66
     1
 10
0.0
 20
0.0
 30
0.0
 70
     1
  0
VERTEX
  5
7548
330
721E
100
AcDbEntity
  8
L-ZISSEN
100
AcDbVertex
100
AcDb2dVertex
 10
-212.8965749822118
 20
-327.325915224143
 30
0.0
  0
VERTEX
  5
7549
330
721E
100
AcDbEntity
  8
L-ZISSEN
100
AcDbVertex
100
AcDb2dVertex
 10
-211.6465749822118
 20
-328.04760306063
 30
0.0
  0
VERTEX
  5
754A
330
721E
100
AcDbEntity
  8
L-ZISSEN
100
AcDbVertex
100
AcDb2dVertex
 10
-210.3965749822118
 20
-327.325915224143
 30
0.0
  0
VERTEX
  5
754B
330
721E
100
AcDbEntity
  8
L-ZISSEN
100
AcDbVertex
100
AcDb2dVertex
 10
-210.3965749822118
 20
-325.8825395511689
 30
0.0
  0
VERTEX
  5
754C
330
721E
100
AcDbEntity
  8
L-ZISSEN
100
AcDbVertex
100
AcDb2dVertex
 10
-211.6465749822118
 20
-325.1608517146819
 30
0.0
  0
VERTEX
  5
754D
330
721E
100
AcDbEntity
  8
L-ZISSEN
100
AcDbVertex
100
AcDb2dVertex
 10
-212.8965749822118
 20
-325.8825395511689
 30
0.0
  0
SEQEND
  5
754E
330
721E
100
AcDbEntity
  8
L-ZISSEN
  0
LINE
  5
721F
330
2
100
AcDbEntity
  8
L-ZISSEN
 48
5.0
100
AcDbLine
 10
-187.4217066339849
 20
-337.8103105876557
 30
0.0
 11
-187.4010895749197
 21
-315.8103105876562
 31
0.0
  0
LINE
  5
7220
330
2
100
AcDbEntity
  8
L-ZISSEN
 48
5.0
100
AcDbLine
 10
-185.7613662500996
 20
-315.8103105876562
 30
0.0
 11
-185.7613662500996
 21
-332.7944782483787
 31
0.0
  0
LINE
  5
7221
330
2
100
AcDbEntity
  8
L-ZISSEN
100
AcDbLine
 10
-193.3965749822125
 20
-323.8231095961382
 30
0.0
 11
-193.3965749822127
 21
-332.8542273876555
 31
0.0
  0
LINE
  5
7222
330
2
100
AcDbEntity
  8
L-ZISSEN
 48
5.0
100
AcDbLine
 10
-187.4217066339849
 20
-333.5225198483781
 30
0.0
 11
-189.4015742501003
 21
-333.5225198483781
 31
0.0
  0
LINE
  5
7223
330
2
100
AcDbEntity
  8
L-ZISSEN
 48
5.0
100
AcDbLine
 10
-189.8279925324763
 20
-333.5225198483781
 30
0.0
 11
-187.4217066339849
 21
-333.5225198483781
 31
0.0
  0
LINE
  5
7224
330
2
100
AcDbEntity
  8
L-ZISSEN
 48
5.0
100
AcDbLine
 10
-185.7613662500996
 20
-332.7944782483787
 30
0.0
 11
-182.8491998501001
 21
-333.2785806324004
 31
0.0
  0
LINE
  5
7225
330
2
100
AcDbEntity
  8
L-ZISSEN
 48
5.0
100
AcDbLine
 10
-186.8534286500996
 20
-337.8907694483782
 30
0.0
 11
-187.4217066339849
 21
-337.8907694483782
 31
0.0
  0
LINE
  5
7226
330
2
100
AcDbEntity
  8
L-ZISSEN
 48
5.0
100
AcDbLine
 10
-182.8491998501001
 20
-336.3976338731613
 30
0.0
 11
-186.8534286500996
 21
-337.8907694483782
 31
0.0
  0
LINE
  5
7227
330
2
100
AcDbEntity
  8
L-ZISSEN
 48
5.0
100
AcDbLine
 10
-182.8491998501001
 20
-333.2785806324004
 30
0.0
 11
-182.8491998501001
 21
-336.3976338731613
 31
0.0
  0
LINE
  5
7228
330
2
100
AcDbEntity
  8
L-ZISSEN
100
AcDbLine
 10
-193.3965749822127
 20
-332.8542273876555
 30
0.0
 11
-189.8094790912518
 21
-332.8542273876555
 31
0.0
  0
LINE
  5
7229
330
2
100
AcDbEntity
  8
L-ZISSEN
100
AcDbLine
 10
-190.1437331112306
 20
-344.9200253564199
 30
0.0
 11
-187.4217066339852
 21
-344.9200253564199
 31
0.0
  0
LINE
  5
722A
330
2
100
AcDbEntity
  8
L-ZISSEN
100
AcDbLine
 10
-188.6217066339854
 20
-344.9200253564199
 30
0.0
 11
-188.6217066339854
 21
-333.5225198483781
 31
0.0
  0
LINE
  5
722B
330
2
100
AcDbEntity
  8
L-ZISSEN
100
AcDbLine
 10
-185.7613662500996
 20
-315.8103105876557
 30
0.0
 11
-189.3373182179029
 21
-315.8103105876557
 31
0.0
  0
ARC
  5
722C
330
2
100
AcDbEntity
  8
L-ZISSEN
100
AcDbCircle
 10
-301.0694234366865
 20
-379.206466835003
 30
0.0
 40
21.14865360703842
100
AcDbArc
 50
269.4734534758807
 51
290.2982352280637
  0
LINE
  5
722D
330
2
100
AcDbEntity
  8
L-ZISSEN
100
AcDbLine
 10
-298.3637762039561
 20
-332.8542273876555
 30
0.0
 11
-309.1465749822118
 21
-332.8542273876555
 31
0.0
  0
LINE
  5
722F
330
2
100
AcDbEntity
  8
L-ZISSEN
100
AcDbLine
 10
-277.6538527976454
 20
-321.3542273876559
 30
0.0
 11
-277.6538527976472
 21
-398.354227387656
 31
0.0
  0
LINE
  5
7230
330
2
100
AcDbEntity
  8
L-ZISSEN
100
AcDbLine
 10
-287.1538527976463
 20
-398.3542273876569
 30
0.0
 11
-287.1538527976463
 21
-321.3542273876551
 31
0.0
  0
LINE
  5
7231
330
2
100
AcDbEntity
  8
L-ZISSEN
100
AcDbLine
 10
-289.3045194396488
 20
-315.8103105876557
 30
0.0
 11
-291.5119605574373
 21
-395.4938355812732
 31
0.0
  0
ARC
  5
7232
330
2
100
AcDbEntity
  8
L-ZISSEN
100
AcDbCircle
 10
-278.0658553654229
 20
-394.5790139034743
 30
0.0
 40
2.312215931624567
100
AcDbArc
 50
280.2640683722078
 51
0.7783719766075644
  0
LINE
  5
7233
330
2
100
AcDbEntity
  8
L-TYUSIN
100
AcDbLine
 10
-292.1619145087179
 20
-393.2542273876565
 30
0.0
 11
-270.7538527976457
 21
-393.2542273876592
 31
0.0
  0
ARC
  5
7234
330
2
100
AcDbEntity
  8
L-ZISSEN
100
AcDbCircle
 10
-278.0658553654229
 20
-391.6294408718385
 30
0.0
 40
2.312215931624567
100
AcDbArc
 50
359.2216280233924
 51
79.7359316277922
  0
LINE
  5
7235
330
2
100
AcDbEntity
  8
L-ZISSEN
100
AcDbLine
 10
-275.7538527976457
 20
-394.54760306063
 30
0.0
 11
-275.7538527976455
 21
-391.6608517146824
 31
0.0
  0
ARC
  5
7236
330
2
100
AcDbEntity
  8
L-ZISSEN
100
AcDbCircle
 10
-295.465020795719
 20
-395.4884489842456
 30
0.0
 40
3.95306390827567
100
AcDbArc
 50
295.9886989668971
 51
359.9219265414491
  0
LINE
  5
7237
330
2
100
AcDbEntity
  8
L-ZISSEN
100
AcDbLine
 10
-292.7676453474548
 20
-398.3542273876569
 30
0.0
 11
-287.1538527976463
 21
-398.3542273876569
 31
0.0
  0
LINE
  5
7238
330
2
100
AcDbEntity
  8
L-ZISSEN
100
AcDbLine
 10
-277.6538527976454
 20
-398.354227387656
 30
0.0
 11
-287.1538527976454
 21
-398.354227387656
 31
0.0
  0
ARC
  5
7239
330
2
100
AcDbEntity
  8
L-ZISSEN
100
AcDbCircle
 10
-278.0658553654229
 20
-325.1294408718377
 30
0.0
 40
2.312215931624567
100
AcDbArc
 50
359.2216280233924
 51
79.7359316277922
  0
LINE
  5
723A
330
2
100
AcDbEntity
  8
L-TYUSIN
100
AcDbLine
 10
-270.7538527976455
 20
-326.5542273876572
 30
0.0
 11
-290.4194733297263
 21
-326.5542273876576
 31
0.0
  0
ARC
  5
723B
330
2
100
AcDbEntity
  8
L-ZISSEN
100
AcDbCircle
 10
-278.0658553654229
 20
-328.0790139034734
 30
0.0
 40
2.312215931624567
100
AcDbArc
 50
280.2640683722078
 51
0.7783719766075644
  0
LINE
  5
723C
330
2
100
AcDbEntity
  8
L-ZISSEN
100
AcDbLine
 10
-275.7538527976457
 20
-325.1608517146819
 30
0.0
 11
-275.7538527976455
 21
-328.0476030606296
 31
0.0
  0
LINE
  5
723D
330
2
100
AcDbEntity
  8
L-ZISSEN
100
AcDbLine
 10
-298.3637762039573
 20
-323.8231095961382
 30
0.0
 11
-298.363776203957
 21
-332.8542273876555
 31
0.0
  0
LINE
  5
723E
330
2
100
AcDbEntity
  8
L-ZISSEN
100
AcDbLine
 10
-293.363776203957
 20
-323.8231095961382
 30
0.0
 11
-293.363776203957
 21
-332.8542273876555
 31
0.0
  0
LINE
  5
723F
330
2
100
AcDbEntity
  8
L-ZISSEN
100
AcDbLine
 10
-293.363776203957
 20
-332.8542273876555
 30
0.0
 11
-289.7766803129977
 21
-332.8542273876555
 31
0.0
  0
LINE
  5
7240
330
2
100
AcDbEntity
  8
L-ZISSEN
100
AcDbLine
 10
-289.4581003699467
 20
-321.3542273876551
 30
0.0
 11
-287.1538527976463
 21
-321.3542273876569
 31
0.0
  0
LINE
  5
7241
330
2
100
AcDbEntity
  8
L-ZISSEN
100
AcDbLine
 10
-277.6538527976454
 20
-321.3542273876559
 30
0.0
 11
-287.1538527976454
 21
-321.3542273876559
 31
0.0
  0
LINE
  5
7242
330
2
100
AcDbEntity
  8
L-ZISSEN
100
AcDbLine
 10
-298.363776203957
 20
-323.8231095961382
 30
0.0
 11
-293.363776203957
 21
-323.8231095961382
 31
0.0
  0
LINE
  5
7243
330
2
100
AcDbEntity
  8
L-ZISSEN
100
AcDbLine
 10
-333.923032968265
 20
-315.8103105876557
 30
0.0
 11
-331.7155918504752
 21
-395.4938355812737
 31
0.0
  0
LINE
  5
7244
330
2
100
AcDbEntity
  8
L-ZISSEN
100
AcDbLine
 10
-307.6465749822109
 20
-407.5890963318848
 30
0.0
 11
-307.6465749822109
 21
-417.6479309213932
 31
0.0
  0
LINE
  5
7245
330
2
100
AcDbEntity
  8
L-ZISSEN
100
AcDbLine
 10
-308.6465749822123
 20
-407.5890963318848
 30
0.0
 11
-308.6465749822123
 21
-417.6479309213932
 31
0.0
  0
LINE
  5
7246
330
2
100
AcDbEntity
  8
L-ZISSEN
100
AcDbLine
 10
-309.6465749822137
 20
-407.5890963318848
 30
0.0
 11
-309.6465749822137
 21
-417.6479309213932
 31
0.0
  0
LINE
  5
7247
330
2
100
AcDbEntity
  8
L-ZISSEN
100
AcDbLine
 10
-310.6465749822127
 20
-407.5890963318848
 30
0.0
 11
-310.6465749822127
 21
-417.6479309213932
 31
0.0
  0
LINE
  5
7248
330
2
100
AcDbEntity
  8
L-ZISSEN
100
AcDbLine
 10
-305.6465749822125
 20
-417.3479309213935
 30
0.0
 11
-305.6465749822127
 21
-408.0890963318847
 31
0.0
  0
LINE
  5
7249
330
2
100
AcDbEntity
  8
L-ZISSEN
100
AcDbLine
 10
-306.6465749822118
 20
-407.5890963318848
 30
0.0
 11
-306.6465749822118
 21
-417.6479309213932
 31
0.0
  0
LINE
  5
724A
330
2
100
AcDbEntity
  8
L-ZISSEN
100
AcDbLine
 10
-314.6465749822114
 20
-407.5890963318848
 30
0.0
 11
-314.6465749822114
 21
-417.6479309213932
 31
0.0
  0
LINE
  5
724B
330
2
100
AcDbEntity
  8
L-ZISSEN
100
AcDbLine
 10
-315.646574982215
 20
-407.5890963318848
 30
0.0
 11
-315.646574982215
 21
-417.6479309213932
 31
0.0
  0
LINE
  5
724C
330
2
100
AcDbEntity
  8
L-ZISSEN
100
AcDbLine
 10
-316.6465749822141
 20
-407.5890963318848
 30
0.0
 11
-316.6465749822159
 21
-417.6479309213932
 31
0.0
  0
LINE
  5
724D
330
2
100
AcDbEntity
  8
L-ZISSEN
100
AcDbLine
 10
-317.6465749822109
 20
-408.0890963318847
 30
0.0
 11
-317.6465749822109
 21
-417.3479309213935
 31
0.0
  0
LINE
  5
724E
330
2
100
AcDbEntity
  8
L-ZISSEN
100
AcDbLine
 10
-311.6465749822141
 20
-407.5890963318848
 30
0.0
 11
-311.6465749822141
 21
-417.6479309213932
 31
0.0
  0
LINE
  5
724F
330
2
100
AcDbEntity
  8
L-ZISSEN
100
AcDbLine
 10
-312.6465749822132
 20
-407.5890963318848
 30
0.0
 11
-312.6465749822132
 21
-417.6479309213932
 31
0.0
  0
LINE
  5
7250
330
2
100
AcDbEntity
  8
L-ZISSEN
100
AcDbLine
 10
-313.6465749822123
 20
-407.5890963318848
 30
0.0
 11
-313.6465749822123
 21
-417.6479309213932
 31
0.0
  0
LINE
  5
7251
330
2
100
AcDbEntity
  8
L-ZISSEN
100
AcDbLine
 10
-317.3465749822112
 20
-417.6479309213932
 30
0.0
 11
-305.9465749822125
 21
-417.6479309213932
 31
0.0
  0
LINE
  5
7252
330
2
100
AcDbEntity
  8
L-ZISSEN
100
AcDbLine
 10
-305.9465749822125
 20
-417.6479309213932
 30
0.0
 11
-305.6465749822127
 21
-417.347930921394
 31
0.0
  0
LINE
  5
7253
330
2
100
AcDbEntity
  8
L-ZISSEN
100
AcDbLine
 10
-317.3465749822112
 20
-417.6479309213932
 30
0.0
 11
-317.6465749822109
 21
-417.347930921394
 31
0.0
  0
ARC
  5
7254
330
2
100
AcDbEntity
  8
L-ZISSEN
100
AcDbCircle
 10
-322.1581289712257
 20
-379.206466835003
 30
0.0
 40
21.14865360703842
100
AcDbArc
 50
249.7017647719361
 51
270.5265465241192
  0
ARC
  5
7255
330
2
100
AcDbEntity
  8
L-ZISSEN
100
AcDbCircle
 10
-311.6465749822118
 20
-385.0068682474761
 30
0.0
 40
20.64106267391694
100
AcDbArc
 50
257.5055804815688
 51
282.6763186877343
  0
ARC
  5
7256
330
2
100
AcDbEntity
  8
L-ZISSEN
100
AcDbCircle
 10
-311.6465749822118
 20
-423.2889935953103
 30
0.0
 40
20.64106267391679
100
AcDbArc
 50
77.3236813122523
 51
102.4944195184311
  0
LINE
  5
7257
330
2
100
AcDbEntity
  8
L-ZISSEN
100
AcDbLine
 10
-304.8682593657072
 20
-405.6485520362135
 30
0.0
 11
-318.3592930422055
 21
-405.6493488059845
 31
0.0
  0
LINE
  5
7258
330
2
100
AcDbEntity
  8
L-ZISSEN
100
AcDbLine
 10
-301.2637762039562
 20
-400.354227387656
 30
0.0
 11
-321.963776203956
 21
-400.354227387656
 31
0.0
  0
LINE
  5
7259
330
2
100
AcDbEntity
  8
L-ZISSEN
100
AcDbLine
 10
-301.2637762039562
 20
-402.6469114216893
 30
0.0
 11
-321.9637762039563
 21
-402.6469114216893
 31
0.0
  0
LINE
  5
725A
330
2
100
AcDbEntity
  8
L-ZISSEN
100
AcDbLine
 10
-304.8682593657072
 20
-402.6473098065748
 30
0.0
 11
-318.3592930422055
 21
-402.6465130368037
 31
0.0
  0
LINE
  5
725B
330
2
100
AcDbEntity
  8
L-ZISSEN
100
AcDbLine
 10
-306.14657498221
 20
-407.5890963318848
 30
0.0
 11
-314.6465749822114
 21
-407.5890963318848
 31
0.0
  0
LINE
  5
725C
330
2
100
AcDbEntity
  8
L-ZISSEN
100
AcDbLine
 10
-307.1170386641933
 20
-403.1510500793424
 30
0.0
 11
-307.1170386642002
 21
-405.1448117634459
 31
0.0
  0
LINE
  5
725D
330
2
100
AcDbEntity
  8
L-ZISSEN
100
AcDbLine
 10
-302.6469313621278
 20
-403.1381981913368
 30
0.0
 11
-302.6469313621278
 21
-405.1576636514496
 31
0.0
  0
LINE
  5
725E
330
2
100
AcDbEntity
  8
L-ZISSEN
100
AcDbLine
 10
-301.2637762039562
 20
-402.6469114216893
 30
0.0
 11
-301.2637762039562
 21
-400.354227387656
 31
0.0
  0
LINE
  5
725F
330
2
100
AcDbEntity
  8
L-ZISSEN
100
AcDbLine
 10
-306.1465749822127
 20
-407.0890963318848
 30
0.0
 11
-306.1465749822127
 21
-405.6479309213932
 31
0.0
  0
LINE
  5
7260
330
2
100
AcDbEntity
  8
L-ZISSEN
100
AcDbLine
 10
-306.14657498221
 20
-407.5890963318848
 30
0.0
 11
-305.6465749822127
 21
-408.0890963318847
 31
0.0
  0
LINE
  5
7261
330
2
100
AcDbEntity
  8
L-ZISSEN
100
AcDbLine
 10
-306.64657498221
 20
-407.5890963318848
 30
0.0
 11
-306.1465749822127
 21
-407.0890963318848
 31
0.0
  0
LINE
  5
7262
330
2
100
AcDbEntity
  8
L-ZISSEN
100
AcDbLine
 10
-306.6465749822141
 20
-405.6486275325219
 30
0.0
 11
-306.64657498221
 21
-407.5890963318848
 31
0.0
  0
ARC
  5
7263
330
2
100
AcDbEntity
  8
L-ZISSEN
100
AcDbCircle
 10
-304.8682593657072
 20
-400.3772218658427
 30
0.0
 40
5.271330170370607
100
AcDbArc
 50
244.7476610033572
 51
294.9228807251762
  0
ARC
  5
7264
330
2
100
AcDbEntity
  8
L-ZISSEN
100
AcDbCircle
 10
-304.8682593657072
 20
-407.9186399769445
 30
0.0
 40
5.271330170370607
100
AcDbArc
 50
65.07711927482382
 51
115.2523389965852
  0
LINE
  5
7265
330
2
100
AcDbEntity
  8
L-ZISSEN
100
AcDbLine
 10
-320.6462186022982
 20
-403.1684334282995
 30
0.0
 11
-320.6462186022982
 21
-405.1274284144869
 31
0.0
  0
LINE
  5
7266
330
2
100
AcDbEntity
  8
L-ZISSEN
100
AcDbLine
 10
-316.109950619229
 20
-403.1505189650801
 30
0.0
 11
-316.109950619229
 21
-405.145342877708
 31
0.0
  0
LINE
  5
7267
330
2
100
AcDbEntity
  8
L-ZISSEN
100
AcDbLine
 10
-317.1465749822109
 20
-407.0890963318848
 30
0.0
 11
-317.1465749822109
 21
-405.6479309213932
 31
0.0
  0
ARC
  5
7268
330
2
100
AcDbEntity
  8
L-ZISSEN
100
AcDbCircle
 10
-318.3592930422055
 20
-400.3780186356129
 30
0.0
 40
5.271330170371532
100
AcDbArc
 50
244.2883548851375
 51
295.259106683419
  0
LINE
  5
7269
330
2
100
AcDbEntity
  8
L-ZISSEN
100
AcDbLine
 10
-317.1465749822114
 20
-407.5890963318848
 30
0.0
 11
-317.6465749822109
 21
-408.0890963318847
 31
0.0
  0
LINE
  5
726A
330
2
100
AcDbEntity
  8
L-ZISSEN
100
AcDbLine
 10
-314.6465749822114
 20
-407.5890963318848
 30
0.0
 11
-317.1465749822114
 21
-407.5890963318848
 31
0.0
  0
LINE
  5
726B
330
2
100
AcDbEntity
  8
L-ZISSEN
100
AcDbLine
 10
-316.6465749822114
 20
-407.5890963318848
 30
0.0
 11
-317.1465749822109
 21
-407.0890963318848
 31
0.0
  0
LINE
  5
726C
330
2
100
AcDbEntity
  8
L-ZISSEN
100
AcDbLine
 10
-316.6465749822155
 20
-405.6492771838161
 30
0.0
 11
-316.6465749822114
 21
-407.5890963318848
 31
0.0
  0
ARC
  5
726D
330
2
100
AcDbEntity
  8
L-ZISSEN
100
AcDbCircle
 10
-318.3592930422055
 20
-407.9178432071744
 30
0.0
 40
5.271330170371789
100
AcDbArc
 50
64.74089331658096
 51
115.7116451148624
  0
LINE
  5
726E
330
2
100
AcDbEntity
  8
L-ZISSEN
100
AcDbLine
 10
-321.9637762039563
 20
-402.6469114216893
 30
0.0
 11
-321.963776203956
 21
-400.354227387656
 31
0.0
  0
ARC
  5
726F
330
2
100
AcDbEntity
  8
L-ZISSEN
100
AcDbCircle
 10
-327.7625316121932
 20
-395.4884489842456
 30
0.0
 40
3.95306390827567
100
AcDbArc
 50
180.0780734585509
 51
244.0113010331028
  0
LINE
  5
7284
330
2
100
AcDbEntity
  8
L-ZISSEN
100
AcDbLine
 10
-324.8637762039561
 20
-332.8542273876555
 30
0.0
 11
-314.1465749822118
 21
-332.8542273876555
 31
0.0
  0
LINE
  5
72BF
330
2
100
AcDbEntity
  8
L-ZISSEN
100
AcDbLine
 10
-324.8637762039552
 20
-323.8231095961382
 30
0.0
 11
-324.8637762039552
 21
-332.8542273876555
 31
0.0
  0
LINE
  5
72C0
330
2
100
AcDbEntity
  8
L-ZISSEN
100
AcDbLine
 10
-329.8637762039554
 20
-323.8231095961382
 30
0.0
 11
-329.8637762039552
 21
-332.8542273876555
 31
0.0
  0
LINE
  5
72C1
330
2
100
AcDbEntity
  8
L-ZISSEN
100
AcDbLine
 10
-329.8637762039552
 20
-332.8542273876555
 30
0.0
 11
-333.4508720949161
 21
-332.8542273876555
 31
0.0
  0
LINE
  5
72C2
330
2
100
AcDbEntity
  8
L-ZISSEN
100
AcDbLine
 10
-324.8637762039552
 20
-323.8231095961382
 30
0.0
 11
-329.8637762039552
 21
-323.8231095961382
 31
0.0
  0
LINE
  5
72C4
330
2
100
AcDbEntity
  8
L-ZISSEN
100
AcDbLine
 10
-314.1465749822118
 20
-323.8231095961382
 30
0.0
 11
-309.1465749822118
 21
-323.8231095961382
 31
0.0
  0
LINE
  5
72C5
330
2
100
AcDbEntity
  8
L-ZISSEN
100
AcDbLine
 10
-314.1465749822121
 20
-323.8231095961382
 30
0.0
 11
-314.1465749822118
 21
-332.8542273876555
 31
0.0
  0
LINE
  5
72C6
330
2
100
AcDbEntity
  8
L-ZISSEN
100
AcDbLine
 10
-309.1465749822118
 20
-323.8231095961382
 30
0.0
 11
-309.1465749822118
 21
-332.8542273876555
 31
0.0
  0
LINE
  5
738A
330
2
100
AcDbEntity
  8
L-ZISSEN
100
AcDbLine
 10
-123.4545054122407
 20
-337.8103105876548
 30
0.0
 11
-123.4545054122407
 21
-354.9542273876536
 31
0.0
  0
LINE
  5
738B
330
2
100
AcDbEntity
  8
L-ZISSEN
100
AcDbLine
 10
-125.3701169961592
 20
-315.8103105876548
 30
0.0
 11
-127.5775581139485
 21
-395.4938355812728
 31
0.0
  0
LINE
  5
738C
330
2
100
AcDbEntity
  8
L-ZISSEN
100
AcDbLine
 10
-169.9886305247749
 20
-315.8103105876548
 30
0.0
 11
-167.7811894069864
 21
-395.4938355812723
 31
0.0
  0
LINE
  5
738D
330
2
100
AcDbEntity
  8
L-ZISSEN
100
AcDbLine
 10
-138.9293737604676
 20
-321.3542273876551
 30
0.0
 11
-138.9293737604658
 21
-398.3542273876551
 31
0.0
  0
LINE
  5
738E
330
2
100
AcDbEntity
  8
L-ZISSEN
100
AcDbLine
 10
-156.4293737604676
 20
-321.3542273876551
 30
0.0
 11
-156.4293737604658
 21
-398.3542273876551
 31
0.0
  0
LINE
  5
738F
330
2
100
AcDbEntity
  8
L-ZISSEN
100
AcDbLine
 10
-150.1793737604676
 20
-386.8542273876551
 30
0.0
 11
-150.1793737604676
 21
-332.854227387655
 31
0.0
  0
LINE
  5
7390
330
2
100
AcDbEntity
  8
L-ZISSEN
100
AcDbLine
 10
-145.1793737604676
 20
-332.854227387655
 30
0.0
 11
-145.1793737604676
 21
-386.8542273876551
 31
0.0
  0
ARC
  5
7391
330
2
100
AcDbEntity
  8
L-ZISSEN
100
AcDbCircle
 10
-131.5306183522305
 20
-395.4884489842447
 30
0.0
 40
3.95306390827567
100
AcDbArc
 50
295.9886989668971
 51
359.9219265414491
  0
ARC
  5
7392
330
2
100
AcDbEntity
  8
L-ZISSEN
100
AcDbCircle
 10
-163.8281291687047
 20
-395.4884489842447
 30
0.0
 40
3.95306390827567
100
AcDbArc
 50
180.0780734585509
 51
244.0113010331028
  0
LINE
  5
7393
330
2
100
AcDbEntity
  8
L-ZISSEN
100
AcDbLine
 10
-158.0293737604675
 20
-405.1479309213923
 30
0.0
 11
-137.3293737604674
 21
-405.1479309213923
 31
0.0
  0
LINE
  5
7394
330
2
100
AcDbEntity
  8
L-ZISSEN
100
AcDbLine
 10
-158.0293737604675
 20
-400.3542273876551
 30
0.0
 11
-137.3293737604677
 21
-400.3542273876551
 31
0.0
  0
LINE
  5
7395
330
2
100
AcDbEntity
  8
L-ZISSEN
100
AcDbLine
 10
-158.0293737604669
 20
-405.1479309213923
 30
0.0
 11
-158.0293737604675
 21
-400.3542273876551
 31
0.0
  0
ARC
  5
7396
330
2
100
AcDbEntity
  8
L-ZISSEN
100
AcDbCircle
 10
-158.2237265277372
 20
-379.2064668350021
 30
0.0
 40
21.14865360703842
100
AcDbArc
 50
249.7017647719364
 51
270.5265465241192
  0
LINE
  5
7397
330
2
100
AcDbEntity
  8
L-ZISSEN
100
AcDbLine
 10
-140.1793737604675
 20
-407.1479309213923
 30
0.0
 11
-155.1793737604675
 21
-407.1479309213923
 31
0.0
  0
LINE
  5
7398
330
2
100
AcDbEntity
  8
L-ZISSEN
100
AcDbLine
 10
-156.4293737604676
 20
-398.3542273876551
 30
0.0
 11
-138.9293737604676
 21
-398.354227387656
 31
0.0
  0
LINE
  5
7399
330
2
100
AcDbEntity
  8
L-ZISSEN
100
AcDbLine
 10
-155.1793737604675
 20
-407.1479309213923
 30
0.0
 11
-155.1793737604676
 21
-405.1479309213923
 31
0.0
  0
LINE
  5
739A
330
2
100
AcDbEntity
  8
L-ZISSEN
100
AcDbLine
 10
-147.6793737604675
 20
-407.1479309213923
 30
0.0
 11
-147.6793737604675
 21
-405.1479309213923
 31
0.0
  0
LINE
  5
739B
330
2
100
AcDbEntity
  8
L-ZISSEN
100
AcDbLine
 10
-140.1793737604675
 20
-407.1479309213923
 30
0.0
 11
-140.1793737604675
 21
-405.1479309213923
 31
0.0
  0
LINE
  5
739C
330
2
100
AcDbEntity
  8
L-ZISSEN
100
AcDbLine
 10
-137.3293737604672
 20
-405.1479309213923
 30
0.0
 11
-137.3293737604677
 21
-400.3542273876551
 31
0.0
  0
ARC
  5
739D
330
2
100
AcDbEntity
  8
L-ZISSEN
100
AcDbCircle
 10
-137.135020993198
 20
-379.2064668350021
 30
0.0
 40
21.14865360703842
100
AcDbArc
 50
269.4734534758807
 51
290.2982352280634
  0
POLYLINE
  5
739E
330
2
100
AcDbEntity
  8
L-ZISSEN
100
AcDb2dPolyline
 66
     1
 10
0.0
 20
0.0
 30
0.0
 70
     1
  0
VERTEX
  5
754F
330
739E
100
AcDbEntity
  8
L-ZISSEN
100
AcDbVertex
100
AcDb2dVertex
 10
-148.9293737604676
 20
-392.3825395511684
 30
0.0
  0
VERTEX
  5
7550
330
739E
100
AcDbEntity
  8
L-ZISSEN
100
AcDbVertex
100
AcDb2dVertex
 10
-147.6793737604676
 20
-391.6608517146814
 30
0.0
  0
VERTEX
  5
7551
330
739E
100
AcDbEntity
  8
L-ZISSEN
100
AcDbVertex
100
AcDb2dVertex
 10
-146.4293737604676
 20
-392.3825395511684
 30
0.0
  0
VERTEX
  5
7552
330
739E
100
AcDbEntity
  8
L-ZISSEN
100
AcDbVertex
100
AcDb2dVertex
 10
-146.4293737604676
 20
-393.8259152241426
 30
0.0
  0
VERTEX
  5
7553
330
739E
100
AcDbEntity
  8
L-ZISSEN
100
AcDbVertex
100
AcDb2dVertex
 10
-147.6793737604676
 20
-394.5476030606296
 30
0.0
  0
VERTEX
  5
7554
330
739E
100
AcDbEntity
  8
L-ZISSEN
100
AcDbVertex
100
AcDb2dVertex
 10
-148.9293737604676
 20
-393.8259152241426
 30
0.0
  0
SEQEND
  5
7555
330
739E
100
AcDbEntity
  8
L-ZISSEN
  0
LINE
  5
739F
330
2
100
AcDbEntity
  8
L-ZISSEN
100
AcDbLine
 10
-145.1793737604676
 20
-386.8542273876551
 30
0.0
 11
-150.1793737604676
 21
-386.8542273876551
 31
0.0
  0
CIRCLE
  5
73A0
330
2
100
AcDbEntity
  8
L-ZISSEN
100
AcDbCircle
 10
-147.6793737604676
 20
-393.1042273876555
 30
0.0
 40
3.75
  0
LINE
  5
73A1
330
2
100
AcDbEntity
  8
L-TYUSIN
100
AcDbLine
 10
-141.4293737604676
 20
-393.1042273876555
 30
0.0
 11
-153.9293737604676
 21
-393.1042273876555
 31
0.0
  0
LINE
  5
73A2
330
2
100
AcDbEntity
  8
L-ZISSEN
100
AcDbLine
 10
-123.4545054122407
 20
-354.9542273876536
 30
0.0
 11
-126.5228144362811
 21
-357.420025356419
 31
0.0
  0
LINE
  5
73BD
330
2
100
AcDbEntity
  8
L-ZISSEN
100
AcDbLine
 10
-160.9293737604676
 20
-332.8542273876546
 30
0.0
 11
-156.4293737604673
 21
-332.8542273876546
 31
0.0
  0
LINE
  5
73BE
330
2
100
AcDbEntity
  8
L-ZISSEN
100
AcDbLine
 10
-160.9293737604664
 20
-323.8231095961373
 30
0.0
 11
-160.9293737604667
 21
-332.8542273876546
 31
0.0
  0
LINE
  5
73BF
330
2
100
AcDbEntity
  8
L-ZISSEN
100
AcDbLine
 10
-165.9293737604667
 20
-323.8231095961373
 30
0.0
 11
-165.9293737604667
 21
-332.8542273876546
 31
0.0
  0
LINE
  5
73C0
330
2
100
AcDbEntity
  8
L-ZISSEN
100
AcDbLine
 10
-165.9293737604667
 20
-332.8542273876546
 30
0.0
 11
-169.516469651426
 21
-332.8542273876546
 31
0.0
  0
LINE
  5
73C1
330
2
100
AcDbEntity
  8
L-ZISSEN
100
AcDbLine
 10
-160.9293737604667
 20
-323.8231095961373
 30
0.0
 11
-165.9293737604667
 21
-323.8231095961373
 31
0.0
  0
LINE
  5
73C3
330
2
100
AcDbEntity
  8
L-ZISSEN
 48
5.0
100
AcDbLine
 10
-123.4545054122407
 20
-337.8103105876548
 30
0.0
 11
-123.4338883531755
 21
-315.8103105876552
 31
0.0
  0
LINE
  5
73C4
330
2
100
AcDbEntity
  8
L-ZISSEN
 48
5.0
100
AcDbLine
 10
-121.7941650283554
 20
-315.8103105876552
 30
0.0
 11
-121.7941650283554
 21
-332.7944782483778
 31
0.0
  0
LINE
  5
73C5
330
2
100
AcDbEntity
  8
L-ZISSEN
100
AcDbLine
 10
-134.4293737604685
 20
-323.8231095961373
 30
0.0
 11
-134.4293737604685
 21
-332.8542273876546
 31
0.0
  0
LINE
  5
73C6
330
2
100
AcDbEntity
  8
L-ZISSEN
100
AcDbLine
 10
-129.4293737604683
 20
-323.8231095961373
 30
0.0
 11
-129.4293737604685
 21
-332.8542273876546
 31
0.0
  0
CIRCLE
  5
73C7
330
2
100
AcDbEntity
  8
L-ZISSEN
100
AcDbCircle
 10
-147.6793737604676
 20
-326.604227387655
 30
0.0
 40
3.75
  0
POLYLINE
  5
73C8
330
2
100
AcDbEntity
  8
L-ZISSEN
100
AcDb2dPolyline
 66
     1
 10
0.0
 20
0.0
 30
0.0
 70
     1
  0
VERTEX
  5
7556
330
73C8
100
AcDbEntity
  8
L-ZISSEN
100
AcDbVertex
100
AcDb2dVertex
 10
-148.9293737604676
 20
-327.3259152241421
 30
0.0
  0
VERTEX
  5
7557
330
73C8
100
AcDbEntity
  8
L-ZISSEN
100
AcDbVertex
100
AcDb2dVertex
 10
-147.6793737604676
 20
-328.0476030606291
 30
0.0
  0
VERTEX
  5
7558
330
73C8
100
AcDbEntity
  8
L-ZISSEN
100
AcDbVertex
100
AcDb2dVertex
 10
-146.4293737604676
 20
-327.3259152241421
 30
0.0
  0
VERTEX
  5
7559
330
73C8
100
AcDbEntity
  8
L-ZISSEN
100
AcDbVertex
100
AcDb2dVertex
 10
-146.4293737604676
 20
-325.882539551168
 30
0.0
  0
VERTEX
  5
755A
330
73C8
100
AcDbEntity
  8
L-ZISSEN
100
AcDbVertex
100
AcDb2dVertex
 10
-147.6793737604676
 20
-325.160851714681
 30
0.0
  0
VERTEX
  5
755B
330
73C8
100
AcDbEntity
  8
L-ZISSEN
100
AcDbVertex
100
AcDb2dVertex
 10
-148.9293737604676
 20
-325.882539551168
 30
0.0
  0
SEQEND
  5
755C
330
73C8
100
AcDbEntity
  8
L-ZISSEN
  0
LINE
  5
73C9
330
2
100
AcDbEntity
  8
L-ZISSEN
100
AcDbLine
 10
-134.4293737604676
 20
-332.8542273876546
 30
0.0
 11
-138.9293737604674
 21
-332.8542273876546
 31
0.0
  0
LINE
  5
73CA
330
2
100
AcDbEntity
  8
L-ZISSEN
100
AcDbLine
 10
-150.1793737604676
 20
-332.8542273876546
 30
0.0
 11
-145.1793737604676
 21
-332.854227387655
 31
0.0
  0
LINE
  5
73CB
330
2
100
AcDbEntity
  8
L-TYUSIN
100
AcDbLine
 10
-141.4293737604676
 20
-326.604227387655
 30
0.0
 11
-153.9293737604676
 21
-326.604227387655
 31
0.0
  0
LINE
  5
73CC
330
2
100
AcDbEntity
  8
L-ZISSEN
100
AcDbLine
 10
-124.6545054122412
 20
-344.920025356419
 30
0.0
 11
-124.6545054122412
 21
-333.5225198483772
 31
0.0
  0
LINE
  5
73CD
330
2
100
AcDbEntity
  8
L-ZISSEN
 48
5.0
100
AcDbLine
 10
-118.8819986283559
 20
-336.3976338731604
 30
0.0
 11
-122.8862274283554
 21
-337.8907694483773
 31
0.0
  0
LINE
  5
73CE
330
2
100
AcDbEntity
  8
L-ZISSEN
100
AcDbLine
 10
-126.1765318894864
 20
-344.920025356419
 30
0.0
 11
-123.4545054122409
 21
-344.920025356419
 31
0.0
  0
LINE
  5
73CF
330
2
100
AcDbEntity
  8
L-ZISSEN
 48
5.0
100
AcDbLine
 10
-122.8862274283554
 20
-337.8907694483773
 30
0.0
 11
-123.4545054122407
 21
-337.8907694483773
 31
0.0
  0
LINE
  5
73D0
330
2
100
AcDbEntity
  8
L-ZISSEN
100
AcDbLine
 10
-129.4293737604685
 20
-332.8542273876546
 30
0.0
 11
-125.8422778695076
 21
-332.8542273876546
 31
0.0
  0
LINE
  5
73D1
330
2
100
AcDbEntity
  8
L-ZISSEN
 48
5.0
100
AcDbLine
 10
-123.4545054122407
 20
-333.5225198483772
 30
0.0
 11
-125.4343730283561
 21
-333.5225198483772
 31
0.0
  0
LINE
  5
73D2
330
2
100
AcDbEntity
  8
L-ZISSEN
 48
5.0
100
AcDbLine
 10
-125.8607913107321
 20
-333.5225198483772
 30
0.0
 11
-123.4545054122407
 21
-333.5225198483772
 31
0.0
  0
LINE
  5
73D3
330
2
100
AcDbEntity
  8
L-ZISSEN
 48
5.0
100
AcDbLine
 10
-118.8819986283559
 20
-333.2785806323995
 30
0.0
 11
-118.8819986283559
 21
-336.3976338731604
 31
0.0
  0
LINE
  5
73D4
330
2
100
AcDbEntity
  8
L-ZISSEN
 48
5.0
100
AcDbLine
 10
-121.7941650283554
 20
-332.7944782483778
 30
0.0
 11
-118.8819986283559
 21
-333.2785806323995
 31
0.0
  0
LINE
  5
73D6
330
2
100
AcDbEntity
  8
L-ZISSEN
100
AcDbLine
 10
-156.4293737604676
 20
-321.3542273876551
 30
0.0
 11
-138.9293737604676
 21
-321.3542273876551
 31
0.0
  0
LINE
  5
73D7
330
2
100
AcDbEntity
  8
L-ZISSEN
100
AcDbLine
 10
-134.4293737604685
 20
-323.8231095961373
 30
0.0
 11
-129.4293737604685
 21
-323.8231095961373
 31
0.0
  0
LINE
  5
73D8
330
2
100
AcDbEntity
  8
L-ZISSEN
100
AcDbLine
 10
-121.7941650283554
 20
-315.8103105876548
 30
0.0
 11
-125.3701169961587
 21
-315.8103105876548
 31
0.0
  0
ENDSEC
  0
SECTION
  2
OBJECTS
  0
DICTIONARY
  5
1A
330
0
100
AcDbDictionary
  3
ACAD_GROUP
350
18
  3
ACAD_LAYOUT
350
41
  3
ACAD_MLINESTYLE
350
19
  3
ACAD_PLOTSETTINGS
350
42
  3
ACADDIM
350
2AC1
1001
ACAD
1000
TREAT_AS_HARD
1070
     0
  0
DICTIONARY
  5
9CB
330
A
100
AcDbDictionary
  3
ACAD_LAYERSTATES
350
9CC
1001
ACAD
1000
TREAT_AS_HARD
1070
     1
  0
DICTIONARY
  5
FC4
330
2
100
AcDbDictionary
  3
ACAD_LAYOUTSELFREF
350
7536
1001
ACAD
1000
TREAT_AS_HARD
1070
     1
  0
DICTIONARY
  5
FC6
330
7
100
AcDbDictionary
  3
ACAD_LAYOUTSELFREF
350
7537
1001
ACAD
1000
TREAT_AS_HARD
1070
     1
  0
DICTIONARY
  5
18
102
{ACAD_REACTORS
330
1A
102
}
330
1A
100
AcDbDictionary
1001
ACAD
1000
TREAT_AS_HARD
1070
     0
  0
DICTIONARY
  5
41
102
{ACAD_REACTORS
330
1A
102
}
330
1A
100
AcDbDictionary
1001
ACAD
1000
TREAT_AS_HARD
1070
     0
  0
DICTIONARY
  5
19
102
{ACAD_REACTORS
330
1A
102
}
330
1A
100
AcDbDictionary
  3
STANDARD
350
1D
1001
ACAD
1000
TREAT_AS_HARD
1070
     0
  0
DICTIONARY
  5
42
102
{ACAD_REACTORS
330
1A
102
}
330
1A
100
AcDbDictionary
1001
ACAD
1000
TREAT_AS_HARD
1070
     0
  0
XRECORD
  5
2AC1
102
{ACAD_REACTORS
330
1A
102
}
330
1A
100
AcDbXrecord
 90
   990106
  3

 60
     0
 61
     0
 62
     1
 63
     3
 64
     0
 65
     0
 66
     0
 67
     3
 68
     1
 69
     0
 70
     0
 71
     0
 72
     0
 40
0.0
170
     0
  0
DICTIONARY
  5
9CC
102
{ACAD_REACTORS
330
9CB
102
}
330
9CB
100
AcDbDictionary
1001
ACAD
1000
TREAT_AS_HARD
1070
     0
  0
XRECORD
  5
7536
102
{ACAD_REACTORS
330
FC4
102
}
330
FC4
100
AcDbXrecord
340
2
  0
XRECORD
  5
7537
102
{ACAD_REACTORS
330
FC6
102
}
330
FC6
100
AcDbXrecord
340
7
  0
MLINESTYLE
  5
1D
102
{ACAD_REACTORS
330
19
102
}
330
19
100
AcDbMlineStyle
  2
STANDARD
 70
     0
  3

 62
     0
 51
90.0
 52
90.0
 71
     2
 49
0.5
 62
   256
  6
BYLAYER
 49
-0.5
 62
   256
  6
BYLAYER
  0
ENDSEC
  0
EOF
