  0
SECTION
  2
HEADER
  9
$ACADVER
  1
AC1012
  9
$DWGCODEPAGE
  3
dos932
  9
$INSBASE
 10
0.0
 20
0.0
 30
0.0
  9
$EXTMIN
 10
-445.3892088472914
 20
-161.8123723306781
 30
-0.0000000000112498
  9
$EXTMAX
 10
174.5243046370815
 20
309.2273238945945
 30
0.0000000000002956
  9
$LIMMIN
 10
0.0
 20
0.0
  9
$LIMMAX
 10
12.0
 20
9.0
  9
$ORTHOMODE
 70
     1
  9
$REGENMODE
 70
     1
  9
$FILLMODE
 70
     1
  9
$QTEXTMODE
 70
     0
  9
$MIRRTEXT
 70
     1
  9
$DRAGMODE
 70
     2
  9
$LTSCALE
 40
1.0
  9
$OSMODE
 70
    39
  9
$ATTMODE
 70
     1
  9
$TEXTSIZE
 40
4.5
  9
$TRACEWID
 40
0.05
  9
$TEXTSTYLE
  7
STANDARD
  9
$CLAYER
  8
L-ZISSEN
  9
$CELTYPE
  6
BYLAYER
  9
$CECOLOR
 62
   256
  9
$CELTSCALE
 40
1.0
  9
$DELOBJ
 70
     1
  9
$DISPSILH
 70
     0
  9
$DIMSCALE
 40
2.0
  9
$DIMASZ
 40
2.0
  9
$DIMEXO
 40
0.0625
  9
$DIMDLI
 40
0.38
  9
$DIMRND
 40
0.0
  9
$DIMDLE
 40
0.0
  9
$DIMEXE
 40
0.18
  9
$DIMTP
 40
0.0
  9
$DIMTM
 40
0.0
  9
$DIMTXT
 40
4.5
  9
$DIMCEN
 40
0.09
  9
$DIMTSZ
 40
0.0
  9
$DIMTOL
 70
     0
  9
$DIMLIM
 70
     0
  9
$DIMTIH
 70
     0
  9
$DIMTOH
 70
     0
  9
$DIMSE1
 70
     0
  9
$DIMSE2
 70
     0
  9
$DIMTAD
 70
     1
  9
$DIMZIN
 70
     8
  9
$DIMBLK
  1

  9
$DIMASO
 70
     1
  9
$DIMSHO
 70
     0
  9
$DIMPOST
  1

  9
$DIMAPOST
  1

  9
$DIMALT
 70
     0
  9
$DIMALTD
 70
     2
  9
$DIMALTF
 40
25.4
  9
$DIMLFAC
 40
1.0
  9
$DIMTOFL
 70
     0
  9
$DIMTVP
 40
0.0
  9
$DIMTIX
 70
     0
  9
$DIMSOXD
 70
     0
  9
$DIMSAH
 70
     0
  9
$DIMBLK1
  1

  9
$DIMBLK2
  1

  9
$DIMSTYLE
  2
STANDARD
  9
$DIMCLRD
 70
     0
  9
$DIMCLRE
 70
     0
  9
$DIMCLRT
 70
     0
  9
$DIMTFAC
 40
1.0
  9
$DIMGAP
 40
0.09
  9
$DIMJUST
 70
     0
  9
$DIMSD1
 70
     0
  9
$DIMSD2
 70
     0
  9
$DIMTOLJ
 70
     1
  9
$DIMTZIN
 70
     0
  9
$DIMALTZ
 70
     0
  9
$DIMALTTZ
 70
     0
  9
$DIMFIT
 70
     3
  9
$DIMUPT
 70
     0
  9
$DIMUNIT
 70
     2
  9
$DIMDEC
 70
     4
  9
$DIMTDEC
 70
     4
  9
$DIMALTU
 70
     2
  9
$DIMALTTD
 70
     2
  9
$DIMTXSTY
  7
STANDARD
  9
$DIMAUNIT
 70
     0
  9
$LUNITS
 70
     2
  9
$LUPREC
 70
     4
  9
$SKETCHINC
 40
0.1
  9
$FILLETRAD
 40
0.0
  9
$AUNITS
 70
     0
  9
$AUPREC
 70
     0
  9
$MENU
  1
acad
  9
$ELEVATION
 40
0.0
  9
$PELEVATION
 40
0.0
  9
$THICKNESS
 40
0.0
  9
$LIMCHECK
 70
     0
  9
$BLIPMODE
 70
     0
  9
$CHAMFERA
 40
8.0
  9
$CHAMFERB
 40
8.0
  9
$CHAMFERC
 40
0.0
  9
$CHAMFERD
 40
0.0
  9
$SKPOLY
 70
     0
  9
$TDCREATE
 40
2450178.569598264
  9
$TDUPDATE
 40
2455072.656957824
  9
$TDINDWG
 40
0.6740414352
  9
$TDUSRTIMER
 40
0.6740414352
  9
$USRTIMER
 70
     1
  9
$ANGBASE
 50
0.0
  9
$ANGDIR
 70
     0
  9
$PDMODE
 70
     0
  9
$PDSIZE
 40
0.0
  9
$PLINEWID
 40
0.0
  9
$COORDS
 70
     0
  9
$SPLFRAME
 70
     0
  9
$SPLINETYPE
 70
     6
  9
$SPLINESEGS
 70
     8
  9
$ATTDIA
 70
     0
  9
$ATTREQ
 70
     1
  9
$HANDLING
 70
-16383
  9
$HANDSEED
  5
1110
  9
$SURFTAB1
 70
     6
  9
$SURFTAB2
 70
     6
  9
$SURFTYPE
 70
     6
  9
$SURFU
 70
     6
  9
$SURFV
 70
     6
  9
$UCSNAME
  2

  9
$UCSORG
 10
0.0
 20
0.0
 30
0.0
  9
$UCSXDIR
 10
1.0
 20
0.0
 30
0.0
  9
$UCSYDIR
 10
0.0
 20
1.0
 30
0.0
  9
$PUCSNAME
  2

  9
$PUCSORG
 10
0.0
 20
0.0
 30
0.0
  9
$PUCSXDIR
 10
1.0
 20
0.0
 30
0.0
  9
$PUCSYDIR
 10
0.0
 20
1.0
 30
0.0
  9
$USERI1
 70
     0
  9
$USERI2
 70
     0
  9
$USERI3
 70
     0
  9
$USERI4
 70
     0
  9
$USERI5
 70
     0
  9
$USERR1
 40
0.0
  9
$USERR2
 40
0.0
  9
$USERR3
 40
0.0
  9
$USERR4
 40
0.0
  9
$USERR5
 40
0.0
  9
$WORLDVIEW
 70
     1
  9
$SHADEDGE
 70
     3
  9
$SHADEDIF
 70
    70
  9
$TILEMODE
 70
     1
  9
$MAXACTVP
 70
    16
  9
$PINSBASE
 10
0.0
 20
0.0
 30
0.0
  9
$PLIMCHECK
 70
     0
  9
$PEXTMIN
 10
1.000000000000000E+20
 20
1.000000000000000E+20
 30
1.000000000000000E+20
  9
$PEXTMAX
 10
-1.000000000000000E+20
 20
-1.000000000000000E+20
 30
-1.000000000000000E+20
  9
$PLIMMIN
 10
0.0
 20
0.0
  9
$PLIMMAX
 10
12.0
 20
9.0
  9
$UNITMODE
 70
     0
  9
$VISRETAIN
 70
     0
  9
$PLINEGEN
 70
     0
  9
$PSLTSCALE
 70
     0
  9
$TREEDEPTH
 70
  3020
  9
$PICKSTYLE
 70
     1
  9
$CMLSTYLE
  2
STANDARD
  9
$CMLJUST
 70
     0
  9
$CMLSCALE
 40
1.0
  9
$SAVEIMAGES
 70
     1
  0
ENDSEC
  0
SECTION
  2
CLASSES
  0
CLASS
  1
ACDBDICTIONARYWDFLT
  2
AcDbDictionaryWithDefault
  3
AutoCAD 2000
 90
    32768
280
     0
281
     0
  0
CLASS
  1
ACDBPLACEHOLDER
  2
AcDbPlaceHolder
  3
AutoCAD 2000
 90
    32768
280
     0
281
     0
  0
CLASS
  1
LAYOUT
  2
AcDbLayout
  3
AutoCAD 2000
 90
    32768
280
     0
281
     0
  0
CLASS
  1
LONG_TRANSACTION
  2
AcDbLongTransaction
  3
AutoCAD 2000
 90
    32768
280
     0
281
     0
  0
CLASS
  1
LWPOLYLINE
  2
AcDbPolyline
  3
AutoCAD 2000
 90
    32768
280
     0
281
     1
  0
CLASS
  1
HATCH
  2
AcDbHatch
  3
AutoCAD 2000
 90
    32768
280
     0
281
     1
  0
CLASS
  1
XRECORD
  2
AcDbXrecord
  3
AutoCAD 2000
 90
    32768
280
     0
281
     0
  0
CLASS
  1
LONG_TRANSACTION
  2
AcDbLongTransaction
  3
AutoCAD 2000
 90
    32768
280
     0
281
     0
  0
CLASS
  1
LWPOLYLINE
  2
AcDbPolyline
  3
AutoCAD 2000
 90
    32768
280
     0
281
     1
  0
CLASS
  1
HATCH
  2
AcDbHatch
  3
AutoCAD 2000
 90
    32768
280
     0
281
     1
  0
CLASS
  1
XRECORD
  2
AcDbXrecord
  3
AutoCAD 2000
 90
    32768
280
     0
281
     0
  0
CLASS
  1
LONG_TRANSACTION
  2
AcDbLongTransaction
  3
AutoCAD 2000
 90
    32768
280
     0
281
     0
  0
CLASS
  1
LWPOLYLINE
  2
AcDbPolyline
  3
AutoCAD 2000
 90
    32768
280
     0
281
     1
  0
CLASS
  1
HATCH
  2
AcDbHatch
  3
AutoCAD 2000
 90
    32768
280
     0
281
     1
  0
CLASS
  1
XRECORD
  2
AcDbXrecord
  3
AutoCAD 2000
 90
    32768
280
     0
281
     0
  0
CLASS
  1
LONG_TRANSACTION
  2
AcDbLongTransaction
  3
AutoCAD 2000
 90
    32768
280
     0
281
     0
  0
CLASS
  1
LWPOLYLINE
  2
AcDbPolyline
  3
AutoCAD 2000
 90
    32768
280
     0
281
     1
  0
CLASS
  1
HATCH
  2
AcDbHatch
  3
AutoCAD 2000
 90
    32768
280
     0
281
     1
  0
CLASS
  1
XRECORD
  2
AcDbXrecord
  3
AutoCAD 2000
 90
    32768
280
     0
281
     0
  0
CLASS
  1
LONG_TRANSACTION
  2
AcDbLongTransaction
  3
AutoCAD 2000
 90
    32768
280
     0
281
     0
  0
CLASS
  1
LWPOLYLINE
  2
AcDbPolyline
  3
AutoCAD 2000
 90
    32768
280
     0
281
     1
  0
CLASS
  1
HATCH
  2
AcDbHatch
  3
AutoCAD 2000
 90
    32768
280
     0
281
     1
  0
CLASS
  1
XRECORD
  2
AcDbXrecord
  3
AutoCAD 2000
 90
    32768
280
     0
281
     0
  0
CLASS
  1
LONG_TRANSACTION
  2
AcDbLongTransaction
  3
AutoCAD 2000
 90
    32768
280
     0
281
     0
  0
CLASS
  1
LWPOLYLINE
  2
AcDbPolyline
  3
AutoCAD 2000
 90
    32768
280
     0
281
     1
  0
CLASS
  1
HATCH
  2
AcDbHatch
  3
AutoCAD 2000
 90
    32768
280
     0
281
     1
  0
CLASS
  1
XRECORD
  2
AcDbXrecord
  3
AutoCAD 2000
 90
    32768
280
     0
281
     0
  0
CLASS
  1
LONG_TRANSACTION
  2
AcDbLongTransaction
  3
AutoCAD 2000
 90
    32768
280
     0
281
     0
  0
CLASS
  1
LWPOLYLINE
  2
AcDbPolyline
  3
AutoCAD 2000
 90
    32768
280
     0
281
     1
  0
CLASS
  1
HATCH
  2
AcDbHatch
  3
AutoCAD 2000
 90
    32768
280
     0
281
     1
  0
CLASS
  1
XRECORD
  2
AcDbXrecord
  3
AutoCAD 2000
 90
    32768
280
     0
281
     0
  0
CLASS
  1
LONG_TRANSACTION
  2
AcDbLongTransaction
  3
AutoCAD 2000
 90
    32768
280
     0
281
     0
  0
CLASS
  1
LWPOLYLINE
  2
AcDbPolyline
  3
AutoCAD 2000
 90
    32768
280
     0
281
     1
  0
CLASS
  1
HATCH
  2
AcDbHatch
  3
AutoCAD 2000
 90
    32768
280
     0
281
     1
  0
CLASS
  1
XRECORD
  2
AcDbXrecord
  3
AutoCAD 2000
 90
    32768
280
     0
281
     0
  0
CLASS
  1
LONG_TRANSACTION
  2
AcDbLongTransaction
  3
AutoCAD 2000
 90
    32768
280
     0
281
     0
  0
CLASS
  1
LWPOLYLINE
  2
AcDbPolyline
  3
AutoCAD 2000
 90
    32768
280
     0
281
     1
  0
CLASS
  1
HATCH
  2
AcDbHatch
  3
AutoCAD 2000
 90
    32768
280
     0
281
     1
  0
CLASS
  1
XRECORD
  2
AcDbXrecord
  3
AutoCAD 2000
 90
    32768
280
     0
281
     0
  0
CLASS
  1
LONG_TRANSACTION
  2
AcDbLongTransaction
  3
AutoCAD 2000
 90
    32768
280
     0
281
     0
  0
CLASS
  1
LWPOLYLINE
  2
AcDbPolyline
  3
AutoCAD 2000
 90
    32768
280
     0
281
     1
  0
CLASS
  1
HATCH
  2
AcDbHatch
  3
AutoCAD 2000
 90
    32768
280
     0
281
     1
  0
CLASS
  1
XRECORD
  2
AcDbXrecord
  3
AutoCAD 2000
 90
    32768
280
     0
281
     0
  0
CLASS
  1
LONG_TRANSACTION
  2
AcDbLongTransaction
  3
AutoCAD 2000
 90
    32768
280
     0
281
     0
  0
CLASS
  1
LWPOLYLINE
  2
AcDbPolyline
  3
AutoCAD 2000
 90
    32768
280
     0
281
     1
  0
CLASS
  1
HATCH
  2
AcDbHatch
  3
AutoCAD 2000
 90
    32768
280
     0
281
     1
  0
CLASS
  1
XRECORD
  2
AcDbXrecord
  3
AutoCAD 2000
 90
    32768
280
     0
281
     0
  0
CLASS
  1
LONG_TRANSACTION
  2
AcDbLongTransaction
  3
AutoCAD 2000
 90
    32768
280
     0
281
     0
  0
CLASS
  1
LWPOLYLINE
  2
AcDbPolyline
  3
AutoCAD 2000
 90
    32768
280
     0
281
     1
  0
CLASS
  1
HATCH
  2
AcDbHatch
  3
AutoCAD 2000
 90
    32768
280
     0
281
     1
  0
CLASS
  1
XRECORD
  2
AcDbXrecord
  3
AutoCAD 2000
 90
    32768
280
     0
281
     0
  0
CLASS
  1
LONG_TRANSACTION
  2
AcDbLongTransaction
  3
AutoCAD 2000
 90
    32768
280
     0
281
     0
  0
CLASS
  1
LWPOLYLINE
  2
AcDbPolyline
  3
AutoCAD 2000
 90
    32768
280
     0
281
     1
  0
CLASS
  1
HATCH
  2
AcDbHatch
  3
AutoCAD 2000
 90
    32768
280
     0
281
     1
  0
CLASS
  1
XRECORD
  2
AcDbXrecord
  3
AutoCAD 2000
 90
    32768
280
     0
281
     0
  0
CLASS
  1
LONG_TRANSACTION
  2
AcDbLongTransaction
  3
AutoCAD 2000
 90
    32768
280
     0
281
     0
  0
CLASS
  1
LWPOLYLINE
  2
AcDbPolyline
  3
AutoCAD 2000
 90
    32768
280
     0
281
     1
  0
CLASS
  1
HATCH
  2
AcDbHatch
  3
AutoCAD 2000
 90
    32768
280
     0
281
     1
  0
CLASS
  1
XRECORD
  2
AcDbXrecord
  3
AutoCAD 2000
 90
    32768
280
     0
281
     0
  0
CLASS
  1
LONG_TRANSACTION
  2
AcDbLongTransaction
  3
AutoCAD 2000
 90
    32768
280
     0
281
     0
  0
CLASS
  1
LWPOLYLINE
  2
AcDbPolyline
  3
AutoCAD 2000
 90
    32768
280
     0
281
     1
  0
CLASS
  1
HATCH
  2
AcDbHatch
  3
AutoCAD 2000
 90
    32768
280
     0
281
     1
  0
CLASS
  1
XRECORD
  2
AcDbXrecord
  3
AutoCAD 2000
 90
    32768
280
     0
281
     0
  0
CLASS
  1
LONG_TRANSACTION
  2
AcDbLongTransaction
  3
AutoCAD 2000
 90
    32768
280
     0
281
     0
  0
CLASS
  1
LWPOLYLINE
  2
AcDbPolyline
  3
AutoCAD 2000
 90
    32768
280
     0
281
     1
  0
CLASS
  1
HATCH
  2
AcDbHatch
  3
AutoCAD 2000
 90
    32768
280
     0
281
     1
  0
CLASS
  1
XRECORD
  2
AcDbXrecord
  3
AutoCAD 2000
 90
    32768
280
     0
281
     0
  0
ENDSEC
  0
SECTION
  2
TABLES
  0
TABLE
  2
VPORT
  5
1F
330
0
100
AcDbSymbolTable
 70
     4
  0
VPORT
  5
10F6
330
1F
100
AcDbSymbolTableRecord
100
AcDbViewportTableRecord
  2
*ACTIVE
 70
     0
 10
0.0
 20
0.0
 11
1.0
 21
1.0
 12
-135.4324521051049
 22
73.70747578195815
 13
0.0
 23
0.0
 14
1.0
 24
1.0
 15
0.0
 25
0.0
 16
0.0
 26
0.0
 36
1.0
 17
0.0
 27
0.0
 37
0.0
 40
474.0178186460857
 41
1.60759493670886
 42
50.0
 43
0.0
 44
0.0
 50
0.0
 51
0.0
 71
     0
 72
   100
 73
     1
 74
     0
 75
     0
 76
     0
 77
     0
 78
     0
  0
ENDTAB
  0
TABLE
  2
LTYPE
  5
1A
330
0
100
AcDbSymbolTable
 70
     3
  0
LTYPE
  5
1B
330
1A
100
AcDbSymbolTableRecord
100
AcDbLinetypeTableRecord
  2
BYBLOCK
 70
     0
  3

 72
    65
 73
     0
 40
0.0
  0
LTYPE
  5
1C
330
1A
100
AcDbSymbolTableRecord
100
AcDbLinetypeTableRecord
  2
BYLAYER
 70
     0
  3

 72
    65
 73
     0
 40
0.0
  0
LTYPE
  5
A
330
1A
100
AcDbSymbolTableRecord
100
AcDbLinetypeTableRecord
  2
CONTINUOUS
 70
     0
  3
Solid line
 72
    65
 73
     0
 40
0.0
  0
LTYPE
  5
3D
330
1A
100
AcDbSymbolTableRecord
100
AcDbLinetypeTableRecord
  2
CENTER
 70
     0
  3
----- - ----- - ----- - ----- - -----
 72
    65
 73
     4
 40
35.0
 49
30.0
 74
     0
 49
-1.5
 74
     0
 49
2.0
 74
     0
 49
-1.5
 74
     0
  0
LTYPE
  5
1AA
330
1A
100
AcDbSymbolTableRecord
100
AcDbLinetypeTableRecord
  2
PHANTOM
 70
     0
  3
----- - - ----- - - ----- - - ----- - - -----
 72
    65
 73
     6
 40
22.5
 49
15.0
 74
     4
 75
     0
340
0
 46
1.0
 50
0.0
 44
0.0
 45
0.0
 49
-1.5
 74
     4
 75
     0
340
0
 46
1.0
 50
0.0
 44
0.0
 45
0.0
 49
1.5
 74
     4
 75
     0
340
0
 46
1.0
 50
0.0
 44
0.0
 45
0.0
 49
-1.5
 74
     4
 75
     0
340
0
 46
1.0
 50
0.0
 44
0.0
 45
0.0
 49
1.5
 74
     4
 75
     0
340
0
 46
1.0
 50
0.0
 44
0.0
 45
0.0
 49
-1.5
 74
     4
 75
     0
340
0
 46
1.0
 50
0.0
 44
0.0
 45
0.0
  0
ENDTAB
  0
TABLE
  2
LAYER
  5
14
102
{ACAD_XDICTIONARY
360
15
102
}
330
0
100
AcDbSymbolTable
 70
     5
  0
LAYER
  5
6
330
14
100
AcDbSymbolTableRecord
100
AcDbLayerTableRecord
  2
0
 70
     0
 62
     7
  6
CONTINUOUS
  0
LAYER
  5
28
330
14
100
AcDbSymbolTableRecord
100
AcDbLayerTableRecord
  2
L-ZISSEN
 70
     0
 62
     7
  6
CONTINUOUS
  0
LAYER
  5
3C
330
14
100
AcDbSymbolTableRecord
100
AcDbLayerTableRecord
  2
L-TYUSIN
 70
     0
 62
     1
  6
CENTER
  0
LAYER
  5
1AB
330
14
100
AcDbSymbolTableRecord
100
AcDbLayerTableRecord
  2
L-SAISEN
 70
     0
 62
     6
  6
CONTINUOUS
  0
LAYER
  5
1AC
330
14
100
AcDbSymbolTableRecord
100
AcDbLayerTableRecord
  2
L-SOUZOU
 70
     0
 62
     2
  6
PHANTOM
  0
ENDTAB
  0
TABLE
  2
STYLE
  5
17
330
0
100
AcDbSymbolTable
 70
     1
  0
STYLE
  5
18
330
17
100
AcDbSymbolTableRecord
100
AcDbTextStyleTableRecord
  2
STANDARD
 70
     0
 40
0.0
 41
1.0
 50
0.0
 71
     0
 42
4.5
  3
txt.shx
  4

  0
ENDTAB
  0
TABLE
  2
VIEW
  5
1D
330
0
100
AcDbSymbolTable
 70
     0
  0
ENDTAB
  0
TABLE
  2
UCS
  5
1E
330
0
100
AcDbSymbolTable
 70
     0
  0
ENDTAB
  0
TABLE
  2
APPID
  5
21
330
0
100
AcDbSymbolTable
 70
     2
  0
APPID
  5
22
330
21
100
AcDbSymbolTableRecord
100
AcDbRegAppTableRecord
  2
ACAD
 70
     0
  0
APPID
  5
E07
330
21
100
AcDbSymbolTableRecord
100
AcDbRegAppTableRecord
  2
CONTENTBLOCKICON
 70
     0
  0
ENDTAB
  0
TABLE
  2
DIMSTYLE
  5
23
330
0
100
AcDbSymbolTable
 70
     1
  0
DIMSTYLE
105
2B
330
23
100
AcDbSymbolTableRecord
100
AcDbDimStyleTableRecord
  2
STANDARD
 70
     0
  3

  4

  5

  6

  7

 40
2.0
 41
2.0
 42
0.0625
 43
0.38
 44
0.18
 45
0.0
 46
0.0
 47
0.0
 48
0.0
140
4.5
141
0.09
142
0.0
143
25.4
144
1.0
145
0.0
146
1.0
147
0.09
 71
     0
 72
     0
 73
     0
 74
     0
 75
     0
 76
     0
 77
     1
 78
     8
170
     0
171
     2
172
     0
173
     0
174
     0
175
     0
176
     0
177
     0
178
     0
270
     2
271
     4
272
     4
273
     2
274
     2
340
18
275
     0
280
     0
281
     0
282
     0
283
     1
284
     0
285
     0
286
     0
287
     3
288
     0
  0
ENDTAB
  0
TABLE
  2
BLOCK_RECORD
  5
1
330
0
100
AcDbSymbolTable
 70
     0
  0
BLOCK_RECORD
  5
2
102
{ACAD_XDICTIONARY
360
3
102
}
330
1
100
AcDbSymbolTableRecord
100
AcDbBlockTableRecord
  2
*MODEL_SPACE
  0
BLOCK_RECORD
  5
E
102
{ACAD_XDICTIONARY
360
F
102
}
330
1
100
AcDbSymbolTableRecord
100
AcDbBlockTableRecord
  2
*PAPER_SPACE
  0
ENDTAB
  0
ENDSEC
  0
SECTION
  2
BLOCKS
  0
BLOCK
  5
5
330
2
100
AcDbEntity
  8
0
100
AcDbBlockBegin
  2
*MODEL_SPACE
 70
     0
 10
0.0
 20
0.0
 30
0.0
  3
*MODEL_SPACE
  1

  0
ENDBLK
  5
B
330
2
100
AcDbEntity
  8
0
100
AcDbBlockEnd
  0
BLOCK
  5
11
330
E
100
AcDbEntity
 67
     1
  8
0
100
AcDbBlockBegin
  2
*PAPER_SPACE
 70
     0
 10
0.0
 20
0.0
 30
0.0
  3
*PAPER_SPACE
  1

  0
ENDBLK
  5
12
330
E
100
AcDbEntity
 67
     1
  8
0
100
AcDbBlockEnd
  0
ENDSEC
  0
SECTION
  2
ENTITIES
  0
LINE
  5
77A
330
2
100
AcDbEntity
  8
L-TYUSIN
100
AcDbLine
 10
-75.48515622466354
 20
68.49960960818885
 30
0.0
 11
174.5148437753364
 21
68.49960960818885
 31
0.0
  0
LINE
  5
77B
330
2
100
AcDbEntity
  8
L-ZISSEN
100
AcDbLine
 10
-17.02159878385825
 20
236.0440483678796
 30
0.0
 11
-30.48515622466331
 21
247.2636795685505
 31
0.0
  0
LINE
  5
77C
330
2
100
AcDbEntity
  8
L-ZISSEN
100
AcDbLine
 10
-17.02159878385825
 20
-13.95595163212033
 30
0.0
 11
-30.48515622466331
 21
-2.736320431449485
 31
0.0
  0
ARC
  5
77F
330
2
100
AcDbEntity
  8
L-ZISSEN
100
AcDbCircle
 10
-15.48515622466581
 20
218.2770850872077
 30
0.0
 40
99.53938471878538
100
AcDbArc
 50
256.0937629349447
 51
263.0758486315312
  0
LINE
  5
780
330
2
100
AcDbEntity
  8
L-ZISSEN
100
AcDbLine
 10
-33.98515622466286
 20
-28.73530093174327
 30
0.0
 11
-19.23515622466354
 21
-28.73530093174327
 31
0.0
  0
LINE
  5
781
330
2
100
AcDbEntity
  8
L-ZISSEN
100
AcDbLine
 10
-24.92032349288249
 20
-118.735300931745
 30
0.0
 11
-33.87718355647982
 21
-117.6863965658169
 31
0.0
  0
LINE
  5
782
330
2
100
AcDbEntity
  8
L-ZISSEN
100
AcDbLine
 10
-44.74102328614455
 20
-28.73530093174418
 30
0.0
 11
-43.02516228416786
 21
-107.9808942626834
 31
0.0
  0
LINE
  5
783
330
2
100
AcDbEntity
  8
L-TYUSIN
100
AcDbLine
 10
-75.48515622466354
 20
-160.3922842975846
 30
0.0
 11
-75.48515622466354
 21
289.6077589294297
 31
0.0
  0
ARC
  5
784
330
2
100
AcDbEntity
  8
L-ZISSEN
100
AcDbCircle
 10
-33.02850187592273
 20
-107.7224746770682
 30
0.0
 40
10.0
100
AcDbArc
 50
181.0000000000278
 51
265.1315559371184
  0
LINE
  5
785
330
2
100
AcDbEntity
  8
L-ZISSEN
100
AcDbLine
 10
-45.48515622466626
 20
129.4206899617367
 30
0.0
 11
-45.48515622466354
 21
234.7636795685514
 31
0.0
  0
LINE
  5
786
330
2
100
AcDbEntity
  8
L-ZISSEN
100
AcDbLine
 10
-40.76515622466601
 20
224.424940656919
 30
0.0
 11
-40.76515622466328
 21
141.9249406569181
 31
0.0
  0
LINE
  5
787
330
2
100
AcDbEntity
  8
L-ZISSEN
100
AcDbLine
 10
-32.33515622466299
 20
224.424940656919
 30
0.0
 11
-32.33515622466299
 21
141.9249406569204
 31
0.0
  0
TEXT
  5
788
330
2
100
AcDbEntity
  8
L-ZISSEN
100
AcDbText
 10
-43.48515622466331
 20
-4.986320431449485
 30
0.0
 40
4.5
  1
P.P
100
AcDbText
  0
LINE
  5
789
330
2
100
AcDbEntity
  8
L-ZISSEN
100
AcDbLine
 10
-45.44114082489042
 20
-28.73530093174418
 30
0.0
 11
-41.98515622466286
 21
-28.73530093174418
 31
0.0
  0
LINE
  5
78A
330
2
100
AcDbEntity
  8
L-ZISSEN
100
AcDbLine
 10
-45.68852715969748
 20
-15.23632043144948
 30
0.0
 11
-45.44114082489042
 21
-28.73530093174418
 31
0.0
  0
LINE
  5
78B
330
2
100
AcDbEntity
  8
L-ZISSEN
100
AcDbLine
 10
-41.98515622466286
 20
-18.73530093174508
 30
0.0
 11
-33.98515622466286
 21
-18.73530093174508
 31
0.0
  0
LINE
  5
78C
330
2
100
AcDbEntity
  8
L-ZISSEN
100
AcDbLine
 10
-41.98515622466286
 20
-18.73530093174508
 30
0.0
 11
-41.98515622466286
 21
-28.73530093174418
 31
0.0
  0
LINE
  5
78D
330
2
100
AcDbEntity
  8
L-ZISSEN
100
AcDbLine
 10
-30.48515622466331
 20
-2.736320431449485
 30
0.0
 11
-32.48515622466331
 21
-2.736320431449485
 31
0.0
  0
LINE
  5
78E
330
2
100
AcDbEntity
  8
L-ZISSEN
100
AcDbLine
 10
-33.98515622466286
 20
-18.73530093174508
 30
0.0
 11
-33.98515622466286
 21
-28.73530093174418
 31
0.0
  0
ARC
  5
78F
330
2
100
AcDbEntity
  8
L-ZISSEN
100
AcDbCircle
 10
-37.48515622466626
 20
129.4206899617367
 30
0.0
 40
8.000000000000113
100
AcDbArc
 50
180.0
 51
256.0937629347638
  0
LINE
  5
790
330
2
100
AcDbEntity
  8
L-ZISSEN
100
AcDbLine
 10
-32.33515622466526
 20
141.924940656919
 30
0.0
 11
-36.55015622466677
 21
139.9249406569181
 31
0.0
  0
LINE
  5
791
330
2
100
AcDbEntity
  8
L-ZISSEN
100
AcDbLine
 10
-36.55015622466677
 20
139.9249406569181
 30
0.0
 11
-40.76515622466601
 21
141.924940656919
 31
0.0
  0
TEXT
  5
792
330
2
100
AcDbEntity
  8
L-ZISSEN
100
AcDbText
 10
-43.48515622466331
 20
245.0136795685505
 30
0.0
 40
4.5
  1
P.P
100
AcDbText
  0
LINE
  5
793
330
2
100
AcDbEntity
  8
L-ZISSEN
100
AcDbLine
 10
-40.76515622466601
 20
224.424940656919
 30
0.0
 11
-32.33515622466299
 21
224.424940656919
 31
0.0
  0
LINE
  5
794
330
2
100
AcDbEntity
  8
L-ZISSEN
100
AcDbLine
 10
-30.48515622466331
 20
247.2636795685505
 30
0.0
 11
-32.48515622466331
 21
247.2636795685505
 31
0.0
  0
LINE
  5
795
330
2
100
AcDbEntity
  8
L-ZISSEN
100
AcDbLine
 10
13.11897218500646
 20
-58.83530093174363
 30
0.0
 11
16.11897218500646
 21
-55.83530093174454
 31
0.0
  0
LINE
  5
796
330
2
100
AcDbEntity
  8
L-ZISSEN
100
AcDbLine
 10
-17.98515622466354
 20
-98.23530093174419
 30
0.0
 11
-17.98515622466354
 21
-44.23530093174417
 31
0.0
  0
LINE
  5
797
330
2
100
AcDbEntity
  8
L-ZISSEN
100
AcDbLine
 10
-24.23515622466354
 20
-32.73530093174418
 30
0.0
 11
-24.23515622466172
 21
-109.7353009317441
 31
0.0
  0
LINE
  5
798
330
2
100
AcDbEntity
  8
L-ZISSEN
100
AcDbLine
 10
-12.98515622466354
 20
-44.23530093174417
 30
0.0
 11
-12.98515622466354
 21
-98.23530093174419
 31
0.0
  0
LINE
  5
799
330
2
100
AcDbEntity
  8
L-ZISSEN
100
AcDbLine
 10
-6.735156224663541
 20
-32.73530093174418
 30
0.0
 11
-6.735156224661722
 21
-109.7353009317441
 31
0.0
  0
LINE
  5
79A
330
2
100
AcDbEntity
  8
L-ZISSEN
100
AcDbLine
 10
13.77071083681792
 20
-28.73530093174418
 30
0.0
 11
12.05484983484123
 21
-107.9808942626834
 31
0.0
  0
LINE
  5
79B
330
2
100
AcDbEntity
  8
L-ZISSEN
100
AcDbLine
 10
-24.92032349288226
 20
-122.235300931745
 30
0.0
 11
-6.049988956444138
 21
-122.235300931745
 31
0.0
  0
LINE
  5
79C
330
2
100
AcDbEntity
  8
L-ZISSEN
100
AcDbLine
 10
-24.92032349288271
 20
-118.735300931745
 30
0.0
 11
-6.049988956444138
 21
-118.735300931745
 31
0.0
  0
LINE
  5
79D
330
2
100
AcDbEntity
  8
L-TYUSIN
100
AcDbLine
 10
-9.235156224663313
 20
-104.4853009317446
 30
0.0
 11
-21.73515622466331
 21
-104.4853009317446
 31
0.0
  0
LINE
  5
79E
330
2
100
AcDbEntity
  8
L-ZISSEN
100
AcDbLine
 10
-20.02042058430194
 20
-125.2369603528266
 30
0.0
 11
-10.95179672656579
 21
-125.2370375157749
 31
0.0
  0
ARC
  5
79F
330
2
100
AcDbEntity
  8
L-ZISSEN
100
AcDbCircle
 10
-19.40625782814547
 20
-110.0991536812259
 30
0.0
 40
15.15026028548078
100
AcDbArc
 50
255.1892479927992
 51
284.999709110692
  0
ARC
  5
7A0
330
2
100
AcDbEntity
  8
L-ZISSEN
100
AcDbCircle
 10
-19.40686259595756
 20
-137.7402435664314
 30
0.0
 40
15.50496374778473
100
AcDbArc
 50
75.34890043484516
 51
104.4621424616998
  0
LINE
  5
7A1
330
2
100
AcDbEntity
  8
L-ZISSEN
100
AcDbLine
 10
-20.95235744640919
 20
-127.177485841941
 30
0.0
 11
-12.45235744640783
 21
-127.177485841941
 31
0.0
  0
CIRCLE
  5
7A2
330
2
100
AcDbEntity
  8
L-ZISSEN
100
AcDbCircle
 10
-15.48515622466331
 20
-104.4853009317446
 30
0.0
 40
3.75
  0
LINE
  5
7A3
330
2
100
AcDbEntity
  8
L-ZISSEN
100
AcDbLine
 10
-9.752357446408012
 20
-137.2363204314494
 30
0.0
 11
-21.15235744640674
 21
-137.2363204314494
 31
0.0
  0
LINE
  5
7A4
330
2
100
AcDbEntity
  8
L-ZISSEN
100
AcDbLine
 10
-24.23515622466354
 20
-109.7353009317441
 30
0.0
 11
-6.735156224663541
 21
-109.7353009317446
 31
0.0
  0
LINE
  5
7A5
330
2
100
AcDbEntity
  8
L-ZISSEN
100
AcDbLine
 10
-23.27907622466338
 20
-122.7265877013931
 30
0.0
 11
-23.27907622466338
 21
-124.7460531615058
 31
0.0
  0
LINE
  5
7A6
330
2
100
AcDbEntity
  8
L-ZISSEN
100
AcDbLine
 10
-20.95235744640919
 20
-127.177485841941
 30
0.0
 11
-21.45235744640646
 21
-127.677485841941
 31
0.0
  0
LINE
  5
7A7
330
2
100
AcDbEntity
  8
L-ZISSEN
100
AcDbLine
 10
-20.95235744640646
 20
-126.677485841941
 30
0.0
 11
-20.95235744640646
 21
-125.2363204314494
 31
0.0
  0
LINE
  5
7A8
330
2
100
AcDbEntity
  8
L-ZISSEN
100
AcDbLine
 10
-20.4523574464051
 20
-125.2370170425777
 30
0.0
 11
-20.45235744640919
 21
-127.177485841941
 31
0.0
  0
LINE
  5
7A9
330
2
100
AcDbEntity
  8
L-ZISSEN
100
AcDbLine
 10
-20.45235744640919
 20
-127.177485841941
 30
0.0
 11
-20.95235744640646
 21
-126.677485841941
 31
0.0
  0
LINE
  5
7AA
330
2
100
AcDbEntity
  8
L-ZISSEN
100
AcDbLine
 10
-21.15235744640674
 20
-137.2363204314494
 30
0.0
 11
-21.45235744640646
 21
-136.9363204314492
 31
0.0
  0
LINE
  5
7AB
330
2
100
AcDbEntity
  8
L-ZISSEN
100
AcDbLine
 10
-18.45235744640692
 20
-127.177485841941
 30
0.0
 11
-18.45235744640692
 21
-137.2363204314494
 31
0.0
  0
LINE
  5
7AC
330
2
100
AcDbEntity
  8
L-ZISSEN
100
AcDbLine
 10
-19.45235744640828
 20
-127.177485841941
 30
0.0
 11
-19.45235744640828
 21
-137.2363204314494
 31
0.0
  0
LINE
  5
7AD
330
2
100
AcDbEntity
  8
L-ZISSEN
100
AcDbLine
 10
-20.45235744640737
 20
-127.177485841941
 30
0.0
 11
-20.45235744640737
 21
-137.2363204314494
 31
0.0
  0
LINE
  5
7AE
330
2
100
AcDbEntity
  8
L-ZISSEN
100
AcDbLine
 10
-21.45235744640646
 20
-136.9363204314492
 30
0.0
 11
-21.45235744640646
 21
-127.677485841941
 31
0.0
  0
LINE
  5
7AF
330
2
100
AcDbEntity
  8
L-ZISSEN
100
AcDbLine
 10
-24.92032349288249
 20
-118.735300931745
 30
0.0
 11
-24.92032349288226
 21
-122.235300931745
 31
0.0
  0
ARC
  5
7B0
330
2
100
AcDbEntity
  8
L-ZISSEN
100
AcDbCircle
 10
-11.56344985336815
 20
-137.7402435664314
 30
0.0
 40
15.50496374778473
100
AcDbArc
 50
75.53785753830019
 51
104.6510995651548
  0
ARC
  5
7B1
330
2
100
AcDbEntity
  8
L-ZISSEN
100
AcDbCircle
 10
-11.56405462118024
 20
-110.0991536812259
 30
0.0
 40
15.15026028548078
100
AcDbArc
 50
255.0002908893079
 51
284.8107520072007
  0
LINE
  5
7B2
330
2
100
AcDbEntity
  8
L-ZISSEN
100
AcDbLine
 10
-12.45235744640783
 20
-127.177485841941
 30
0.0
 11
-9.95235744640783
 21
-127.177485841941
 31
0.0
  0
LINE
  5
7B3
330
2
100
AcDbEntity
  8
L-ZISSEN
100
AcDbLine
 10
-15.48515622466285
 20
-122.7394395893954
 30
0.0
 11
-15.48515622466285
 21
-124.7342635020233
 31
0.0
  0
LINE
  5
7B4
330
2
100
AcDbEntity
  8
L-ZISSEN
100
AcDbLine
 10
-15.48515622466285
 20
-122.7394395893954
 30
0.0
 11
-15.48515622466285
 21
-124.7342635020233
 31
0.0
  0
LINE
  5
7B5
330
2
100
AcDbEntity
  8
L-ZISSEN
100
AcDbLine
 10
-15.48515622466285
 20
-122.7394395893954
 30
0.0
 11
-15.48515622466285
 21
-124.7342635020233
 31
0.0
  0
LINE
  5
7B6
330
2
100
AcDbEntity
  8
L-ZISSEN
100
AcDbLine
 10
-15.48515622466285
 20
-122.7394395893954
 30
0.0
 11
-15.48515622466285
 21
-124.7342635020233
 31
0.0
  0
LINE
  5
7B7
330
2
100
AcDbEntity
  8
L-ZISSEN
100
AcDbLine
 10
-17.45235744640555
 20
-127.177485841941
 30
0.0
 11
-17.45235744640555
 21
-137.2363204314494
 31
0.0
  0
LINE
  5
7B8
330
2
100
AcDbEntity
  8
L-ZISSEN
100
AcDbLine
 10
-12.45235744640783
 20
-127.177485841941
 30
0.0
 11
-12.45235744640783
 21
-137.2363204314494
 31
0.0
  0
LINE
  5
7B9
330
2
100
AcDbEntity
  8
L-ZISSEN
100
AcDbLine
 10
-13.45235744640692
 20
-127.177485841941
 30
0.0
 11
-13.45235744640692
 21
-137.2363204314494
 31
0.0
  0
LINE
  5
7BA
330
2
100
AcDbEntity
  8
L-ZISSEN
100
AcDbLine
 10
-14.45235744640601
 20
-127.177485841941
 30
0.0
 11
-14.45235744640601
 21
-137.2363204314494
 31
0.0
  0
LINE
  5
7BB
330
2
100
AcDbEntity
  8
L-ZISSEN
100
AcDbLine
 10
-15.4523574464051
 20
-127.177485841941
 30
0.0
 11
-15.4523574464051
 21
-137.2363204314494
 31
0.0
  0
LINE
  5
7BC
330
2
100
AcDbEntity
  8
L-ZISSEN
100
AcDbLine
 10
-16.45235744640646
 20
-127.177485841941
 30
0.0
 11
-16.45235744640646
 21
-137.2363204314494
 31
0.0
  0
LINE
  5
7BD
330
2
100
AcDbEntity
  8
L-ZISSEN
100
AcDbLine
 10
-7.691236224662333
 20
-122.7265877013931
 30
0.0
 11
-7.691236224662333
 21
-124.7460531615058
 31
0.0
  0
LINE
  5
7BE
330
2
100
AcDbEntity
  8
L-ZISSEN
100
AcDbLine
 10
-9.95235744640783
 20
-127.177485841941
 30
0.0
 11
-9.452357446408285
 21
-127.677485841941
 31
0.0
  0
LINE
  5
7BF
330
2
100
AcDbEntity
  8
L-ZISSEN
100
AcDbLine
 10
-9.952357446408285
 20
-126.6774858419405
 30
0.0
 11
-9.952357446408285
 21
-125.2363204314494
 31
0.0
  0
LINE
  5
7C0
330
2
100
AcDbEntity
  8
L-ZISSEN
100
AcDbLine
 10
-10.45235744640373
 20
-125.2376666938714
 30
0.0
 11
-10.45235744640783
 21
-127.177485841941
 31
0.0
  0
LINE
  5
7C1
330
2
100
AcDbEntity
  8
L-ZISSEN
100
AcDbLine
 10
-10.45235744640783
 20
-127.177485841941
 30
0.0
 11
-9.952357446408285
 21
-126.677485841941
 31
0.0
  0
LINE
  5
7C2
330
2
100
AcDbEntity
  8
L-ZISSEN
100
AcDbLine
 10
-9.752357446408012
 20
-137.2363204314494
 30
0.0
 11
-9.452357446408285
 21
-136.9363204314492
 31
0.0
  0
LINE
  5
7C3
330
2
100
AcDbEntity
  8
L-ZISSEN
100
AcDbLine
 10
-9.452357446408285
 20
-127.677485841941
 30
0.0
 11
-9.452357446408285
 21
-136.9363204314492
 31
0.0
  0
LINE
  5
7C4
330
2
100
AcDbEntity
  8
L-ZISSEN
100
AcDbLine
 10
-10.4523574464051
 20
-127.177485841941
 30
0.0
 11
-10.45235744640305
 21
-137.2363204314494
 31
0.0
  0
LINE
  5
7C5
330
2
100
AcDbEntity
  8
L-ZISSEN
100
AcDbLine
 10
-11.45235744640419
 20
-127.177485841941
 30
0.0
 11
-11.45235744640419
 21
-137.2363204314494
 31
0.0
  0
LINE
  5
7C6
330
2
100
AcDbEntity
  8
L-ZISSEN
100
AcDbLine
 10
-12.98515622466354
 20
-98.23530093174419
 30
0.0
 11
-17.98515622466354
 21
-98.23530093174419
 31
0.0
  0
POLYLINE
  5
7C7
330
2
100
AcDbEntity
  8
L-ZISSEN
100
AcDb2dPolyline
 66
     1
 10
0.0
 20
0.0
 30
0.0
 70
     1
  0
VERTEX
  5
10F9
330
7C7
100
AcDbEntity
  8
L-ZISSEN
100
AcDbVertex
100
AcDb2dVertex
 10
-16.73515622466331
 20
-103.7636130952575
 30
0.0
  0
VERTEX
  5
10FA
330
7C7
100
AcDbEntity
  8
L-ZISSEN
100
AcDbVertex
100
AcDb2dVertex
 10
-15.48515622466331
 20
-103.0419252587705
 30
0.0
  0
VERTEX
  5
10FB
330
7C7
100
AcDbEntity
  8
L-ZISSEN
100
AcDbVertex
100
AcDb2dVertex
 10
-14.23515622466331
 20
-103.7636130952575
 30
0.0
  0
VERTEX
  5
10FC
330
7C7
100
AcDbEntity
  8
L-ZISSEN
100
AcDbVertex
100
AcDb2dVertex
 10
-14.23515622466331
 20
-105.2069887682316
 30
0.0
  0
VERTEX
  5
10FD
330
7C7
100
AcDbEntity
  8
L-ZISSEN
100
AcDbVertex
100
AcDb2dVertex
 10
-15.48515622466331
 20
-105.9286766047186
 30
0.0
  0
VERTEX
  5
10FE
330
7C7
100
AcDbEntity
  8
L-ZISSEN
100
AcDbVertex
100
AcDb2dVertex
 10
-16.73515622466331
 20
-105.2069887682316
 30
0.0
  0
SEQEND
  5
10FF
330
7C7
100
AcDbEntity
  8
L-ZISSEN
  0
ARC
  5
7C8
330
2
100
AcDbEntity
  8
L-ZISSEN
100
AcDbCircle
 10
2.058189426596101
 20
-107.7224746770682
 30
0.0
 40
10.0
100
AcDbArc
 50
274.8684440628815
 51
358.9999999999721
  0
LINE
  5
7C9
330
2
100
AcDbEntity
  8
L-ZISSEN
100
AcDbLine
 10
-6.049988956444138
 20
-118.735300931745
 30
0.0
 11
2.906871107153193
 21
-117.6863965658169
 31
0.0
  0
LINE
  5
7CA
330
2
100
AcDbEntity
  8
L-ZISSEN
100
AcDbLine
 10
-6.049988956444138
 20
-118.735300931745
 30
0.0
 11
-6.049988956444366
 21
-122.235300931745
 31
0.0
  0
LINE
  5
7CB
330
2
100
AcDbEntity
  8
L-ZISSEN
100
AcDbLine
 10
17.828939099888
 20
210.9566572714704
 30
0.0
 11
14.51484377533645
 21
210.9566572714704
 31
0.0
  0
LINE
  5
7CC
330
2
100
AcDbEntity
  8
L-ZISSEN
100
AcDbLine
 10
16.06526495611618
 20
201.2901972830916
 30
0.0
 11
17.828939099888
 21
208.7701730305354
 31
0.0
  0
LINE
  5
7CE
330
2
100
AcDbEntity
  8
L-ZISSEN
100
AcDbLine
 10
18.31897218500719
 20
-15.5353009317439
 30
0.0
 11
16.11897218500692
 21
-15.5353009317439
 31
0.0
  0
ARC
  5
7CF
330
2
100
AcDbEntity
  8
L-ZISSEN
100
AcDbCircle
 10
15.35079036682466
 20
-49.33530093174363
 30
0.0
 40
2.368181818181991
100
AcDbArc
 50
302.3784125140573
 51
57.6215874859427
  0
LINE
  5
7D0
330
2
100
AcDbEntity
  8
L-ZISSEN
100
AcDbLine
 10
24.11897218500692
 20
-39.89492181811306
 30
0.0
 11
16.11897218500692
 21
-41.83530093174363
 31
0.0
  0
LINE
  5
7D1
330
2
100
AcDbEntity
  8
L-ZISSEN
100
AcDbLine
 10
14.51484377533645
 20
234.7636795685514
 30
0.0
 11
14.51484377533645
 21
193.4396851143521
 31
0.0
  0
LINE
  5
7D2
330
2
100
AcDbEntity
  8
L-ZISSEN
100
AcDbLine
 10
14.51484377533361
 20
129.4206899617367
 30
0.0
 11
14.51484377533645
 21
234.7636795685514
 31
0.0
  0
LINE
  5
7D3
330
2
100
AcDbEntity
  8
L-ZISSEN
100
AcDbLine
 10
1.364843775333639
 20
224.424940656919
 30
0.0
 11
1.364843775333639
 21
141.9249406569181
 31
0.0
  0
LINE
  5
7D4
330
2
100
AcDbEntity
  8
L-ZISSEN
100
AcDbLine
 10
9.794843775336659
 20
224.424940656919
 30
0.0
 11
9.794843775333816
 21
141.9249406569199
 31
0.0
  0
LINE
  5
7D5
330
2
100
AcDbEntity
  8
L-ZISSEN
100
AcDbLine
 10
-4.485156224663541
 20
106.4636795685507
 30
0.0
 11
-26.48515622466354
 21
106.4636795685507
 31
0.0
  0
LINE
  5
7D6
330
2
100
AcDbEntity
  8
L-ZISSEN
100
AcDbLine
 10
-25.48515622466354
 20
102.9636795685507
 30
0.0
 11
-5.485156224663541
 21
102.9636795685507
 31
0.0
  0
LINE
  5
7D7
330
2
100
AcDbEntity
  8
L-ZISSEN
100
AcDbLine
 10
-25.48515622466354
 20
102.2636795685509
 30
0.0
 11
-5.485156224663541
 21
102.2636795685509
 31
0.0
  0
LINE
  5
7D8
330
2
100
AcDbEntity
  8
L-ZISSEN
100
AcDbLine
 10
-25.48515622466354
 20
88.76367956855096
 30
0.0
 11
-5.485156224663541
 21
88.76367956855096
 31
0.0
  0
LINE
  5
7D9
330
2
100
AcDbEntity
  8
L-ZISSEN
100
AcDbLine
 10
-27.48515622466354
 20
117.9636795685512
 30
0.0
 11
-3.485156224663541
 21
117.9636795685512
 31
0.0
  0
LINE
  5
7DA
330
2
100
AcDbEntity
  8
L-ZISSEN
100
AcDbLine
 10
-27.48515622466354
 20
119.4636795685512
 30
0.0
 11
-3.485156224663541
 21
119.4636795685512
 31
0.0
  0
LINE
  5
7DB
330
2
100
AcDbEntity
  8
L-ZISSEN
100
AcDbLine
 10
-27.48515622466354
 20
115.4636795685512
 30
0.0
 11
-3.485156224663541
 21
115.4636795685512
 31
0.0
  0
LINE
  5
7DC
330
2
100
AcDbEntity
  8
L-ZISSEN
100
AcDbLine
 10
3.014843775337141
 20
-28.73530093174236
 30
0.0
 11
-11.73515622466399
 21
-28.73530093174418
 31
0.0
  0
LINE
  5
7DD
330
2
100
AcDbEntity
  8
L-ZISSEN
100
AcDbLine
 10
-11.73515622466354
 20
-18.73530093174463
 30
0.0
 11
-19.23515622466354
 21
-18.73530093174463
 31
0.0
  0
CIRCLE
  5
7DE
330
2
100
AcDbEntity
  8
L-ZISSEN
100
AcDbCircle
 10
-15.48515622466331
 20
-37.98530093174372
 30
0.0
 40
3.75
  0
LINE
  5
7DF
330
2
100
AcDbEntity
  8
L-TYUSIN
100
AcDbLine
 10
-9.235156224663313
 20
-37.98530093174372
 30
0.0
 11
-21.73515622466331
 21
-37.98530093174372
 31
0.0
  0
LINE
  5
7E0
330
2
100
AcDbEntity
  8
L-ZISSEN
100
AcDbLine
 10
-24.23515622466354
 20
-32.73530093174418
 30
0.0
 11
-6.735156224663541
 21
-32.73530093174372
 31
0.0
  0
LINE
  5
7E1
330
2
100
AcDbEntity
  8
L-ZISSEN
100
AcDbLine
 10
-19.23515622466354
 20
-18.73530093174463
 30
0.0
 11
-19.23515622466354
 21
-28.73530093174327
 31
0.0
  0
SOLID
  5
7E2
330
2
100
AcDbEntity
  8
L-ZISSEN
100
AcDbTrace
 10
-17.23499358374644
 20
-14.21202539198634
 30
0.0
 11
-16.80820398397005
 21
-13.69987787225477
 31
0.0
 12
-15.48515622466354
 22
-15.23632043144948
 32
0.0
 13
-15.48515622466354
 23
-15.23632043144948
 33
0.0
  0
LINE
  5
7E3
330
2
100
AcDbEntity
  8
L-ZISSEN
100
AcDbLine
 10
-17.98515622466354
 20
-44.23530093174417
 30
0.0
 11
-12.98515622466354
 21
-44.23530093174417
 31
0.0
  0
POLYLINE
  5
7E4
330
2
100
AcDbEntity
  8
L-ZISSEN
100
AcDb2dPolyline
 66
     1
 10
0.0
 20
0.0
 30
0.0
 70
     1
  0
VERTEX
  5
1100
330
7E4
100
AcDbEntity
  8
L-ZISSEN
100
AcDbVertex
100
AcDb2dVertex
 10
-16.73515622466331
 20
-38.70698876823075
 30
0.0
  0
VERTEX
  5
1101
330
7E4
100
AcDbEntity
  8
L-ZISSEN
100
AcDbVertex
100
AcDb2dVertex
 10
-15.48515622466331
 20
-39.42867660471779
 30
0.0
  0
VERTEX
  5
1102
330
7E4
100
AcDbEntity
  8
L-ZISSEN
100
AcDbVertex
100
AcDb2dVertex
 10
-14.23515622466331
 20
-38.70698876823075
 30
0.0
  0
VERTEX
  5
1103
330
7E4
100
AcDbEntity
  8
L-ZISSEN
100
AcDbVertex
100
AcDb2dVertex
 10
-14.23515622466331
 20
-37.26361309525668
 30
0.0
  0
VERTEX
  5
1104
330
7E4
100
AcDbEntity
  8
L-ZISSEN
100
AcDbVertex
100
AcDb2dVertex
 10
-15.48515622466331
 20
-36.54192525876965
 30
0.0
  0
VERTEX
  5
1105
330
7E4
100
AcDbEntity
  8
L-ZISSEN
100
AcDbVertex
100
AcDb2dVertex
 10
-16.73515622466331
 20
-37.26361309525668
 30
0.0
  0
SEQEND
  5
1106
330
7E4
100
AcDbEntity
  8
L-ZISSEN
  0
LINE
  5
7E5
330
2
100
AcDbEntity
  8
L-ZISSEN
100
AcDbLine
 10
-11.73515622466376
 20
-18.73530093174463
 30
0.0
 11
-11.73515622466399
 21
-28.73530093174327
 31
0.0
  0
LINE
  5
7E6
330
2
100
AcDbEntity
  8
L-ZISSEN
100
AcDbLine
 10
-26.48515622466354
 20
115.4636795685507
 30
0.0
 11
-26.48515622466354
 21
106.4636795685507
 31
0.0
  0
LINE
  5
7E7
330
2
100
AcDbEntity
  8
L-ZISSEN
100
AcDbLine
 10
-24.48515622466354
 20
102.2636795685509
 30
0.0
 11
-24.48515622466308
 21
102.9636795685507
 31
0.0
  0
LINE
  5
7E8
330
2
100
AcDbEntity
  8
L-ZISSEN
100
AcDbLine
 10
-25.48515622466354
 20
102.9636795685507
 30
0.0
 11
-25.48515622466354
 21
106.4636795685507
 31
0.0
  0
LINE
  5
7E9
330
2
100
AcDbEntity
  8
L-ZISSEN
100
AcDbLine
 10
-25.48515622466354
 20
88.76367956855096
 30
0.0
 11
-25.48515622466354
 21
102.2636795685509
 31
0.0
  0
LINE
  5
7EA
330
2
100
AcDbEntity
  8
L-ZISSEN
100
AcDbLine
 10
-27.48515622466354
 20
115.4636795685512
 30
0.0
 11
-27.48515622466354
 21
119.4636795685512
 31
0.0
  0
LINE
  5
7EB
330
2
100
AcDbEntity
  8
L-ZISSEN
100
AcDbLine
 10
-6.485156224663086
 20
102.2636795685509
 30
0.0
 11
-6.485156224663541
 21
102.9636795685507
 31
0.0
  0
LINE
  5
7EC
330
2
100
AcDbEntity
  8
L-ZISSEN
100
AcDbLine
 10
3.014843775336231
 20
-18.73530093174326
 30
0.0
 11
8.526198213594653
 21
-18.73530093174508
 31
0.0
  0
LINE
  5
7ED
330
2
100
AcDbEntity
  8
L-ZISSEN
100
AcDbLine
 10
3.014843775337141
 20
-18.73530093174326
 30
0.0
 11
3.014843775337141
 21
-28.73530093174236
 31
0.0
  0
LINE
  5
7EE
330
2
100
AcDbEntity
  8
L-ZISSEN
100
AcDbLine
 10
8.526198213594653
 20
-28.73530093174236
 30
0.0
 11
13.77071083681792
 21
-28.73530093174236
 31
0.0
  0
LINE
  5
7EF
330
2
100
AcDbEntity
  8
L-ZISSEN
100
AcDbLine
 10
8.526198213594653
 20
-18.73530093174508
 30
0.0
 11
8.526198213594653
 21
-28.73530093174236
 31
0.0
  0
LINE
  5
7F0
330
2
100
AcDbEntity
  8
L-ZISSEN
100
AcDbLine
 10
16.11897218500692
 20
-20.23530093174508
 30
0.0
 11
16.11897218500692
 21
-15.53530093174344
 31
0.0
  0
LINE
  5
7F1
330
2
100
AcDbEntity
  8
L-ZISSEN
100
AcDbLine
 10
16.6068598707009
 20
-20.23530093174508
 30
0.0
 11
14.58435823651532
 21
-20.23530093174508
 31
0.0
  0
LINE
  5
7F2
330
2
100
AcDbEntity
  8
L-ZISSEN
100
AcDbLine
 10
16.11897218500692
 20
-15.23632043144948
 30
0.0
 11
16.11897218500692
 21
-15.53530093174344
 31
0.0
  0
LINE
  5
7F3
330
2
100
AcDbEntity
  8
L-ZISSEN
100
AcDbLine
 10
16.11897218500646
 20
-55.83530093174454
 30
0.0
 11
16.11897218500738
 21
-32.51634551548454
 31
0.0
  0
LINE
  5
7F4
330
2
100
AcDbEntity
  8
L-ZISSEN
100
AcDbLine
 10
16.11897218500692
 20
-51.33530093174363
 30
0.0
 11
16.61897218500692
 21
-51.33530093174363
 31
0.0
  0
LINE
  5
7F5
330
2
100
AcDbEntity
  8
L-ZISSEN
100
AcDbLine
 10
16.11897218500692
 20
-47.33530093174363
 30
0.0
 11
16.61897218500692
 21
-47.33530093174363
 31
0.0
  0
LINE
  5
7F6
330
2
100
AcDbEntity
  8
L-ZISSEN
100
AcDbLine
 10
14.9189721850071
 20
-44.835300931745
 30
0.0
 11
14.9189721850071
 21
-39.03530093174344
 31
0.0
  0
LINE
  5
7F7
330
2
100
AcDbEntity
  8
L-ZISSEN
100
AcDbLine
 10
16.11897218500692
 20
-41.83530093174363
 30
0.0
 11
16.11897218500692
 21
-28.73530093174281
 31
0.0
  0
LINE
  5
7F8
330
2
100
AcDbEntity
  8
L-ZISSEN
100
AcDbLine
 10
13.9894312035399
 20
-39.0353009317439
 30
0.0
 11
13.9894312035399
 21
-28.73530093174418
 31
0.0
  0
LINE
  5
7F9
330
2
100
AcDbEntity
  8
L-ZISSEN
100
AcDbLine
 10
13.98943120353922
 20
-37.7528373268135
 30
0.0
 11
13.9894312035399
 21
-28.73530093174418
 31
0.0
  0
LINE
  5
7FA
330
2
100
AcDbEntity
  8
L-ZISSEN
100
AcDbLine
 10
16.11897218500692
 20
-39.0353009317439
 30
0.0
 11
13.9894312035399
 21
-39.03530093174344
 31
0.0
  0
LINE
  5
7FB
330
2
100
AcDbEntity
  8
L-ZISSEN
100
AcDbLine
 10
16.6068598707009
 20
-28.73530093174327
 30
0.0
 11
13.94412026913258
 21
-28.73530093174327
 31
0.0
  0
LINE
  5
7FC
330
2
100
AcDbEntity
  8
L-ZISSEN
100
AcDbLine
 10
13.42210644166291
 20
-44.835300931745
 30
0.0
 11
16.11897218500738
 21
-44.835300931745
 31
0.0
  0
LINE
  5
7FD
330
2
100
AcDbEntity
  8
L-ZISSEN
100
AcDbLine
 10
13.77071083681792
 20
-28.73530093174418
 30
0.0
 11
14.47082837556379
 21
-28.73530093174418
 31
0.0
  0
LINE
  5
7FE
330
2
100
AcDbEntity
  8
L-ZISSEN
100
AcDbLine
 10
14.58435823651532
 20
-20.23530093174508
 30
0.0
 11
14.58435823651532
 21
-28.73530093174327
 31
0.0
  0
LINE
  5
7FF
330
2
100
AcDbEntity
  8
L-ZISSEN
100
AcDbLine
 10
16.6068598707009
 20
-20.23530093174508
 30
0.0
 11
16.6068598707009
 21
-28.73530093174327
 31
0.0
  0
LINE
  5
800
330
2
100
AcDbEntity
  8
L-ZISSEN
100
AcDbLine
 10
1.364843775331365
 20
141.924940656919
 30
0.0
 11
5.579843775335149
 21
139.9249406569181
 31
0.0
  0
ARC
  5
801
330
2
100
AcDbEntity
  8
L-ZISSEN
100
AcDbCircle
 10
-15.48515622466581
 20
218.2770850872077
 30
0.0
 40
99.53938471878515
100
AcDbArc
 50
276.9241513684686
 51
283.9062370650418
  0
LINE
  5
802
330
2
100
AcDbEntity
  8
L-ZISSEN
100
AcDbLine
 10
-4.485156224663541
 20
115.4636795685507
 30
0.0
 11
-4.485156224663541
 21
106.4636795685507
 31
0.0
  0
LINE
  5
803
330
2
100
AcDbEntity
  8
L-ZISSEN
100
AcDbLine
 10
-5.485156224663541
 20
102.9636795685507
 30
0.0
 11
-5.485156224663313
 21
106.4636795685507
 31
0.0
  0
LINE
  5
804
330
2
100
AcDbEntity
  8
L-ZISSEN
100
AcDbLine
 10
-5.485156224663541
 20
88.76367956855096
 30
0.0
 11
-5.485156224663541
 21
102.2636795685509
 31
0.0
  0
LINE
  5
805
330
2
100
AcDbEntity
  8
L-ZISSEN
100
AcDbLine
 10
-3.485156224663541
 20
115.4636795685512
 30
0.0
 11
-3.485156224663541
 21
119.4636795685512
 31
0.0
  0
ARC
  5
806
330
2
100
AcDbEntity
  8
L-ZISSEN
100
AcDbCircle
 10
6.514843775332366
 20
129.4206899617367
 30
0.0
 40
8.000000000000113
100
AcDbArc
 50
283.9062370650552
 51
0.0
  0
LINE
  5
807
330
2
100
AcDbEntity
  8
L-ZISSEN
100
AcDbLine
 10
5.579843775335149
 20
139.9249406569181
 30
0.0
 11
9.794843775332111
 21
141.924940656919
 31
0.0
  0
SOLID
  5
808
330
2
100
AcDbEntity
  8
L-ZISSEN
100
AcDbTrace
 10
-17.23499358374644
 20
235.7879746080136
 30
0.0
 11
-16.80820398397005
 21
236.3001221277452
 31
0.0
 12
-15.48515622466354
 22
234.7636795685505
 32
0.0
 13
-15.48515622466354
 23
234.7636795685505
 33
0.0
  0
LINE
  5
809
330
2
100
AcDbEntity
  8
L-ZISSEN
100
AcDbLine
 10
9.794843775336659
 20
224.424940656919
 30
0.0
 11
1.364843775333639
 21
224.424940656919
 31
0.0
  0
LINE
  5
80A
330
2
100
AcDbEntity
  8
L-ZISSEN
100
AcDbLine
 10
16.34235526913201
 20
210.9566572714695
 30
0.0
 11
16.34235526913201
 21
209.1206888013587
 31
0.0
  0
LINE
  5
80B
330
2
100
AcDbEntity
  8
L-ZISSEN
100
AcDbLine
 10
14.57868112536019
 20
201.6407130539148
 30
0.0
 11
16.34235526913201
 21
209.1206888013587
 31
0.0
  0
LINE
  5
80C
330
2
100
AcDbEntity
  8
L-ZISSEN
100
AcDbLine
 10
16.06526495611618
 20
201.2901972830916
 30
0.0
 11
14.51484377533645
 21
201.2901972830916
 31
0.0
  0
LINE
  5
80D
330
2
100
AcDbEntity
  8
L-ZISSEN
100
AcDbLine
 10
18.31897218500719
 20
-34.99995444314004
 30
0.0
 11
24.11897218500692
 21
-35.61075283551531
 31
0.0
  0
LINE
  5
80F
330
2
100
AcDbEntity
  8
L-ZISSEN
100
AcDbLine
 10
18.31897218500719
 20
-15.5353009317439
 30
0.0
 11
18.31897218500719
 21
-34.99995444314004
 31
0.0
  0
LINE
  5
810
330
2
100
AcDbEntity
  8
L-ZISSEN
100
AcDbLine
 10
24.11897218500692
 20
-35.61075283551531
 30
0.0
 11
24.11897218500692
 21
-39.89492181811306
 31
0.0
  0
LINE
  5
811
330
2
100
AcDbEntity
  8
L-ZISSEN
100
AcDbLine
 10
19.51484377533645
 20
213.7636795685514
 30
0.0
 11
23.51484377533509
 21
213.0987417627686
 31
0.0
  0
LINE
  5
812
330
2
100
AcDbEntity
  8
L-ZISSEN
100
AcDbLine
 10
23.51484377533509
 20
208.8145727801704
 30
0.0
 11
18.01484377533782
 21
206.8741936665403
 31
0.0
  0
LINE
  5
813
330
2
100
AcDbEntity
  8
L-ZISSEN
100
AcDbLine
 10
19.51484377533645
 20
234.7636795685505
 30
0.0
 11
19.51484377533645
 21
213.7636795685514
 31
0.0
  0
LINE
  5
814
330
2
100
AcDbEntity
  8
L-ZISSEN
100
AcDbLine
 10
17.828939099888
 20
206.8741936665403
 30
0.0
 11
17.828939099888
 21
234.7636795685505
 31
0.0
  0
LINE
  5
815
330
2
100
AcDbEntity
  8
L-ZISSEN
100
AcDbLine
 10
17.828939099888
 20
208.7701730305354
 30
0.0
 11
17.828939099888
 21
210.9566572714704
 31
0.0
  0
LINE
  5
816
330
2
100
AcDbEntity
  8
L-ZISSEN
100
AcDbLine
 10
18.01484377533782
 20
206.8741936665403
 30
0.0
 11
17.828939099888
 21
206.8741936665403
 31
0.0
  0
LINE
  5
817
330
2
100
AcDbEntity
  8
L-ZISSEN
100
AcDbLine
 10
23.51484377533509
 20
213.0987417627686
 30
0.0
 11
23.51484377533509
 21
208.8145727801704
 31
0.0
  0
ARC
  5
818
330
2
100
AcDbEntity
  8
L-ZISSEN
100
AcDbCircle
 10
156.5148437753323
 20
129.4206899617367
 30
0.0
 40
8.000000000000113
100
AcDbArc
 50
283.9062370650552
 51
0.0
  0
LINE
  5
819
330
2
100
AcDbEntity
  8
L-ZISSEN
100
AcDbLine
 10
158.5261982135946
 20
-28.7353009317419
 30
0.0
 11
163.7707108368179
 21
-28.7353009317419
 31
0.0
  0
ARC
  5
81A
330
2
100
AcDbEntity
  8
L-ZISSEN
100
AcDbCircle
 10
152.0581894265963
 20
-107.7224746770677
 30
0.0
 40
10.0
100
AcDbArc
 50
274.8684440628815
 51
358.9999999999721
  0
LINE
  5
81B
330
2
100
AcDbEntity
  8
L-ZISSEN
100
AcDbLine
 10
144.5148437753371
 20
-44.83530093174318
 30
0.0
 11
144.5148437753371
 21
-58.83530093174318
 31
0.0
  0
LINE
  5
81C
330
2
100
AcDbEntity
  8
L-ZISSEN
100
AcDbLine
 10
144.1148437753365
 20
-55.83530093174409
 30
0.0
 11
144.5148437753371
 21
-58.83530093174318
 31
0.0
  0
LINE
  5
81D
330
2
100
AcDbEntity
  8
L-ZISSEN
100
AcDbLine
 10
124.5148437753362
 20
-44.83530093174318
 30
0.0
 11
124.5148437753362
 21
-58.83530093174318
 31
0.0
  0
LINE
  5
81E
330
2
100
AcDbEntity
  8
L-ZISSEN
100
AcDbLine
 10
124.9148437753367
 20
-55.83530093174317
 30
0.0
 11
124.5148437753362
 21
-58.83530093174318
 31
0.0
  0
LINE
  5
81F
330
2
100
AcDbEntity
  8
L-ZISSEN
100
AcDbLine
 10
102.2702528949696
 20
-32.73530093174372
 30
0.0
 11
102.2702528949714
 21
-109.7353009317437
 31
0.0
  0
LINE
  5
820
330
2
100
AcDbEntity
  8
L-ZISSEN
 48
0.3
100
AcDbLine
 10
107.3680360904866
 20
-109.7353009317437
 30
0.0
 11
107.3680360904866
 21
-32.73530093174372
 31
0.0
  0
LINE
  5
821
330
2
100
AcDbEntity
  8
L-ZISSEN
100
AcDbLine
 10
92.77025289496965
 20
-32.73530093174372
 30
0.0
 11
92.77025289497146
 21
-109.7353009317437
 31
0.0
  0
ARC
  5
822
330
2
100
AcDbEntity
  8
L-ZISSEN
100
AcDbCircle
 10
116.971498124077
 20
-107.7224746770677
 30
0.0
 40
10.0
100
AcDbArc
 50
191.6119735011068
 51
265.1315559371184
  0
LINE
  5
823
330
2
100
AcDbEntity
  8
L-TYUSIN
100
AcDbLine
 10
108.9111286041863
 20
-104.7353009317437
 30
0.0
 11
85.87025289497001
 21
-104.7353009317437
 31
0.0
  0
LINE
  5
824
330
2
100
AcDbEntity
  8
L-ZISSEN
100
AcDbLine
 10
92.77025289496965
 20
-109.7353009317437
 30
0.0
 11
102.2702528949696
 21
-109.7353009317441
 31
0.0
  0
ARC
  5
825
330
2
100
AcDbEntity
  8
L-ZISSEN
100
AcDbCircle
 10
93.18225546274721
 20
-103.0105144159267
 30
0.0
 40
2.312215931624567
100
AcDbArc
 50
100.264068372211
 51
180.7783719766075
  0
ARC
  5
826
330
2
100
AcDbEntity
  8
L-ZISSEN
100
AcDbCircle
 10
93.18225546274721
 20
-105.9600874475625
 30
0.0
 40
2.312215931624567
100
AcDbArc
 50
179.2216280233924
 51
259.735931627789
  0
LINE
  5
827
330
2
100
AcDbEntity
  8
L-ZISSEN
100
AcDbLine
 10
90.87025289497001
 20
-105.9286766047182
 30
0.0
 11
90.87025289496978
 21
-103.0419252587705
 31
0.0
  0
LINE
  5
828
330
2
100
AcDbEntity
  8
L-ZISSEN
 48
0.3
100
AcDbLine
 10
106.0680360904864
 20
-109.7353009317437
 30
0.0
 11
107.3680360904866
 21
-109.7353009317437
 31
0.0
  0
LINE
  5
829
330
2
100
AcDbEntity
  8
L-ZISSEN
100
AcDbLine
 10
102.2702528949714
 20
-109.7353009317437
 30
0.0
 11
106.0680360904864
 21
-109.7353009317437
 31
0.0
  0
LINE
  5
82A
330
2
100
AcDbEntity
  8
L-ZISSEN
100
AcDbLine
 10
124.5148437753362
 20
-58.83530093174318
 30
0.0
 11
144.5148437753362
 21
-58.83530093174318
 31
0.0
  0
LINE
  5
82B
330
2
100
AcDbEntity
  8
L-ZISSEN
100
AcDbLine
 10
125.0796765071188
 20
-122.2353009317446
 30
0.0
 11
143.9500110435558
 21
-122.2353009317446
 31
0.0
  0
LINE
  5
82C
330
2
100
AcDbEntity
  8
L-ZISSEN
100
AcDbLine
 10
125.0796765071183
 20
-118.7353009317446
 30
0.0
 11
143.9500110435558
 21
-118.7353009317446
 31
0.0
  0
LINE
  5
82D
330
2
100
AcDbEntity
  8
L-ZISSEN
100
AcDbLine
 10
140.2476425535919
 20
-137.236320431449
 30
0.0
 11
128.8476425535932
 21
-137.236320431449
 31
0.0
  0
ARC
  5
82E
330
2
100
AcDbEntity
  8
L-ZISSEN
100
AcDbCircle
 10
134.5476425535925
 20
-142.8773831053661
 30
0.0
 40
20.64106267391679
100
AcDbArc
 50
77.50558048157244
 51
102.6763186877445
  0
ARC
  5
82F
330
2
100
AcDbEntity
  8
L-ZISSEN
100
AcDbCircle
 10
134.5476425535925
 20
-104.5952577575319
 30
0.0
 40
20.64106267391694
100
AcDbArc
 50
257.3236813122688
 51
282.4944195184275
  0
LINE
  5
830
330
2
100
AcDbEntity
  8
L-ZISSEN
100
AcDbLine
 10
129.0476425535907
 20
-127.1774858419405
 30
0.0
 11
137.5476425535921
 21
-127.1774858419405
 31
0.0
  0
LINE
  5
831
330
2
100
AcDbEntity
  8
L-ZISSEN
100
AcDbLine
 10
127.7693269370879
 20
-122.2356993166306
 30
0.0
 11
141.2603606135862
 21
-122.234902546859
 31
0.0
  0
LINE
  5
832
330
2
100
AcDbEntity
  8
L-ZISSEN
100
AcDbLine
 10
127.7693269370879
 20
-125.2369415462687
 30
0.0
 11
141.2603606135862
 21
-125.2377383160403
 31
0.0
  0
LINE
  5
833
330
2
100
AcDbEntity
  8
L-ZISSEN
100
AcDbLine
 10
125.0796765071174
 20
-118.7353009317446
 30
0.0
 11
116.1228164435199
 21
-117.6863965658164
 31
0.0
  0
ARC
  5
834
330
2
100
AcDbEntity
  8
L-ZISSEN
100
AcDbCircle
 10
127.7693269370879
 20
-127.5070294870004
 30
0.0
 40
5.271330170370607
100
AcDbArc
 50
64.74766100341111
 51
114.9228807251761
  0
LINE
  5
835
330
2
100
AcDbEntity
  8
L-ZISSEN
100
AcDbLine
 10
129.5476425535951
 20
-125.2370170425772
 30
0.0
 11
129.5476425535907
 21
-127.1774858419405
 31
0.0
  0
LINE
  5
836
330
2
100
AcDbEntity
  8
L-ZISSEN
100
AcDbLine
 10
130.0181062355741
 20
-122.7394395893982
 30
0.0
 11
130.0181062355809
 21
-124.7332012735012
 31
0.0
  0
LINE
  5
837
330
2
100
AcDbEntity
  8
L-ZISSEN
100
AcDbLine
 10
129.0476425535907
 20
-127.1774858419405
 30
0.0
 11
128.5476425535934
 21
-127.6774858419405
 31
0.0
  0
LINE
  5
838
330
2
100
AcDbEntity
  8
L-ZISSEN
100
AcDbLine
 10
125.5479989335085
 20
-122.7265877013926
 30
0.0
 11
125.5479989335085
 21
-124.7460531615054
 31
0.0
  0
LINE
  5
839
330
2
100
AcDbEntity
  8
L-ZISSEN
100
AcDbLine
 10
129.0476425535935
 20
-126.6774858419405
 30
0.0
 11
129.0476425535935
 21
-125.236320431449
 31
0.0
  0
LINE
  5
83A
330
2
100
AcDbEntity
  8
L-ZISSEN
100
AcDbLine
 10
129.5476425535907
 20
-127.1774858419405
 30
0.0
 11
129.0476425535935
 21
-126.6774858419405
 31
0.0
  0
ARC
  5
83B
330
2
100
AcDbEntity
  8
L-ZISSEN
100
AcDbCircle
 10
127.7693269370879
 20
-119.9656113758981
 30
0.0
 40
5.271330170370607
100
AcDbArc
 50
245.0771192748237
 51
295.2523389966464
  0
LINE
  5
83C
330
2
100
AcDbEntity
  8
L-ZISSEN
100
AcDbLine
 10
128.8476425535932
 20
-137.236320431449
 30
0.0
 11
128.5476425535934
 21
-136.9363204314492
 31
0.0
  0
LINE
  5
83D
330
2
100
AcDbEntity
  8
L-ZISSEN
100
AcDbLine
 10
130.5476425535916
 20
-127.1774858419405
 30
0.0
 11
130.5476425535916
 21
-137.236320431449
 31
0.0
  0
LINE
  5
83E
330
2
100
AcDbEntity
  8
L-ZISSEN
100
AcDbLine
 10
129.5476425535925
 20
-127.1774858419405
 30
0.0
 11
129.5476425535928
 21
-137.236320431449
 31
0.0
  0
LINE
  5
83F
330
2
100
AcDbEntity
  8
L-ZISSEN
100
AcDbLine
 10
128.5476425535932
 20
-136.9363204314492
 30
0.0
 11
128.5476425535934
 21
-127.6774858419405
 31
0.0
  0
LINE
  5
840
330
2
100
AcDbEntity
  8
L-ZISSEN
100
AcDbLine
 10
136.547642553593
 20
-127.1774858419405
 30
0.0
 11
136.5476425535932
 21
-137.236320431449
 31
0.0
  0
LINE
  5
841
330
2
100
AcDbEntity
  8
L-ZISSEN
100
AcDbLine
 10
135.5476425535939
 20
-127.1774858419405
 30
0.0
 11
135.5476425535941
 21
-137.236320431449
 31
0.0
  0
LINE
  5
842
330
2
100
AcDbEntity
  8
L-ZISSEN
100
AcDbLine
 10
134.5476425535948
 20
-127.1774858419405
 30
0.0
 11
134.5476425535951
 21
-137.236320431449
 31
0.0
  0
LINE
  5
843
330
2
100
AcDbEntity
  8
L-ZISSEN
100
AcDbLine
 10
133.5476425535935
 20
-127.1774858419405
 30
0.0
 11
133.5476425535937
 21
-137.236320431449
 31
0.0
  0
LINE
  5
844
330
2
100
AcDbEntity
  8
L-ZISSEN
100
AcDbLine
 10
132.5476425535944
 20
-127.1774858419405
 30
0.0
 11
132.5476425535946
 21
-137.236320431449
 31
0.0
  0
LINE
  5
845
330
2
100
AcDbEntity
  8
L-ZISSEN
100
AcDbLine
 10
131.547642553593
 20
-127.1774858419405
 30
0.0
 11
131.5476425535932
 21
-137.236320431449
 31
0.0
  0
LINE
  5
846
330
2
100
AcDbEntity
  8
L-ZISSEN
100
AcDbLine
 10
125.0796765071183
 20
-118.7353009317446
 30
0.0
 11
125.0796765071188
 21
-122.2353009317446
 31
0.0
  0
LINE
  5
847
330
2
100
AcDbEntity
  8
L-ZISSEN
100
AcDbLine
 10
143.9500110435558
 20
-118.7353009317446
 30
0.0
 11
152.9068711071533
 21
-117.6863965658164
 31
0.0
  0
ARC
  5
848
330
2
100
AcDbEntity
  8
L-ZISSEN
100
AcDbCircle
 10
141.2603606135862
 20
-127.5062327172297
 30
0.0
 40
5.271330170371789
100
AcDbArc
 50
64.28835488514046
 51
115.2591066834223
  0
ARC
  5
849
330
2
100
AcDbEntity
  8
L-ZISSEN
100
AcDbCircle
 10
141.2603606135862
 20
-119.9664081456687
 30
0.0
 40
5.271330170371532
100
AcDbArc
 50
244.7408933165776
 51
295.7116451148595
  0
LINE
  5
84A
330
2
100
AcDbEntity
  8
L-ZISSEN
100
AcDbLine
 10
139.5476425535964
 20
-125.2376666938714
 30
0.0
 11
139.5476425535921
 21
-127.1774858419405
 31
0.0
  0
LINE
  5
84B
330
2
100
AcDbEntity
  8
L-ZISSEN
100
AcDbLine
 10
139.5476425535921
 20
-127.1774858419405
 30
0.0
 11
140.0476425535916
 21
-126.6774858419405
 31
0.0
  0
LINE
  5
84C
330
2
100
AcDbEntity
  8
L-ZISSEN
100
AcDbLine
 10
137.5476425535921
 20
-127.1774858419405
 30
0.0
 11
140.0476425535921
 21
-127.1774858419405
 31
0.0
  0
LINE
  5
84D
330
2
100
AcDbEntity
  8
L-ZISSEN
100
AcDbLine
 10
140.0476425535921
 20
-127.1774858419405
 30
0.0
 11
140.5476425535916
 21
-127.6774858419405
 31
0.0
  0
LINE
  5
84E
330
2
100
AcDbEntity
  8
L-ZISSEN
100
AcDbLine
 10
139.0110181906097
 20
-122.7389084751355
 30
0.0
 11
139.0110181906097
 21
-124.7337323877634
 31
0.0
  0
LINE
  5
84F
330
2
100
AcDbEntity
  8
L-ZISSEN
100
AcDbLine
 10
140.0476425535919
 20
-126.67748584194
 30
0.0
 11
140.0476425535916
 21
-125.236320431449
 31
0.0
  0
LINE
  5
850
330
2
100
AcDbEntity
  8
L-ZISSEN
100
AcDbLine
 10
140.2476425535919
 20
-137.236320431449
 30
0.0
 11
140.5476425535916
 21
-136.9363204314492
 31
0.0
  0
LINE
  5
851
330
2
100
AcDbEntity
  8
L-ZISSEN
100
AcDbLine
 10
140.5476425535916
 20
-127.6774858419405
 30
0.0
 11
140.5476425535916
 21
-136.9363204314492
 31
0.0
  0
LINE
  5
852
330
2
100
AcDbEntity
  8
L-ZISSEN
100
AcDbLine
 10
139.5476425535948
 20
-127.1774858419405
 30
0.0
 11
139.5476425535969
 21
-137.236320431449
 31
0.0
  0
LINE
  5
853
330
2
100
AcDbEntity
  8
L-ZISSEN
100
AcDbLine
 10
138.5476425535957
 20
-127.1774858419405
 30
0.0
 11
138.547642553596
 21
-137.236320431449
 31
0.0
  0
LINE
  5
854
330
2
100
AcDbEntity
  8
L-ZISSEN
100
AcDbLine
 10
137.5476425535921
 20
-127.1774858419405
 30
0.0
 11
137.5476425535921
 21
-137.236320431449
 31
0.0
  0
LINE
  5
855
330
2
100
AcDbEntity
  8
L-ZISSEN
100
AcDbLine
 10
143.5472861736789
 20
-122.7568229383548
 30
0.0
 11
143.5472861736789
 21
-124.7158179245427
 31
0.0
  0
LINE
  5
856
330
2
100
AcDbEntity
  8
L-ZISSEN
100
AcDbLine
 10
143.9500110435558
 20
-118.7353009317446
 30
0.0
 11
143.9500110435553
 21
-122.2353009317446
 31
0.0
  0
TEXT
  5
857
330
2
100
AcDbEntity
  8
L-ZISSEN
100
AcDbText
 10
106.5148437753366
 20
245.0136795685505
 30
0.0
 40
4.5
  1
P.P
100
AcDbText
  0
TEXT
  5
858
330
2
100
AcDbEntity
  8
L-ZISSEN
100
AcDbText
 10
106.5148437753366
 20
-4.986320431449485
 30
0.0
 40
4.5
  1
P.P
100
AcDbText
  0
LINE
  5
859
330
2
100
AcDbEntity
  8
L-ZISSEN
100
AcDbLine
 10
109.2348437753362
 20
224.4249406569195
 30
0.0
 11
117.6648437753369
 21
224.4249406569195
 31
0.0
  0
ARC
  5
85A
330
2
100
AcDbEntity
  8
L-ZISSEN
100
AcDbCircle
 10
134.5148437753341
 20
218.2770850872077
 30
0.0
 40
99.53938471878538
100
AcDbArc
 50
256.0937629349447
 51
263.0758486315312
  0
LINE
  5
85B
330
2
100
AcDbEntity
  8
L-ZISSEN
100
AcDbLine
 10
113.4498437753354
 20
139.9249406569181
 30
0.0
 11
109.2348437753362
 21
141.9249406569185
 31
0.0
  0
LINE
  5
85C
330
2
100
AcDbEntity
  8
L-ZISSEN
100
AcDbLine
 10
108.0148437753371
 20
-18.73530093174463
 30
0.0
 11
116.0148437753371
 21
-18.73530093174463
 31
0.0
  0
LINE
  5
85D
330
2
100
AcDbEntity
  8
L-ZISSEN
100
AcDbLine
 10
109.2348437753362
 20
224.4249406569195
 30
0.0
 11
109.2348437753362
 21
141.9249406569185
 31
0.0
  0
LINE
  5
85E
330
2
100
AcDbEntity
  8
L-ZISSEN
100
AcDbLine
 10
104.5148437753364
 20
129.4206899617367
 30
0.0
 11
104.5148437753364
 21
234.7636795685505
 31
0.0
  0
LINE
  5
85F
330
2
100
AcDbEntity
  8
L-TYUSIN
100
AcDbLine
 10
85.87025289497001
 20
-37.73530093174418
 30
0.0
 11
110.3919276046201
 21
-37.73530093174372
 31
0.0
  0
LINE
  5
860
330
2
100
AcDbEntity
  8
L-ZISSEN
100
AcDbLine
 10
100.5588591751095
 20
-32.73530093174372
 30
0.0
 11
104.0148437753371
 21
-32.73530093174372
 31
0.0
  0
LINE
  5
861
330
2
100
AcDbEntity
  8
L-ZISSEN
100
AcDbLine
 10
92.77025289496965
 20
-32.73530093174372
 30
0.0
 11
102.2702528949696
 21
-32.73530093174372
 31
0.0
  0
LINE
  5
862
330
2
100
AcDbEntity
  8
L-ZISSEN
100
AcDbLine
 10
90.87025289497001
 20
-36.54192525876965
 30
0.0
 11
90.87025289496978
 21
-39.42867660471779
 31
0.0
  0
ARC
  5
863
330
2
100
AcDbEntity
  8
L-ZISSEN
100
AcDbCircle
 10
93.18225546274721
 20
-36.51051441592585
 30
0.0
 40
2.312215931624567
100
AcDbArc
 50
100.264068372211
 51
180.7783719766075
  0
ARC
  5
864
330
2
100
AcDbEntity
  8
L-ZISSEN
100
AcDbCircle
 10
93.18225546274721
 20
-39.46008744756159
 30
0.0
 40
2.312215931624567
100
AcDbArc
 50
179.2216280233924
 51
259.735931627789
  0
LINE
  5
865
330
2
100
AcDbEntity
  8
L-ZISSEN
100
AcDbLine
 10
104.5588591751095
 20
-28.73530093174372
 30
0.0
 11
108.0148437753371
 21
-28.73530093174372
 31
0.0
  0
LINE
  5
866
330
2
100
AcDbEntity
  8
L-ZISSEN
 48
0.3
100
AcDbLine
 10
107.3680360904866
 20
-32.73530093174372
 30
0.0
 11
105.370370433716
 21
-32.73530093174372
 31
0.0
  0
LINE
  5
867
330
2
100
AcDbEntity
  8
L-ZISSEN
100
AcDbLine
 10
104.3114728403027
 20
-15.23632043144948
 30
0.0
 11
104.5588591751095
 21
-28.73530093174372
 31
0.0
  0
LINE
  5
868
330
2
100
AcDbEntity
  8
L-ZISSEN
100
AcDbLine
 10
105.2589767138563
 20
-28.73530093174372
 30
0.0
 11
105.2968305125446
 21
-32.73530093174372
 31
0.0
  0
LINE
  5
869
330
2
100
AcDbEntity
  8
L-ZISSEN
100
AcDbLine
 10
102.2702528949696
 20
-32.73530093174372
 30
0.0
 11
105.370370433716
 21
-32.73530093174372
 31
0.0
  0
LINE
  5
86A
330
2
100
AcDbEntity
  8
L-ZISSEN
100
AcDbLine
 10
108.0148437753371
 20
-18.73530093174463
 30
0.0
 11
108.0148437753371
 21
-28.73530093174372
 31
0.0
  0
ARC
  5
86B
330
2
100
AcDbEntity
  8
L-ZISSEN
100
AcDbCircle
 10
112.5148437753336
 20
129.4206899617367
 30
0.0
 40
8.000000000000113
100
AcDbArc
 50
180.0
 51
256.0937629347638
  0
ARC
  5
86C
330
2
100
AcDbEntity
  8
L-ZISSEN
100
AcDbCircle
 10
147.3273437753364
 20
196.0136795685505
 30
0.0
 40
1.249999999999715
100
AcDbArc
 50
270.0
 51
0.0
  0
LINE
  5
86D
330
2
100
AcDbEntity
  8
L-ZISSEN
100
AcDbLine
 10
143.8898437753341
 20
202.2636795685505
 30
0.0
 11
143.8898437753341
 21
194.7636795685505
 31
0.0
  0
LINE
  5
86E
330
2
100
AcDbEntity
  8
L-ZISSEN
100
AcDbLine
 10
125.1398437753364
 20
202.2636795685514
 30
0.0
 11
125.1398437753341
 21
194.7636795685505
 31
0.0
  0
ARC
  5
86F
330
2
100
AcDbEntity
  8
L-ZISSEN
100
AcDbCircle
 10
121.7023437753364
 20
196.0136795685505
 30
0.0
 40
1.250000000000568
100
AcDbArc
 50
180.0
 51
270.0
  0
LINE
  5
870
330
2
100
AcDbEntity
  8
L-ZISSEN
100
AcDbLine
 10
117.6648437753369
 20
224.4249406569195
 30
0.0
 11
117.6648437753369
 21
141.9249406569185
 31
0.0
  0
LINE
  5
871
330
2
100
AcDbEntity
  8
L-ZISSEN
100
AcDbLine
 10
159.7948437753366
 20
224.4249406569195
 30
0.0
 11
159.7948437753366
 21
141.9249406569181
 31
0.0
  0
LINE
  5
872
330
2
100
AcDbEntity
  8
L-ZISSEN
100
AcDbLine
 10
151.3648437753358
 20
224.4249406569195
 30
0.0
 11
151.3648437753358
 21
141.9249406569181
 31
0.0
  0
LINE
  5
873
330
2
100
AcDbEntity
  8
L-ZISSEN
100
AcDbLine
 10
121.7023437753364
 20
194.7636795685505
 30
0.0
 11
147.3273437753364
 21
194.7636795685505
 31
0.0
  0
LINE
  5
874
330
2
100
AcDbEntity
  8
L-ZISSEN
100
AcDbLine
 10
122.5148437753364
 20
117.9636795685512
 30
0.0
 11
146.5148437753364
 21
117.9636795685512
 31
0.0
  0
LINE
  5
875
330
2
100
AcDbEntity
  8
L-ZISSEN
100
AcDbLine
 10
122.5148437753364
 20
119.4636795685512
 30
0.0
 11
146.5148437753364
 21
119.4636795685512
 31
0.0
  0
LINE
  5
876
330
2
100
AcDbEntity
  8
L-ZISSEN
100
AcDbLine
 10
122.5148437753364
 20
115.4636795685512
 30
0.0
 11
146.5148437753364
 21
115.4636795685512
 31
0.0
  0
LINE
  5
877
330
2
100
AcDbEntity
  8
L-ZISSEN
100
AcDbLine
 10
145.5148437753364
 20
106.4636795685507
 30
0.0
 11
123.5148437753364
 21
106.4636795685507
 31
0.0
  0
LINE
  5
878
330
2
100
AcDbEntity
  8
L-ZISSEN
100
AcDbLine
 10
124.5148437753364
 20
102.9636795685507
 30
0.0
 11
144.5148437753364
 21
102.9636795685507
 31
0.0
  0
LINE
  5
879
330
2
100
AcDbEntity
  8
L-ZISSEN
100
AcDbLine
 10
124.5148437753364
 20
102.2636795685509
 30
0.0
 11
144.5148437753364
 21
102.2636795685509
 31
0.0
  0
LINE
  5
87A
330
2
100
AcDbEntity
  8
L-ZISSEN
100
AcDbLine
 10
124.5148437753364
 20
88.76367956855096
 30
0.0
 11
144.5148437753364
 21
88.76367956855096
 31
0.0
  0
LINE
  5
87B
330
2
100
AcDbEntity
  8
L-ZISSEN
100
AcDbLine
 10
137.3940937753381
 20
-25.51955093174251
 30
0.0
 11
134.514843775338
 21
-30.31830093174244
 31
0.0
  0
LINE
  5
87C
330
2
100
AcDbEntity
  8
L-ZISSEN
100
AcDbLine
 10
135.474593775338
 20
-25.51955093174251
 30
0.0
 11
137.3940937753381
 21
-25.51955093174251
 31
0.0
  0
LINE
  5
87D
330
2
100
AcDbEntity
  8
L-ZISSEN
100
AcDbLine
 10
134.5148437753364
 20
-41.83530093174318
 30
0.0
 11
145.3120312753346
 21
-38.95605093174322
 31
0.0
  0
LINE
  5
87E
330
2
100
AcDbEntity
  8
L-ZISSEN
100
AcDbLine
 10
143.6627455362622
 20
-37.95178811912342
 30
0.0
 11
134.5148437753364
 21
-39.86695617189139
 31
0.0
  0
LINE
  5
87F
330
2
100
AcDbEntity
  8
L-ZISSEN
100
AcDbLine
 10
134.5148437753364
 20
-35.7552249908424
 30
0.0
 11
143.6627455362622
 21
-34.44838188213884
 31
0.0
  0
LINE
  5
880
330
2
100
AcDbEntity
  8
L-ZISSEN
100
AcDbLine
 10
134.5148437753364
 20
-35.11705093174327
 30
0.0
 11
144.5922187753346
 21
-33.6774259317433
 31
0.0
  0
LINE
  5
881
330
2
100
AcDbEntity
  8
L-ZISSEN
100
AcDbLine
 10
146.5148437753364
 20
-15.53530093174344
 30
0.0
 11
122.5148437753364
 21
-15.53530093174344
 31
0.0
  0
LINE
  5
882
330
2
100
AcDbEntity
  8
L-ZISSEN
100
AcDbLine
 10
124.9148437753367
 20
-55.83530093174409
 30
0.0
 11
144.1148437753365
 21
-55.83530093174409
 31
0.0
  0
LINE
  5
883
330
2
100
AcDbEntity
  8
L-ZISSEN
100
AcDbLine
 10
126.9148437753367
 20
-53.83530093174318
 30
0.0
 11
142.1148437753365
 21
-53.83530093174318
 31
0.0
  0
LINE
  5
884
330
2
100
AcDbEntity
  8
L-ZISSEN
100
AcDbLine
 10
126.9148437753367
 20
-52.83530093174317
 30
0.0
 11
142.1148437753365
 21
-52.83530093174317
 31
0.0
  0
LINE
  5
885
330
2
100
AcDbEntity
  8
L-TYUSIN
100
AcDbLine
 10
126.9148437753367
 20
-49.33530093174318
 30
0.0
 11
142.1148437753365
 21
-49.33530093174318
 31
0.0
  0
LINE
  5
886
330
2
100
AcDbEntity
  8
L-ZISSEN
100
AcDbLine
 10
132.9784012161417
 20
-13.95595163212033
 30
0.0
 11
119.5148437753366
 21
-2.736320431449485
 31
0.0
  0
LINE
  5
887
330
2
100
AcDbEntity
  8
L-ZISSEN
100
AcDbLine
 10
124.0148437753362
 20
-44.83530093174408
 30
0.0
 11
126.9148437753363
 21
-44.83530093174453
 31
0.0
  0
LINE
  5
888
330
2
100
AcDbEntity
  8
L-ZISSEN
100
AcDbLine
 10
123.7176562753345
 20
-38.95605093174322
 30
0.0
 11
125.3669420144106
 21
-37.95178811912342
 31
0.0
  0
LINE
  5
889
330
2
100
AcDbEntity
  8
L-ZISSEN
100
AcDbLine
 10
125.3669420144106
 20
-33.81020782303972
 30
0.0
 11
124.4374687753345
 21
-33.6774259317433
 31
0.0
  0
LINE
  5
88A
330
2
100
AcDbEntity
  8
L-ZISSEN
100
AcDbLine
 10
125.3669420144106
 20
-34.44838188213884
 30
0.0
 11
124.4374687753345
 21
-33.6774259317433
 31
0.0
  0
LINE
  5
88B
330
2
100
AcDbEntity
  8
L-ZISSEN
100
AcDbLine
 10
134.5148437753364
 20
-41.83530093174318
 30
0.0
 11
123.7176562753345
 21
-38.95605093174322
 31
0.0
  0
LINE
  5
88C
330
2
100
AcDbEntity
  8
L-ZISSEN
100
AcDbLine
 10
134.5148437753364
 20
-35.11705093174327
 30
0.0
 11
124.4374687753345
 21
-33.6774259317433
 31
0.0
  0
LINE
  5
88D
330
2
100
AcDbEntity
  8
L-ZISSEN
100
AcDbLine
 10
119.5148437753366
 20
-2.736320431449485
 30
0.0
 11
117.5148437753366
 21
-2.736320431449485
 31
0.0
  0
LINE
  5
88E
330
2
100
AcDbEntity
  8
L-ZISSEN
100
AcDbLine
 10
116.0148437753371
 20
-28.73530093174281
 30
0.0
 11
123.0148437753371
 21
-28.73530093174281
 31
0.0
  0
LINE
  5
88F
330
2
100
AcDbEntity
  8
L-ZISSEN
100
AcDbLine
 10
116.0148437753371
 20
-18.73530093174463
 30
0.0
 11
116.0148437753371
 21
-28.73530093174372
 31
0.0
  0
LINE
  5
890
330
2
100
AcDbEntity
  8
L-ZISSEN
100
AcDbLine
 10
123.5148437753362
 20
-15.53530093174344
 30
0.0
 11
123.5148437753362
 21
-44.33530093174408
 31
0.0
  0
LINE
  5
891
330
2
100
AcDbEntity
  8
L-ZISSEN
100
AcDbLine
 10
123.7176562753347
 20
-15.53530093174344
 30
0.0
 11
123.7176562753345
 21
-38.95605093174322
 31
0.0
  0
LINE
  5
892
330
2
100
AcDbEntity
  8
L-ZISSEN
100
AcDbLine
 10
124.4374687753345
 20
-15.53530093174344
 30
0.0
 11
124.4374687753345
 21
-33.6774259317433
 31
0.0
  0
LINE
  5
893
330
2
100
AcDbEntity
  8
L-ZISSEN
100
AcDbLine
 10
122.5148437753366
 20
-15.23632043144948
 30
0.0
 11
122.5148437753364
 21
-15.53530093174344
 31
0.0
  0
LINE
  5
894
330
2
100
AcDbEntity
  8
L-ZISSEN
100
AcDbLine
 10
122.2148437753369
 20
-20.23530093174463
 30
0.0
 11
122.2148437753369
 21
-28.73530093174281
 31
0.0
  0
LINE
  5
895
330
2
100
AcDbEntity
  8
L-ZISSEN
100
AcDbLine
 10
122.2148437753369
 20
-20.23530093174463
 30
0.0
 11
123.5148437753362
 21
-20.23530093174463
 31
0.0
  0
ARC
  5
896
330
2
100
AcDbEntity
  8
L-ZISSEN
100
AcDbCircle
 10
124.0148437753362
 20
-44.33530093174408
 30
0.0
 40
0.5
100
AcDbArc
 50
180.0
 51
270.0
  0
LINE
  5
897
330
2
100
AcDbEntity
  8
L-ZISSEN
100
AcDbLine
 10
122.2148437753369
 20
-28.73530093174281
 30
0.0
 11
123.5148437753362
 21
-28.73530093174281
 31
0.0
  0
LINE
  5
898
330
2
100
AcDbEntity
  8
L-ZISSEN
100
AcDbLine
 10
132.1154687753364
 20
-20.72080093174349
 30
0.0
 11
128.2764687753362
 21
-20.72080093174349
 31
0.0
  0
LINE
  5
899
330
2
100
AcDbEntity
  8
L-ZISSEN
100
AcDbLine
 10
132.1154687753364
 20
-20.72080093174349
 30
0.0
 11
128.2764687753362
 21
-20.72080093174349
 31
0.0
  0
LINE
  5
89A
330
2
100
AcDbEntity
  8
L-ZISSEN
100
AcDbLine
 10
132.1154687753364
 20
-19.76105093174351
 30
0.0
 11
128.2764687753362
 21
-19.76105093174351
 31
0.0
  0
LINE
  5
89B
330
2
100
AcDbEntity
  8
L-ZISSEN
100
AcDbLine
 10
132.1154687753364
 20
-19.76105093174351
 30
0.0
 11
128.2764687753362
 21
-19.76105093174351
 31
0.0
  0
CIRCLE
  5
89C
330
2
100
AcDbEntity
  8
L-ZISSEN
100
AcDbCircle
 10
130.2648437753362
 20
-49.33530093174318
 30
0.0
 40
2.0
  0
LINE
  5
89D
330
2
100
AcDbEntity
  8
L-ZISSEN
100
AcDbLine
 10
125.3669420144106
 20
-37.95178811912342
 30
0.0
 11
134.5148437753364
 21
-39.86695617189139
 31
0.0
  0
LINE
  5
89E
330
2
100
AcDbEntity
  8
L-ZISSEN
100
AcDbLine
 10
134.5148437753364
 20
-35.7552249908424
 30
0.0
 11
125.3669420144106
 21
-34.44838188213884
 31
0.0
  0
LINE
  5
89F
330
2
100
AcDbEntity
  8
L-ZISSEN
100
AcDbLine
 10
128.2764687753362
 20
-18.80130093174352
 30
0.0
 11
125.8770937753363
 21
-20.2409259317435
 31
0.0
  0
LINE
  5
8A0
330
2
100
AcDbEntity
  8
L-ZISSEN
100
AcDbLine
 10
128.2764687753362
 20
-19.76105093174351
 30
0.0
 11
128.2764687753362
 21
-18.80130093174352
 31
0.0
  0
LINE
  5
8A1
330
2
100
AcDbEntity
  8
L-ZISSEN
100
AcDbLine
 10
128.2764687753362
 20
-21.68055093174348
 30
0.0
 11
125.8770937753363
 21
-20.2409259317435
 31
0.0
  0
LINE
  5
8A2
330
2
100
AcDbEntity
  8
L-ZISSEN
100
AcDbLine
 10
128.2764687753362
 20
-20.72080093174349
 30
0.0
 11
128.2764687753362
 21
-21.68055093174348
 31
0.0
  0
LINE
  5
8A3
330
2
100
AcDbEntity
  8
L-TYUSIN
100
AcDbLine
 10
130.2648437753362
 20
-46.08530093174318
 30
0.0
 11
130.2648437753362
 21
-52.58530093174318
 31
0.0
  0
LINE
  5
8A4
330
2
100
AcDbEntity
  8
L-ZISSEN
100
AcDbLine
 10
124.9148437753358
 20
-44.83530093174318
 30
0.0
 11
124.9148437753367
 21
-55.83530093174317
 31
0.0
  0
LINE
  5
8A5
330
2
100
AcDbEntity
  8
L-ZISSEN
100
AcDbLine
 10
126.9148437753363
 20
-39.80863426507744
 30
0.0
 11
126.9148437753367
 21
-53.83530093174318
 31
0.0
  0
LINE
  5
8A6
330
2
100
AcDbEntity
  8
L-ZISSEN
100
AcDbLine
 10
125.3669420144106
 20
-34.44838188213884
 30
0.0
 11
125.3669420144106
 21
-37.95178811912342
 31
0.0
  0
SOLID
  5
8A7
330
2
100
AcDbEntity
  8
L-ZISSEN
100
AcDbTrace
 10
132.7650064162535
 20
-14.21202539198634
 30
0.0
 11
133.1917960160299
 21
-13.69987787225477
 31
0.0
 12
134.5148437753364
 22
-15.23632043144948
 32
0.0
 13
134.5148437753364
 23
-15.23632043144948
 33
0.0
  0
LINE
  5
8A8
330
2
100
AcDbEntity
  8
L-ZISSEN
100
AcDbLine
 10
135.474593775338
 20
-17.84155093174263
 30
0.0
 11
133.555093775338
 21
-17.84155093174263
 31
0.0
  0
ARC
  5
8A9
330
2
100
AcDbEntity
  8
L-ZISSEN
100
AcDbCircle
 10
134.5148437753366
 20
-43.58530093174318
 30
0.0
 40
1.25
100
AcDbArc
 50
180.0
 51
0.0
  0
LINE
  5
8AA
330
2
100
AcDbEntity
  8
L-ZISSEN
100
AcDbLine
 10
133.2648437753366
 20
-43.58530093174318
 30
0.0
 11
133.2648437753366
 21
-41.50196759841015
 31
0.0
  0
LINE
  5
8AB
330
2
100
AcDbEntity
  8
L-ZISSEN
100
AcDbLine
 10
133.555093775338
 20
-17.84155093174263
 30
0.0
 11
133.555093775338
 21
-25.51955093174251
 31
0.0
  0
LINE
  5
8AC
330
2
100
AcDbEntity
  8
L-ZISSEN
100
AcDbLine
 10
133.555093775338
 20
-17.84155093174263
 30
0.0
 11
133.555093775338
 21
-25.51955093174251
 31
0.0
  0
LINE
  5
8AD
330
2
100
AcDbEntity
  8
L-ZISSEN
100
AcDbLine
 10
134.5148437753364
 20
-35.11705093174327
 30
0.0
 11
134.5148437753364
 21
-35.7552249908424
 31
0.0
  0
LINE
  5
8AE
330
2
100
AcDbEntity
  8
L-ZISSEN
100
AcDbLine
 10
135.7648437753366
 20
-43.58530093174318
 30
0.0
 11
135.7648437753366
 21
-41.50196759841015
 31
0.0
  0
LINE
  5
8AF
330
2
100
AcDbEntity
  8
L-ZISSEN
100
AcDbLine
 10
135.474593775338
 20
-17.84155093174263
 30
0.0
 11
135.474593775338
 21
-25.51955093174251
 31
0.0
  0
LINE
  5
8B0
330
2
100
AcDbEntity
  8
L-ZISSEN
100
AcDbLine
 10
135.474593775338
 20
-17.84155093174263
 30
0.0
 11
135.474593775338
 21
-25.51955093174251
 31
0.0
  0
LINE
  5
8B1
330
2
100
AcDbEntity
  8
L-ZISSEN
100
AcDbLine
 10
132.1154687753364
 20
-19.76105093174351
 30
0.0
 11
132.1154687753364
 21
-20.72080093174349
 31
0.0
  0
LINE
  5
8B2
330
2
100
AcDbEntity
  8
L-ZISSEN
100
AcDbLine
 10
131.635593775338
 20
-25.51955093174251
 30
0.0
 11
134.514843775338
 21
-30.31830093174244
 31
0.0
  0
LINE
  5
8B3
330
2
100
AcDbEntity
  8
L-ZISSEN
100
AcDbLine
 10
133.555093775338
 20
-25.51955093174251
 30
0.0
 11
131.635593775338
 21
-25.51955093174251
 31
0.0
  0
LINE
  5
8B4
330
2
100
AcDbEntity
  8
L-ZISSEN
100
AcDbLine
 10
122.5148437753364
 20
115.4636795685512
 30
0.0
 11
122.5148437753364
 21
119.4636795685512
 31
0.0
  0
LINE
  5
8B5
330
2
100
AcDbEntity
  8
L-ZISSEN
100
AcDbLine
 10
124.5148437753364
 20
102.9636795685507
 30
0.0
 11
124.5148437753364
 21
106.4636795685507
 31
0.0
  0
LINE
  5
8B6
330
2
100
AcDbEntity
  8
L-ZISSEN
100
AcDbLine
 10
124.5148437753364
 20
88.76367956855096
 30
0.0
 11
124.5148437753364
 21
102.2636795685509
 31
0.0
  0
LINE
  5
8B7
330
2
100
AcDbEntity
  8
L-ZISSEN
100
AcDbLine
 10
123.5148437753364
 20
115.4636795685507
 30
0.0
 11
123.5148437753364
 21
106.4636795685507
 31
0.0
  0
LINE
  5
8B8
330
2
100
AcDbEntity
  8
L-ZISSEN
100
AcDbLine
 10
117.6648437753369
 20
141.9249406569181
 30
0.0
 11
113.4498437753354
 21
139.9249406569181
 31
0.0
  0
LINE
  5
8B9
330
2
100
AcDbEntity
  8
L-ZISSEN
100
AcDbLine
 10
125.5148437753364
 20
102.2636795685509
 30
0.0
 11
125.5148437753368
 21
102.9636795685507
 31
0.0
  0
LINE
  5
8BA
330
2
100
AcDbEntity
  8
L-ZISSEN
100
AcDbLine
 10
153.0148437753371
 20
-28.7353009317419
 30
0.0
 11
146.0148437753371
 21
-28.73530093174281
 31
0.0
  0
LINE
  5
8BB
330
2
100
AcDbEntity
  8
L-ZISSEN
100
AcDbLine
 10
142.1148437753365
 20
-44.83530093174453
 30
0.0
 11
145.0148437753361
 21
-44.83530093174408
 31
0.0
  0
LINE
  5
8BC
330
2
100
AcDbEntity
  8
L-ZISSEN
100
AcDbLine
 10
140.7532187753365
 20
-18.80130093174261
 30
0.0
 11
143.1525937753365
 21
-20.24092593174259
 31
0.0
  0
LINE
  5
8BD
330
2
100
AcDbEntity
  8
L-ZISSEN
100
AcDbLine
 10
140.7532187753365
 20
-21.68055093174257
 30
0.0
 11
143.1525937753365
 21
-20.24092593174259
 31
0.0
  0
LINE
  5
8BE
330
2
100
AcDbEntity
  8
L-ZISSEN
100
AcDbLine
 10
140.7532187753365
 20
-19.7610509317426
 30
0.0
 11
140.7532187753365
 21
-18.80130093174261
 31
0.0
  0
LINE
  5
8BF
330
2
100
AcDbEntity
  8
L-ZISSEN
100
AcDbLine
 10
140.7532187753365
 20
-20.72080093174258
 30
0.0
 11
140.7532187753365
 21
-21.68055093174257
 31
0.0
  0
LINE
  5
8C0
330
2
100
AcDbEntity
  8
L-ZISSEN
100
AcDbLine
 10
136.9142187753364
 20
-19.7610509317426
 30
0.0
 11
136.9142187753364
 21
-20.72080093174258
 31
0.0
  0
LINE
  5
8C1
330
2
100
AcDbEntity
  8
L-ZISSEN
100
AcDbLine
 10
136.9142187753364
 20
-20.72080093174258
 30
0.0
 11
140.7532187753365
 21
-20.72080093174258
 31
0.0
  0
LINE
  5
8C2
330
2
100
AcDbEntity
  8
L-ZISSEN
100
AcDbLine
 10
136.9142187753364
 20
-20.72080093174258
 30
0.0
 11
140.7532187753365
 21
-20.72080093174258
 31
0.0
  0
LINE
  5
8C3
330
2
100
AcDbEntity
  8
L-ZISSEN
100
AcDbLine
 10
136.9142187753364
 20
-19.7610509317426
 30
0.0
 11
140.7532187753365
 21
-19.7610509317426
 31
0.0
  0
LINE
  5
8C4
330
2
100
AcDbEntity
  8
L-ZISSEN
100
AcDbLine
 10
136.9142187753364
 20
-19.7610509317426
 30
0.0
 11
140.7532187753365
 21
-19.7610509317426
 31
0.0
  0
LINE
  5
8C5
330
2
100
AcDbEntity
  8
L-ZISSEN
100
AcDbLine
 10
142.1148437753365
 20
-39.80863426507653
 30
0.0
 11
142.1148437753365
 21
-53.83530093174318
 31
0.0
  0
LINE
  5
8C6
330
2
100
AcDbEntity
  8
L-TYUSIN
100
AcDbLine
 10
138.7648437753371
 20
-46.08530093174318
 30
0.0
 11
138.7648437753371
 21
-52.58530093174318
 31
0.0
  0
CIRCLE
  5
8C7
330
2
100
AcDbEntity
  8
L-ZISSEN
100
AcDbCircle
 10
138.7648437753371
 20
-49.33530093174318
 30
0.0
 40
2.0
  0
LINE
  5
8C8
330
2
100
AcDbEntity
  8
L-ZISSEN
100
AcDbLine
 10
146.5148437753362
 20
-15.23632043144903
 30
0.0
 11
146.5148437753362
 21
-15.53530093174344
 31
0.0
  0
LINE
  5
8C9
330
2
100
AcDbEntity
  8
L-ZISSEN
100
AcDbLine
 10
146.8148437753372
 20
-20.23530093174463
 30
0.0
 11
145.5148437753362
 21
-20.23530093174463
 31
0.0
  0
LINE
  5
8CA
330
2
100
AcDbEntity
  8
L-ZISSEN
100
AcDbLine
 10
144.1148437753365
 20
-44.83530093174318
 30
0.0
 11
144.1148437753365
 21
-55.83530093174409
 31
0.0
  0
ARC
  5
8CB
330
2
100
AcDbEntity
  8
L-ZISSEN
100
AcDbCircle
 10
145.0148437753361
 20
-44.33530093174408
 30
0.0
 40
0.5
100
AcDbArc
 50
270.0
 51
0.0
  0
LINE
  5
8CC
330
2
100
AcDbEntity
  8
L-ZISSEN
100
AcDbLine
 10
146.8148437753363
 20
-28.73530093174281
 30
0.0
 11
145.5148437753362
 21
-28.73530093174281
 31
0.0
  0
LINE
  5
8CD
330
2
100
AcDbEntity
  8
L-ZISSEN
100
AcDbLine
 10
146.8148437753363
 20
-28.73530093174281
 30
0.0
 11
145.5148437753362
 21
-28.73530093174372
 31
0.0
  0
LINE
  5
8CE
330
2
100
AcDbEntity
  8
L-ZISSEN
100
AcDbLine
 10
143.6627455362622
 20
-34.44838188213884
 30
0.0
 11
143.6627455362622
 21
-37.95178811912342
 31
0.0
  0
LINE
  5
8CF
330
2
100
AcDbEntity
  8
L-ZISSEN
100
AcDbLine
 10
145.3120312753346
 20
-38.95605093174322
 30
0.0
 11
143.6627455362622
 21
-37.95178811912342
 31
0.0
  0
LINE
  5
8D0
330
2
100
AcDbEntity
  8
L-ZISSEN
100
AcDbLine
 10
143.6627455362622
 20
-34.44838188213884
 30
0.0
 11
144.5922187753346
 21
-33.6774259317433
 31
0.0
  0
LINE
  5
8D1
330
2
100
AcDbEntity
  8
L-ZISSEN
100
AcDbLine
 10
143.6627455362622
 20
-33.81020782303972
 30
0.0
 11
144.5922187753346
 21
-33.6774259317433
 31
0.0
  0
LINE
  5
8D2
330
2
100
AcDbEntity
  8
L-ZISSEN
100
AcDbLine
 10
145.5148437753362
 20
-15.53530093174344
 30
0.0
 11
145.5148437753362
 21
-44.33530093174408
 31
0.0
  0
LINE
  5
8D3
330
2
100
AcDbEntity
  8
L-ZISSEN
100
AcDbLine
 10
145.3120312753346
 20
-15.53530093174344
 30
0.0
 11
145.3120312753346
 21
-38.95605093174322
 31
0.0
  0
LINE
  5
8D4
330
2
100
AcDbEntity
  8
L-ZISSEN
100
AcDbLine
 10
144.5922187753346
 20
-15.53530093174344
 30
0.0
 11
144.5922187753346
 21
-33.6774259317433
 31
0.0
  0
LINE
  5
8D5
330
2
100
AcDbEntity
  8
L-ZISSEN
100
AcDbLine
 10
146.8148437753372
 20
-20.23530093174463
 30
0.0
 11
146.8148437753363
 21
-28.73530093174281
 31
0.0
  0
LINE
  5
8D6
330
2
100
AcDbEntity
  8
L-ZISSEN
100
AcDbLine
 10
153.0148437753362
 20
-18.73530093174281
 30
0.0
 11
158.5261982135946
 21
-18.73530093174463
 31
0.0
  0
LINE
  5
8D7
330
2
100
AcDbEntity
  8
L-ZISSEN
100
AcDbLine
 10
153.0148437753371
 20
-18.73530093174281
 30
0.0
 11
153.0148437753371
 21
-28.7353009317419
 31
0.0
  0
LINE
  5
8D8
330
2
100
AcDbEntity
  8
L-ZISSEN
100
AcDbLine
 10
158.5261982135946
 20
-18.73530093174463
 30
0.0
 11
158.5261982135946
 21
-28.7353009317419
 31
0.0
  0
ARC
  5
8D9
330
2
100
AcDbEntity
  8
L-ZISSEN
100
AcDbCircle
 10
134.5148437753341
 20
218.2770850872077
 30
0.0
 40
99.53938471878515
100
AcDbArc
 50
276.9241513684686
 51
283.9062370650418
  0
LINE
  5
8DA
330
2
100
AcDbEntity
  8
L-ZISSEN
100
AcDbLine
 10
146.5148437753364
 20
115.4636795685512
 30
0.0
 11
146.5148437753364
 21
119.4636795685512
 31
0.0
  0
LINE
  5
8DB
330
2
100
AcDbEntity
  8
L-ZISSEN
100
AcDbLine
 10
143.5148437753368
 20
102.2636795685509
 30
0.0
 11
143.5148437753364
 21
102.9636795685507
 31
0.0
  0
LINE
  5
8DC
330
2
100
AcDbEntity
  8
L-ZISSEN
100
AcDbLine
 10
144.5148437753364
 20
102.9636795685507
 30
0.0
 11
144.5148437753366
 21
106.4636795685507
 31
0.0
  0
LINE
  5
8DD
330
2
100
AcDbEntity
  8
L-ZISSEN
100
AcDbLine
 10
144.5148437753364
 20
88.76367956855096
 30
0.0
 11
144.5148437753364
 21
102.2636795685509
 31
0.0
  0
LINE
  5
8DE
330
2
100
AcDbEntity
  8
L-ZISSEN
100
AcDbLine
 10
145.5148437753364
 20
115.4636795685507
 30
0.0
 11
145.5148437753364
 21
106.4636795685507
 31
0.0
  0
LINE
  5
8DF
330
2
100
AcDbEntity
  8
L-ZISSEN
100
AcDbLine
 10
151.3648437753358
 20
141.9249406569181
 30
0.0
 11
155.5798437753374
 21
139.9249406569181
 31
0.0
  0
LINE
  5
8E0
330
2
100
AcDbEntity
  8
L-ZISSEN
100
AcDbLine
 10
155.5798437753374
 20
139.9249406569181
 30
0.0
 11
159.7948437753366
 21
141.9249406569185
 31
0.0
  0
LINE
  5
8E1
330
2
100
AcDbEntity
  8
L-ZISSEN
100
AcDbLine
 10
138.2648437753386
 20
221.0136795685518
 30
0.0
 11
134.5148437753387
 21
214.7636795685518
 31
0.0
  0
LINE
  5
8E2
330
2
100
AcDbEntity
  8
L-ZISSEN
100
AcDbLine
 10
135.7648437753387
 20
221.0136795685518
 30
0.0
 11
138.2648437753386
 21
221.0136795685518
 31
0.0
  0
LINE
  5
8E3
330
2
100
AcDbEntity
  8
L-ZISSEN
100
AcDbLine
 10
134.5148437753364
 20
208.5136795685505
 30
0.0
 11
147.6398437753341
 21
210.3886795685505
 31
0.0
  0
LINE
  5
8E4
330
2
100
AcDbEntity
  8
L-ZISSEN
100
AcDbLine
 10
134.5148437753364
 20
207.6825073113234
 30
0.0
 11
146.4292769101707
 21
209.3845691877279
 31
0.0
  0
LINE
  5
8E5
330
2
100
AcDbEntity
  8
L-ZISSEN
100
AcDbLine
 10
146.4292769101707
 20
204.821654057506
 30
0.0
 11
134.5148437753364
 21
202.3272960830752
 31
0.0
  0
LINE
  5
8E6
330
2
100
AcDbEntity
  8
L-ZISSEN
100
AcDbLine
 10
134.5148437753364
 20
199.7636795685505
 30
0.0
 11
148.5773437753341
 21
203.5136795685505
 31
0.0
  0
LINE
  5
8E7
330
2
100
AcDbEntity
  8
L-ZISSEN
100
AcDbLine
 10
132.9784012161417
 20
236.0440483678796
 30
0.0
 11
119.5148437753366
 21
247.2636795685505
 31
0.0
  0
LINE
  5
8E8
330
2
100
AcDbEntity
  8
L-ZISSEN
100
AcDbLine
 10
126.3898437753364
 20
226.0136795685505
 30
0.0
 11
123.2648437753364
 21
227.8886795685505
 31
0.0
  0
LINE
  5
8E9
330
2
100
AcDbEntity
  8
L-ZISSEN
100
AcDbLine
 10
126.3898437753364
 20
229.7636795685505
 30
0.0
 11
123.2648437753364
 21
227.8886795685505
 31
0.0
  0
LINE
  5
8EA
330
2
100
AcDbEntity
  8
L-ZISSEN
100
AcDbLine
 10
134.5148437753364
 20
199.7636795685505
 30
0.0
 11
120.4523437753341
 21
203.5136795685505
 31
0.0
  0
LINE
  5
8EB
330
2
100
AcDbEntity
  8
L-ZISSEN
100
AcDbLine
 10
134.5148437753364
 20
207.6825073113234
 30
0.0
 11
122.6004106405021
 21
209.3845691877279
 31
0.0
  0
LINE
  5
8EC
330
2
100
AcDbEntity
  8
L-ZISSEN
100
AcDbLine
 10
122.6004106405021
 20
204.821654057506
 30
0.0
 11
134.5148437753364
 21
202.3272960830752
 31
0.0
  0
LINE
  5
8ED
330
2
100
AcDbEntity
  8
L-ZISSEN
100
AcDbLine
 10
134.5148437753364
 20
208.5136795685505
 30
0.0
 11
121.3898437753341
 21
210.3886795685505
 31
0.0
  0
LINE
  5
8EE
330
2
100
AcDbEntity
  8
L-ZISSEN
100
AcDbLine
 10
119.5148437753366
 20
247.2636795685505
 30
0.0
 11
117.5148437753366
 21
247.2636795685505
 31
0.0
  0
LINE
  5
8EF
330
2
100
AcDbEntity
  8
L-ZISSEN
100
AcDbLine
 10
121.3898437753341
 20
234.7636795685505
 30
0.0
 11
121.3898437753341
 21
210.3886795685505
 31
0.0
  0
LINE
  5
8F0
330
2
100
AcDbEntity
  8
L-ZISSEN
100
AcDbLine
 10
122.6004106405021
 20
209.3845691877279
 30
0.0
 11
122.6004106405021
 21
204.821654057506
 31
0.0
  0
LINE
  5
8F1
330
2
100
AcDbEntity
  8
L-ZISSEN
100
AcDbLine
 10
122.6004106405021
 20
209.3845691877279
 30
0.0
 11
121.3898437753341
 21
210.3886795685505
 31
0.0
  0
LINE
  5
8F2
330
2
100
AcDbEntity
  8
L-ZISSEN
100
AcDbLine
 10
122.6004106405021
 20
210.2157414449554
 30
0.0
 11
121.3898437753341
 21
210.3886795685505
 31
0.0
  0
LINE
  5
8F3
330
2
100
AcDbEntity
  8
L-ZISSEN
100
AcDbLine
 10
120.4523437753341
 20
234.7636795685505
 30
0.0
 11
120.4523437753341
 21
210.9744042014178
 31
0.0
  0
LINE
  5
8F4
330
2
100
AcDbEntity
  8
L-ZISSEN
100
AcDbLine
 10
120.4523437753341
 20
234.7636795685505
 30
0.0
 11
120.4523437753341
 21
196.0136795685505
 31
0.0
  0
LINE
  5
8F5
330
2
100
AcDbEntity
  8
L-ZISSEN
100
AcDbLine
 10
120.4523437753341
 20
203.5136795685505
 30
0.0
 11
122.6004106405021
 21
204.821654057506
 31
0.0
  0
LINE
  5
8F6
330
2
100
AcDbEntity
  8
L-ZISSEN
100
AcDbLine
 10
131.3898437753364
 20
228.5136795685505
 30
0.0
 11
126.3898437753364
 21
228.5136795685505
 31
0.0
  0
LINE
  5
8F7
330
2
100
AcDbEntity
  8
L-ZISSEN
100
AcDbLine
 10
131.3898437753364
 20
228.5136795685505
 30
0.0
 11
126.3898437753364
 21
228.5136795685505
 31
0.0
  0
LINE
  5
8F8
330
2
100
AcDbEntity
  8
L-ZISSEN
100
AcDbLine
 10
131.3898437753364
 20
227.2636795685505
 30
0.0
 11
126.3898437753364
 21
227.2636795685505
 31
0.0
  0
LINE
  5
8F9
330
2
100
AcDbEntity
  8
L-ZISSEN
100
AcDbLine
 10
131.3898437753364
 20
227.2636795685505
 30
0.0
 11
126.3898437753364
 21
227.2636795685505
 31
0.0
  0
LINE
  5
8FA
330
2
100
AcDbEntity
  8
L-ZISSEN
100
AcDbLine
 10
126.3898437753364
 20
227.2636795685505
 30
0.0
 11
126.3898437753364
 21
226.0136795685505
 31
0.0
  0
LINE
  5
8FB
330
2
100
AcDbEntity
  8
L-ZISSEN
100
AcDbLine
 10
126.3898437753364
 20
228.5136795685505
 30
0.0
 11
126.3898437753364
 21
229.7636795685505
 31
0.0
  0
SOLID
  5
8FC
330
2
100
AcDbEntity
  8
L-ZISSEN
100
AcDbTrace
 10
132.7650064162535
 20
235.7879746080136
 30
0.0
 11
133.1917960160299
 21
236.3001221277452
 31
0.0
 12
134.5148437753364
 22
234.7636795685505
 32
0.0
 13
134.5148437753364
 23
234.7636795685505
 33
0.0
  0
LINE
  5
8FD
330
2
100
AcDbEntity
  8
L-ZISSEN
100
AcDbLine
 10
133.2648437753387
 20
221.0136795685518
 30
0.0
 11
130.7648437753387
 21
221.0136795685518
 31
0.0
  0
LINE
  5
8FE
330
2
100
AcDbEntity
  8
L-ZISSEN
100
AcDbLine
 10
130.7648437753387
 20
221.0136795685518
 30
0.0
 11
134.5148437753387
 21
214.7636795685518
 31
0.0
  0
LINE
  5
8FF
330
2
100
AcDbEntity
  8
L-ZISSEN
100
AcDbLine
 10
134.5148437753364
 20
208.5136795685505
 30
0.0
 11
134.5148437753364
 21
207.6825073113234
 31
0.0
  0
LINE
  5
900
330
2
100
AcDbEntity
  8
L-ZISSEN
100
AcDbLine
 10
134.5148437753364
 20
199.7636795685505
 30
0.0
 11
134.5148437753364
 21
202.3272960830752
 31
0.0
  0
LINE
  5
901
330
2
100
AcDbEntity
  8
L-ZISSEN
100
AcDbLine
 10
135.7648437753364
 20
200.0970129018844
 30
0.0
 11
135.7648437753364
 21
198.5136795685505
 31
0.0
  0
LINE
  5
902
330
2
100
AcDbEntity
  8
L-ZISSEN
100
AcDbLine
 10
135.7648437753387
 20
231.0136795685518
 30
0.0
 11
135.7648437753387
 21
221.0136795685518
 31
0.0
  0
LINE
  5
903
330
2
100
AcDbEntity
  8
L-ZISSEN
100
AcDbLine
 10
135.7648437753387
 20
231.0136795685518
 30
0.0
 11
135.7648437753387
 21
221.0136795685518
 31
0.0
  0
LINE
  5
904
330
2
100
AcDbEntity
  8
L-ZISSEN
100
AcDbLine
 10
133.2648437753341
 20
200.0970129018849
 30
0.0
 11
133.2648437753364
 21
198.5136795685505
 31
0.0
  0
LINE
  5
905
330
2
100
AcDbEntity
  8
L-ZISSEN
100
AcDbLine
 10
131.3898437753364
 20
228.5136795685505
 30
0.0
 11
131.3898437753364
 21
227.2636795685505
 31
0.0
  0
LINE
  5
906
330
2
100
AcDbEntity
  8
L-ZISSEN
100
AcDbLine
 10
133.2648437753387
 20
231.0136795685518
 30
0.0
 11
133.2648437753387
 21
221.0136795685518
 31
0.0
  0
LINE
  5
907
330
2
100
AcDbEntity
  8
L-ZISSEN
100
AcDbLine
 10
133.2648437753387
 20
231.0136795685518
 30
0.0
 11
133.2648437753387
 21
221.0136795685518
 31
0.0
  0
LINE
  5
908
330
2
100
AcDbEntity
  8
L-ZISSEN
100
AcDbLine
 10
135.7648437753387
 20
231.0136795685518
 30
0.0
 11
133.2648437753387
 21
231.0136795685518
 31
0.0
  0
LINE
  5
909
330
2
100
AcDbEntity
  8
L-TYUSIN
100
AcDbLine
 10
132.3280502127813
 20
204.7672248673773
 30
0.0
 11
136.5228301876932
 21
204.7672248673773
 31
0.0
  0
CIRCLE
  5
90A
330
2
100
AcDbEntity
  8
L-ZISSEN
100
AcDbCircle
 10
134.5148437753364
 20
204.7672248673773
 30
0.0
 40
1.25
  0
ARC
  5
90B
330
2
100
AcDbEntity
  8
L-ZISSEN
100
AcDbCircle
 10
134.5148437753364
 20
198.5136795685505
 30
0.0
 40
1.250000000000568
100
AcDbArc
 50
180.0
 51
0.0
  0
LINE
  5
90C
330
2
100
AcDbEntity
  8
L-ZISSEN
100
AcDbLine
 10
148.5773437753341
 20
203.5136795685505
 30
0.0
 11
146.4292769101707
 21
204.821654057506
 31
0.0
  0
LINE
  5
90D
330
2
100
AcDbEntity
  8
L-ZISSEN
100
AcDbLine
 10
137.6398437753364
 20
228.5136795685514
 30
0.0
 11
142.6398437753364
 21
228.5136795685514
 31
0.0
  0
LINE
  5
90E
330
2
100
AcDbEntity
  8
L-ZISSEN
100
AcDbLine
 10
137.6398437753364
 20
228.5136795685514
 30
0.0
 11
142.6398437753364
 21
228.5136795685514
 31
0.0
  0
LINE
  5
90F
330
2
100
AcDbEntity
  8
L-ZISSEN
100
AcDbLine
 10
137.6398437753364
 20
227.2636795685514
 30
0.0
 11
142.6398437753364
 21
227.2636795685514
 31
0.0
  0
LINE
  5
910
330
2
100
AcDbEntity
  8
L-ZISSEN
100
AcDbLine
 10
137.6398437753364
 20
227.2636795685514
 30
0.0
 11
142.6398437753364
 21
227.2636795685514
 31
0.0
  0
LINE
  5
911
330
2
100
AcDbEntity
  8
L-ZISSEN
100
AcDbLine
 10
137.6398437753364
 20
228.5136795685514
 30
0.0
 11
137.6398437753364
 21
227.2636795685514
 31
0.0
  0
LINE
  5
912
330
2
100
AcDbEntity
  8
L-ZISSEN
100
AcDbLine
 10
147.6398437753341
 20
234.7636795685505
 30
0.0
 11
147.6398437753341
 21
210.3886795685505
 31
0.0
  0
LINE
  5
913
330
2
100
AcDbEntity
  8
L-ZISSEN
100
AcDbLine
 10
146.4292769101707
 20
209.3845691877279
 30
0.0
 11
146.4292769101707
 21
204.821654057506
 31
0.0
  0
LINE
  5
914
330
2
100
AcDbEntity
  8
L-ZISSEN
100
AcDbLine
 10
146.4292769101707
 20
210.2157414449554
 30
0.0
 11
147.6398437753341
 21
210.3886795685505
 31
0.0
  0
LINE
  5
915
330
2
100
AcDbEntity
  8
L-ZISSEN
100
AcDbLine
 10
146.4292769101707
 20
209.3845691877279
 30
0.0
 11
147.6398437753341
 21
210.3886795685505
 31
0.0
  0
LINE
  5
916
330
2
100
AcDbEntity
  8
L-ZISSEN
100
AcDbLine
 10
142.6398437753364
 20
227.2636795685514
 30
0.0
 11
142.6398437753364
 21
226.0136795685514
 31
0.0
  0
LINE
  5
917
330
2
100
AcDbEntity
  8
L-ZISSEN
100
AcDbLine
 10
142.6398437753364
 20
226.0136795685514
 30
0.0
 11
145.7648437753364
 21
227.8886795685514
 31
0.0
  0
LINE
  5
918
330
2
100
AcDbEntity
  8
L-ZISSEN
100
AcDbLine
 10
142.6398437753364
 20
228.5136795685514
 30
0.0
 11
142.6398437753364
 21
229.7636795685514
 31
0.0
  0
LINE
  5
919
330
2
100
AcDbEntity
  8
L-ZISSEN
100
AcDbLine
 10
142.6398437753364
 20
229.7636795685514
 30
0.0
 11
145.7648437753364
 21
227.8886795685514
 31
0.0
  0
LINE
  5
91A
330
2
100
AcDbEntity
  8
L-ZISSEN
100
AcDbLine
 10
159.7948437753366
 20
224.4249406569195
 30
0.0
 11
151.3648437753358
 21
224.4249406569195
 31
0.0
  0
LINE
  5
91B
330
2
100
AcDbEntity
  8
L-ZISSEN
100
AcDbLine
 10
148.5773437753341
 20
234.7636795685505
 30
0.0
 11
148.5773437753341
 21
210.9744042014178
 31
0.0
  0
LINE
  5
91C
330
2
100
AcDbEntity
  8
L-ZISSEN
100
AcDbLine
 10
148.5773437753341
 20
234.7636795685505
 30
0.0
 11
148.5773437753341
 21
196.0136795685505
 31
0.0
  0
LINE
  5
91D
330
2
100
AcDbEntity
  8
L-ZISSEN
100
AcDbLine
 10
163.7707108368179
 20
-28.73530093174372
 30
0.0
 11
162.0548498348409
 21
-107.980894262683
 31
0.0
  0
LINE
  5
91E
330
2
100
AcDbEntity
  8
L-ZISSEN
100
AcDbLine
 10
164.5148437753336
 20
129.4206899617367
 30
0.0
 11
164.5148437753364
 21
234.7636795685518
 31
0.0
  0
LINE
  5
91F
330
2
100
AcDbEntity
  8
L-ZISSEN
100
AcDbLine
 10
163.7707108368179
 20
-28.73530093174372
 30
0.0
 11
164.4708283755637
 21
-28.73530093174372
 31
0.0
  0
LINE
  5
920
330
2
100
AcDbEntity
  8
L-ZISSEN
100
AcDbLine
 10
164.6511268907622
 20
-15.23632043144948
 30
0.0
 11
164.4708283755637
 21
-28.73530093174372
 31
0.0
  0
LINE
  5
A7A
330
2
100
AcDbEntity
  8
L-ZISSEN
100
AcDbLine
 10
-161.4851215198748
 20
179.8016646847104
 30
0.0
 11
-163.4851215198712
 21
182.2016646847105
 31
0.0
  0
LINE
  5
A7B
330
2
100
AcDbEntity
  8
L-ZISSEN
100
AcDbLine
 10
-209.4851215198748
 20
179.8016646847104
 30
0.0
 11
-207.485121519873
 21
182.2016646847105
 31
0.0
  0
LINE
  5
A7C
330
2
100
AcDbEntity
  8
L-ZISSEN
100
AcDbLine
 10
-163.4851215198712
 20
182.2016646847105
 30
0.0
 11
-207.485121519873
 21
182.2016646847105
 31
0.0
  0
TEXT
  5
A7D
330
2
100
AcDbEntity
  8
L-ZISSEN
100
AcDbText
 10
-236.0725037269801
 20
278.69154059129
 30
0.0
 40
4.5
  1
MODEL NO. B68- 00-*0 *
100
AcDbText
  0
TEXT
  5
A7E
330
2
100
AcDbEntity
  8
L-ZISSEN
100
AcDbText
 10
-270.8463832895292
 20
88.30275777650218
 30
0.0
 40
4.5
  1
IN
100
AcDbText
  0
LINE
  5
A7F
330
2
100
AcDbEntity
  8
L-ZISSEN
100
AcDbLine
 10
-140.4851215198712
 20
94.20166468471052
 30
0.0
 11
-140.4851215198712
 21
90.20166468471051
 31
0.0
  0
LINE
  5
A80
330
2
100
AcDbEntity
  8
L-SOUZOU
100
AcDbLine
 10
-151.4851215198693
 20
133.2016646847105
 30
0.0
 11
-150.4851215198712
 21
132.2016646847109
 31
0.0
  0
LINE
  5
A81
330
2
100
AcDbEntity
  8
L-ZISSEN
100
AcDbLine
 10
-155.4851215198711
 20
113.0512584260554
 30
0.0
 11
-155.4851215198711
 21
109.3520709433655
 31
0.0
  0
ARC
  5
A82
330
2
100
AcDbEntity
  8
L-SOUZOU
100
AcDbCircle
 10
-157.4351215198748
 20
123.2016646847041
 30
0.0
 40
4.199999999999988
100
AcDbArc
 50
270.0
 51
90.0
  0
ARC
  5
A83
330
2
100
AcDbEntity
  8
L-ZISSEN
100
AcDbCircle
 10
-163.0457113840905
 20
132.5016646847106
 30
0.0
 40
2.299999999999999
100
AcDbArc
 50
270.0
 51
0.8959352773338501
  0
LINE
  5
A84
330
2
100
AcDbEntity
  8
L-ZISSEN
100
AcDbLine
 10
-165.2351215198693
 20
130.2016646847105
 30
0.0
 11
-165.2351215198693
 21
128.2016646847059
 31
0.0
  0
LINE
  5
A85
330
2
100
AcDbEntity
  8
L-ZISSEN
100
AcDbLine
 10
-161.1737802466766
 20
118.2016646847068
 30
0.0
 11
-159.4851215198711
 21
117.4702268256719
 31
0.0
  0
LINE
  5
A86
330
2
100
AcDbEntity
  8
L-SAISEN
100
AcDbLine
 10
-161.1737802466766
 20
118.2016646847068
 30
0.0
 11
-161.1737802466766
 21
114.0607657723562
 31
0.0
  0
LINE
  5
A87
330
2
100
AcDbEntity
  8
L-ZISSEN
100
AcDbLine
 10
-159.4851215198711
 20
117.4702268256719
 30
0.0
 11
-159.4851215198711
 21
113.8643384075562
 31
0.0
  0
ARC
  5
A88
330
2
100
AcDbEntity
  8
L-SOUZOU
100
AcDbCircle
 10
-159.5351215198747
 20
123.2016646847041
 30
0.0
 40
4.199999999999988
100
AcDbArc
 50
90.0
 51
270.0
  0
LINE
  5
A89
330
2
100
AcDbEntity
  8
L-ZISSEN
100
AcDbLine
 10
-163.9851215198693
 20
128.2016646847059
 30
0.0
 11
-163.9851215198693
 21
118.2016646847068
 31
0.0
  0
LINE
  5
A8A
330
2
100
AcDbEntity
  8
L-TYUSIN
100
AcDbLine
 10
-158.4851215198693
 20
129.7016646847032
 30
0.0
 11
-158.4851215198693
 21
116.7016646847041
 31
0.0
  0
LINE
  5
A8B
330
2
100
AcDbEntity
  8
L-SOUZOU
100
AcDbLine
 10
-151.4851215198693
 20
133.2016646847105
 30
0.0
 11
-160.7400714537895
 21
133.2016646847105
 31
0.0
  0
LINE
  5
A8C
330
2
100
AcDbEntity
  8
L-TYUSIN
 48
0.5
100
AcDbLine
 10
-150.9851215198712
 20
123.2016646847041
 30
0.0
 11
-165.9851215198711
 21
123.2016646847041
 31
0.0
  0
LINE
  5
A8D
330
2
100
AcDbEntity
  8
L-SOUZOU
100
AcDbLine
 10
-159.5351215198747
 20
127.4016646847039
 30
0.0
 11
-157.4351215198748
 21
127.4016646847039
 31
0.0
  0
LINE
  5
A8E
330
2
100
AcDbEntity
  8
L-SOUZOU
100
AcDbLine
 10
-159.5351215198747
 20
119.0016646847043
 30
0.0
 11
-157.4351215198748
 21
119.0016646847043
 31
0.0
  0
LINE
  5
A8F
330
2
100
AcDbEntity
  8
L-ZISSEN
100
AcDbLine
 10
-143.4851215198693
 20
90.20166468471051
 30
0.0
 11
-143.4851215198693
 21
86.2016646847096
 31
0.0
  0
LINE
  5
A90
330
2
100
AcDbEntity
  8
L-ZISSEN
100
AcDbLine
 10
-150.4851215198712
 20
105.2016646847064
 30
0.0
 11
-150.4851215198712
 21
94.20166468471052
 31
0.0
  0
LINE
  5
A91
330
2
100
AcDbEntity
  8
L-ZISSEN
100
AcDbLine
 10
-161.3776667415665
 20
104.2903406500877
 30
0.0
 11
-161.3776667415665
 21
103.3053269181177
 31
0.0
  0
LINE
  5
A92
330
2
100
AcDbEntity
  8
L-SAISEN
100
AcDbLine
 10
-161.173780246673
 20
108.3425635970652
 30
0.0
 11
-161.173780246673
 21
106.2016646847105
 31
0.0
  0
LINE
  5
A93
330
2
100
AcDbEntity
  8
L-ZISSEN
100
AcDbLine
 10
-159.4851215198711
 20
108.5389909618647
 30
0.0
 11
-159.4851215198711
 21
106.2016646847105
 31
0.0
  0
LINE
  5
A94
330
2
100
AcDbEntity
  8
L-ZISSEN
100
AcDbLine
 10
-162.5925762981739
 20
103.3053269181177
 30
0.0
 11
-162.5925762981739
 21
104.2903406500877
 31
0.0
  0
LINE
  5
A95
330
2
100
AcDbEntity
  8
L-ZISSEN
100
AcDbLine
 10
-161.3776667415665
 20
103.3053269181177
 30
0.0
 11
-162.5925762981739
 21
103.3053269181177
 31
0.0
  0
LINE
  5
A96
330
2
100
AcDbEntity
  8
L-ZISSEN
100
AcDbLine
 10
-158.6139869036094
 20
101.3341917850029
 30
0.0
 11
-158.6139869036094
 21
100.1910578768997
 31
0.0
  0
LINE
  5
A97
330
2
100
AcDbEntity
  8
L-ZISSEN
100
AcDbLine
 10
-165.3562561361329
 20
100.1910578768997
 30
0.0
 11
-165.3562561361329
 21
101.3341917850034
 31
0.0
  0
LINE
  5
A98
330
2
100
AcDbEntity
  8
L-ZISSEN
100
AcDbLine
 10
-158.6139869036094
 20
100.1910578768997
 30
0.0
 11
-165.3562561361329
 21
100.1910578768997
 31
0.0
  0
LINE
  5
A99
330
2
100
AcDbEntity
  8
L-ZISSEN
100
AcDbLine
 10
-165.3562561361329
 20
101.3341917850034
 30
0.0
 11
-158.6139869036094
 21
101.3341917850029
 31
0.0
  0
LINE
  5
A9A
330
2
100
AcDbEntity
  8
L-ZISSEN
100
AcDbLine
 10
-167.023558728403
 20
106.2016646847105
 30
0.0
 11
-167.023558728403
 21
100.1910578768997
 31
0.0
  0
ARC
  5
A9B
330
2
100
AcDbEntity
  8
L-ZISSEN
100
AcDbCircle
 10
-162.651495537754
 20
101.5754782965946
 30
0.0
 40
2.715501624970328
100
AcDbArc
 50
88.75673479219155
 51
185.0977525317109
  0
LINE
  5
A9C
330
2
100
AcDbEntity
  8
L-ZISSEN
100
AcDbLine
 10
-167.023558728403
 20
100.1910578768997
 30
0.0
 11
-150.4851215198712
 21
100.1910578768997
 31
0.0
  0
ARC
  5
A9D
330
2
100
AcDbEntity
  8
L-ZISSEN
100
AcDbCircle
 10
-161.3187475019883
 20
101.5754782965946
 30
0.0
 40
2.715501624969247
100
AcDbArc
 50
354.9022474682887
 51
91.24326520780845
  0
LINE
  5
A9E
330
2
100
AcDbEntity
  8
L-SOUZOU
100
AcDbLine
 10
-150.4851215198712
 20
105.2016646847064
 30
0.0
 11
-150.4851215198712
 21
132.2016646847109
 31
0.0
  0
LINE
  5
A9F
330
2
100
AcDbEntity
  8
L-ZISSEN
100
AcDbLine
 10
-143.4851215198693
 20
86.2016646847096
 30
0.0
 11
-140.4851215198712
 21
86.2016646847096
 31
0.0
  0
LINE
  5
AA0
330
2
100
AcDbEntity
  8
L-ZISSEN
100
AcDbLine
 10
-140.4851215198712
 20
90.20166468471051
 30
0.0
 11
-143.4851215198693
 21
90.20166468471051
 31
0.0
  0
SOLID
  5
AA1
330
2
100
AcDbEntity
  8
L-ZISSEN
100
AcDbTrace
 10
-231.9113006256021
 20
63.64288786988516
 30
0.0
 11
-231.3667861273976
 21
64.02752848876139
 31
0.0
 12
-230.4851215198711
 22
62.20166468470961
 32
0.0
 13
-230.4851215198711
 23
62.20166468470961
 33
0.0
  0
LINE
  5
AA6
330
2
100
AcDbEntity
  8
L-ZISSEN
100
AcDbLine
 10
-162.9851215198712
 20
45.20166468471052
 30
0.0
 11
-162.9851215198712
 21
79.20166468470961
 31
0.0
  0
LINE
  5
AA7
330
2
100
AcDbEntity
  8
L-ZISSEN
100
AcDbLine
 10
-158.4851215198693
 20
45.20166468471052
 30
0.0
 11
-158.4851215198693
 21
79.20166468470961
 31
0.0
  0
LINE
  5
AA8
330
2
100
AcDbEntity
  8
L-ZISSEN
100
AcDbLine
 10
-145.7351215198712
 20
45.20166468471052
 30
0.0
 11
-145.7351215198712
 21
79.20166468470961
 31
0.0
  0
LINE
  5
AAB
330
2
100
AcDbEntity
  8
L-ZISSEN
100
AcDbLine
 10
-144.4851215198712
 20
16.20166468471052
 30
0.0
 11
-144.4851215198712
 21
94.20166468471052
 31
0.0
  0
LINE
  5
AAC
330
2
100
AcDbEntity
  8
L-ZISSEN
100
AcDbLine
 10
-140.4851215198712
 20
86.2016646847096
 30
0.0
 11
-140.4851215198712
 21
16.20166468471052
 31
0.0
  0
LINE
  5
AAD
330
2
100
AcDbEntity
  8
L-ZISSEN
100
AcDbLine
 10
-149.4851215198712
 20
79.20166468470961
 30
0.0
 11
-149.4851215198712
 21
94.20166468471052
 31
0.0
  0
LINE
  5
AAE
330
2
100
AcDbEntity
  8
L-ZISSEN
100
AcDbLine
 10
-231.6390433764999
 20
63.83520817932327
 30
0.0
 11
-248.1889678017289
 21
87.26402290007627
 31
0.0
  0
LINE
  5
AAF
330
2
100
AcDbEntity
  8
L-ZISSEN
100
AcDbLine
 10
-248.1889678017289
 20
87.26402290007627
 30
0.0
 11
-271.483695432953
 21
87.26402290007627
 31
0.0
  0
TEXT
  5
AB0
330
2
100
AcDbEntity
  8
L-ZISSEN
100
AcDbText
 10
-270.8463832895292
 20
80.80275777650218
 30
0.0
 40
4.5
  1
Rc3/4
100
AcDbText
  0
TEXT
  5
AB1
330
2
100
AcDbEntity
  8
L-ZISSEN
100
AcDbText
 10
-270.8463832895292
 20
73.30275777650218
 30
0.0
 40
4.5
  1
Rc1
100
AcDbText
  0
LINE
  5
AB4
330
2
100
AcDbEntity
  8
L-ZISSEN
100
AcDbLine
 10
-173.0587146486784
 20
113.0512584260554
 30
0.0
 11
-173.0587146486784
 21
109.3520709433655
 31
0.0
  0
LINE
  5
AB5
330
2
100
AcDbEntity
  8
L-ZISSEN
100
AcDbLine
 10
-197.9115283910639
 20
113.0512584260554
 30
0.0
 11
-197.9115283910639
 21
109.3520709433655
 31
0.0
  0
ARC
  5
AB6
330
2
100
AcDbEntity
  8
L-ZISSEN
100
AcDbCircle
 10
-185.4851215198712
 20
46.51295857906325
 30
0.0
 40
67.68870610564736
100
AcDbArc
 50
79.42154710243271
 51
100.5784528975672
  0
ARC
  5
AB7
330
2
100
AcDbEntity
  8
L-ZISSEN
100
AcDbCircle
 10
-185.4851215198712
 20
175.8903707903577
 30
0.0
 40
67.68870610564736
100
AcDbArc
 50
259.4215471024326
 51
280.5784528975673
  0
LINE
  5
AB8
330
2
100
AcDbEntity
  8
L-ZISSEN
100
AcDbLine
 10
-205.7351215198693
 20
130.2016646847105
 30
0.0
 11
-205.7351215198693
 21
128.2016646847059
 31
0.0
  0
LINE
  5
AB9
330
2
100
AcDbEntity
  8
L-SOUZOU
100
AcDbLine
 10
-211.4351215198676
 20
127.4016646847039
 30
0.0
 11
-213.5351215198675
 21
127.4016646847039
 31
0.0
  0
ARC
  5
ABA
330
2
100
AcDbEntity
  8
L-ZISSEN
100
AcDbCircle
 10
-207.9245316556591
 20
132.5016646847106
 30
0.0
 40
2.299999999999999
100
AcDbArc
 50
179.1040647226661
 51
270.0
  0
LINE
  5
ABB
330
2
100
AcDbEntity
  8
L-SAISEN
100
AcDbLine
 10
-209.7964627930657
 20
118.2016646847068
 30
0.0
 11
-209.7964627930657
 21
114.0607657723562
 31
0.0
  0
LINE
  5
ABC
330
2
100
AcDbEntity
  8
L-SOUZOU
100
AcDbLine
 10
-211.4351215198676
 20
119.0016646847043
 30
0.0
 11
-213.5351215198675
 21
119.0016646847043
 31
0.0
  0
LINE
  5
ABD
330
2
100
AcDbEntity
  8
L-ZISSEN
100
AcDbLine
 10
-215.4851215198712
 20
113.0512584260554
 30
0.0
 11
-215.4851215198712
 21
109.3520709433655
 31
0.0
  0
LINE
  5
ABE
330
2
100
AcDbEntity
  8
L-ZISSEN
100
AcDbLine
 10
-211.4851215198693
 20
117.4702268256719
 30
0.0
 11
-211.4851215198693
 21
113.8643384075562
 31
0.0
  0
LINE
  5
ABF
330
2
100
AcDbEntity
  8
L-ZISSEN
100
AcDbLine
 10
-209.7964627930657
 20
118.2016646847068
 30
0.0
 11
-211.4851215198693
 21
117.4702268256719
 31
0.0
  0
ARC
  5
AC0
330
2
100
AcDbEntity
  8
L-SOUZOU
100
AcDbCircle
 10
-213.5351215198675
 20
123.2016646847041
 30
0.0
 40
4.199999999999988
100
AcDbArc
 50
90.0
 51
270.0
  0
ARC
  5
AC1
330
2
100
AcDbEntity
  8
L-SOUZOU
100
AcDbCircle
 10
-211.4351215198676
 20
123.2016646847041
 30
0.0
 40
4.199999999999988
100
AcDbArc
 50
270.0
 51
90.0
  0
LINE
  5
AC2
330
2
100
AcDbEntity
  8
L-TYUSIN
100
AcDbLine
 10
-212.4851215198675
 20
129.7016646847036
 30
0.0
 11
-212.4851215198675
 21
116.7016646847041
 31
0.0
  0
LINE
  5
AC3
330
2
100
AcDbEntity
  8
L-ZISSEN
100
AcDbLine
 10
-206.9851215198712
 20
128.2016646847059
 30
0.0
 11
-206.9851215198712
 21
118.2016646847068
 31
0.0
  0
LINE
  5
AC4
330
2
100
AcDbEntity
  8
L-SOUZOU
100
AcDbLine
 10
-219.4851215198693
 20
133.2016646847105
 30
0.0
 11
-220.4851215198711
 21
132.2016646847109
 31
0.0
  0
LINE
  5
AC5
330
2
100
AcDbEntity
  8
L-SOUZOU
100
AcDbLine
 10
-210.230171585951
 20
133.2016646847105
 30
0.0
 11
-219.4851215198693
 21
133.2016646847105
 31
0.0
  0
LINE
  5
AC6
330
2
100
AcDbEntity
  8
L-TYUSIN
 48
0.5
100
AcDbLine
 10
-204.9851215198693
 20
123.2016646847041
 30
0.0
 11
-219.9851215198693
 21
123.2016646847041
 31
0.0
  0
LINE
  5
AC7
330
2
100
AcDbEntity
  8
L-ZISSEN
100
AcDbLine
 10
-209.5925762981758
 20
103.3053269181177
 30
0.0
 11
-208.3776667415684
 21
103.3053269181177
 31
0.0
  0
LINE
  5
AC8
330
2
100
AcDbEntity
  8
L-ZISSEN
100
AcDbLine
 10
-209.5925762981758
 20
104.2903406500877
 30
0.0
 11
-209.5925762981758
 21
103.3053269181177
 31
0.0
  0
LINE
  5
AC9
330
2
100
AcDbEntity
  8
L-ZISSEN
100
AcDbLine
 10
-208.3776667415684
 20
103.3053269181177
 30
0.0
 11
-208.3776667415684
 21
104.2903406500877
 31
0.0
  0
LINE
  5
ACA
330
2
100
AcDbEntity
  8
L-SAISEN
100
AcDbLine
 10
-209.7964627930693
 20
108.3425635970652
 30
0.0
 11
-209.7964627930693
 21
106.2016646847105
 31
0.0
  0
LINE
  5
ACB
330
2
100
AcDbEntity
  8
L-ZISSEN
100
AcDbLine
 10
-205.6139869036094
 20
100.1910578768997
 30
0.0
 11
-205.6139869036094
 21
101.3341917850034
 31
0.0
  0
LINE
  5
ACC
330
2
100
AcDbEntity
  8
L-ZISSEN
100
AcDbLine
 10
-203.9466843113393
 20
106.2016646847105
 30
0.0
 11
-203.9466843113393
 21
100.1910578768997
 31
0.0
  0
ARC
  5
ACD
330
2
100
AcDbEntity
  8
L-ZISSEN
100
AcDbCircle
 10
-208.3187475019883
 20
101.5754782965946
 30
0.0
 40
2.715501624970328
100
AcDbArc
 50
354.9022474682887
 51
91.24326520780845
  0
LINE
  5
ACE
330
2
100
AcDbEntity
  8
L-ZISSEN
100
AcDbLine
 10
-211.4851215198711
 20
108.5389909618647
 30
0.0
 11
-211.4851215198711
 21
106.2016646847105
 31
0.0
  0
LINE
  5
ACF
330
2
100
AcDbEntity
  8
L-ZISSEN
100
AcDbLine
 10
-212.3562561361329
 20
101.3341917850029
 30
0.0
 11
-212.3562561361329
 21
100.1910578768997
 31
0.0
  0
LINE
  5
AD0
330
2
100
AcDbEntity
  8
L-ZISSEN
100
AcDbLine
 10
-205.6139869036094
 20
101.3341917850034
 30
0.0
 11
-212.3562561361329
 21
101.3341917850029
 31
0.0
  0
LINE
  5
AD1
330
2
100
AcDbEntity
  8
L-ZISSEN
100
AcDbLine
 10
-212.3562561361329
 20
100.1910578768997
 30
0.0
 11
-205.6139869036094
 21
100.1910578768997
 31
0.0
  0
ARC
  5
AD2
330
2
100
AcDbEntity
  8
L-ZISSEN
100
AcDbCircle
 10
-209.651495537754
 20
101.5754782965946
 30
0.0
 40
2.715501624969247
100
AcDbArc
 50
88.75673479219155
 51
185.0977525317109
  0
LINE
  5
AD3
330
2
100
AcDbEntity
  8
L-ZISSEN
100
AcDbLine
 10
-230.4851215198711
 20
90.20166468471051
 30
0.0
 11
-230.4851215198711
 21
94.20166468471052
 31
0.0
  0
LINE
  5
AD4
330
2
100
AcDbEntity
  8
L-ZISSEN
100
AcDbLine
 10
-230.4851215198711
 20
90.20166468471051
 30
0.0
 11
-227.4851215198712
 21
90.20166468471051
 31
0.0
  0
LINE
  5
AD5
330
2
100
AcDbEntity
  8
L-ZISSEN
100
AcDbLine
 10
-227.4851215198712
 20
86.2016646847096
 30
0.0
 11
-230.4851215198711
 21
86.2016646847096
 31
0.0
  0
LINE
  5
AD6
330
2
100
AcDbEntity
  8
L-ZISSEN
100
AcDbLine
 10
-227.4851215198712
 20
90.20166468471051
 30
0.0
 11
-227.4851215198712
 21
86.2016646847096
 31
0.0
  0
LINE
  5
AD7
330
2
100
AcDbEntity
  8
L-ZISSEN
100
AcDbLine
 10
-220.4851215198714
 20
106.2016646847105
 30
0.0
 11
-220.4851215198711
 21
94.20166468471052
 31
0.0
  0
LINE
  5
AD8
330
2
100
AcDbEntity
  8
L-ZISSEN
100
AcDbLine
 10
-203.9466843113393
 20
100.1910578768997
 30
0.0
 11
-220.4851215198711
 21
100.1910578768997
 31
0.0
  0
LINE
  5
AD9
330
2
100
AcDbEntity
  8
L-SOUZOU
100
AcDbLine
 10
-220.4851215198711
 20
106.2016646847105
 30
0.0
 11
-220.4851215198711
 21
132.2016646847109
 31
0.0
  0
ARC
  5
ADA
330
2
100
AcDbEntity
  8
L-ZISSEN
100
AcDbCircle
 10
-206.6983249554675
 20
80.06971006722324
 30
0.0
 40
34.1319546174875
100
AcDbArc
 50
75.08201763927056
 51
104.9179823607294
  0
ARC
  5
ADB
330
2
100
AcDbEntity
  8
L-ZISSEN
100
AcDbCircle
 10
-206.6983249554675
 20
142.3336193021982
 30
0.0
 40
34.1319546174875
100
AcDbArc
 50
255.0820176392705
 51
284.9179823607294
  0
LINE
  5
ADC
330
2
100
AcDbEntity
  8
L-SOUZOU
100
AcDbLine
 10
-179.5451215198746
 20
69.83846468470983
 30
0.0
 11
-177.8483215198753
 21
68.14166468470967
 31
0.0
  0
CIRCLE
  5
ADD
330
2
100
AcDbEntity
  8
L-SOUZOU
100
AcDbCircle
 10
-185.4851215198712
 20
62.20166468470961
 30
0.0
 40
1.2
  0
ARC
  5
ADE
330
2
100
AcDbEntity
  8
L-SOUZOU
100
AcDbCircle
 10
-185.4851215198712
 20
62.20166468470961
 30
0.0
 40
2.0
100
AcDbArc
 50
249.9399999997777
 51
16.48050000006882
  0
LINE
  5
ADF
330
2
100
AcDbEntity
  8
L-SOUZOU
100
AcDbLine
 10
-177.8483215198753
 20
68.14166468470967
 30
0.0
 11
-183.5675215198734
 21
62.76886468470957
 31
0.0
  0
LINE
  5
AE0
330
2
100
AcDbEntity
  8
L-SOUZOU
100
AcDbLine
 10
-179.5451215198746
 20
69.83846468470983
 30
0.0
 11
-184.917921519875
 21
64.1192646847096
 31
0.0
  0
ARC
  5
AE1
330
2
100
AcDbEntity
  8
L-SOUZOU
100
AcDbCircle
 10
-185.4851215198712
 20
62.20166468470961
 30
0.0
 40
2.0
100
AcDbArc
 50
73.51949999986484
 51
200.0599999999713
  0
ARC
  5
AE3
330
2
100
AcDbEntity
  8
L-SOUZOU
100
AcDbCircle
 10
-196.5243215198762
 20
47.17926468471023
 30
0.0
 40
0.4
100
AcDbArc
 50
136.7899999998976
 51
225.0000000001011
  0
ARC
  5
AE4
330
2
100
AcDbEntity
  8
L-SOUZOU
100
AcDbCircle
 10
-196.5075215198758
 20
47.16246468471058
 30
0.0
 40
0.4
100
AcDbArc
 50
225.0000000001011
 51
313.2099999998255
  0
LINE
  5
AE5
330
2
100
AcDbEntity
  8
L-SOUZOU
100
AcDbLine
 10
-196.7987215198768
 20
46.88806468471057
 30
0.0
 11
-196.789921519878
 21
46.87926468471028
 31
0.0
  0
LINE
  5
AE6
330
2
100
AcDbEntity
  8
L-SOUZOU
100
AcDbLine
 10
-196.7987215198768
 20
46.88806468471057
 30
0.0
 11
-196.8075215198757
 21
46.89686468471109
 31
0.0
  0
LINE
  5
AE7
330
2
100
AcDbEntity
  8
L-SOUZOU
100
AcDbLine
 10
-187.3635215198755
 20
61.51606468470959
 30
0.0
 11
-196.8163215198746
 21
51.45366468471002
 31
0.0
  0
LINE
  5
AE8
330
2
100
AcDbEntity
  8
L-SOUZOU
100
AcDbLine
 10
-177.0635215198755
 20
70.62326468470974
 30
0.0
 11
-197.7867215198773
 21
49.90006468471006
 31
0.0
  0
LINE
  5
AE9
330
2
100
AcDbEntity
  8
L-SOUZOU
100
AcDbLine
 10
-186.170721519874
 20
60.32326468470955
 30
0.0
 11
-196.2331215198751
 21
50.87046468470976
 31
0.0
  0
CIRCLE
  5
AEA
330
2
100
AcDbEntity
  8
L-SAISEN
100
AcDbCircle
 10
-185.4851215198712
 20
62.20166468470961
 30
0.0
 40
6.58
  0
CIRCLE
  5
AEB
330
2
100
AcDbEntity
  8
L-ZISSEN
100
AcDbCircle
 10
-185.4851215198712
 20
62.20166468470961
 30
0.0
 40
5.724999999999999
  0
LINE
  5
AF2
330
2
100
AcDbEntity
  8
L-ZISSEN
100
AcDbLine
 10
-225.235121519873
 20
45.20166468471052
 30
0.0
 11
-225.235121519873
 21
79.20166468470961
 31
0.0
  0
LINE
  5
AF3
330
2
100
AcDbEntity
  8
L-ZISSEN
100
AcDbLine
 10
-207.985121519873
 20
45.20166468471052
 30
0.0
 11
-207.985121519873
 21
79.20166468470961
 31
0.0
  0
LINE
  5
AF4
330
2
100
AcDbEntity
  8
L-ZISSEN
100
AcDbLine
 10
-212.4851215198712
 20
45.20166468471052
 30
0.0
 11
-212.4851215198712
 21
79.20166468470961
 31
0.0
  0
LINE
  5
AF5
330
2
100
AcDbEntity
  8
L-ZISSEN
100
AcDbLine
 10
-230.4851215198711
 20
16.20166468471052
 30
0.0
 11
-230.4851215198711
 21
86.2016646847096
 31
0.0
  0
LINE
  5
AF6
330
2
100
AcDbEntity
  8
L-ZISSEN
100
AcDbLine
 10
-226.485121519873
 20
16.20166468471052
 30
0.0
 11
-226.485121519873
 21
94.20166468471052
 31
0.0
  0
LINE
  5
AF7
330
2
100
AcDbEntity
  8
L-ZISSEN
100
AcDbLine
 10
-226.485121519873
 20
79.20166468470961
 30
0.0
 11
-226.485121519873
 21
94.20166468471052
 31
0.0
  0
LINE
  5
AF8
330
2
100
AcDbEntity
  8
L-ZISSEN
100
AcDbLine
 10
-221.485121519873
 20
79.20166468470961
 30
0.0
 11
-221.485121519873
 21
94.20166468471052
 31
0.0
  0
LINE
  5
AFC
330
2
100
AcDbEntity
  8
L-ZISSEN
100
AcDbLine
 10
-230.4851215198711
 20
94.20166468471052
 30
0.0
 11
-140.4851215198712
 21
94.20166468471052
 31
0.0
  0
LINE
  5
AFD
330
2
100
AcDbEntity
  8
L-ZISSEN
100
AcDbLine
 10
-226.485121519873
 20
79.20166468470961
 30
0.0
 11
-144.4851215198712
 21
79.20166468470961
 31
0.0
  0
LINE
  5
AFF
330
2
100
AcDbEntity
  8
L-ZISSEN
100
AcDbLine
 10
-226.485121519873
 20
45.20166468471052
 30
0.0
 11
-144.4851215198712
 21
45.20166468471052
 31
0.0
  0
LINE
  5
B01
330
2
100
AcDbEntity
  8
L-TYUSIN
100
AcDbLine
 10
-130.4851215198711
 20
62.20166468470961
 30
0.0
 11
-240.4851215198712
 21
62.20166468470961
 31
0.0
  0
LINE
  5
B03
330
2
100
AcDbEntity
  8
L-ZISSEN
100
AcDbLine
 10
-164.2719180842748
 20
114.2016646847105
 30
0.0
 11
-206.6983249554675
 21
114.2016646847105
 31
0.0
  0
LINE
  5
B04
330
2
100
AcDbEntity
  8
L-ZISSEN
100
AcDbLine
 10
-164.2719180842748
 20
108.2016646847105
 30
0.0
 11
-206.6983249554675
 21
108.2016646847105
 31
0.0
  0
LINE
  5
B05
330
2
100
AcDbEntity
  8
L-ZISSEN
100
AcDbLine
 10
-207.9245316556591
 20
130.2016646847105
 30
0.0
 11
-163.0457113840905
 21
130.2016646847105
 31
0.0
  0
LINE
  5
B06
330
2
100
AcDbEntity
  8
L-ZISSEN
100
AcDbLine
 10
-206.9851215198712
 20
128.2016646847105
 30
0.0
 11
-163.9851215198693
 21
128.2016646847105
 31
0.0
  0
LINE
  5
B07
330
2
100
AcDbEntity
  8
L-ZISSEN
100
AcDbLine
 10
-209.7964627930657
 20
118.2016646847068
 30
0.0
 11
-161.1737802466766
 21
118.2016646847068
 31
0.0
  0
LINE
  5
B08
330
2
100
AcDbEntity
  8
L-ZISSEN
100
AcDbLine
 10
-150.4851215198712
 20
106.2016646847105
 30
0.0
 11
-220.4851215198711
 21
106.2016646847105
 31
0.0
  0
LINE
  5
B09
330
2
100
AcDbEntity
  8
L-SOUZOU
100
AcDbLine
 10
-150.4851215198712
 20
108.2016646847105
 30
0.0
 11
-220.4851215198711
 21
108.2016646847105
 31
0.0
  0
LINE
  5
B0A
330
2
100
AcDbEntity
  8
L-SOUZOU
100
AcDbLine
 10
-150.4851215198712
 20
106.2016646847105
 30
0.0
 11
-220.4851215198711
 21
106.2016646847105
 31
0.0
  0
ARC
  5
B0B
330
2
100
AcDbEntity
  8
L-ZISSEN
100
AcDbCircle
 10
-164.2719180842748
 20
142.3336193021982
 30
0.0
 40
34.1319546174875
100
AcDbArc
 50
255.0820176392705
 51
284.9179823607294
  0
ARC
  5
B0C
330
2
100
AcDbEntity
  8
L-ZISSEN
100
AcDbCircle
 10
-164.2719180842748
 20
80.06971006722324
 30
0.0
 40
34.1319546174875
100
AcDbArc
 50
75.08201763927056
 51
104.9179823607294
  0
LINE
  5
B0D
330
2
100
AcDbEntity
  8
L-ZISSEN
100
AcDbLine
 10
-220.4851215198711
 20
94.20166468471052
 30
0.0
 11
-150.4851215198712
 21
94.20166468471052
 31
0.0
  0
CIRCLE
  5
B0E
330
2
100
AcDbEntity
  8
L-SOUZOU
100
AcDbCircle
 10
-185.4851215198712
 20
62.20166468470961
 30
0.0
 40
18.0
  0
CIRCLE
  5
B0F
330
2
100
AcDbEntity
  8
L-SOUZOU
100
AcDbCircle
 10
-185.4851215198712
 20
62.20166468470961
 30
0.0
 40
21.0
  0
LINE
  5
B10
330
2
100
AcDbEntity
  8
L-TYUSIN
100
AcDbLine
 10
-185.4851215198711
 20
-161.7983353152912
 30
0.0
 11
-185.4851215198712
 21
187.2443586518902
 31
0.0
  0
LINE
  5
B11
330
2
100
AcDbEntity
  8
L-ZISSEN
100
AcDbLine
 10
-209.4851215198748
 20
179.8016646847104
 30
0.0
 11
-210.224250467518
 21
132.5376283661412
 31
0.0
  0
LINE
  5
B12
330
2
100
AcDbEntity
  8
L-ZISSEN
100
AcDbLine
 10
-161.4851215198748
 20
179.8016646847104
 30
0.0
 11
-160.7459925722316
 21
132.5376283661412
 31
0.0
  0
ARC
  5
B13
330
2
100
AcDbEntity
  8
L-SOUZOU
100
AcDbCircle
 10
-312.9851215198712
 20
278.7016646847081
 30
0.0
 40
1.5
100
AcDbArc
 50
0.0
 51
90.0
  0
LINE
  5
B14
330
2
100
AcDbEntity
  8
L-SOUZOU
100
AcDbLine
 10
-320.4851215198711
 20
280.2016646847081
 30
0.0
 11
-312.9851215198712
 21
280.2016646847081
 31
0.0
  0
ARC
  5
B15
330
2
100
AcDbEntity
  8
L-SOUZOU
100
AcDbCircle
 10
-334.9851215198711
 20
278.1016646847082
 30
0.0
 40
1.5
100
AcDbArc
 50
90.0
 51
180.0
  0
LINE
  5
B16
330
2
100
AcDbEntity
  8
L-SOUZOU
100
AcDbLine
 10
-340.4851215198712
 20
252.401664684708
 30
0.0
 11
-336.4851215198711
 21
252.4016646847079
 31
0.0
  0
LINE
  5
B17
330
2
100
AcDbEntity
  8
L-SOUZOU
100
AcDbLine
 10
-340.4851215198712
 20
266.0016646847082
 30
0.0
 11
-336.4851215198711
 21
266.0016646847083
 31
0.0
  0
LINE
  5
B18
330
2
100
AcDbEntity
  8
L-SOUZOU
100
AcDbLine
 10
-334.9851215198711
 20
279.6016646847082
 30
0.0
 11
-320.4851215198711
 21
279.6016646847082
 31
0.0
  0
LINE
  5
B19
330
2
100
AcDbEntity
  8
L-ZISSEN
100
AcDbLine
 10
-358.4851215198712
 20
304.201664684712
 30
0.0
 11
-358.4851215198712
 21
300.201664684712
 31
0.0
  0
LINE
  5
B1A
330
2
100
AcDbEntity
  8
L-ZISSEN
100
AcDbLine
 10
-412.4851215198711
 20
300.201664684712
 30
0.0
 11
-412.4851215198711
 21
304.201664684712
 31
0.0
  0
LINE
  5
B1B
330
2
100
AcDbEntity
  8
L-ZISSEN
100
AcDbLine
 10
-358.4851215198712
 20
304.201664684712
 30
0.0
 11
-412.4851215198711
 21
304.2016646847121
 31
0.0
  0
LINE
  5
B1C
330
2
100
AcDbEntity
  8
L-ZISSEN
100
AcDbLine
 10
-367.4851215198712
 20
294.2016646847067
 30
0.0
 11
-367.4851215198712
 21
290.7016646847072
 31
0.0
  0
LINE
  5
B1D
330
2
100
AcDbEntity
  8
L-ZISSEN
100
AcDbLine
 10
-403.4851215198711
 20
290.7016646847072
 30
0.0
 11
-403.4851215198711
 21
294.2016646847067
 31
0.0
  0
LINE
  5
B1E
330
2
100
AcDbEntity
  8
L-ZISSEN
100
AcDbLine
 10
-367.4851215198712
 20
294.2016646847067
 30
0.0
 11
-403.4851215198711
 21
294.2016646847067
 31
0.0
  0
LINE
  5
B1F
330
2
100
AcDbEntity
  8
L-ZISSEN
100
AcDbLine
 10
-367.4851215198712
 20
290.7016646847072
 30
0.0
 11
-350.4851215198712
 21
286.9328554197771
 31
0.0
  0
CIRCLE
  5
B20
330
2
100
AcDbEntity
  8
L-ZISSEN
100
AcDbCircle
 10
-355.4851215198711
 20
282.7016646847112
 30
0.0
 40
4.45
  0
LINE
  5
B21
330
2
100
AcDbEntity
  8
L-ZISSEN
100
AcDbLine
 10
-340.4851215198712
 20
296.2111607571391
 30
0.0
 11
-358.4851215198712
 21
300.201664684712
 31
0.0
  0
ARC
  5
B22
330
2
100
AcDbEntity
  8
L-SOUZOU
100
AcDbCircle
 10
-312.9851215198712
 20
239.7016646847081
 30
0.0
 40
1.5
100
AcDbArc
 50
270.0
 51
0.0
  0
LINE
  5
B23
330
2
100
AcDbEntity
  8
L-SOUZOU
100
AcDbLine
 10
-320.4851215198711
 20
238.2016646847081
 30
0.0
 11
-312.9851215198712
 21
238.2016646847081
 31
0.0
  0
ARC
  5
B24
330
2
100
AcDbEntity
  8
L-SOUZOU
100
AcDbCircle
 10
-334.9851215198711
 20
240.301664684708
 30
0.0
 40
1.5
100
AcDbArc
 50
180.0
 51
270.0
  0
LINE
  5
B25
330
2
100
AcDbEntity
  8
L-SOUZOU
100
AcDbLine
 10
-334.9851215198711
 20
238.801664684708
 30
0.0
 11
-320.4851215198711
 21
238.801664684708
 31
0.0
  0
LINE
  5
B26
330
2
100
AcDbEntity
  8
L-ZISSEN
100
AcDbLine
 10
-367.4851215198712
 20
227.7016646847071
 30
0.0
 11
-367.4851215198712
 21
224.2016646847071
 31
0.0
  0
LINE
  5
B27
330
2
100
AcDbEntity
  8
L-ZISSEN
100
AcDbLine
 10
-358.4851215198712
 20
214.2016646847045
 30
0.0
 11
-358.4851215198712
 21
218.2016646847046
 31
0.0
  0
LINE
  5
B28
330
2
100
AcDbEntity
  8
L-ZISSEN
100
AcDbLine
 10
-403.4851215198711
 20
224.2016646847067
 30
0.0
 11
-403.4851215198711
 21
227.7016646847071
 31
0.0
  0
LINE
  5
B29
330
2
100
AcDbEntity
  8
L-ZISSEN
100
AcDbLine
 10
-412.4851215198711
 20
218.2016646847046
 30
0.0
 11
-412.4851215198711
 21
214.2016646847045
 31
0.0
  0
LINE
  5
B2A
330
2
100
AcDbEntity
  8
L-ZISSEN
100
AcDbLine
 10
-403.4851215198711
 20
224.2016646847067
 30
0.0
 11
-367.4851215198712
 21
224.2016646847071
 31
0.0
  0
LINE
  5
B2B
330
2
100
AcDbEntity
  8
L-ZISSEN
100
AcDbLine
 10
-358.4851215198712
 20
214.2016646847045
 30
0.0
 11
-412.4851215198711
 21
214.2016646847045
 31
0.0
  0
LINE
  5
B2C
330
2
100
AcDbEntity
  8
L-ZISSEN
100
AcDbLine
 10
-361.4851215198748
 20
179.8016646847104
 30
0.0
 11
-363.4851215198712
 21
182.2016646847105
 31
0.0
  0
LINE
  5
B2D
330
2
100
AcDbEntity
  8
L-ZISSEN
100
AcDbLine
 10
-409.4851215198748
 20
179.8016646847104
 30
0.0
 11
-407.485121519873
 21
182.2016646847105
 31
0.0
  0
LINE
  5
B2E
330
2
100
AcDbEntity
  8
L-ZISSEN
100
AcDbLine
 10
-363.4851215198712
 20
182.2016646847105
 30
0.0
 11
-407.485121519873
 21
182.2016646847105
 31
0.0
  0
LINE
  5
B2F
330
2
100
AcDbEntity
  8
L-ZISSEN
100
AcDbLine
 10
-367.4851215198712
 20
227.7016646847071
 30
0.0
 11
-350.4851215198712
 21
231.4704739496372
 31
0.0
  0
CIRCLE
  5
B30
330
2
100
AcDbEntity
  8
L-ZISSEN
100
AcDbCircle
 10
-355.4851215198711
 20
235.7016646847076
 30
0.0
 40
4.45
  0
LINE
  5
B31
330
2
100
AcDbEntity
  8
L-ZISSEN
100
AcDbLine
 10
-340.4851215198712
 20
222.1921686122789
 30
0.0
 11
-358.4851215198712
 21
218.201664684706
 31
0.0
  0
CIRCLE
  5
B32
330
2
100
AcDbEntity
  8
L-SOUZOU
100
AcDbCircle
 10
-385.4851215198712
 20
259.2016646847094
 30
0.0
 40
26.0
  0
CIRCLE
  5
B33
330
2
100
AcDbEntity
  8
L-ZISSEN
100
AcDbCircle
 10
-385.4851215198712
 20
259.201664684708
 30
0.0
 40
24.77565943703641
  0
CIRCLE
  5
B34
330
2
100
AcDbEntity
  8
L-ZISSEN
100
AcDbCircle
 10
-385.4851215198712
 20
259.201664684708
 30
0.0
 40
23.96246809175248
  0
LINE
  5
B35
330
2
100
AcDbEntity
  8
L-ZISSEN
100
AcDbLine
 10
-350.4851215198712
 20
231.4704739496372
 30
0.0
 11
-350.4851215198712
 21
286.9328554197771
 31
0.0
  0
ARC
  5
B36
330
2
100
AcDbEntity
  8
L-SOUZOU
100
AcDbCircle
 10
-385.4851215198712
 20
259.2016646847094
 30
0.0
 40
28.25
100
AcDbArc
 50
278.0084306809348
 51
81.99156931906523
  0
LINE
  5
B37
330
2
100
AcDbEntity
  8
L-TYUSIN
100
AcDbLine
 10
-385.4851215198712
 20
209.201664684708
 30
0.0
 11
-385.4851215198712
 21
309.201664684708
 31
0.0
  0
LINE
  5
B38
330
2
100
AcDbEntity
  8
L-ZISSEN
100
AcDbLine
 10
-340.4851215198712
 20
222.1921686122789
 30
0.0
 11
-340.4851215198712
 21
296.2111607571391
 31
0.0
  0
LINE
  5
B39
330
2
100
AcDbEntity
  8
L-SOUZOU
100
AcDbLine
 10
-320.4851215198711
 20
280.2016646847081
 30
0.0
 11
-320.4851215198711
 21
238.2016646847081
 31
0.0
  0
LINE
  5
B3A
330
2
100
AcDbEntity
  8
L-SOUZOU
100
AcDbLine
 10
-311.4851215198711
 20
278.7016646847081
 30
0.0
 11
-311.4851215198711
 21
239.7016646847081
 31
0.0
  0
LINE
  5
B3B
330
2
100
AcDbEntity
  8
L-SOUZOU
100
AcDbLine
 10
-336.4851215198711
 20
278.1016646847082
 30
0.0
 11
-336.4851215198711
 21
240.301664684708
 31
0.0
  0
LINE
  5
B3C
330
2
100
AcDbEntity
  8
L-SOUZOU
100
AcDbLine
 10
-433.4851215198748
 20
294.2016646847067
 30
0.0
 11
-431.4851215198748
 21
294.2016646847067
 31
0.0
  0
LINE
  5
B3D
330
2
100
AcDbEntity
  8
L-TYUSIN
100
AcDbLine
 10
-426.4851215198748
 20
286.2016646847071
 30
0.0
 11
-438.4851215198748
 21
286.2016646847071
 31
0.0
  0
LINE
  5
B3E
330
2
100
AcDbEntity
  8
L-SOUZOU
100
AcDbLine
 10
-433.4851215198748
 20
224.2016646847103
 30
0.0
 11
-431.4851215198748
 21
224.2016646847103
 31
0.0
  0
LINE
  5
B3F
330
2
100
AcDbEntity
  8
L-TYUSIN
100
AcDbLine
 10
-438.4851215198748
 20
232.2016646847071
 30
0.0
 11
-426.4851215198748
 21
232.2016646847071
 31
0.0
  0
LINE
  5
B40
330
2
100
AcDbEntity
  8
L-ZISSEN
100
AcDbLine
 10
-420.4851215198711
 20
286.9328554197771
 30
0.0
 11
-420.4851215198711
 21
231.4704739496372
 31
0.0
  0
LINE
  5
B41
330
2
100
AcDbEntity
  8
L-SOUZOU
100
AcDbLine
 10
-431.4851215198748
 20
224.2016646847103
 30
0.0
 11
-431.4851215198748
 21
294.2016646847067
 31
0.0
  0
LINE
  5
B42
330
2
100
AcDbEntity
  8
L-SOUZOU
100
AcDbLine
 10
-433.4851215198748
 20
224.2016646847103
 30
0.0
 11
-433.4851215198748
 21
294.2016646847067
 31
0.0
  0
LINE
  5
B43
330
2
100
AcDbEntity
  8
L-ZISSEN
100
AcDbLine
 10
-430.4851215198712
 20
296.2111607571391
 30
0.0
 11
-430.4851215198712
 21
222.1921686122789
 31
0.0
  0
LINE
  5
B44
330
2
100
AcDbEntity
  8
L-SOUZOU
100
AcDbLine
 10
-431.4851215198748
 20
224.2016646847103
 30
0.0
 11
-381.5493651202384
 21
231.2271705594738
 31
0.0
  0
LINE
  5
B45
330
2
100
AcDbEntity
  8
L-SOUZOU
100
AcDbLine
 10
-431.4851215198748
 20
294.2016646847067
 30
0.0
 11
-381.5493651202384
 21
287.1761588099433
 31
0.0
  0
CIRCLE
  5
B46
330
2
100
AcDbEntity
  8
L-ZISSEN
100
AcDbCircle
 10
-385.4851215198712
 20
259.201664684708
 30
0.0
 40
30.0
  0
POLYLINE
  5
B47
330
2
100
AcDbEntity
  8
L-ZISSEN
100
AcDb2dPolyline
 66
     1
 10
0.0
 20
0.0
 30
0.0
 70
     1
  0
VERTEX
  5
1107
330
B47
100
AcDbEntity
  8
L-ZISSEN
100
AcDbVertex
100
AcDb2dVertex
 10
-397.9115283910639
 20
289.201664684708
 30
0.0
  0
VERTEX
  5
1108
330
B47
100
AcDbEntity
  8
L-ZISSEN
100
AcDbVertex
100
AcDb2dVertex
 10
-415.4851215198712
 20
271.6280715559008
 30
0.0
  0
VERTEX
  5
1109
330
B47
100
AcDbEntity
  8
L-ZISSEN
100
AcDbVertex
100
AcDb2dVertex
 10
-415.4851215198712
 20
246.7752578135153
 30
0.0
  0
VERTEX
  5
110A
330
B47
100
AcDbEntity
  8
L-ZISSEN
100
AcDbVertex
100
AcDb2dVertex
 10
-397.9115283910641
 20
229.201664684708
 30
0.0
  0
VERTEX
  5
110B
330
B47
100
AcDbEntity
  8
L-ZISSEN
100
AcDbVertex
100
AcDb2dVertex
 10
-373.0587146486784
 20
229.201664684708
 30
0.0
  0
VERTEX
  5
110C
330
B47
100
AcDbEntity
  8
L-ZISSEN
100
AcDbVertex
100
AcDb2dVertex
 10
-355.4851215198711
 20
246.7752578135153
 30
0.0
  0
VERTEX
  5
110D
330
B47
100
AcDbEntity
  8
L-ZISSEN
100
AcDbVertex
100
AcDb2dVertex
 10
-355.4851215198711
 20
271.6280715559008
 30
0.0
  0
VERTEX
  5
110E
330
B47
100
AcDbEntity
  8
L-ZISSEN
100
AcDbVertex
100
AcDb2dVertex
 10
-373.0587146486782
 20
289.201664684708
 30
0.0
  0
SEQEND
  5
110F
330
B47
100
AcDbEntity
  8
L-ZISSEN
  0
CIRCLE
  5
B48
330
2
100
AcDbEntity
  8
L-ZISSEN
100
AcDbCircle
 10
-415.4851215198712
 20
235.7016646847076
 30
0.0
 40
4.45
  0
LINE
  5
B49
330
2
100
AcDbEntity
  8
L-ZISSEN
100
AcDbLine
 10
-403.4851215198711
 20
227.7016646847071
 30
0.0
 11
-420.4851215198711
 21
231.4704739496372
 31
0.0
  0
CIRCLE
  5
B4A
330
2
100
AcDbEntity
  8
L-ZISSEN
100
AcDbCircle
 10
-415.4851215198712
 20
282.7016646847112
 30
0.0
 40
4.45
  0
LINE
  5
B4B
330
2
100
AcDbEntity
  8
L-ZISSEN
100
AcDbLine
 10
-403.4851215198711
 20
290.7016646847072
 30
0.0
 11
-420.4851215198711
 21
286.9328554197771
 31
0.0
  0
LINE
  5
B4C
330
2
100
AcDbEntity
  8
L-ZISSEN
100
AcDbLine
 10
-430.4851215198712
 20
296.2111607571391
 30
0.0
 11
-412.4851215198711
 21
300.201664684712
 31
0.0
  0
LINE
  5
B4D
330
2
100
AcDbEntity
  8
L-ZISSEN
100
AcDbLine
 10
-430.4851215198712
 20
222.1921686122789
 30
0.0
 11
-412.4851215198711
 21
218.201664684706
 31
0.0
  0
LINE
  5
B4E
330
2
100
AcDbEntity
  8
L-TYUSIN
100
AcDbLine
 10
-306.4851215198712
 20
259.201664684708
 30
0.0
 11
-435.4851215198712
 21
259.201664684708
 31
0.0
  0
LINE
  5
B4F
330
2
100
AcDbEntity
  8
L-SOUZOU
 48
0.5
100
AcDbLine
 10
-350.485121519873
 20
108.2016646847105
 30
0.0
 11
-350.485121519873
 21
106.2016646847105
 31
0.0
  0
LINE
  5
B50
330
2
100
AcDbEntity
  8
L-ZISSEN
100
AcDbLine
 10
-352.152424112143
 20
101.3341917850029
 30
0.0
 11
-352.152424112143
 21
100.1910578768997
 31
0.0
  0
LINE
  5
B51
330
2
100
AcDbEntity
  8
L-ZISSEN
100
AcDbLine
 10
-350.4851215198712
 20
100.1910578768997
 30
0.0
 11
-350.4851215198712
 21
105.2016646847064
 31
0.0
  0
LINE
  5
B52
330
2
100
AcDbEntity
  8
L-ZISSEN
100
AcDbLine
 10
-350.485121519873
 20
94.20166468471052
 30
0.0
 11
-350.485121519873
 21
106.2016646847105
 31
0.0
  0
ARC
  5
B53
330
2
100
AcDbEntity
  8
L-SOUZOU
100
AcDbCircle
 10
-312.9851215198712
 20
81.70166468470961
 30
0.0
 40
1.5
100
AcDbArc
 50
0.0
 51
90.0
  0
LINE
  5
B54
330
2
100
AcDbEntity
  8
L-SOUZOU
100
AcDbLine
 10
-320.4851215198711
 20
83.20166468470961
 30
0.0
 11
-312.9851215198712
 21
83.20166468470961
 31
0.0
  0
ARC
  5
B55
330
2
100
AcDbEntity
  8
L-SOUZOU
100
AcDbCircle
 10
-312.9851215198712
 20
42.7016646847096
 30
0.0
 40
1.5
100
AcDbArc
 50
270.0
 51
0.0
  0
LINE
  5
B56
330
2
100
AcDbEntity
  8
L-SOUZOU
100
AcDbLine
 10
-320.4851215198711
 20
41.2016646847096
 30
0.0
 11
-312.9851215198712
 21
41.2016646847096
 31
0.0
  0
LINE
  5
B57
330
2
100
AcDbEntity
  8
L-SOUZOU
100
AcDbLine
 10
-311.4851215198711
 20
81.70166468470961
 30
0.0
 11
-311.4851215198711
 21
42.7016646847096
 31
0.0
  0
LINE
  5
B58
330
2
100
AcDbEntity
  8
L-SOUZOU
100
AcDbLine
 10
-320.4851215198711
 20
83.20166468470961
 30
0.0
 11
-320.4851215198711
 21
41.2016646847096
 31
0.0
  0
ARC
  5
B59
330
2
100
AcDbEntity
  8
L-SOUZOU
100
AcDbCircle
 10
-334.9851215198711
 20
81.1016646847097
 30
0.0
 40
1.5
100
AcDbArc
 50
90.0
 51
180.0
  0
ARC
  5
B5A
330
2
100
AcDbEntity
  8
L-ZISSEN
100
AcDbCircle
 10
-341.985121519873
 20
80.70166468471052
 30
0.0
 40
1.500000000000909
100
AcDbArc
 50
270.0
 51
0.0
  0
LINE
  5
B5B
330
2
100
AcDbEntity
  8
L-SOUZOU
100
AcDbLine
 10
-345.4851215198711
 20
68.08010997761312
 30
0.0
 11
-344.6015071921868
 21
68.96372430529755
 31
0.0
  0
LINE
  5
B5C
330
2
100
AcDbEntity
  8
L-SOUZOU
100
AcDbLine
 10
-348.4851215198712
 20
67.98635529250077
 30
0.0
 11
-345.4851215198711
 21
68.08010997761312
 31
0.0
  0
LINE
  5
B5D
330
2
100
AcDbEntity
  8
L-SOUZOU
100
AcDbLine
 10
-348.4851215198712
 20
68.84235529250076
 30
0.0
 11
-343.9851215198713
 21
68.98298732016929
 31
0.0
  0
LINE
  5
B5E
330
2
100
AcDbEntity
  8
L-SOUZOU
100
AcDbLine
 10
-343.9851215198712
 20
69.00166468470956
 30
0.0
 11
-336.4851215198711
 21
69.00166468470979
 31
0.0
  0
ARC
  5
B5F
330
2
100
AcDbEntity
  8
L-SOUZOU
100
AcDbCircle
 10
-334.9851215198711
 20
43.30166468470951
 30
0.0
 40
1.5
100
AcDbArc
 50
180.0
 51
270.0
  0
LINE
  5
B60
330
2
100
AcDbEntity
  8
L-SOUZOU
100
AcDbLine
 10
-345.4851215198711
 20
56.32321939180587
 30
0.0
 11
-344.6015071921868
 21
55.43960506412167
 31
0.0
  0
LINE
  5
B62
330
2
100
AcDbEntity
  8
L-SOUZOU
100
AcDbLine
 10
-348.4851215198712
 20
55.56097407691806
 30
0.0
 11
-343.9851215198713
 21
55.42034204924948
 31
0.0
  0
LINE
  5
B63
330
2
100
AcDbEntity
  8
L-SOUZOU
100
AcDbLine
 10
-348.4851215198712
 20
56.41697407691823
 30
0.0
 11
-345.4851215198711
 21
56.32321939180587
 31
0.0
  0
LINE
  5
B64
330
2
100
AcDbEntity
  8
L-SOUZOU
100
AcDbLine
 10
-343.9851215198712
 20
55.40166468470965
 30
0.0
 11
-336.4851215198711
 21
55.40166468470943
 31
0.0
  0
LINE
  5
B65
330
2
100
AcDbEntity
  8
L-ZISSEN
100
AcDbLine
 10
-348.4851215198712
 20
45.20166468470962
 30
0.0
 11
-348.4851215198712
 21
79.20166468470961
 31
0.0
  0
LINE
  5
B66
330
2
100
AcDbEntity
  8
L-SOUZOU
100
AcDbLine
 10
-343.9851215198712
 20
69.00166468470956
 30
0.0
 11
-343.9851215198712
 21
55.40166468470943
 31
0.0
  0
LINE
  5
B67
330
2
100
AcDbEntity
  8
L-SOUZOU
100
AcDbLine
 10
-345.4851215198711
 20
68.93610997761311
 30
0.0
 11
-345.485121519871
 21
55.46721939180588
 31
0.0
  0
LINE
  5
B69
330
2
100
AcDbEntity
  8
L-SOUZOU
100
AcDbLine
 10
-336.4851215198711
 20
81.1016646847097
 30
0.0
 11
-336.4851215198711
 21
43.30166468470951
 31
0.0
  0
LINE
  5
B6A
330
2
100
AcDbEntity
  8
L-SOUZOU
100
AcDbLine
 10
-334.9851215198711
 20
41.80166468470951
 30
0.0
 11
-320.4851215198711
 21
41.80166468470951
 31
0.0
  0
LINE
  5
B6B
330
2
100
AcDbEntity
  8
L-SOUZOU
100
AcDbLine
 10
-334.9851215198711
 20
82.6016646847097
 30
0.0
 11
-320.4851215198711
 21
82.6016646847097
 31
0.0
  0
LINE
  5
B6C
330
2
100
AcDbEntity
  8
L-ZISSEN
100
AcDbLine
 10
-340.4851215198712
 20
80.70166468471052
 30
0.0
 11
-340.4851215198712
 21
94.20166468471052
 31
0.0
  0
LINE
  5
B6D
330
2
100
AcDbEntity
  8
L-ZISSEN
100
AcDbLine
 10
-365.2351215198748
 20
130.2016646847105
 30
0.0
 11
-365.2351215198748
 21
128.2016646847105
 31
0.0
  0
ARC
  5
B6E
330
2
100
AcDbEntity
  8
L-ZISSEN
100
AcDbCircle
 10
-363.0457113840904
 20
132.5016646847106
 30
0.0
 40
2.299999999999999
100
AcDbArc
 50
270.0
 51
0.8959352773338501
  0
LINE
  5
B6F
330
2
100
AcDbEntity
  8
L-ZISSEN
100
AcDbLine
 10
-355.4851215198711
 20
113.0512584260554
 30
0.0
 11
-355.4851215198711
 21
109.3520709433655
 31
0.0
  0
LINE
  5
B70
330
2
100
AcDbEntity
  8
L-ZISSEN
100
AcDbLine
 10
-359.4851215198711
 20
118.4702268256769
 30
0.0
 11
-359.4851215198711
 21
113.8643384075562
 31
0.0
  0
LINE
  5
B71
330
2
100
AcDbEntity
  8
L-SAISEN
100
AcDbLine
 10
-361.1737802466784
 20
119.2016646847105
 30
0.0
 11
-361.1737802466784
 21
114.0607657723562
 31
0.0
  0
LINE
  5
B72
330
2
100
AcDbEntity
  8
L-ZISSEN
100
AcDbLine
 10
-361.1737802466784
 20
119.2016646847105
 30
0.0
 11
-359.4851215198711
 21
118.4702268256769
 31
0.0
  0
LINE
  5
B73
330
2
100
AcDbEntity
  8
L-ZISSEN
100
AcDbLine
 10
-363.9851215198711
 20
128.2016646847105
 30
0.0
 11
-363.9851215198711
 21
119.2179444840353
 31
0.0
  0
LINE
  5
B74
330
2
100
AcDbEntity
  8
L-ZISSEN
100
AcDbLine
 10
-373.0587146486784
 20
113.0512584260554
 30
0.0
 11
-373.0587146486784
 21
109.3520709433655
 31
0.0
  0
ARC
  5
B75
330
2
100
AcDbEntity
  8
L-ZISSEN
100
AcDbCircle
 10
-364.2719180842748
 20
80.06971006722324
 30
0.0
 40
34.1319546174875
100
AcDbArc
 50
75.08201763927056
 51
104.9179823607294
  0
LINE
  5
B76
330
2
100
AcDbEntity
  8
L-ZISSEN
100
AcDbLine
 10
-354.9161039501002
 20
103.3053269181177
 30
0.0
 11
-356.1310135067076
 21
103.3053269181177
 31
0.0
  0
LINE
  5
B77
330
2
100
AcDbEntity
  8
L-ZISSEN
100
AcDbLine
 10
-356.1310135067076
 20
103.3053269181177
 30
0.0
 11
-356.1310135067076
 21
104.2903406500877
 31
0.0
  0
LINE
  5
B78
330
2
100
AcDbEntity
  8
L-ZISSEN
100
AcDbLine
 10
-354.9161039501002
 20
104.2903406500877
 30
0.0
 11
-354.9161039501002
 21
103.3053269181177
 31
0.0
  0
LINE
  5
B79
330
2
100
AcDbEntity
  8
L-ZISSEN
100
AcDbLine
 10
-359.4851215198711
 20
108.5389909618647
 30
0.0
 11
-359.4851215198711
 21
106.2016646847105
 31
0.0
  0
LINE
  5
B7A
330
2
100
AcDbEntity
  8
L-ZISSEN
100
AcDbLine
 10
-358.8946933446666
 20
100.1910578768997
 30
0.0
 11
-358.8946933446666
 21
101.3341917850034
 31
0.0
  0
LINE
  5
B7B
330
2
100
AcDbEntity
  8
L-ZISSEN
100
AcDbLine
 10
-360.5619959369366
 20
106.2016646847105
 30
0.0
 11
-360.5619959369366
 21
100.1910578768997
 31
0.0
  0
ARC
  5
B7C
330
2
100
AcDbEntity
  8
L-ZISSEN
100
AcDbCircle
 10
-356.1899327462877
 20
101.5754782965946
 30
0.0
 40
2.715501624970328
100
AcDbArc
 50
88.75673479219155
 51
185.0977525317109
  0
LINE
  5
B7D
330
2
100
AcDbEntity
  8
L-SAISEN
100
AcDbLine
 10
-361.173780246673
 20
108.3425635970652
 30
0.0
 11
-361.173780246673
 21
106.2016646847105
 31
0.0
  0
ARC
  5
B7E
330
2
100
AcDbEntity
  8
L-ZISSEN
100
AcDbCircle
 10
-364.2719180842748
 20
142.3336193021982
 30
0.0
 40
34.1319546174875
100
AcDbArc
 50
255.0820176392705
 51
284.9179823607294
  0
LINE
  5
B7F
330
2
100
AcDbEntity
  8
L-ZISSEN
100
AcDbLine
 10
-397.9115283910639
 20
113.0512584260554
 30
0.0
 11
-397.9115283910639
 21
109.3520709433655
 31
0.0
  0
LINE
  5
B80
330
2
100
AcDbEntity
  8
L-ZISSEN
100
AcDbLine
 10
-405.7351215198748
 20
130.2016646847105
 30
0.0
 11
-405.7351215198748
 21
128.2016646847105
 31
0.0
  0
ARC
  5
B81
330
2
100
AcDbEntity
  8
L-ZISSEN
100
AcDbCircle
 10
-407.9245316556591
 20
132.5016646847106
 30
0.0
 40
2.299999999999999
100
AcDbArc
 50
179.1040647226661
 51
270.0
  0
LINE
  5
B82
330
2
100
AcDbEntity
  8
L-ZISSEN
100
AcDbLine
 10
-409.7964627930694
 20
119.2016646847105
 30
0.0
 11
-411.4851215198711
 21
118.4702268256769
 31
0.0
  0
LINE
  5
B83
330
2
100
AcDbEntity
  8
L-SAISEN
100
AcDbLine
 10
-409.7964627930694
 20
119.2179444840353
 30
0.0
 11
-409.7964627930694
 21
114.0607657723558
 31
0.0
  0
LINE
  5
B84
330
2
100
AcDbEntity
  8
L-ZISSEN
100
AcDbLine
 10
-411.4851215198711
 20
118.4865066250017
 30
0.0
 11
-411.4851215198711
 21
113.8643384075562
 31
0.0
  0
LINE
  5
B85
330
2
100
AcDbEntity
  8
L-ZISSEN
100
AcDbLine
 10
-406.9851215198712
 20
128.2016646847105
 30
0.0
 11
-406.9851215198712
 21
119.2179444840353
 31
0.0
  0
LINE
  5
B86
330
2
100
AcDbEntity
  8
L-SAISEN
100
AcDbLine
 10
-409.7964627930694
 20
108.3425635970652
 30
0.0
 11
-409.7964627930694
 21
106.2016646847105
 31
0.0
  0
LINE
  5
B87
330
2
100
AcDbEntity
  8
L-ZISSEN
100
AcDbLine
 10
-411.4851215198711
 20
108.5389909618647
 30
0.0
 11
-411.4851215198711
 21
106.2016646847105
 31
0.0
  0
LINE
  5
B88
330
2
100
AcDbEntity
  8
L-ZISSEN
100
AcDbLine
 10
-412.0755496950776
 20
101.3341917850029
 30
0.0
 11
-412.0755496950776
 21
100.1910578768997
 31
0.0
  0
LINE
  5
B89
330
2
100
AcDbEntity
  8
L-ZISSEN
100
AcDbLine
 10
-410.4082471028038
 20
106.2016646847105
 30
0.0
 11
-410.4082471028038
 21
100.1910578768997
 31
0.0
  0
LINE
  5
B8A
330
2
100
AcDbEntity
  8
L-ZISSEN
100
AcDbLine
 10
-412.4851215198711
 20
90.20166468471051
 30
0.0
 11
-358.4851215198712
 21
90.20166468471051
 31
0.0
  0
LINE
  5
B8B
330
2
100
AcDbEntity
  8
L-ZISSEN
100
AcDbLine
 10
-412.4851215198711
 20
86.2016646847096
 30
0.0
 11
-358.4851215198712
 21
86.2016646847096
 31
0.0
  0
ARC
  5
B8C
330
2
100
AcDbEntity
  8
L-ZISSEN
100
AcDbCircle
 10
-385.4851215198712
 20
175.8903707903577
 30
0.0
 40
67.68870610564736
100
AcDbArc
 50
259.4215471024326
 51
280.5784528975673
  0
ARC
  5
B8D
330
2
100
AcDbEntity
  8
L-ZISSEN
100
AcDbCircle
 10
-385.4851215198712
 20
46.51295857906325
 30
0.0
 40
67.68870610564736
100
AcDbArc
 50
79.42154710243271
 51
100.5784528975672
  0
LINE
  5
B8E
330
2
100
AcDbEntity
  8
L-ZISSEN
100
AcDbLine
 10
-364.2719180842748
 20
108.2016646847105
 30
0.0
 11
-406.6983249554676
 21
108.2016646847105
 31
0.0
  0
LINE
  5
B8F
330
2
100
AcDbEntity
  8
L-ZISSEN
100
AcDbLine
 10
-364.2719180842748
 20
114.2016646847105
 30
0.0
 11
-406.6983249554676
 21
114.2016646847105
 31
0.0
  0
LINE
  5
B90
330
2
100
AcDbEntity
  8
L-ZISSEN
100
AcDbLine
 10
-406.9851215198712
 20
128.2016646847105
 30
0.0
 11
-363.9851215198711
 21
128.2016646847105
 31
0.0
  0
LINE
  5
B91
330
2
100
AcDbEntity
  8
L-ZISSEN
100
AcDbLine
 10
-409.7964627930694
 20
119.2016646847105
 30
0.0
 11
-361.1737802466784
 21
119.2016646847105
 31
0.0
  0
LINE
  5
B92
330
2
100
AcDbEntity
  8
L-ZISSEN
100
AcDbLine
 10
-363.0457113840904
 20
130.2016646847105
 30
0.0
 11
-407.9245316556591
 21
130.2016646847105
 31
0.0
  0
CIRCLE
  5
B96
330
2
100
AcDbEntity
  8
L-SAISEN
100
AcDbCircle
 10
-385.4851215198712
 20
62.20166468470961
 30
0.0
 40
16.625
  0
CIRCLE
  5
B97
330
2
100
AcDbEntity
  8
L-ZISSEN
100
AcDbCircle
 10
-385.4851215198712
 20
62.20166468470961
 30
0.0
 40
15.14499999999999
  0
LINE
  5
B99
330
2
100
AcDbEntity
  8
L-ZISSEN
100
AcDbLine
 10
-412.4851215198711
 20
16.20166468471052
 30
0.0
 11
-412.4851215198711
 21
94.20166468471052
 31
0.0
  0
LINE
  5
B9A
330
2
100
AcDbEntity
  8
L-ZISSEN
100
AcDbLine
 10
-358.4851215198712
 20
16.20166468471052
 30
0.0
 11
-358.4851215198712
 21
94.20166468471052
 31
0.0
  0
LINE
  5
B9B
330
2
100
AcDbEntity
  8
L-ZISSEN
100
AcDbLine
 10
-358.4851215198712
 20
79.20166468470961
 30
0.0
 11
-341.985121519873
 21
79.20166468470961
 31
0.0
  0
LINE
  5
B9D
330
2
100
AcDbEntity
  8
L-ZISSEN
100
AcDbLine
 10
-360.5619959369366
 20
100.1910578768997
 30
0.0
 11
-350.4851215198712
 21
100.1910578768997
 31
0.0
  0
LINE
  5
B9E
330
2
100
AcDbEntity
  8
L-ZISSEN
100
AcDbLine
 10
-352.152424112143
 20
100.1910578768997
 30
0.0
 11
-358.8946933446666
 21
100.1910578768997
 31
0.0
  0
LINE
  5
B9F
330
2
100
AcDbEntity
  8
L-ZISSEN
100
AcDbLine
 10
-358.8946933446666
 20
101.3341917850034
 30
0.0
 11
-352.152424112143
 21
101.3341917850029
 31
0.0
  0
ARC
  5
BA0
330
2
100
AcDbEntity
  8
L-ZISSEN
100
AcDbCircle
 10
-354.857184710522
 20
101.5754782965946
 30
0.0
 40
2.715501624969247
100
AcDbArc
 50
354.9022474682887
 51
91.24326520780845
  0
LINE
  5
BA1
330
2
100
AcDbEntity
  8
L-TYUSIN
100
AcDbLine
 10
-427.4851215198729
 20
62.20166468470974
 30
0.0
 11
-306.4851215198712
 21
62.20166468470946
 31
0.0
  0
LINE
  5
BA9
330
2
100
AcDbEntity
  8
L-ZISSEN
100
AcDbLine
 10
-415.4851215198712
 20
113.0512584260554
 30
0.0
 11
-415.4851215198712
 21
109.3520709433655
 31
0.0
  0
LINE
  5
BAA
330
2
100
AcDbEntity
  8
L-SOUZOU
100
AcDbLine
 10
-433.4851215198748
 20
133.2016646847105
 30
0.0
 11
-431.4851215198712
 21
133.2016646847105
 31
0.0
  0
LINE
  5
BAB
330
2
100
AcDbEntity
  8
L-TYUSIN
100
AcDbLine
 10
-435.5874204867712
 20
124.2016646847105
 30
0.0
 11
-428.7756584839142
 21
124.2016646847105
 31
0.0
  0
LINE
  5
BAC
330
2
100
AcDbEntity
  8
L-SOUZOU
100
AcDbLine
 10
-431.4851215198712
 20
133.2016646847105
 30
0.0
 11
-431.4851215198712
 21
109.085584127783
 31
0.0
  0
LINE
  5
BAD
330
2
100
AcDbEntity
  8
L-ZISSEN
100
AcDbLine
 10
-414.8392295330329
 20
104.2903406500877
 30
0.0
 11
-414.8392295330329
 21
103.3053269181177
 31
0.0
  0
LINE
  5
BAE
330
2
100
AcDbEntity
  8
L-ZISSEN
100
AcDbLine
 10
-416.0541390896421
 20
103.3053269181177
 30
0.0
 11
-416.0541390896421
 21
104.2903406500877
 31
0.0
  0
LINE
  5
BAF
330
2
100
AcDbEntity
  8
L-ZISSEN
100
AcDbLine
 10
-414.8392295330329
 20
103.3053269181177
 30
0.0
 11
-416.0541390896421
 21
103.3053269181177
 31
0.0
  0
LINE
  5
BB0
330
2
100
AcDbEntity
  8
L-ZISSEN
100
AcDbLine
 10
-418.8178189275975
 20
100.1910578768997
 30
0.0
 11
-418.8178189275975
 21
101.3341917850034
 31
0.0
  0
ARC
  5
BB1
330
2
100
AcDbEntity
  8
L-ZISSEN
100
AcDbCircle
 10
-416.1130583292203
 20
101.5754782965946
 30
0.0
 40
2.715501624969762
100
AcDbArc
 50
88.75673479219155
 51
185.0977525317109
  0
LINE
  5
BB2
330
2
100
AcDbEntity
  8
L-ZISSEN
100
AcDbLine
 10
-420.4851215198694
 20
94.20166468471052
 30
0.0
 11
-420.4851215198694
 21
106.2016646847105
 31
0.0
  0
ARC
  5
BB3
330
2
100
AcDbEntity
  8
L-SOUZOU
100
AcDbCircle
 10
-432.4851215198746
 20
107.2016646847109
 30
0.0
 40
1.000000000000227
100
AcDbArc
 50
180.0
 51
270.0
  0
ARC
  5
BB4
330
2
100
AcDbEntity
  8
L-SOUZOU
100
AcDbCircle
 10
-430.485121519873
 20
109.2016646847109
 30
0.0
 40
1.000000000000227
100
AcDbArc
 50
180.0
 51
270.0
  0
LINE
  5
BB5
330
2
100
AcDbEntity
  8
L-SOUZOU
100
AcDbLine
 10
-433.4851215198748
 20
133.2016646847105
 30
0.0
 11
-433.4851215198748
 21
107.1853848853811
 31
0.0
  0
ARC
  5
BB7
330
2
100
AcDbEntity
  8
L-ZISSEN
100
AcDbCircle
 10
-428.9851215198711
 20
80.70166468471052
 30
0.0
 40
1.500000000000909
100
AcDbArc
 50
180.0
 51
270.0
  0
LINE
  5
BB9
330
2
100
AcDbEntity
  8
L-ZISSEN
100
AcDbLine
 10
-422.485121519873
 20
45.20166468470962
 30
0.0
 11
-422.485121519873
 21
79.20166468470961
 31
0.0
  0
LINE
  5
BBA
330
2
100
AcDbEntity
  8
L-ZISSEN
100
AcDbLine
 10
-430.4851215198712
 20
80.70166468471052
 30
0.0
 11
-430.4851215198712
 21
94.20166468471052
 31
0.0
  0
LINE
  5
BBC
330
2
100
AcDbEntity
  8
L-ZISSEN
100
AcDbLine
 10
-430.4851215198712
 20
94.20166468471052
 30
0.0
 11
-340.4851215198712
 21
94.20166468471052
 31
0.0
  0
LINE
  5
BBF
330
2
100
AcDbEntity
  8
L-ZISSEN
100
AcDbLine
 10
-412.4851215198711
 20
79.20166468470961
 30
0.0
 11
-428.9851215198711
 21
79.20166468470961
 31
0.0
  0
LINE
  5
BC1
330
2
100
AcDbEntity
  8
L-ZISSEN
100
AcDbLine
 10
-412.4851215198711
 20
45.20166468470961
 30
0.0
 11
-420.9851215198711
 21
45.20166468470961
 31
0.0
  0
LINE
  5
BC2
330
2
100
AcDbEntity
  8
L-SOUZOU
100
AcDbLine
 10
-432.4851215198746
 20
106.2016646847105
 30
0.0
 11
-350.485121519873
 21
106.2016646847105
 31
0.0
  0
LINE
  5
BC3
330
2
100
AcDbEntity
  8
L-ZISSEN
100
AcDbLine
 10
-420.4851215198694
 20
106.2016646847105
 30
0.0
 11
-350.485121519873
 21
106.2016646847105
 31
0.0
  0
LINE
  5
BC4
330
2
100
AcDbEntity
  8
L-ZISSEN
100
AcDbLine
 10
-420.485121519873
 20
94.20166468471052
 30
0.0
 11
-350.485121519873
 21
94.20166468471052
 31
0.0
  0
LINE
  5
BC5
330
2
100
AcDbEntity
  8
L-SOUZOU
100
AcDbLine
 10
-430.485121519873
 20
108.2016646847105
 30
0.0
 11
-350.485121519873
 21
108.2016646847105
 31
0.0
  0
ARC
  5
BC6
330
2
100
AcDbEntity
  8
L-ZISSEN
100
AcDbCircle
 10
-414.7803102934529
 20
101.5754782965946
 30
0.0
 40
2.715501624969247
100
AcDbArc
 50
354.9022474682887
 51
91.24326520780845
  0
LINE
  5
BC7
330
2
100
AcDbEntity
  8
L-ZISSEN
100
AcDbLine
 10
-410.4082471028038
 20
100.1910578768997
 30
0.0
 11
-420.4851215198711
 21
100.1910578768997
 31
0.0
  0
LINE
  5
BC8
330
2
100
AcDbEntity
  8
L-ZISSEN
100
AcDbLine
 10
-412.0755496950776
 20
100.1910578768997
 30
0.0
 11
-418.8178189275975
 21
100.1910578768997
 31
0.0
  0
LINE
  5
BC9
330
2
100
AcDbEntity
  8
L-ZISSEN
100
AcDbLine
 10
-418.8178189275975
 20
101.3341917850034
 30
0.0
 11
-412.0755496950776
 21
101.3341917850029
 31
0.0
  0
ARC
  5
BCA
330
2
100
AcDbEntity
  8
L-ZISSEN
100
AcDbCircle
 10
-406.6983249554676
 20
142.3336193021982
 30
0.0
 40
34.1319546174875
100
AcDbArc
 50
255.0820176392705
 51
284.9179823607294
  0
ARC
  5
BCB
330
2
100
AcDbEntity
  8
L-ZISSEN
100
AcDbCircle
 10
-406.6983249554676
 20
80.06971006722324
 30
0.0
 40
34.1319546174875
100
AcDbArc
 50
75.08201763927056
 51
104.9179823607294
  0
LINE
  5
BCC
330
2
100
AcDbEntity
  8
L-TYUSIN
100
AcDbLine
 10
-385.4851215198712
 20
-161.7983353152913
 30
0.0
 11
-385.4851215198712
 21
187.3061813408576
 31
0.0
  0
LINE
  5
BCD
330
2
100
AcDbEntity
  8
L-ZISSEN
100
AcDbLine
 10
-409.4851215198748
 20
179.8016646847104
 30
0.0
 11
-410.224250467518
 21
132.5376283661412
 31
0.0
  0
LINE
  5
BCE
330
2
100
AcDbEntity
  8
L-ZISSEN
100
AcDbLine
 10
-361.4851215198748
 20
179.8016646847104
 30
0.0
 11
-360.7459925722316
 21
132.5376283661412
 31
0.0
  0
LINE
  5
BDD
330
2
100
AcDbEntity
  8
L-ZISSEN
100
AcDbLine
 10
-412.4851215198711
 20
45.20166468470961
 30
0.0
 11
-430.4851215198713
 21
45.20166468470961
 31
0.0
  0
LINE
  5
BDE
330
2
100
AcDbEntity
  8
L-ZISSEN
100
AcDbLine
 10
-430.4851215198712
 20
31.20166468470961
 30
0.0
 11
-340.4851215198712
 21
31.20166468470961
 31
0.0
  0
LINE
  5
BDF
330
2
100
AcDbEntity
  8
L-ZISSEN
100
AcDbLine
 10
-340.4851215198734
 20
16.20166468471052
 30
0.0
 11
-430.4851215198711
 21
16.20166468471052
 31
0.0
  0
LINE
  5
BE0
330
2
100
AcDbEntity
  8
L-ZISSEN
100
AcDbLine
 10
-423.0683826092947
 20
-41.80006916910588
 30
0.0
 11
-425.4851215198734
 21
16.20166468471052
 31
0.0
  0
LINE
  5
BE2
330
2
100
AcDbEntity
  8
L-ZISSEN
100
AcDbLine
 10
-430.4851215198713
 20
45.20166468470962
 30
0.0
 11
-430.4851215198711
 21
16.20166468471052
 31
0.0
  0
LINE
  5
BE6
330
2
100
AcDbEntity
  8
L-ZISSEN
100
AcDbLine
 10
-347.9018604304476
 20
-41.80006916910588
 30
0.0
 11
-345.4851215198711
 21
16.20166468471052
 31
0.0
  0
LINE
  5
BEC
330
2
100
AcDbEntity
  8
L-ZISSEN
100
AcDbLine
 10
-347.9018604304476
 20
-41.80006916910588
 30
0.0
 11
-423.0683826092947
 21
-41.80006916910588
 31
0.0
  0
LINE
  5
BED
330
2
100
AcDbEntity
  8
L-ZISSEN
100
AcDbLine
 10
-349.9851215198716
 20
-43.79833531529174
 30
0.0
 11
-420.9851215198707
 21
-43.79833531529174
 31
0.0
  0
LINE
  5
BEF
330
2
100
AcDbEntity
  8
L-ZISSEN
100
AcDbLine
 10
-420.9851215198707
 20
-43.79833531529174
 30
0.0
 11
-423.0683826092947
 21
-41.80006916910588
 31
0.0
  0
LINE
  5
BF1
330
2
100
AcDbEntity
  8
L-ZISSEN
100
AcDbLine
 10
-354.4350953803293
 20
-43.79833531529174
 30
0.0
 11
-356.5351476594153
 21
-43.79833531529174
 31
0.0
  0
LINE
  5
BF2
330
2
100
AcDbEntity
  8
L-ZISSEN
100
AcDbLine
 10
-353.2350953803281
 20
-43.79833531529174
 30
0.0
 11
-354.4350953803293
 21
-43.79833531529174
 31
0.0
  0
LINE
  5
BF3
330
2
100
AcDbEntity
  8
L-ZISSEN
100
AcDbLine
 10
-349.9851215198716
 20
-43.79833531529174
 30
0.0
 11
-347.9018604304476
 21
-41.80006916910588
 31
0.0
  0
LINE
  5
C3A
330
2
100
AcDbEntity
  8
L-ZISSEN
100
AcDbLine
 10
-358.4851215198712
 20
45.20166468470961
 30
0.0
 11
-340.4851215198711
 21
45.20166468470961
 31
0.0
  0
LINE
  5
C3B
330
2
100
AcDbEntity
  8
L-ZISSEN
100
AcDbLine
 10
-340.4851215198711
 20
45.20166468470962
 30
0.0
 11
-340.4851215198712
 21
16.20166468471052
 31
0.0
  0
LINE
  5
CF8
330
2
100
AcDbEntity
  8
L-ZISSEN
100
AcDbLine
 10
-360.2051215198709
 20
-54.13707422692323
 30
0.0
 11
-368.635121519874
 21
-54.13707422692323
 31
0.0
  0
LINE
  5
CF9
330
2
100
AcDbEntity
  8
L-ZISSEN
100
AcDbLine
 10
-364.4201215198702
 20
-124.1370742269232
 30
0.0
 11
-360.2051215198732
 21
-122.1370742269223
 31
0.0
  0
ARC
  5
CFA
330
2
100
AcDbEntity
  8
L-ZISSEN
100
AcDbCircle
 10
-385.4851215198675
 20
-41.34562423380794
 30
0.0
 40
99.53938471878515
100
AcDbArc
 50
275.3320776948641
 51
283.9062370650414
  0
LINE
  5
CFB
330
2
100
AcDbEntity
  8
L-ZISSEN
100
AcDbLine
 10
-368.635121519874
 20
-54.13707422692323
 30
0.0
 11
-368.635121519874
 21
-122.1370742269223
 31
0.0
  0
LINE
  5
CFC
330
2
100
AcDbEntity
  8
L-ZISSEN
100
AcDbLine
 10
-392.3443557176631
 20
-141.7983353152912
 30
0.0
 11
-379.4851215198707
 21
-141.7983353152912
 31
0.0
  0
LINE
  5
CFD
330
2
100
AcDbEntity
  8
L-ZISSEN
100
AcDbLine
 10
-379.4851215198707
 20
-141.6578865158553
 30
0.0
 11
-394.4851215198707
 21
-141.6578865158553
 31
0.0
  0
LINE
  5
CFE
330
2
100
AcDbEntity
  8
L-ZISSEN
100
AcDbLine
 10
-379.4851215198707
 20
-141.6578865158553
 30
0.0
 11
-394.4851215198707
 21
-141.6578865158553
 31
0.0
  0
LINE
  5
CFF
330
2
100
AcDbEntity
  8
L-ZISSEN
100
AcDbLine
 10
-392.2634371363758
 20
-144.798956430111
 30
0.0
 11
-378.7724034598775
 21
-144.7997531998826
 31
0.0
  0
LINE
  5
D00
330
2
100
AcDbEntity
  8
L-ZISSEN
100
AcDbLine
 10
-376.4851215198689
 20
-140.4542848553419
 30
0.0
 11
-394.7351215198693
 21
-140.4542848553419
 31
0.0
  0
ARC
  5
D01
330
2
100
AcDbEntity
  8
L-ZISSEN
100
AcDbCircle
 10
-378.7724034598775
 20
-139.528423029511
 30
0.0
 40
5.271330170371532
100
AcDbArc
 50
244.7408933165769
 51
295.711645114866
  0
ARC
  5
D02
330
2
100
AcDbEntity
  8
L-ZISSEN
100
AcDbCircle
 10
-378.7724034598761
 20
-147.068247601072
 30
0.0
 40
5.271330170371789
100
AcDbArc
 50
64.28835488513389
 51
115.259106683423
  0
LINE
  5
D03
330
2
100
AcDbEntity
  8
L-ZISSEN
100
AcDbLine
 10
-376.4851215198689
 20
-141.6578865158553
 30
0.0
 11
-379.4851215198707
 21
-141.6578865158553
 31
0.0
  0
LINE
  5
D05
330
2
100
AcDbEntity
  8
L-ZISSEN
100
AcDbLine
 10
-379.4851215198721
 20
-147.2395007257828
 30
0.0
 11
-379.4851215198721
 21
-156.4983353152915
 31
0.0
  0
LINE
  5
D06
330
2
100
AcDbEntity
  8
L-ZISSEN
100
AcDbLine
 10
-380.4851215198689
 20
-146.7395007257828
 30
0.0
 11
-380.4851215198668
 21
-156.7983353152913
 31
0.0
  0
LINE
  5
D07
330
2
100
AcDbEntity
  8
L-ZISSEN
100
AcDbLine
 10
-382.4851215198716
 20
-146.7395007257828
 30
0.0
 11
-379.9851215198716
 21
-146.7395007257828
 31
0.0
  0
LINE
  5
D08
330
2
100
AcDbEntity
  8
L-ZISSEN
100
AcDbLine
 10
-380.4851215198716
 20
-146.7395007257828
 30
0.0
 11
-379.9851215198721
 21
-146.2395007257828
 31
0.0
  0
LINE
  5
D09
330
2
100
AcDbEntity
  8
L-ZISSEN
100
AcDbLine
 10
-380.4851215198674
 20
-144.7996815777137
 30
0.0
 11
-380.4851215198716
 21
-146.7395007257828
 31
0.0
  0
LINE
  5
D0A
330
2
100
AcDbEntity
  8
L-ZISSEN
100
AcDbLine
 10
-379.9851215198716
 20
-146.7395007257828
 30
0.0
 11
-379.4851215198721
 21
-147.2395007257828
 31
0.0
  0
LINE
  5
D0B
330
2
100
AcDbEntity
  8
L-ZISSEN
100
AcDbLine
 10
-379.985121519872
 20
-146.2395007257823
 30
0.0
 11
-379.9851215198721
 21
-144.7983353152912
 31
0.0
  0
LINE
  5
D0C
330
2
100
AcDbEntity
  8
L-ZISSEN
100
AcDbLine
 10
-379.4851215198707
 20
-141.7983353152912
 30
0.0
 11
-378.6501485407745
 21
-141.7983353152912
 31
0.0
  0
LINE
  5
D0D
330
2
100
AcDbEntity
  8
L-ZISSEN
100
AcDbLine
 10
-376.4854778997835
 20
-142.3188378221971
 30
0.0
 11
-376.4854778997835
 21
-144.277832808385
 31
0.0
  0
LINE
  5
D0F
330
2
100
AcDbEntity
  8
L-ZISSEN
100
AcDbLine
 10
-376.235121519868
 20
-140.4542848553419
 30
0.0
 11
-376.4851215198689
 21
-140.4542848553419
 31
0.0
  0
LINE
  5
D10
330
2
100
AcDbEntity
  8
L-ZISSEN
100
AcDbLine
 10
-368.635121519874
 20
-122.1370742269223
 30
0.0
 11
-364.4201215198702
 21
-124.1370742269232
 31
0.0
  0
LINE
  5
D11
330
2
100
AcDbEntity
  8
L-ZISSEN
100
AcDbLine
 10
-360.2051215198709
 20
-54.13707422692323
 30
0.0
 11
-360.2051215198732
 21
-122.1370742269223
 31
0.0
  0
LINE
  5
D12
330
2
100
AcDbEntity
  8
L-ZISSEN
100
AcDbLine
 10
-355.4851215198734
 20
-130.2020193592797
 30
0.0
 11
-355.4851215198711
 21
-43.79833531529084
 31
0.0
  0
LINE
  5
D13
330
2
100
AcDbEntity
  8
L-ZISSEN
100
AcDbLine
 10
-352.1710261953196
 20
-71.68782121730192
 30
0.0
 11
-352.1710261953196
 21
-43.79833531529174
 31
0.0
  0
LINE
  5
D14
330
2
100
AcDbEntity
  8
L-ZISSEN
100
AcDbLine
 10
-355.4851215198711
 20
-43.79833531529084
 30
0.0
 11
-355.4851215198711
 21
-85.12232976949007
 31
0.0
  0
LINE
  5
D15
330
2
100
AcDbEntity
  8
L-ZISSEN
100
AcDbLine
 10
-350.4851215198712
 20
-43.79833531529174
 30
0.0
 11
-350.4851215198712
 21
-64.79833531529084
 31
0.0
  0
ARC
  5
D16
330
2
100
AcDbEntity
  8
L-ZISSEN
100
AcDbCircle
 10
-363.4851215198634
 20
-130.2020193592797
 30
0.0
 40
8.000000000000113
100
AcDbArc
 50
283.9062370650485
 51
0.0
  0
LINE
  5
D17
330
2
100
AcDbEntity
  8
L-ZISSEN
100
AcDbLine
 10
-346.4851215198725
 20
-69.7474421036718
 30
0.0
 11
-351.9851215198698
 21
-71.68782121730192
 31
0.0
  0
LINE
  5
D18
330
2
100
AcDbEntity
  8
L-ZISSEN
100
AcDbLine
 10
-353.6576100260756
 20
-67.6053576123727
 30
0.0
 11
-353.6576100260756
 21
-69.44132608248356
 31
0.0
  0
LINE
  5
D19
330
2
100
AcDbEntity
  8
L-ZISSEN
100
AcDbLine
 10
-352.1710261953196
 20
-69.79184185330677
 30
0.0
 11
-352.1710261953196
 21
-67.60535761237179
 31
0.0
  0
LINE
  5
D1A
330
2
100
AcDbEntity
  8
L-ZISSEN
100
AcDbLine
 10
-355.4212841698474
 20
-76.92130182992741
 30
0.0
 11
-353.6576100260756
 21
-69.44132608248356
 31
0.0
  0
LINE
  5
D1B
330
2
100
AcDbEntity
  8
L-ZISSEN
100
AcDbLine
 10
-353.9347003390914
 20
-77.27181760075064
 30
0.0
 11
-355.4851215198711
 21
-77.27181760075064
 31
0.0
  0
LINE
  5
D1C
330
2
100
AcDbEntity
  8
L-ZISSEN
100
AcDbLine
 10
-351.9851215198698
 20
-71.68782121730192
 30
0.0
 11
-352.1710261953196
 21
-71.68782121730192
 31
0.0
  0
LINE
  5
D1D
330
2
100
AcDbEntity
  8
L-ZISSEN
100
AcDbLine
 10
-353.9347003390914
 20
-77.27181760075064
 30
0.0
 11
-352.1710261953196
 21
-69.79184185330677
 31
0.0
  0
LINE
  5
D1E
330
2
100
AcDbEntity
  8
L-ZISSEN
100
AcDbLine
 10
-352.1710261953196
 20
-67.60535761237179
 30
0.0
 11
-355.4851215198711
 21
-67.60535761237179
 31
0.0
  0
LINE
  5
D1F
330
2
100
AcDbEntity
  8
L-ZISSEN
100
AcDbLine
 10
-346.4851215198725
 20
-65.4632731210736
 30
0.0
 11
-346.4851215198725
 21
-69.7474421036718
 31
0.0
  0
LINE
  5
D20
330
2
100
AcDbEntity
  8
L-ZISSEN
100
AcDbLine
 10
-350.4851215198712
 20
-64.79833531529084
 30
0.0
 11
-346.4851215198725
 21
-65.4632731210736
 31
0.0
  0
ARC
  5
D21
330
2
100
AcDbEntity
  8
L-ZISSEN
100
AcDbCircle
 10
-407.4851215198621
 20
-130.2020193592797
 30
0.0
 40
8.000000000000113
100
AcDbArc
 50
180.0
 51
256.0937629347638
  0
ARC
  5
D22
330
2
100
AcDbEntity
  8
L-ZISSEN
100
AcDbCircle
 10
-392.2634371363758
 20
-139.5276262597403
 30
0.0
 40
5.271330170370607
100
AcDbArc
 50
245.0771192748304
 51
295.2523389966471
  0
ARC
  5
D23
330
2
100
AcDbEntity
  8
L-ZISSEN
100
AcDbCircle
 10
-392.2634371363745
 20
-147.0690443708426
 30
0.0
 40
5.271330170370607
100
AcDbArc
 50
64.74766100341111
 51
114.9228807251695
  0
ARC
  5
D24
330
2
100
AcDbEntity
  8
L-ZISSEN
100
AcDbCircle
 10
-385.4851215198675
 20
-41.34562423380794
 30
0.0
 40
99.53938471878538
100
AcDbArc
 50
256.0937629349514
 51
264.6679223051358
  0
LINE
  5
D25
330
2
100
AcDbEntity
  8
L-ZISSEN
100
AcDbLine
 10
-394.4847651399538
 20
-142.2886025852349
 30
0.0
 11
-394.4847651399538
 21
-144.3080680453476
 31
0.0
  0
LINE
  5
D26
330
2
100
AcDbEntity
  8
L-ZISSEN
100
AcDbLine
 10
-394.4851215198707
 20
-141.6578865158553
 30
0.0
 11
-394.4851215198707
 21
-140.4542848553419
 31
0.0
  0
LINE
  5
D27
330
2
100
AcDbEntity
  8
L-ZISSEN
100
AcDbLine
 10
-381.485121519868
 20
-146.7395007257828
 30
0.0
 11
-381.4851215198679
 21
-156.7983353152913
 31
0.0
  0
LINE
  5
D28
330
2
100
AcDbEntity
  8
L-ZISSEN
100
AcDbLine
 10
-382.4851215198716
 20
-146.7395007257828
 30
0.0
 11
-382.4851215198716
 21
-156.7983353152913
 31
0.0
  0
LINE
  5
D29
330
2
100
AcDbEntity
  8
L-ZISSEN
100
AcDbLine
 10
-383.4851215198707
 20
-146.7395007257828
 30
0.0
 11
-383.4851215198706
 21
-156.7983353152913
 31
0.0
  0
LINE
  5
D2A
330
2
100
AcDbEntity
  8
L-ZISSEN
100
AcDbLine
 10
-384.4851215198698
 20
-146.7395007257828
 30
0.0
 11
-384.4851215198697
 21
-156.7983353152913
 31
0.0
  0
LINE
  5
D2B
330
2
100
AcDbEntity
  8
L-ZISSEN
100
AcDbLine
 10
-390.4851215198712
 20
-146.7395007257828
 30
0.0
 11
-390.4851215198711
 21
-156.7983353152913
 31
0.0
  0
LINE
  5
D2C
330
2
100
AcDbEntity
  8
L-ZISSEN
100
AcDbLine
 10
-389.4851215198721
 20
-146.7395007257828
 30
0.0
 11
-389.4851215198721
 21
-156.7983353152913
 31
0.0
  0
LINE
  5
D2D
330
2
100
AcDbEntity
  8
L-ZISSEN
100
AcDbLine
 10
-388.4851215198707
 20
-146.7395007257828
 30
0.0
 11
-388.4851215198706
 21
-156.7983353152913
 31
0.0
  0
LINE
  5
D2E
330
2
100
AcDbEntity
  8
L-ZISSEN
100
AcDbLine
 10
-385.4851215198689
 20
-146.7395007257828
 30
0.0
 11
-385.4851215198688
 21
-156.7983353152913
 31
0.0
  0
LINE
  5
D2F
330
2
100
AcDbEntity
  8
L-ZISSEN
100
AcDbLine
 10
-386.4851215198703
 20
-146.7395007257828
 30
0.0
 11
-386.4851215198701
 21
-156.7983353152913
 31
0.0
  0
LINE
  5
D30
330
2
100
AcDbEntity
  8
L-ZISSEN
100
AcDbLine
 10
-387.4851215198694
 20
-146.7395007257828
 30
0.0
 11
-387.4851215198692
 21
-156.7983353152913
 31
0.0
  0
LINE
  5
D31
330
2
100
AcDbEntity
  8
L-ZISSEN
100
AcDbLine
 10
-391.4851215198704
 20
-156.4983353152915
 30
0.0
 11
-391.4851215198702
 21
-147.2395007257828
 31
0.0
  0
LINE
  5
D32
330
2
100
AcDbEntity
  8
L-ZISSEN
100
AcDbLine
 10
-379.7851215198718
 20
-156.7983353152913
 30
0.0
 11
-391.1851215198705
 21
-156.7983353152913
 31
0.0
  0
LINE
  5
D33
330
2
100
AcDbEntity
  8
L-ZISSEN
100
AcDbLine
 10
-391.1851215198705
 20
-156.7983353152913
 30
0.0
 11
-391.4851215198702
 21
-156.4983353152915
 31
0.0
  0
LINE
  5
D34
330
2
100
AcDbEntity
  8
L-ZISSEN
100
AcDbLine
 10
-379.7851215198718
 20
-156.7983353152913
 30
0.0
 11
-379.4851215198721
 21
-156.4983353152915
 31
0.0
  0
LINE
  5
D35
330
2
100
AcDbEntity
  8
L-ZISSEN
100
AcDbLine
 10
-390.985121519873
 20
-146.7395007257828
 30
0.0
 11
-382.4851215198716
 21
-146.7395007257828
 31
0.0
  0
ARC
  5
D36
330
2
100
AcDbEntity
  8
L-ZISSEN
100
AcDbCircle
 10
-385.4851215198712
 20
-124.1572726413742
 30
0.0
 40
20.64106267391694
100
AcDbArc
 50
257.3236813122692
 51
282.4944195184275
  0
ARC
  5
D37
330
2
100
AcDbEntity
  8
L-ZISSEN
100
AcDbCircle
 10
-385.4851215198698
 20
-162.4393979892083
 30
0.0
 40
20.64106267391679
100
AcDbArc
 50
77.50558048157244
 51
102.6763186877378
  0
LINE
  5
D38
330
2
100
AcDbEntity
  8
L-ZISSEN
100
AcDbLine
 10
-390.485121519873
 20
-146.7395007257828
 30
0.0
 11
-390.9851215198703
 21
-146.2395007257828
 31
0.0
  0
LINE
  5
D39
330
2
100
AcDbEntity
  8
L-ZISSEN
100
AcDbLine
 10
-390.9851215198703
 20
-146.2395007257828
 30
0.0
 11
-390.9851215198703
 21
-144.7983353152912
 31
0.0
  0
LINE
  5
D3A
330
2
100
AcDbEntity
  8
L-ZISSEN
100
AcDbLine
 10
-390.4851215198688
 20
-144.7990319264194
 30
0.0
 11
-390.485121519873
 21
-146.7395007257828
 31
0.0
  0
LINE
  5
D3B
330
2
100
AcDbEntity
  8
L-ZISSEN
100
AcDbLine
 10
-390.0146578378883
 20
-142.3014544732405
 30
0.0
 11
-390.0146578378814
 21
-144.2952161573434
 31
0.0
  0
LINE
  5
D3C
330
2
100
AcDbEntity
  8
L-ZISSEN
100
AcDbLine
 10
-390.985121519873
 20
-146.7395007257828
 30
0.0
 11
-391.4851215198702
 21
-147.2395007257828
 31
0.0
  0
LINE
  5
D3D
330
2
100
AcDbEntity
  8
L-ZISSEN
100
AcDbLine
 10
-381.0217458828526
 20
-142.3009233589777
 30
0.0
 11
-381.0217458828526
 21
-144.2957472716057
 31
0.0
  0
LINE
  5
D3E
330
2
100
AcDbEntity
  8
L-ZISSEN
100
AcDbLine
 10
-382.4851215198703
 20
-141.7983353152912
 30
0.0
 11
-382.4851215198703
 21
-141.6578865158553
 31
0.0
  0
LINE
  5
D3F
330
2
100
AcDbEntity
  8
L-ZISSEN
100
AcDbLine
 10
-402.3351215198706
 20
-122.1370742269223
 30
0.0
 11
-406.5501215198721
 21
-124.1370742269232
 31
0.0
  0
LINE
  5
D40
330
2
100
AcDbEntity
  8
L-ZISSEN
100
AcDbLine
 10
-406.5501215198721
 20
-124.1370742269232
 30
0.0
 11
-410.7651215198713
 21
-122.1370742269223
 31
0.0
  0
TEXT
  5
D41
330
2
100
AcDbEntity
  8
L-ZISSEN
100
AcDbText
 10
-445.3797566459028
 20
-79.64048115599871
 30
0.0
 40
4.5
  1
P.P
100
AcDbText
  0
LINE
  5
D42
330
2
100
AcDbEntity
  8
L-ZISSEN
100
AcDbLine
 10
-432.5093675779995
 20
-77.39380692804798
 30
0.0
 11
-434.5093675779995
 21
-77.39380692804798
 31
0.0
  0
LINE
  5
D43
330
2
100
AcDbEntity
  8
L-ZISSEN
100
AcDbLine
 10
-410.7651215198736
 20
-54.13707422692323
 30
0.0
 11
-410.7651215198713
 21
-122.1370742269223
 31
0.0
  0
LINE
  5
D44
330
2
100
AcDbEntity
  8
L-ZISSEN
100
AcDbLine
 10
-402.3351215198706
 20
-54.13707422692323
 30
0.0
 11
-402.3351215198706
 21
-122.1370742269223
 31
0.0
  0
LINE
  5
D45
330
2
100
AcDbEntity
  8
L-ZISSEN
100
AcDbLine
 10
-415.4851215198735
 20
-130.2020193592797
 30
0.0
 11
-415.4851215198712
 21
-43.79833531529084
 31
0.0
  0
LINE
  5
D46
330
2
100
AcDbEntity
  8
L-ZISSEN
100
AcDbLine
 10
-387.1124783891232
 20
-44.96096578973265
 30
0.0
 11
-432.5093675779995
 21
-77.39380692804798
 31
0.0
  0
LINE
  5
D47
330
2
100
AcDbEntity
  8
L-ZISSEN
100
AcDbLine
 10
-410.7651215198736
 20
-54.13707422692323
 30
0.0
 11
-402.3351215198706
 21
-54.13707422692323
 31
0.0
  0
SOLID
  5
D48
330
2
100
AcDbEntity
  8
L-ZISSEN
100
AcDbTrace
 10
-387.3062501348633
 20
-44.68973964485712
 30
0.0
 11
-386.9187066433831
 21
-45.23219193460772
 31
0.0
 12
-385.4851215198712
 22
-43.79833531529174
 32
0.0
 13
-385.4851215198712
 23
-43.79833531529174
 33
0.0
  0
LINE
  5
D49
330
2
100
AcDbEntity
  8
L-ZISSEN
100
AcDbLine
 10
-388.4851215198721
 20
-141.7983353152912
 30
0.0
 11
-388.4851215198721
 21
-141.6578865158553
 31
0.0
  0
LINE
  5
D4A
330
2
100
AcDbEntity
  8
L-ZISSEN
100
AcDbLine
 10
-376.4851215198716
 20
-141.6578865158553
 30
0.0
 11
-376.4851215198716
 21
-140.4542848553419
 31
0.0
  0
LINE
  5
D4C
330
2
100
AcDbEntity
  8
L-ZISSEN
100
AcDbLine
 10
-230.4851215198711
 20
31.2016646847096
 30
0.0
 11
-140.4851215198712
 21
31.20166468470961
 31
0.0
  0
LINE
  5
D4D
330
2
100
AcDbEntity
  8
L-ZISSEN
100
AcDbLine
 10
-140.4851215198712
 20
16.20166468471052
 30
0.0
 11
-230.4851215198711
 21
16.20166468471052
 31
0.0
  0
LINE
  5
D50
330
2
100
AcDbEntity
  8
L-ZISSEN
100
AcDbLine
 10
-221.485121519873
 20
16.20166468471052
 30
0.0
 11
-221.4851215198729
 21
45.20166468471052
 31
0.0
  0
LINE
  5
D51
330
2
100
AcDbEntity
  8
L-ZISSEN
100
AcDbLine
 10
-149.4851215198712
 20
16.20166468471052
 30
0.0
 11
-149.4851215198712
 21
45.20166468471052
 31
0.0
  0
LINE
  5
D53
330
2
100
AcDbEntity
  8
L-ZISSEN
100
AcDbLine
 10
-223.0683826092947
 20
-41.80006916910587
 30
0.0
 11
-225.4851215198734
 21
16.20166468471053
 31
0.0
  0
LINE
  5
D54
330
2
100
AcDbEntity
  8
L-ZISSEN
100
AcDbLine
 10
-147.9018604304476
 20
-41.80006916910587
 30
0.0
 11
-145.4851215198711
 21
16.20166468471053
 31
0.0
  0
LINE
  5
D55
330
2
100
AcDbEntity
  8
L-ZISSEN
100
AcDbLine
 10
-220.9851215198707
 20
-43.79833531529174
 30
0.0
 11
-149.9851215198716
 21
-43.79833531529174
 31
0.0
  0
LINE
  5
D57
330
2
100
AcDbEntity
  8
L-ZISSEN
100
AcDbLine
 10
-147.9018604304476
 20
-41.80006916910587
 30
0.0
 11
-223.0683826092947
 21
-41.80006916910587
 31
0.0
  0
LINE
  5
D58
330
2
100
AcDbEntity
  8
L-ZISSEN
100
AcDbLine
 10
-149.9851215198716
 20
-43.79833531529174
 30
0.0
 11
-147.9018604304476
 21
-41.80006916910587
 31
0.0
  0
LINE
  5
D59
330
2
100
AcDbEntity
  8
L-ZISSEN
100
AcDbLine
 10
-220.9851215198707
 20
-43.79833531529174
 30
0.0
 11
-223.0683826092947
 21
-41.80006916910587
 31
0.0
  0
LINE
  5
D5B
330
2
100
AcDbEntity
  8
L-ZISSEN
100
AcDbLine
 10
-210.7651215198714
 20
-54.13707422692323
 30
0.0
 11
-202.3351215198706
 21
-54.13707422692323
 31
0.0
  0
LINE
  5
D5C
330
2
100
AcDbEntity
  8
L-ZISSEN
100
AcDbLine
 10
-202.3351215198706
 20
-122.1370742269232
 30
0.0
 11
-206.5501215198721
 21
-124.1370742269232
 31
0.0
  0
ARC
  5
D5D
330
2
100
AcDbEntity
  8
L-ZISSEN
100
AcDbCircle
 10
-185.4851215198698
 20
-41.3456242338093
 30
0.0
 40
99.53938471878538
100
AcDbArc
 50
256.0937629349585
 51
264.6679223051358
  0
LINE
  5
D5E
330
2
100
AcDbEntity
  8
L-ZISSEN
100
AcDbLine
 10
-215.4851215198712
 20
-130.2020193592797
 30
0.0
 11
-215.4851215198712
 21
-43.79833531529221
 31
0.0
  0
LINE
  5
D5F
330
2
100
AcDbEntity
  8
L-ZISSEN
100
AcDbLine
 10
-210.7651215198714
 20
-54.13707422692323
 30
0.0
 11
-210.7651215198714
 21
-122.1370742269227
 31
0.0
  0
ARC
  5
D60
330
2
100
AcDbEntity
  8
L-ZISSEN
100
AcDbCircle
 10
-207.4851215198703
 20
-130.2020193592797
 30
0.0
 40
8.000000000000113
100
AcDbArc
 50
180.0
 51
256.0937629349514
  0
LINE
  5
D61
330
2
100
AcDbEntity
  8
L-ZISSEN
100
AcDbLine
 10
-206.5501215198721
 20
-124.1370742269232
 30
0.0
 11
-210.7651215198714
 21
-122.1370742269227
 31
0.0
  0
LINE
  5
D62
330
2
100
AcDbEntity
  8
L-ZISSEN
100
AcDbLine
 10
-181.7351215198689
 20
-57.54833531529084
 30
0.0
 11
-185.4851215198689
 21
-63.79833531529084
 31
0.0
  0
LINE
  5
D63
330
2
100
AcDbEntity
  8
L-ZISSEN
100
AcDbLine
 10
-168.6351215198717
 20
-54.13707422692323
 30
0.0
 11
-168.6351215198717
 21
-122.1370742269232
 31
0.0
  0
LINE
  5
D64
330
2
100
AcDbEntity
  8
L-ZISSEN
100
AcDbLine
 10
-160.205121519871
 20
-54.13707422692323
 30
0.0
 11
-160.205121519871
 21
-122.1370742269227
 31
0.0
  0
LINE
  5
D65
330
2
100
AcDbEntity
  8
L-ZISSEN
100
AcDbLine
 10
-155.4851215198734
 20
-130.2020193592811
 30
0.0
 11
-155.4851215198711
 21
-43.79833531529084
 31
0.0
  0
LINE
  5
D66
330
2
100
AcDbEntity
  8
L-ZISSEN
100
AcDbLine
 10
-172.3601215198734
 20
-43.79833531529221
 30
0.0
 11
-172.3601215198734
 21
-68.17333531529221
 31
0.0
  0
LINE
  5
D67
330
2
100
AcDbEntity
  8
L-ZISSEN
100
AcDbLine
 10
-171.4226215198734
 20
-43.79833531529221
 30
0.0
 11
-171.4226215198734
 21
-67.58761068242484
 31
0.0
  0
LINE
  5
D68
330
2
100
AcDbEntity
  8
L-ZISSEN
100
AcDbLine
 10
-171.4226215198734
 20
-43.79833531529221
 30
0.0
 11
-171.4226215198734
 21
-82.5483353152922
 31
0.0
  0
LINE
  5
D69
330
2
100
AcDbEntity
  8
L-ZISSEN
100
AcDbLine
 10
-202.3351215198706
 20
-54.13707422692323
 30
0.0
 11
-202.3351215198706
 21
-122.1370742269232
 31
0.0
  0
LINE
  5
D6A
330
2
100
AcDbEntity
  8
L-ZISSEN
100
AcDbLine
 10
-198.6101215198734
 20
-43.79833531529221
 30
0.0
 11
-198.6101215198734
 21
-68.17333531529221
 31
0.0
  0
LINE
  5
D6B
330
2
100
AcDbEntity
  8
L-ZISSEN
100
AcDbLine
 10
-199.5476215198734
 20
-43.79833531529221
 30
0.0
 11
-199.5476215198734
 21
-67.58761068242484
 31
0.0
  0
LINE
  5
D6C
330
2
100
AcDbEntity
  8
L-ZISSEN
100
AcDbLine
 10
-199.5476215198734
 20
-43.79833531529221
 30
0.0
 11
-199.5476215198734
 21
-82.5483353152922
 31
0.0
  0
LINE
  5
D6D
330
2
100
AcDbEntity
  8
L-ZISSEN
100
AcDbLine
 10
-189.2351215198689
 20
-57.54833531529084
 30
0.0
 11
-185.4851215198689
 21
-63.79833531529084
 31
0.0
  0
ARC
  5
D6E
330
2
100
AcDbEntity
  8
L-ZISSEN
100
AcDbCircle
 10
-163.4851215198716
 20
-130.2020193592811
 30
0.0
 40
8.000000000000113
100
AcDbArc
 50
283.9062370652428
 51
0.0
  0
LINE
  5
D6F
330
2
100
AcDbEntity
  8
L-ZISSEN
100
AcDbLine
 10
-176.4851215198689
 20
-141.6578865158558
 30
0.0
 11
-179.4851215198707
 21
-141.6578865158558
 31
0.0
  0
LINE
  5
D70
330
2
100
AcDbEntity
  8
L-ZISSEN
100
AcDbLine
 10
-176.4851215198689
 20
-141.6578865158558
 30
0.0
 11
-179.4851215198707
 21
-141.6578865158558
 31
0.0
  0
ARC
  5
D71
330
2
100
AcDbEntity
  8
L-ZISSEN
100
AcDbCircle
 10
-178.7724034598761
 20
-147.0682476010724
 30
0.0
 40
5.271330170371789
100
AcDbArc
 50
64.28835488513389
 51
115.259106683423
  0
ARC
  5
D72
330
2
100
AcDbEntity
  8
L-ZISSEN
100
AcDbCircle
 10
-178.7724034598775
 20
-139.5284230295114
 30
0.0
 40
5.271330170371532
100
AcDbArc
 50
244.7408933165769
 51
295.711645114866
  0
LINE
  5
D73
330
2
100
AcDbEntity
  8
L-ZISSEN
100
AcDbLine
 10
-176.4851215198689
 20
-140.4542848553428
 30
0.0
 11
-194.7351215198739
 21
-140.4542848553423
 31
0.0
  0
ARC
  5
D74
330
2
100
AcDbEntity
  8
L-ZISSEN
100
AcDbCircle
 10
-192.2634371363744
 20
-147.0690443708431
 30
0.0
 40
5.271330170370607
100
AcDbArc
 50
64.74766100341111
 51
114.9228807251695
  0
ARC
  5
D75
330
2
100
AcDbEntity
  8
L-ZISSEN
100
AcDbCircle
 10
-192.2634371363758
 20
-139.5276262597408
 30
0.0
 40
5.271330170370607
100
AcDbArc
 50
245.0771192748304
 51
295.2523389966471
  0
LINE
  5
D76
330
2
100
AcDbEntity
  8
L-ZISSEN
100
AcDbLine
 10
-179.4851215198707
 20
-141.6578865158558
 30
0.0
 11
-194.4851215198707
 21
-141.6578865158558
 31
0.0
  0
LINE
  5
D77
330
2
100
AcDbEntity
  8
L-ZISSEN
100
AcDbLine
 10
-192.3443557176631
 20
-141.7983353152917
 30
0.0
 11
-179.4851215198707
 21
-141.7983353152917
 31
0.0
  0
LINE
  5
D78
330
2
100
AcDbEntity
  8
L-ZISSEN
100
AcDbLine
 10
-179.4851215198707
 20
-141.6578865158558
 30
0.0
 11
-194.4851215198707
 21
-141.6578865158558
 31
0.0
  0
LINE
  5
D79
330
2
100
AcDbEntity
  8
L-ZISSEN
100
AcDbLine
 10
-192.2634371363758
 20
-144.7989564301115
 30
0.0
 11
-178.7724034598775
 21
-144.799753199883
 31
0.0
  0
LINE
  5
D7A
330
2
100
AcDbEntity
  8
L-ZISSEN
100
AcDbLine
 10
-194.4847651399538
 20
-142.2886025852353
 30
0.0
 11
-194.4847651399538
 21
-144.3080680453481
 31
0.0
  0
LINE
  5
D7B
330
2
100
AcDbEntity
  8
L-ZISSEN
100
AcDbLine
 10
-194.4851215198707
 20
-141.6578865158558
 30
0.0
 11
-194.4851215198707
 21
-140.4542848553423
 31
0.0
  0
LINE
  5
D7C
330
2
100
AcDbEntity
  8
L-ZISSEN
100
AcDbLine
 10
-194.4851215198707
 20
-141.6578865158558
 30
0.0
 11
-194.4851215198707
 21
-140.4542848553423
 31
0.0
  0
LINE
  5
D7D
330
2
100
AcDbEntity
  8
L-ZISSEN
100
AcDbLine
 10
-179.4851215198721
 20
-147.2395007257832
 30
0.0
 11
-179.4851215198721
 21
-156.498335315292
 31
0.0
  0
LINE
  5
D7E
330
2
100
AcDbEntity
  8
L-ZISSEN
100
AcDbLine
 10
-183.4851215198707
 20
-146.7395007257832
 30
0.0
 11
-183.4851215198706
 21
-156.7983353152917
 31
0.0
  0
LINE
  5
D7F
330
2
100
AcDbEntity
  8
L-ZISSEN
100
AcDbLine
 10
-184.4851215198698
 20
-146.7395007257832
 30
0.0
 11
-184.4851215198697
 21
-156.7983353152917
 31
0.0
  0
LINE
  5
D80
330
2
100
AcDbEntity
  8
L-ZISSEN
100
AcDbLine
 10
-185.4851215198689
 20
-146.7395007257832
 30
0.0
 11
-185.4851215198688
 21
-156.7983353152917
 31
0.0
  0
LINE
  5
D81
330
2
100
AcDbEntity
  8
L-ZISSEN
100
AcDbLine
 10
-180.4851215198689
 20
-146.7395007257832
 30
0.0
 11
-180.4851215198668
 21
-156.7983353152917
 31
0.0
  0
LINE
  5
D82
330
2
100
AcDbEntity
  8
L-ZISSEN
100
AcDbLine
 10
-181.485121519868
 20
-146.7395007257832
 30
0.0
 11
-181.4851215198679
 21
-156.7983353152917
 31
0.0
  0
LINE
  5
D83
330
2
100
AcDbEntity
  8
L-ZISSEN
100
AcDbLine
 10
-182.4851215198716
 20
-146.7395007257832
 30
0.0
 11
-182.4851215198716
 21
-156.7983353152917
 31
0.0
  0
LINE
  5
D84
330
2
100
AcDbEntity
  8
L-ZISSEN
100
AcDbLine
 10
-186.4851215198702
 20
-146.7395007257832
 30
0.0
 11
-186.4851215198701
 21
-156.7983353152917
 31
0.0
  0
LINE
  5
D85
330
2
100
AcDbEntity
  8
L-ZISSEN
100
AcDbLine
 10
-187.4851215198693
 20
-146.7395007257832
 30
0.0
 11
-187.4851215198692
 21
-156.7983353152917
 31
0.0
  0
LINE
  5
D86
330
2
100
AcDbEntity
  8
L-ZISSEN
100
AcDbLine
 10
-191.4851215198704
 20
-156.498335315292
 30
0.0
 11
-191.4851215198702
 21
-147.2395007257832
 31
0.0
  0
LINE
  5
D87
330
2
100
AcDbEntity
  8
L-ZISSEN
100
AcDbLine
 10
-189.4851215198721
 20
-146.7395007257832
 30
0.0
 11
-189.4851215198721
 21
-156.7983353152917
 31
0.0
  0
LINE
  5
D88
330
2
100
AcDbEntity
  8
L-ZISSEN
100
AcDbLine
 10
-190.4851215198712
 20
-146.7395007257832
 30
0.0
 11
-190.485121519871
 21
-156.7983353152917
 31
0.0
  0
LINE
  5
D89
330
2
100
AcDbEntity
  8
L-ZISSEN
100
AcDbLine
 10
-188.4851215198707
 20
-146.7395007257832
 30
0.0
 11
-188.4851215198706
 21
-156.7983353152917
 31
0.0
  0
LINE
  5
D8A
330
2
100
AcDbEntity
  8
L-ZISSEN
100
AcDbLine
 10
-179.7851215198718
 20
-156.7983353152917
 30
0.0
 11
-191.1851215198705
 21
-156.7983353152917
 31
0.0
  0
LINE
  5
D8B
330
2
100
AcDbEntity
  8
L-ZISSEN
100
AcDbLine
 10
-191.1851215198705
 20
-156.7983353152917
 30
0.0
 11
-191.4851215198702
 21
-156.498335315292
 31
0.0
  0
LINE
  5
D8C
330
2
100
AcDbEntity
  8
L-ZISSEN
100
AcDbLine
 10
-179.7851215198718
 20
-156.7983353152917
 30
0.0
 11
-179.4851215198721
 21
-156.498335315292
 31
0.0
  0
ARC
  5
D8D
330
2
100
AcDbEntity
  8
L-ZISSEN
100
AcDbCircle
 10
-185.4851215198698
 20
-162.4393979892088
 30
0.0
 40
20.64106267391679
100
AcDbArc
 50
77.50558048157244
 51
102.6763186877378
  0
LINE
  5
D8E
330
2
100
AcDbEntity
  8
L-ZISSEN
100
AcDbLine
 10
-190.985121519873
 20
-146.7395007257832
 30
0.0
 11
-182.4851215198716
 21
-146.7395007257832
 31
0.0
  0
ARC
  5
D8F
330
2
100
AcDbEntity
  8
L-ZISSEN
100
AcDbCircle
 10
-185.4851215198712
 20
-124.1572726413746
 30
0.0
 40
20.64106267391694
100
AcDbArc
 50
257.3236813122692
 51
282.4944195184275
  0
LINE
  5
D90
330
2
100
AcDbEntity
  8
L-ZISSEN
100
AcDbLine
 10
-190.0146578378883
 20
-142.3014544732409
 30
0.0
 11
-190.0146578378814
 21
-144.2952161573439
 31
0.0
  0
LINE
  5
D91
330
2
100
AcDbEntity
  8
L-ZISSEN
100
AcDbLine
 10
-190.485121519873
 20
-146.7395007257832
 30
0.0
 11
-190.9851215198703
 21
-146.2395007257832
 31
0.0
  0
LINE
  5
D92
330
2
100
AcDbEntity
  8
L-ZISSEN
100
AcDbLine
 10
-190.985121519873
 20
-146.7395007257832
 30
0.0
 11
-191.4851215198702
 21
-147.2395007257832
 31
0.0
  0
LINE
  5
D93
330
2
100
AcDbEntity
  8
L-ZISSEN
100
AcDbLine
 10
-190.9851215198703
 20
-146.2395007257832
 30
0.0
 11
-190.9851215198703
 21
-144.7983353152917
 31
0.0
  0
LINE
  5
D94
330
2
100
AcDbEntity
  8
L-ZISSEN
100
AcDbLine
 10
-190.4851215198688
 20
-144.7990319264199
 30
0.0
 11
-190.485121519873
 21
-146.7395007257832
 31
0.0
  0
LINE
  5
D95
330
2
100
AcDbEntity
  8
L-ZISSEN
100
AcDbLine
 10
-182.4851215198716
 20
-146.7395007257832
 30
0.0
 11
-179.9851215198716
 21
-146.7395007257832
 31
0.0
  0
LINE
  5
D96
330
2
100
AcDbEntity
  8
L-ZISSEN
100
AcDbLine
 10
-179.9851215198716
 20
-146.7395007257832
 30
0.0
 11
-179.4851215198721
 21
-147.2395007257832
 31
0.0
  0
LINE
  5
D97
330
2
100
AcDbEntity
  8
L-ZISSEN
100
AcDbLine
 10
-179.985121519872
 20
-146.2395007257828
 30
0.0
 11
-179.9851215198721
 21
-144.7983353152917
 31
0.0
  0
LINE
  5
D98
330
2
100
AcDbEntity
  8
L-ZISSEN
100
AcDbLine
 10
-181.0217458828526
 20
-142.3009233589782
 30
0.0
 11
-181.0217458828526
 21
-144.2957472716061
 31
0.0
  0
LINE
  5
D99
330
2
100
AcDbEntity
  8
L-ZISSEN
100
AcDbLine
 10
-180.4851215198674
 20
-144.7996815777141
 30
0.0
 11
-180.4851215198716
 21
-146.7395007257832
 31
0.0
  0
LINE
  5
D9A
330
2
100
AcDbEntity
  8
L-ZISSEN
100
AcDbLine
 10
-180.4851215198716
 20
-146.7395007257832
 30
0.0
 11
-179.9851215198721
 21
-146.2395007257832
 31
0.0
  0
LINE
  5
D9B
330
2
100
AcDbEntity
  8
L-ZISSEN
100
AcDbLine
 10
-182.4851215198702
 20
-141.7983353152917
 30
0.0
 11
-182.4851215198702
 21
-141.6578865158558
 31
0.0
  0
LINE
  5
D9C
330
2
100
AcDbEntity
  8
L-ZISSEN
100
AcDbLine
 10
-179.4851215198707
 20
-141.7983353152917
 30
0.0
 11
-178.6501485407745
 21
-141.7983353152917
 31
0.0
  0
ARC
  5
D9D
330
2
100
AcDbEntity
  8
L-ZISSEN
100
AcDbCircle
 10
-185.4851215198698
 20
-41.3456242338093
 30
0.0
 40
99.53938471878553
100
AcDbArc
 50
275.3320776948641
 51
283.9062370650485
  0
LINE
  5
D9E
330
2
100
AcDbEntity
  8
L-ZISSEN
100
AcDbLine
 10
-176.4854778997835
 20
-142.3188378221975
 30
0.0
 11
-176.4854778997835
 21
-144.2778328083854
 31
0.0
  0
LINE
  5
D9F
330
2
100
AcDbEntity
  8
L-ZISSEN
100
AcDbLine
 10
-176.2351215198657
 20
-140.4542848553423
 30
0.0
 11
-176.4851215198689
 21
-140.4542848553428
 31
0.0
  0
LINE
  5
DA0
330
2
100
AcDbEntity
  8
L-ZISSEN
100
AcDbLine
 10
-176.4851215198689
 20
-141.6578865158558
 30
0.0
 11
-176.4851215198689
 21
-140.4542848553428
 31
0.0
  0
LINE
  5
DA1
330
2
100
AcDbEntity
  8
L-ZISSEN
100
AcDbLine
 10
-176.4851215198689
 20
-141.6578865158558
 30
0.0
 11
-176.4851215198689
 21
-140.4542848553428
 31
0.0
  0
LINE
  5
DA2
330
2
100
AcDbEntity
  8
L-ZISSEN
100
AcDbLine
 10
-185.4851215198712
 20
-70.04833531529221
 30
0.0
 11
-172.3601215198734
 21
-68.17333531529221
 31
0.0
  0
LINE
  5
DA3
330
2
100
AcDbEntity
  8
L-ZISSEN
100
AcDbLine
 10
-185.4851215198712
 20
-78.79833531529221
 30
0.0
 11
-171.4226215198734
 21
-75.04833531529221
 31
0.0
  0
LINE
  5
DA4
330
2
100
AcDbEntity
  8
L-ZISSEN
100
AcDbLine
 10
-173.5706883850368
 20
-73.74036082633665
 30
0.0
 11
-185.4851215198712
 21
-76.23471880076749
 31
0.0
  0
LINE
  5
DA5
330
2
100
AcDbEntity
  8
L-ZISSEN
100
AcDbLine
 10
-185.4851215198712
 20
-70.87950757251928
 30
0.0
 11
-173.5706883850368
 21
-69.17744569611477
 31
0.0
  0
LINE
  5
DA6
330
2
100
AcDbEntity
  8
L-ZISSEN
100
AcDbLine
 10
-198.2976215198712
 20
-83.7983353152922
 30
0.0
 11
-172.6726215198711
 21
-83.7983353152922
 31
0.0
  0
LINE
  5
DA7
330
2
100
AcDbEntity
  8
L-ZISSEN
100
AcDbLine
 10
-185.4851215198712
 20
-70.04833531529221
 30
0.0
 11
-198.6101215198734
 21
-68.17333531529221
 31
0.0
  0
LINE
  5
DA8
330
2
100
AcDbEntity
  8
L-ZISSEN
100
AcDbLine
 10
-197.3995546547055
 20
-73.74036082633665
 30
0.0
 11
-185.4851215198712
 21
-76.23471880076749
 31
0.0
  0
LINE
  5
DA9
330
2
100
AcDbEntity
  8
L-ZISSEN
100
AcDbLine
 10
-185.4851215198712
 20
-70.87950757251928
 30
0.0
 11
-197.3995546547055
 21
-69.17744569611477
 31
0.0
  0
LINE
  5
DAA
330
2
100
AcDbEntity
  8
L-ZISSEN
100
AcDbLine
 10
-185.4851215198712
 20
-78.79833531529221
 30
0.0
 11
-199.5476215198734
 21
-75.04833531529221
 31
0.0
  0
LINE
  5
DAB
330
2
100
AcDbEntity
  8
L-ZISSEN
100
AcDbLine
 10
-194.8601215198712
 20
-76.29833531529129
 30
0.0
 11
-194.8601215198734
 21
-83.7983353152922
 31
0.0
  0
ARC
  5
DAC
330
2
100
AcDbEntity
  8
L-ZISSEN
100
AcDbCircle
 10
-198.2976215198712
 20
-82.5483353152922
 30
0.0
 40
1.250000000000568
100
AcDbArc
 50
180.0
 51
270.0
  0
LINE
  5
DAD
330
2
100
AcDbEntity
  8
L-ZISSEN
100
AcDbLine
 10
-197.3995546547055
 20
-68.34627343888723
 30
0.0
 11
-198.6101215198734
 21
-68.17333531529221
 31
0.0
  0
LINE
  5
DAE
330
2
100
AcDbEntity
  8
L-ZISSEN
100
AcDbLine
 10
-197.3995546547055
 20
-69.17744569611477
 30
0.0
 11
-198.6101215198734
 21
-68.17333531529221
 31
0.0
  0
LINE
  5
DAF
330
2
100
AcDbEntity
  8
L-ZISSEN
100
AcDbLine
 10
-199.5476215198734
 20
-75.04833531529221
 30
0.0
 11
-197.3995546547055
 21
-73.74036082633665
 31
0.0
  0
LINE
  5
DB0
330
2
100
AcDbEntity
  8
L-ZISSEN
100
AcDbLine
 10
-197.3995546547055
 20
-69.17744569611477
 30
0.0
 11
-197.3995546547055
 21
-73.74036082633665
 31
0.0
  0
LINE
  5
DB1
330
2
100
AcDbEntity
  8
L-ZISSEN
100
AcDbLine
 10
-185.4851215198712
 20
-78.79833531529221
 30
0.0
 11
-185.4851215198712
 21
-76.23471880076749
 31
0.0
  0
ARC
  5
DB2
330
2
100
AcDbEntity
  8
L-ZISSEN
100
AcDbCircle
 10
-185.4851215198712
 20
-80.0483353152922
 30
0.0
 40
1.250000000000568
100
AcDbArc
 50
180.0
 51
0.0
  0
LINE
  5
DB3
330
2
100
AcDbEntity
  8
L-ZISSEN
100
AcDbLine
 10
-186.7351215198734
 20
-78.46500198195781
 30
0.0
 11
-186.7351215198711
 21
-80.0483353152922
 31
0.0
  0
LINE
  5
DB4
330
2
100
AcDbEntity
  8
L-ZISSEN
100
AcDbLine
 10
-184.2351215198712
 20
-78.46500198195826
 30
0.0
 11
-184.2351215198712
 21
-80.0483353152922
 31
0.0
  0
CIRCLE
  5
DB5
330
2
100
AcDbEntity
  8
L-ZISSEN
100
AcDbCircle
 10
-185.4851215198712
 20
-73.79479001646541
 30
0.0
 40
1.25
  0
LINE
  5
DB6
330
2
100
AcDbEntity
  8
L-TYUSIN
100
AcDbLine
 10
-187.6719150824262
 20
-73.79479001646541
 30
0.0
 11
-183.4771351075144
 21
-73.79479001646541
 31
0.0
  0
LINE
  5
DB7
330
2
100
AcDbEntity
  8
L-ZISSEN
100
AcDbLine
 10
-185.4851215198712
 20
-70.04833531529221
 30
0.0
 11
-185.4851215198712
 21
-70.87950757251928
 31
0.0
  0
LINE
  5
DB8
330
2
100
AcDbEntity
  8
L-ZISSEN
100
AcDbLine
 10
-164.4201215198702
 20
-124.1370742269232
 30
0.0
 11
-160.205121519871
 21
-122.1370742269227
 31
0.0
  0
LINE
  5
DB9
330
2
100
AcDbEntity
  8
L-ZISSEN
100
AcDbLine
 10
-168.6351215198717
 20
-122.1370742269232
 30
0.0
 11
-164.4201215198702
 21
-124.1370742269232
 31
0.0
  0
LINE
  5
DBA
330
2
100
AcDbEntity
  8
L-ZISSEN
100
AcDbLine
 10
-176.1101215198734
 20
-76.29833531529221
 30
0.0
 11
-176.1101215198734
 21
-83.7983353152922
 31
0.0
  0
ARC
  5
DBB
330
2
100
AcDbEntity
  8
L-ZISSEN
100
AcDbCircle
 10
-172.6726215198711
 20
-82.5483353152922
 30
0.0
 40
1.249999999999715
100
AcDbArc
 50
270.0
 51
0.0
  0
LINE
  5
DBC
330
2
100
AcDbEntity
  8
L-ZISSEN
100
AcDbLine
 10
-173.5706883850368
 20
-69.17744569611477
 30
0.0
 11
-172.3601215198734
 21
-68.17333531529221
 31
0.0
  0
LINE
  5
DBD
330
2
100
AcDbEntity
  8
L-ZISSEN
100
AcDbLine
 10
-171.4226215198734
 20
-75.04833531529221
 30
0.0
 11
-173.5706883850368
 21
-73.74036082633665
 31
0.0
  0
LINE
  5
DBE
330
2
100
AcDbEntity
  8
L-ZISSEN
100
AcDbLine
 10
-173.5706883850368
 20
-69.17744569611477
 30
0.0
 11
-173.5706883850368
 21
-73.74036082633665
 31
0.0
  0
LINE
  5
DBF
330
2
100
AcDbEntity
  8
L-ZISSEN
100
AcDbLine
 10
-173.5706883850368
 20
-68.34627343888723
 30
0.0
 11
-172.3601215198734
 21
-68.17333531529221
 31
0.0
  0
LINE
  5
DC0
330
2
100
AcDbEntity
  8
L-ZISSEN
100
AcDbLine
 10
-182.3601215198712
 20
-51.29833531529129
 30
0.0
 11
-177.3601215198711
 21
-51.29833531529129
 31
0.0
  0
LINE
  5
DC1
330
2
100
AcDbEntity
  8
L-ZISSEN
100
AcDbLine
 10
-182.3601215198712
 20
-51.29833531529129
 30
0.0
 11
-177.3601215198711
 21
-51.29833531529129
 31
0.0
  0
LINE
  5
DC2
330
2
100
AcDbEntity
  8
L-ZISSEN
100
AcDbLine
 10
-182.3601215198712
 20
-50.04833531529129
 30
0.0
 11
-177.3601215198711
 21
-50.04833531529129
 31
0.0
  0
LINE
  5
DC3
330
2
100
AcDbEntity
  8
L-ZISSEN
100
AcDbLine
 10
-182.3601215198712
 20
-50.04833531529129
 30
0.0
 11
-177.3601215198711
 21
-50.04833531529129
 31
0.0
  0
LINE
  5
DC4
330
2
100
AcDbEntity
  8
L-ZISSEN
100
AcDbLine
 10
-188.6101215198712
 20
-51.29833531529221
 30
0.0
 11
-193.6101215198712
 21
-51.29833531529221
 31
0.0
  0
LINE
  5
DC5
330
2
100
AcDbEntity
  8
L-ZISSEN
100
AcDbLine
 10
-188.6101215198712
 20
-51.29833531529221
 30
0.0
 11
-193.6101215198712
 21
-51.29833531529221
 31
0.0
  0
LINE
  5
DC6
330
2
100
AcDbEntity
  8
L-ZISSEN
100
AcDbLine
 10
-188.6101215198712
 20
-50.04833531529221
 30
0.0
 11
-193.6101215198712
 21
-50.04833531529221
 31
0.0
  0
LINE
  5
DC7
330
2
100
AcDbEntity
  8
L-ZISSEN
100
AcDbLine
 10
-188.6101215198712
 20
-50.04833531529221
 30
0.0
 11
-193.6101215198712
 21
-50.04833531529221
 31
0.0
  0
LINE
  5
DC8
330
2
100
AcDbEntity
  8
L-ZISSEN
100
AcDbLine
 10
-193.6101215198712
 20
-48.79833531529221
 30
0.0
 11
-196.7351215198712
 21
-50.67333531529221
 31
0.0
  0
LINE
  5
DC9
330
2
100
AcDbEntity
  8
L-ZISSEN
100
AcDbLine
 10
-193.6101215198712
 20
-52.54833531529221
 30
0.0
 11
-196.7351215198712
 21
-50.67333531529221
 31
0.0
  0
LINE
  5
DCA
330
2
100
AcDbEntity
  8
L-ZISSEN
100
AcDbLine
 10
-193.6101215198712
 20
-51.29833531529221
 30
0.0
 11
-193.6101215198712
 21
-52.54833531529221
 31
0.0
  0
LINE
  5
DCB
330
2
100
AcDbEntity
  8
L-ZISSEN
100
AcDbLine
 10
-193.6101215198712
 20
-50.04833531529221
 30
0.0
 11
-193.6101215198712
 21
-48.79833531529221
 31
0.0
  0
SOLID
  5
DCC
330
2
100
AcDbEntity
  8
L-ZISSEN
100
AcDbTrace
 10
-183.663992904879
 20
-44.68973964485712
 30
0.0
 11
-184.0515363963593
 21
-45.23219193460772
 31
0.0
 12
-185.4851215198712
 22
-43.79833531529174
 32
0.0
 13
-185.4851215198712
 23
-43.79833531529174
 33
0.0
  0
LINE
  5
DCD
330
2
100
AcDbEntity
  8
L-ZISSEN
100
AcDbLine
 10
-184.2351215198689
 20
-47.54833531529084
 30
0.0
 11
-186.7351215198689
 21
-47.54833531529084
 31
0.0
  0
LINE
  5
DCE
330
2
100
AcDbEntity
  8
L-ZISSEN
100
AcDbLine
 10
-186.7351215198689
 20
-47.54833531529084
 30
0.0
 11
-186.7351215198689
 21
-57.54833531529084
 31
0.0
  0
LINE
  5
DCF
330
2
100
AcDbEntity
  8
L-ZISSEN
100
AcDbLine
 10
-186.7351215198689
 20
-47.54833531529084
 30
0.0
 11
-186.7351215198689
 21
-57.54833531529084
 31
0.0
  0
LINE
  5
DD0
330
2
100
AcDbEntity
  8
L-ZISSEN
100
AcDbLine
 10
-188.6101215198712
 20
-50.04833531529221
 30
0.0
 11
-188.6101215198712
 21
-51.29833531529221
 31
0.0
  0
LINE
  5
DD1
330
2
100
AcDbEntity
  8
L-ZISSEN
100
AcDbLine
 10
-186.7351215198689
 20
-57.54833531529084
 30
0.0
 11
-189.2351215198689
 21
-57.54833531529084
 31
0.0
  0
LINE
  5
DD2
330
2
100
AcDbEntity
  8
L-ZISSEN
100
AcDbLine
 10
-184.2351215198689
 20
-47.54833531529084
 30
0.0
 11
-184.2351215198689
 21
-57.54833531529084
 31
0.0
  0
LINE
  5
DD3
330
2
100
AcDbEntity
  8
L-ZISSEN
100
AcDbLine
 10
-184.2351215198689
 20
-47.54833531529084
 30
0.0
 11
-184.2351215198689
 21
-57.54833531529084
 31
0.0
  0
LINE
  5
DD4
330
2
100
AcDbEntity
  8
L-ZISSEN
100
AcDbLine
 10
-182.3601215198712
 20
-50.04833531529129
 30
0.0
 11
-182.3601215198712
 21
-51.29833531529129
 31
0.0
  0
LINE
  5
DD5
330
2
100
AcDbEntity
  8
L-ZISSEN
100
AcDbLine
 10
-184.2351215198689
 20
-57.54833531529084
 30
0.0
 11
-181.7351215198689
 21
-57.54833531529084
 31
0.0
  0
LINE
  5
DD6
330
2
100
AcDbEntity
  8
L-ZISSEN
100
AcDbLine
 10
-160.205121519871
 20
-54.13707422692323
 30
0.0
 11
-168.6351215198717
 21
-54.13707422692323
 31
0.0
  0
LINE
  5
DD7
330
2
100
AcDbEntity
  8
L-ZISSEN
100
AcDbLine
 10
-177.3601215198711
 20
-48.79833531529129
 30
0.0
 11
-174.2351215198711
 21
-50.67333531529129
 31
0.0
  0
LINE
  5
DD8
330
2
100
AcDbEntity
  8
L-ZISSEN
100
AcDbLine
 10
-177.3601215198711
 20
-52.54833531529129
 30
0.0
 11
-174.2351215198711
 21
-50.67333531529129
 31
0.0
  0
LINE
  5
DD9
330
2
100
AcDbEntity
  8
L-ZISSEN
100
AcDbLine
 10
-177.3601215198711
 20
-51.29833531529129
 30
0.0
 11
-177.3601215198711
 21
-52.54833531529129
 31
0.0
  0
LINE
  5
DDA
330
2
100
AcDbEntity
  8
L-ZISSEN
100
AcDbLine
 10
-177.3601215198711
 20
-50.04833531529129
 30
0.0
 11
-177.3601215198711
 21
-48.79833531529129
 31
0.0
  0
LINE
  5
DDB
330
2
100
AcDbEntity
  8
L-ZISSEN
100
AcDbLine
 10
-183.8577646506191
 20
-44.96096578973265
 30
0.0
 11
-138.4608754617428
 21
-77.39380692804798
 31
0.0
  0
LINE
  5
DDC
330
2
100
AcDbEntity
  8
L-ZISSEN
100
AcDbLine
 10
-136.4608754617428
 20
-77.39380692804798
 30
0.0
 11
-138.4608754617428
 21
-77.39380692804798
 31
0.0
  0
TEXT
  5
DDD
330
2
100
AcDbEntity
  8
L-ZISSEN
100
AcDbText
 10
-134.3027495603596
 20
-79.64048115599871
 30
0.0
 40
4.5
  1
P.P
100
AcDbText
  0
TEXT
  5
F8C
330
2
100
AcDbEntity
  8
L-ZISSEN
100
AcDbText
 10
-175.9735710186771
 20
282.0479856283043
 30
0.0
 40
4.5
  1
6
100
AcDbText
  0
TEXT
  5
F8D
330
2
100
AcDbEntity
  8
L-ZISSEN
100
AcDbText
 10
-175.9735710186771
 20
275.5371219581042
 30
0.0
 40
4.5
  1
8
100
AcDbText
  0
TEXT
  5
F8E
330
2
100
AcDbEntity
  8
L-ZISSEN
100
AcDbText
 10
-150.9448106802397
 20
275.5371219581042
 30
0.0
 40
4.5
  1
M
100
AcDbText
  0
TEXT
  5
F8F
330
2
100
AcDbEntity
  8
L-ZISSEN
100
AcDbText
 10
-150.309154272501
 20
282.0479856283043
 30
0.0
 40
4.5
  1
1
100
AcDbText
  0
TEXT
  5
F90
330
2
100
AcDbEntity
  8
L-ZISSEN
100
AcDbText
 10
-56.07250372698013
 20
278.69154059129
 30
0.0
 40
4.5
  1
MODEL NO. B68- 00-*0 *
100
AcDbText
  0
TEXT
  5
F91
330
2
100
AcDbEntity
  8
L-ZISSEN
100
AcDbText
 10
4.026428981322851
 20
275.5371219581042
 30
0.0
 40
4.5
  1
8
100
AcDbText
  0
TEXT
  5
F92
330
2
100
AcDbEntity
  8
L-ZISSEN
100
AcDbText
 10
4.026428981322851
 20
282.0479856283043
 30
0.0
 40
4.5
  1
6
100
AcDbText
  0
TEXT
  5
F93
330
2
100
AcDbEntity
  8
L-ZISSEN
100
AcDbText
 10
28.97455856415808
 20
275.5371219581042
 30
0.0
 40
4.5
  1
N
100
AcDbText
  0
TEXT
  5
F94
330
2
100
AcDbEntity
  8
L-ZISSEN
100
AcDbText
 10
28.8845361694207
 20
282.0479856283043
 30
0.0
 40
4.5
  1
2
100
AcDbText
  0
TEXT
  5
F95
330
2
100
AcDbEntity
  8
L-ZISSEN
100
AcDbText
 10
-56.07250372698013
 20
28.69154059129002
 30
0.0
 40
4.5
  1
MODEL NO. B68- 00-*0 *
100
AcDbText
  0
TEXT
  5
F96
330
2
100
AcDbEntity
  8
L-ZISSEN
100
AcDbText
 10
4.026428981322851
 20
25.53712195810428
 30
0.0
 40
4.5
  1
8
100
AcDbText
  0
TEXT
  5
F97
330
2
100
AcDbEntity
  8
L-ZISSEN
100
AcDbText
 10
4.026428981322851
 20
32.0479856283043
 30
0.0
 40
4.5
  1
6
100
AcDbText
  0
TEXT
  5
109C
330
2
100
AcDbEntity
  8
L-ZISSEN
100
AcDbText
 10
28.68529787456441
 20
25.53712195810428
 30
0.0
 40
4.5
  1
P
100
AcDbText
  0
TEXT
  5
109D
330
2
100
AcDbEntity
  8
L-ZISSEN
100
AcDbText
 10
28.68529787456441
 20
32.0479856283043
 30
0.0
 40
4.5
  1
4
100
AcDbText
  0
ENDSEC
  0
SECTION
  2
OBJECTS
  0
DICTIONARY
  5
9
330
0
100
AcDbDictionary
  3
ACAD_GROUP
350
25
  3
ACAD_LAYOUT
350
D
  3
ACAD_MLINESTYLE
350
26
  3
ACAD_PLOTSETTINGS
350
27
1001
ACAD
1000
TREAT_AS_HARD
1070
     0
  0
DICTIONARY
  5
15
330
14
100
AcDbDictionary
  3
ACAD_LAYERSTATES
350
16
1001
ACAD
1000
TREAT_AS_HARD
1070
     1
  0
DICTIONARY
  5
3
330
2
100
AcDbDictionary
  3
ACAD_LAYOUTSELFREF
350
10F7
1001
ACAD
1000
TREAT_AS_HARD
1070
     1
  0
DICTIONARY
  5
F
330
E
100
AcDbDictionary
  3
ACAD_LAYOUTSELFREF
350
10F8
1001
ACAD
1000
TREAT_AS_HARD
1070
     1
  0
DICTIONARY
  5
25
102
{ACAD_REACTORS
330
9
102
}
330
9
100
AcDbDictionary
1001
ACAD
1000
TREAT_AS_HARD
1070
     0
  0
DICTIONARY
  5
D
102
{ACAD_REACTORS
330
9
102
}
330
9
100
AcDbDictionary
1001
ACAD
1000
TREAT_AS_HARD
1070
     0
  0
DICTIONARY
  5
26
102
{ACAD_REACTORS
330
9
102
}
330
9
100
AcDbDictionary
  3
STANDARD
350
2A
1001
ACAD
1000
TREAT_AS_HARD
1070
     0
  0
DICTIONARY
  5
27
102
{ACAD_REACTORS
330
9
102
}
330
9
100
AcDbDictionary
1001
ACAD
1000
TREAT_AS_HARD
1070
     0
  0
DICTIONARY
  5
16
102
{ACAD_REACTORS
330
15
102
}
330
15
100
AcDbDictionary
1001
ACAD
1000
TREAT_AS_HARD
1070
     0
  0
XRECORD
  5
10F7
102
{ACAD_REACTORS
330
3
102
}
330
3
100
AcDbXrecord
340
2
  0
XRECORD
  5
10F8
102
{ACAD_REACTORS
330
F
102
}
330
F
100
AcDbXrecord
340
E
  0
MLINESTYLE
  5
2A
102
{ACAD_REACTORS
330
26
102
}
330
26
100
AcDbMlineStyle
  2
STANDARD
 70
     0
  3

 62
     0
 51
90.0
 52
90.0
 71
     2
 49
0.5
 62
   256
  6
BYLAYER
 49
-0.5
 62
   256
  6
BYLAYER
  0
ENDSEC
  0
EOF
