  0
SECTION
  2
HEADER
  9
$ACADVER
  1
AC1012
  9
$DWGCODEPAGE
  3
dos932
  9
$INSBASE
 10
0.0
 20
0.0
 30
0.0
  9
$EXTMIN
 10
-445.4068315563067
 20
-3036.767124073017
 30
-0.0000000000000058
  9
$EXTMAX
 10
174.568235982168
 20
-2568.576301404412
 30
0.0000000000000104
  9
$LIMMIN
 10
0.0
 20
0.0
  9
$LIMMAX
 10
297.0
 20
210.0
  9
$ORTHOMODE
 70
     1
  9
$REGENMODE
 70
     1
  9
$FILLMODE
 70
     1
  9
$QTEXTMODE
 70
     0
  9
$MIRRTEXT
 70
     1
  9
$DRAGMODE
 70
     2
  9
$LTSCALE
 40
1.0
  9
$OSMODE
 70
    39
  9
$ATTMODE
 70
     1
  9
$TEXTSIZE
 40
5.599999999999999
  9
$TRACEWID
 40
0.05
  9
$TEXTSTYLE
  7
STANDARD
  9
$CLAYER
  8
L-TYUSIN
  9
$CELTYPE
  6
BYLAYER
  9
$CECOLOR
 62
   256
  9
$CELTSCALE
 40
1.0
  9
$DELOBJ
 70
     1
  9
$DISPSILH
 70
     0
  9
$DIMSCALE
 40
2.0
  9
$DIMASZ
 40
2.0
  9
$DIMEXO
 40
1.0
  9
$DIMDLI
 40
8.0
  9
$DIMRND
 40
0.0
  9
$DIMDLE
 40
0.0
  9
$DIMEXE
 40
0.8
  9
$DIMTP
 40
0.0
  9
$DIMTM
 40
0.0
  9
$DIMTXT
 40
2.799999999999999
  9
$DIMCEN
 40
0.0
  9
$DIMTSZ
 40
0.0
  9
$DIMTOL
 70
     0
  9
$DIMLIM
 70
     0
  9
$DIMTIH
 70
     0
  9
$DIMTOH
 70
     0
  9
$DIMSE1
 70
     0
  9
$DIMSE2
 70
     0
  9
$DIMTAD
 70
     0
  9
$DIMZIN
 70
    12
  9
$DIMBLK
  1

  9
$DIMASO
 70
     1
  9
$DIMSHO
 70
     0
  9
$DIMPOST
  1

  9
$DIMAPOST
  1

  9
$DIMALT
 70
     0
  9
$DIMALTD
 70
     2
  9
$DIMALTF
 40
25.4
  9
$DIMLFAC
 40
1.0
  9
$DIMTOFL
 70
     1
  9
$DIMTVP
 40
1.0
  9
$DIMTIX
 70
     1
  9
$DIMSOXD
 70
     0
  9
$DIMSAH
 70
     0
  9
$DIMBLK1
  1

  9
$DIMBLK2
  1

  9
$DIMSTYLE
  2
STANDARD
  9
$DIMCLRD
 70
     0
  9
$DIMCLRE
 70
     0
  9
$DIMCLRT
 70
     0
  9
$DIMTFAC
 40
1.0
  9
$DIMGAP
 40
0.8
  9
$DIMJUST
 70
     0
  9
$DIMSD1
 70
     0
  9
$DIMSD2
 70
     0
  9
$DIMTOLJ
 70
     1
  9
$DIMTZIN
 70
     0
  9
$DIMALTZ
 70
     0
  9
$DIMALTTZ
 70
     0
  9
$DIMFIT
 70
     3
  9
$DIMUPT
 70
     0
  9
$DIMUNIT
 70
     2
  9
$DIMDEC
 70
     8
  9
$DIMTDEC
 70
     8
  9
$DIMALTU
 70
     2
  9
$DIMALTTD
 70
     2
  9
$DIMTXSTY
  7
STANDARD
  9
$DIMAUNIT
 70
     0
  9
$LUNITS
 70
     2
  9
$LUPREC
 70
     4
  9
$SKETCHINC
 40
0.1
  9
$FILLETRAD
 40
1.5
  9
$AUNITS
 70
     0
  9
$AUPREC
 70
     0
  9
$MENU
  1
.
  9
$ELEVATION
 40
0.0
  9
$PELEVATION
 40
0.0
  9
$THICKNESS
 40
0.0
  9
$LIMCHECK
 70
     0
  9
$BLIPMODE
 70
     0
  9
$CHAMFERA
 40
3.0
  9
$CHAMFERB
 40
3.0
  9
$CHAMFERC
 40
0.0
  9
$CHAMFERD
 40
0.0
  9
$SKPOLY
 70
     0
  9
$TDCREATE
 40
2453354.092125822
  9
$TDUPDATE
 40
2455072.650942013
  9
$TDINDWG
 40
11.0037855671
  9
$TDUSRTIMER
 40
11.0037855671
  9
$USRTIMER
 70
     1
  9
$ANGBASE
 50
0.0
  9
$ANGDIR
 70
     0
  9
$PDMODE
 70
     0
  9
$PDSIZE
 40
0.0
  9
$PLINEWID
 40
0.0
  9
$COORDS
 70
     0
  9
$SPLFRAME
 70
     0
  9
$SPLINETYPE
 70
     6
  9
$SPLINESEGS
 70
     8
  9
$ATTDIA
 70
     0
  9
$ATTREQ
 70
     1
  9
$HANDLING
 70
-16383
  9
$HANDSEED
  5
E816
  9
$SURFTAB1
 70
     6
  9
$SURFTAB2
 70
     6
  9
$SURFTYPE
 70
     6
  9
$SURFU
 70
     6
  9
$SURFV
 70
     6
  9
$UCSNAME
  2

  9
$UCSORG
 10
0.0
 20
0.0
 30
0.0
  9
$UCSXDIR
 10
1.0
 20
0.0
 30
0.0
  9
$UCSYDIR
 10
0.0
 20
1.0
 30
0.0
  9
$PUCSNAME
  2

  9
$PUCSORG
 10
0.0
 20
0.0
 30
0.0
  9
$PUCSXDIR
 10
1.0
 20
0.0
 30
0.0
  9
$PUCSYDIR
 10
0.0
 20
1.0
 30
0.0
  9
$USERI1
 70
     0
  9
$USERI2
 70
     0
  9
$USERI3
 70
     0
  9
$USERI4
 70
     0
  9
$USERI5
 70
     0
  9
$USERR1
 40
0.0
  9
$USERR2
 40
0.0
  9
$USERR3
 40
0.0
  9
$USERR4
 40
0.0
  9
$USERR5
 40
0.0
  9
$WORLDVIEW
 70
     1
  9
$SHADEDGE
 70
     3
  9
$SHADEDIF
 70
    70
  9
$TILEMODE
 70
     1
  9
$MAXACTVP
 70
    48
  9
$PINSBASE
 10
0.0
 20
0.0
 30
0.0
  9
$PLIMCHECK
 70
     0
  9
$PEXTMIN
 10
0.0
 20
0.0
 30
0.0
  9
$PEXTMAX
 10
0.0
 20
0.0
 30
0.0
  9
$PLIMMIN
 10
0.0
 20
0.0
  9
$PLIMMAX
 10
0.0
 20
0.0
  9
$UNITMODE
 70
     0
  9
$VISRETAIN
 70
     0
  9
$PLINEGEN
 70
     0
  9
$PSLTSCALE
 70
     0
  9
$TREEDEPTH
 70
  3020
  9
$PICKSTYLE
 70
     1
  9
$CMLSTYLE
  2
STANDARD
  9
$CMLJUST
 70
     0
  9
$CMLSCALE
 40
1.0
  9
$SAVEIMAGES
 70
     1
  0
ENDSEC
  0
SECTION
  2
CLASSES
  0
CLASS
  1
ACDBDICTIONARYWDFLT
  2
AcDbDictionaryWithDefault
  3
AutoCAD 2000
 90
    32768
280
     0
281
     0
  0
CLASS
  1
ACDBPLACEHOLDER
  2
AcDbPlaceHolder
  3
AutoCAD 2000
 90
    32768
280
     0
281
     0
  0
CLASS
  1
LAYOUT
  2
AcDbLayout
  3
AutoCAD 2000
 90
    32768
280
     0
281
     0
  0
CLASS
  1
DICTIONARYVAR
  2
AcDbDictionaryVar
  3
AutoCAD 2000
 90
    32768
280
     0
281
     0
  0
CLASS
  1
TABLESTYLE
  2
AcDbTableStyle
  3
ObjectDBX Classes
 90
    34815
280
     1
281
     0
  0
CLASS
  1
ACAD_PROXY_OBJECT_WRAPPER
  2
AcDbProxyObjectWrapper
  3
AutoCAD 2000
 90
    32768
280
     0
281
     0
  0
CLASS
  1
LONG_TRANSACTION
  2
AcDbLongTransaction
  3
AutoCAD 2000
 90
    32768
280
     0
281
     0
  0
CLASS
  1
LWPOLYLINE
  2
AcDbPolyline
  3
AutoCAD 2000
 90
    32768
280
     0
281
     1
  0
CLASS
  1
HATCH
  2
AcDbHatch
  3
AutoCAD 2000
 90
    32768
280
     0
281
     1
  0
CLASS
  1
XRECORD
  2
AcDbXrecord
  3
AutoCAD 2000
 90
    32768
280
     0
281
     0
  0
CLASS
  1
LONG_TRANSACTION
  2
AcDbLongTransaction
  3
AutoCAD 2000
 90
    32768
280
     0
281
     0
  0
CLASS
  1
LWPOLYLINE
  2
AcDbPolyline
  3
AutoCAD 2000
 90
    32768
280
     0
281
     1
  0
CLASS
  1
HATCH
  2
AcDbHatch
  3
AutoCAD 2000
 90
    32768
280
     0
281
     1
  0
CLASS
  1
XRECORD
  2
AcDbXrecord
  3
AutoCAD 2000
 90
    32768
280
     0
281
     0
  0
CLASS
  1
LONG_TRANSACTION
  2
AcDbLongTransaction
  3
AutoCAD 2000
 90
    32768
280
     0
281
     0
  0
CLASS
  1
LWPOLYLINE
  2
AcDbPolyline
  3
AutoCAD 2000
 90
    32768
280
     0
281
     1
  0
CLASS
  1
HATCH
  2
AcDbHatch
  3
AutoCAD 2000
 90
    32768
280
     0
281
     1
  0
CLASS
  1
XRECORD
  2
AcDbXrecord
  3
AutoCAD 2000
 90
    32768
280
     0
281
     0
  0
CLASS
  1
LONG_TRANSACTION
  2
AcDbLongTransaction
  3
AutoCAD 2000
 90
    32768
280
     0
281
     0
  0
CLASS
  1
LWPOLYLINE
  2
AcDbPolyline
  3
AutoCAD 2000
 90
    32768
280
     0
281
     1
  0
CLASS
  1
HATCH
  2
AcDbHatch
  3
AutoCAD 2000
 90
    32768
280
     0
281
     1
  0
CLASS
  1
XRECORD
  2
AcDbXrecord
  3
AutoCAD 2000
 90
    32768
280
     0
281
     0
  0
CLASS
  1
LONG_TRANSACTION
  2
AcDbLongTransaction
  3
AutoCAD 2000
 90
    32768
280
     0
281
     0
  0
CLASS
  1
LWPOLYLINE
  2
AcDbPolyline
  3
AutoCAD 2000
 90
    32768
280
     0
281
     1
  0
CLASS
  1
HATCH
  2
AcDbHatch
  3
AutoCAD 2000
 90
    32768
280
     0
281
     1
  0
CLASS
  1
XRECORD
  2
AcDbXrecord
  3
AutoCAD 2000
 90
    32768
280
     0
281
     0
  0
CLASS
  1
LONG_TRANSACTION
  2
AcDbLongTransaction
  3
AutoCAD 2000
 90
    32768
280
     0
281
     0
  0
CLASS
  1
LWPOLYLINE
  2
AcDbPolyline
  3
AutoCAD 2000
 90
    32768
280
     0
281
     1
  0
CLASS
  1
HATCH
  2
AcDbHatch
  3
AutoCAD 2000
 90
    32768
280
     0
281
     1
  0
CLASS
  1
XRECORD
  2
AcDbXrecord
  3
AutoCAD 2000
 90
    32768
280
     0
281
     0
  0
CLASS
  1
LONG_TRANSACTION
  2
AcDbLongTransaction
  3
AutoCAD 2000
 90
    32768
280
     0
281
     0
  0
CLASS
  1
LWPOLYLINE
  2
AcDbPolyline
  3
AutoCAD 2000
 90
    32768
280
     0
281
     1
  0
CLASS
  1
HATCH
  2
AcDbHatch
  3
AutoCAD 2000
 90
    32768
280
     0
281
     1
  0
CLASS
  1
XRECORD
  2
AcDbXrecord
  3
AutoCAD 2000
 90
    32768
280
     0
281
     0
  0
CLASS
  1
LONG_TRANSACTION
  2
AcDbLongTransaction
  3
AutoCAD 2000
 90
    32768
280
     0
281
     0
  0
CLASS
  1
LWPOLYLINE
  2
AcDbPolyline
  3
AutoCAD 2000
 90
    32768
280
     0
281
     1
  0
CLASS
  1
HATCH
  2
AcDbHatch
  3
AutoCAD 2000
 90
    32768
280
     0
281
     1
  0
CLASS
  1
XRECORD
  2
AcDbXrecord
  3
AutoCAD 2000
 90
    32768
280
     0
281
     0
  0
CLASS
  1
LONG_TRANSACTION
  2
AcDbLongTransaction
  3
AutoCAD 2000
 90
    32768
280
     0
281
     0
  0
CLASS
  1
LWPOLYLINE
  2
AcDbPolyline
  3
AutoCAD 2000
 90
    32768
280
     0
281
     1
  0
CLASS
  1
HATCH
  2
AcDbHatch
  3
AutoCAD 2000
 90
    32768
280
     0
281
     1
  0
CLASS
  1
XRECORD
  2
AcDbXrecord
  3
AutoCAD 2000
 90
    32768
280
     0
281
     0
  0
CLASS
  1
LONG_TRANSACTION
  2
AcDbLongTransaction
  3
AutoCAD 2000
 90
    32768
280
     0
281
     0
  0
CLASS
  1
LWPOLYLINE
  2
AcDbPolyline
  3
AutoCAD 2000
 90
    32768
280
     0
281
     1
  0
CLASS
  1
HATCH
  2
AcDbHatch
  3
AutoCAD 2000
 90
    32768
280
     0
281
     1
  0
CLASS
  1
XRECORD
  2
AcDbXrecord
  3
AutoCAD 2000
 90
    32768
280
     0
281
     0
  0
CLASS
  1
LONG_TRANSACTION
  2
AcDbLongTransaction
  3
AutoCAD 2000
 90
    32768
280
     0
281
     0
  0
CLASS
  1
LWPOLYLINE
  2
AcDbPolyline
  3
AutoCAD 2000
 90
    32768
280
     0
281
     1
  0
CLASS
  1
HATCH
  2
AcDbHatch
  3
AutoCAD 2000
 90
    32768
280
     0
281
     1
  0
CLASS
  1
XRECORD
  2
AcDbXrecord
  3
AutoCAD 2000
 90
    32768
280
     0
281
     0
  0
CLASS
  1
LONG_TRANSACTION
  2
AcDbLongTransaction
  3
AutoCAD 2000
 90
    32768
280
     0
281
     0
  0
CLASS
  1
LWPOLYLINE
  2
AcDbPolyline
  3
AutoCAD 2000
 90
    32768
280
     0
281
     1
  0
CLASS
  1
HATCH
  2
AcDbHatch
  3
AutoCAD 2000
 90
    32768
280
     0
281
     1
  0
CLASS
  1
XRECORD
  2
AcDbXrecord
  3
AutoCAD 2000
 90
    32768
280
     0
281
     0
  0
CLASS
  1
LONG_TRANSACTION
  2
AcDbLongTransaction
  3
AutoCAD 2000
 90
    32768
280
     0
281
     0
  0
CLASS
  1
LWPOLYLINE
  2
AcDbPolyline
  3
AutoCAD 2000
 90
    32768
280
     0
281
     1
  0
CLASS
  1
HATCH
  2
AcDbHatch
  3
AutoCAD 2000
 90
    32768
280
     0
281
     1
  0
CLASS
  1
XRECORD
  2
AcDbXrecord
  3
AutoCAD 2000
 90
    32768
280
     0
281
     0
  0
CLASS
  1
LONG_TRANSACTION
  2
AcDbLongTransaction
  3
AutoCAD 2000
 90
    32768
280
     0
281
     0
  0
CLASS
  1
LWPOLYLINE
  2
AcDbPolyline
  3
AutoCAD 2000
 90
    32768
280
     0
281
     1
  0
CLASS
  1
HATCH
  2
AcDbHatch
  3
AutoCAD 2000
 90
    32768
280
     0
281
     1
  0
CLASS
  1
XRECORD
  2
AcDbXrecord
  3
AutoCAD 2000
 90
    32768
280
     0
281
     0
  0
ENDSEC
  0
SECTION
  2
TABLES
  0
TABLE
  2
VPORT
  5
1E
330
0
100
AcDbSymbolTable
 70
     4
  0
VPORT
  5
E7FC
330
1E
100
AcDbSymbolTableRecord
100
AcDbViewportTableRecord
  2
*ACTIVE
 70
     0
 10
0.0
 20
0.0
 11
1.0
 21
1.0
 12
-135.4192977870692
 22
-2802.671712738715
 13
0.0
 23
0.0
 14
1.0
 24
1.0
 15
4.0
 25
4.0
 16
0.0
 26
0.0
 36
1.0
 17
0.0
 27
0.0
 37
0.0
 40
471.15093324396
 41
1.60759493670886
 42
50.0
 43
0.0
 44
0.0
 50
0.0
 51
0.0
 71
    16
 72
   100
 73
     1
 74
     0
 75
     0
 76
     0
 77
     0
 78
     0
  0
ENDTAB
  0
TABLE
  2
LTYPE
  5
19
330
0
100
AcDbSymbolTable
 70
     3
  0
LTYPE
  5
1A
330
19
100
AcDbSymbolTableRecord
100
AcDbLinetypeTableRecord
  2
BYBLOCK
 70
     0
  3

 72
    65
 73
     0
 40
0.0
  0
LTYPE
  5
1B
330
19
100
AcDbSymbolTableRecord
100
AcDbLinetypeTableRecord
  2
BYLAYER
 70
     0
  3

 72
    65
 73
     0
 40
0.0
  0
LTYPE
  5
B
330
19
100
AcDbSymbolTableRecord
100
AcDbLinetypeTableRecord
  2
CONTINUOUS
 70
     0
  3
Solid line
 72
    65
 73
     0
 40
0.0
  0
LTYPE
  5
32
330
19
100
AcDbSymbolTableRecord
100
AcDbLinetypeTableRecord
  2
CENTER
 70
     0
  3

 72
    65
 73
     4
 40
18.0
 49
15.0
 74
     4
 75
     0
340
0
 46
1.0
 50
0.0
 44
0.0
 45
0.0
 49
-1.0
 74
     4
 75
     0
340
0
 46
1.0
 50
0.0
 44
0.0
 45
0.0
 49
1.0
 74
     4
 75
     0
340
0
 46
1.0
 50
0.0
 44
0.0
 45
0.0
 49
-1.0
 74
     4
 75
     0
340
0
 46
1.0
 50
0.0
 44
0.0
 45
0.0
  0
LTYPE
  5
A348
330
19
100
AcDbSymbolTableRecord
100
AcDbLinetypeTableRecord
  2
PHANTOM
 70
     0
  3
----- - - ----- - - ----- - - ----- - - -----
 72
    65
 73
     6
 40
22.5
 49
15.0
 74
     4
 75
     0
340
0
 46
1.0
 50
0.0
 44
0.0
 45
0.0
 49
-1.5
 74
     4
 75
     0
340
0
 46
1.0
 50
0.0
 44
0.0
 45
0.0
 49
1.5
 74
     4
 75
     0
340
0
 46
1.0
 50
0.0
 44
0.0
 45
0.0
 49
-1.5
 74
     4
 75
     0
340
0
 46
1.0
 50
0.0
 44
0.0
 45
0.0
 49
1.5
 74
     4
 75
     0
340
0
 46
1.0
 50
0.0
 44
0.0
 45
0.0
 49
-1.5
 74
     4
 75
     0
340
0
 46
1.0
 50
0.0
 44
0.0
 45
0.0
  0
ENDTAB
  0
TABLE
  2
LAYER
  5
15
102
{ACAD_XDICTIONARY
360
8E1
102
}
330
0
100
AcDbSymbolTable
 70
     6
  0
LAYER
  5
6
330
15
100
AcDbSymbolTableRecord
100
AcDbLayerTableRecord
  2
0
 70
     0
 62
     7
  6
CONTINUOUS
  0
LAYER
  5
34
330
15
100
AcDbSymbolTableRecord
100
AcDbLayerTableRecord
  2
L-ZISSEN
 70
     0
 62
     7
  6
CONTINUOUS
  0
LAYER
  5
31
330
15
100
AcDbSymbolTableRecord
100
AcDbLayerTableRecord
  2
L-TYUSIN
 70
     0
 62
     1
  6
CENTER
  0
LAYER
  5
26
330
15
100
AcDbSymbolTableRecord
100
AcDbLayerTableRecord
  2
SUNPOU
 70
     0
 62
     3
  6
CONTINUOUS
  0
LAYER
  5
9E
330
15
100
AcDbSymbolTableRecord
100
AcDbLayerTableRecord
  2
L-SAISEN
 70
     0
 62
     6
  6
CONTINUOUS
  0
LAYER
  5
A349
330
15
100
AcDbSymbolTableRecord
100
AcDbLayerTableRecord
  2
L-SOUZOU
 70
     0
 62
     2
  6
PHANTOM
  0
ENDTAB
  0
TABLE
  2
STYLE
  5
16
330
0
100
AcDbSymbolTable
 70
     1
  0
STYLE
  5
17
330
16
100
AcDbSymbolTableRecord
100
AcDbTextStyleTableRecord
  2
STANDARD
 70
     0
 40
0.0
 41
1.0
 50
0.0
 71
     0
 42
5.599999999999999
  3
txt.shx
  4

  0
ENDTAB
  0
TABLE
  2
VIEW
  5
1C
330
0
100
AcDbSymbolTable
 70
     0
  0
ENDTAB
  0
TABLE
  2
UCS
  5
1D
330
0
100
AcDbSymbolTable
 70
     0
  0
ENDTAB
  0
TABLE
  2
APPID
  5
20
330
0
100
AcDbSymbolTable
 70
     2
  0
APPID
  5
A
330
20
100
AcDbSymbolTableRecord
100
AcDbRegAppTableRecord
  2
ACAD
 70
     0
  0
APPID
  5
DF0B
330
20
100
AcDbSymbolTableRecord
100
AcDbRegAppTableRecord
  2
CONTENTBLOCKICON
 70
     0
  0
ENDTAB
  0
TABLE
  2
DIMSTYLE
  5
21
330
0
100
AcDbSymbolTable
 70
     1
  0
DIMSTYLE
105
28
330
21
100
AcDbSymbolTableRecord
100
AcDbDimStyleTableRecord
  2
STANDARD
 70
     0
  3

  4

  5

  6

  7

 40
1.0
 41
0.18
 42
0.0625
 43
0.38
 44
0.18
 45
0.0
 46
0.0
 47
0.0
 48
0.0
140
0.18
141
0.09
142
0.0
143
25.4
144
1.0
145
0.0
146
1.0
147
0.09
 71
     0
 72
     0
 73
     1
 74
     1
 75
     0
 76
     0
 77
     0
 78
     0
170
     0
171
     2
172
     0
173
     0
174
     0
175
     0
176
     0
177
     0
178
     0
270
     2
271
     4
272
     4
273
     2
274
     2
340
17
275
     0
280
     0
281
     0
282
     0
283
     1
284
     0
285
     0
286
     0
287
     3
288
     0
  0
ENDTAB
  0
TABLE
  2
BLOCK_RECORD
  5
1
330
0
100
AcDbSymbolTable
 70
     0
  0
BLOCK_RECORD
  5
2
102
{ACAD_XDICTIONARY
360
3
102
}
330
1
100
AcDbSymbolTableRecord
100
AcDbBlockTableRecord
  2
*MODEL_SPACE
  0
BLOCK_RECORD
  5
F
102
{ACAD_XDICTIONARY
360
10
102
}
330
1
100
AcDbSymbolTableRecord
100
AcDbBlockTableRecord
  2
*PAPER_SPACE
  0
ENDTAB
  0
ENDSEC
  0
SECTION
  2
BLOCKS
  0
BLOCK
  5
5
330
2
100
AcDbEntity
  8
0
100
AcDbBlockBegin
  2
*MODEL_SPACE
 70
     0
 10
0.0
 20
0.0
 30
0.0
  3
*MODEL_SPACE
  1

  0
ENDBLK
  5
C
330
2
100
AcDbEntity
  8
0
100
AcDbBlockEnd
  0
BLOCK
  5
12
330
F
100
AcDbEntity
 67
     1
  8
0
100
AcDbBlockBegin
  2
*PAPER_SPACE
 70
     0
 10
0.0
 20
0.0
 30
0.0
  3
*PAPER_SPACE
  1

  0
ENDBLK
  5
13
330
F
100
AcDbEntity
 67
     1
  8
0
100
AcDbBlockEnd
  0
ENDSEC
  0
SECTION
  2
ENTITIES
  0
LINE
  5
C44B
330
2
100
AcDbEntity
  8
L-TYUSIN
100
AcDbLine
 10
-75.47102140678816
 20
-2807.856474060271
 30
0.0
 11
174.5289785932118
 21
-2807.856474060271
 31
0.0
  0
LINE
  5
DAB8
330
2
100
AcDbEntity
  8
L-TYUSIN
100
AcDbLine
 10
-75.47102140678816
 20
-3036.748367966044
 30
0.0
 11
-75.47102140678816
 21
-2586.74832473903
 31
0.0
  0
POLYLINE
  5
DAB9
330
2
100
AcDbEntity
  8
L-ZISSEN
100
AcDb2dPolyline
 66
     1
 10
0.0
 20
0.0
 30
0.0
 70
     1
  0
VERTEX
  5
E7FF
330
DAB9
100
AcDbEntity
  8
L-ZISSEN
100
AcDbVertex
100
AcDb2dVertex
 10
-21.72102140678794
 20
-2980.119696763718
 30
0.0
  0
VERTEX
  5
E800
330
DAB9
100
AcDbEntity
  8
L-ZISSEN
100
AcDbVertex
100
AcDb2dVertex
 10
-20.47102140678794
 20
-2979.398008927231
 30
0.0
  0
VERTEX
  5
E801
330
DAB9
100
AcDbEntity
  8
L-ZISSEN
100
AcDbVertex
100
AcDb2dVertex
 10
-19.22102140678794
 20
-2980.119696763718
 30
0.0
  0
VERTEX
  5
E802
330
DAB9
100
AcDbEntity
  8
L-ZISSEN
100
AcDbVertex
100
AcDb2dVertex
 10
-19.22102140678794
 20
-2981.563072436692
 30
0.0
  0
VERTEX
  5
E803
330
DAB9
100
AcDbEntity
  8
L-ZISSEN
100
AcDbVertex
100
AcDb2dVertex
 10
-20.47102140678794
 20
-2982.284760273179
 30
0.0
  0
VERTEX
  5
E804
330
DAB9
100
AcDbEntity
  8
L-ZISSEN
100
AcDbVertex
100
AcDb2dVertex
 10
-21.72102140678794
 20
-2981.563072436692
 30
0.0
  0
SEQEND
  5
E805
330
DAB9
100
AcDbEntity
  8
L-ZISSEN
  0
POLYLINE
  5
DABA
330
2
100
AcDbEntity
  8
L-ZISSEN
100
AcDb2dPolyline
 66
     1
 10
0.0
 20
0.0
 30
0.0
 70
     1
  0
VERTEX
  5
E806
330
DABA
100
AcDbEntity
  8
L-ZISSEN
100
AcDbVertex
100
AcDb2dVertex
 10
-21.72102140678794
 20
-2915.063072436691
 30
0.0
  0
VERTEX
  5
E807
330
DABA
100
AcDbEntity
  8
L-ZISSEN
100
AcDbVertex
100
AcDb2dVertex
 10
-20.47102140678794
 20
-2915.784760273178
 30
0.0
  0
VERTEX
  5
E808
330
DABA
100
AcDbEntity
  8
L-ZISSEN
100
AcDbVertex
100
AcDb2dVertex
 10
-19.22102140678794
 20
-2915.063072436691
 30
0.0
  0
VERTEX
  5
E809
330
DABA
100
AcDbEntity
  8
L-ZISSEN
100
AcDbVertex
100
AcDb2dVertex
 10
-19.22102140678794
 20
-2913.619696763717
 30
0.0
  0
VERTEX
  5
E80A
330
DABA
100
AcDbEntity
  8
L-ZISSEN
100
AcDbVertex
100
AcDb2dVertex
 10
-20.47102140678794
 20
-2912.89800892723
 30
0.0
  0
VERTEX
  5
E80B
330
DABA
100
AcDbEntity
  8
L-ZISSEN
100
AcDbVertex
100
AcDb2dVertex
 10
-21.72102140678794
 20
-2913.619696763717
 30
0.0
  0
SEQEND
  5
E80C
330
DABA
100
AcDbEntity
  8
L-ZISSEN
  0
LINE
  5
DABC
330
2
100
AcDbEntity
  8
L-ZISSEN
100
AcDbLine
 10
103.0289785932125
 20
-2895.091384600204
 30
0.0
 11
111.0289785932125
 21
-2895.091384600204
 31
0.0
  0
ARC
  5
DABD
330
2
100
AcDbEntity
  8
L-ZISSEN
100
AcDbCircle
 10
111.9856329419524
 20
-2984.078558345528
 30
0.0
 40
10.0
100
AcDbArc
 50
191.6119735011013
 51
265.131555937119
  0
LINE
  5
DABF
330
2
100
AcDbEntity
  8
L-ZISSEN
100
AcDbLine
 10
8.784845654693299
 20
-2905.091384600204
 30
0.0
 11
7.068984652716608
 21
-2984.336977931143
 31
0.0
  0
LINE
  5
DAC0
330
2
100
AcDbEntity
  8
L-ZISSEN
100
AcDbLine
 10
-11.72102140678816
 20
-2909.091384600204
 30
0.0
 11
-11.72102140678634
 21
-2986.091384600204
 31
0.0
  0
LINE
  5
DAC1
330
2
100
AcDbEntity
  8
L-ZISSEN
100
AcDbLine
 10
-17.97102140678816
 20
-2920.591384600204
 30
0.0
 11
-17.97102140678816
 21
-2974.591384600204
 31
0.0
  0
LINE
  5
DAC2
330
2
100
AcDbEntity
  8
L-ZISSEN
100
AcDbLine
 10
87.78438771284504
 20
-2909.091384600204
 30
0.0
 11
87.78438771284687
 21
-2986.091384600204
 31
0.0
  0
LINE
  5
DAC3
330
2
100
AcDbEntity
  8
L-ZISSEN
 48
0.3
100
AcDbLine
 10
102.382170908362
 20
-2986.091384600204
 30
0.0
 11
102.382170908362
 21
-2909.091384600204
 31
0.0
  0
LINE
  5
DAC4
330
2
100
AcDbEntity
  8
L-ZISSEN
100
AcDbLine
 10
97.28438771284505
 20
-2909.091384600204
 30
0.0
 11
97.28438771284686
 21
-2986.091384600204
 31
0.0
  0
LINE
  5
DAC5
330
2
100
AcDbEntity
  8
L-ZISSEN
100
AcDbLine
 10
-49.72688846826918
 20
-2905.091384600204
 30
0.0
 11
-48.01102746629249
 21
-2984.336977931143
 31
0.0
  0
LINE
  5
DAC6
330
2
100
AcDbEntity
  8
L-ZISSEN
100
AcDbLine
 10
-29.22102140678816
 20
-2909.091384600204
 30
0.0
 11
-29.22102140678635
 21
-2986.091384600204
 31
0.0
  0
LINE
  5
DAC7
330
2
100
AcDbEntity
  8
L-ZISSEN
100
AcDbLine
 10
-22.97102140678816
 20
-2974.591384600204
 30
0.0
 11
-22.97102140678816
 21
-2920.591384600204
 31
0.0
  0
LINE
  5
DAC8
330
2
100
AcDbEntity
  8
L-ZISSEN
100
AcDbLine
 10
-29.22102140678816
 20
-2986.091384600204
 30
0.0
 11
-11.72102140678816
 21
-2986.091384600205
 31
0.0
  0
LINE
  5
DAC9
330
2
100
AcDbEntity
  8
L-ZISSEN
100
AcDbLine
 10
-29.90618867500734
 20
-2995.091384600205
 30
0.0
 11
-11.03585413856876
 21
-2995.091384600205
 31
0.0
  0
LINE
  5
DACA
330
2
100
AcDbEntity
  8
L-ZISSEN
100
AcDbLine
 10
-29.90618867500689
 20
-2998.591384600205
 30
0.0
 11
-11.03585413856876
 21
-2998.591384600205
 31
0.0
  0
LINE
  5
DACB
330
2
100
AcDbEntity
  8
L-ZISSEN
100
AcDbLine
 10
-29.90618867500711
 20
-2995.091384600205
 30
0.0
 11
-38.86304873860444
 21
-2994.042480234277
 31
0.0
  0
ARC
  5
DACC
330
2
100
AcDbEntity
  8
L-ZISSEN
100
AcDbCircle
 10
-38.01436705804735
 20
-2984.078558345528
 30
0.0
 40
10.0
100
AcDbArc
 50
181.0000000000278
 51
265.131555937119
  0
LINE
  5
DACD
330
2
100
AcDbEntity
  8
L-ZISSEN
100
AcDbLine
 10
-21.43822262853109
 20
-3003.533569510401
 30
0.0
 11
-21.43822262853109
 21
-3013.59240409991
 31
0.0
  0
LINE
  5
DACE
330
2
100
AcDbEntity
  8
L-ZISSEN
100
AcDbLine
 10
-20.43822262852973
 20
-3003.533569510401
 30
0.0
 11
-20.43822262852973
 21
-3013.59240409991
 31
0.0
  0
LINE
  5
DACF
330
2
100
AcDbEntity
  8
L-ZISSEN
100
AcDbLine
 10
-19.43822262853063
 20
-3003.533569510401
 30
0.0
 11
-19.43822262853063
 21
-3013.59240409991
 31
0.0
  0
LINE
  5
DAD0
330
2
100
AcDbEntity
  8
L-ZISSEN
100
AcDbLine
 10
-18.43822262853154
 20
-3003.533569510401
 30
0.0
 11
-18.43822262853154
 21
-3013.59240409991
 31
0.0
  0
LINE
  5
DAD1
330
2
100
AcDbEntity
  8
L-ZISSEN
100
AcDbLine
 10
-17.43822262853245
 20
-3003.533569510401
 30
0.0
 11
-17.43822262853245
 21
-3013.59240409991
 31
0.0
  0
LINE
  5
DAD2
330
2
100
AcDbEntity
  8
L-ZISSEN
100
AcDbLine
 10
-16.43822262852881
 20
-3003.533569510401
 30
0.0
 11
-16.43822262852881
 21
-3013.59240409991
 31
0.0
  0
LINE
  5
DAD3
330
2
100
AcDbEntity
  8
L-ZISSEN
100
AcDbLine
 10
-15.43822262852972
 20
-3003.533569510401
 30
0.0
 11
-15.43822262852768
 21
-3013.59240409991
 31
0.0
  0
LINE
  5
DAD4
330
2
100
AcDbEntity
  8
L-ZISSEN
100
AcDbLine
 10
-14.43822262853291
 20
-3004.033569510401
 30
0.0
 11
-14.43822262853291
 21
-3013.292404099909
 31
0.0
  0
LINE
  5
DAD5
330
2
100
AcDbEntity
  8
L-ZISSEN
100
AcDbLine
 10
-26.43822262853109
 20
-3013.292404099909
 30
0.0
 11
-26.43822262853109
 21
-3004.033569510401
 31
0.0
  0
LINE
  5
DAD6
330
2
100
AcDbEntity
  8
L-ZISSEN
100
AcDbLine
 10
-25.438222628532
 20
-3003.533569510401
 30
0.0
 11
-25.438222628532
 21
-3013.59240409991
 31
0.0
  0
LINE
  5
DAD7
330
2
100
AcDbEntity
  8
L-ZISSEN
100
AcDbLine
 10
-24.43822262853291
 20
-3003.533569510401
 30
0.0
 11
-24.43822262853291
 21
-3013.59240409991
 31
0.0
  0
LINE
  5
DAD8
330
2
100
AcDbEntity
  8
L-ZISSEN
100
AcDbLine
 10
-23.43822262853155
 20
-3003.533569510401
 30
0.0
 11
-23.43822262853155
 21
-3013.59240409991
 31
0.0
  0
LINE
  5
DAD9
330
2
100
AcDbEntity
  8
L-ZISSEN
100
AcDbLine
 10
-22.43822262853018
 20
-3003.533569510401
 30
0.0
 11
-22.43822262853018
 21
-3013.59240409991
 31
0.0
  0
LINE
  5
DADA
330
2
100
AcDbEntity
  8
L-ZISSEN
100
AcDbLine
 10
-14.73822262853263
 20
-3013.59240409991
 30
0.0
 11
-26.13822262853136
 21
-3013.59240409991
 31
0.0
  0
LINE
  5
DADB
330
2
100
AcDbEntity
  8
L-ZISSEN
100
AcDbLine
 10
-26.13822262853136
 20
-3013.59240409991
 30
0.0
 11
-26.43822262853109
 21
-3013.292404099909
 31
0.0
  0
LINE
  5
DADC
330
2
100
AcDbEntity
  8
L-ZISSEN
100
AcDbLine
 10
-14.73822262853263
 20
-3013.59240409991
 30
0.0
 11
-14.43822262853291
 21
-3013.292404099909
 31
0.0
  0
CIRCLE
  5
DADD
330
2
100
AcDbEntity
  8
L-ZISSEN
100
AcDbCircle
 10
-20.47102140678794
 20
-2980.841384600205
 30
0.0
 40
3.75
  0
LINE
  5
DADE
330
2
100
AcDbEntity
  8
L-ZISSEN
100
AcDbLine
 10
-25.93822262853382
 20
-3003.533569510401
 30
0.0
 11
-17.43822262853245
 21
-3003.533569510401
 31
0.0
  0
ARC
  5
DADF
330
2
100
AcDbEntity
  8
L-ZISSEN
100
AcDbCircle
 10
-24.39272777808219
 20
-3014.096327234891
 30
0.0
 40
15.50496374778473
100
AcDbArc
 50
75.34890043484391
 51
104.4621424617013
  0
ARC
  5
DAE0
330
2
100
AcDbEntity
  8
L-ZISSEN
100
AcDbCircle
 10
-24.39212301027009
 20
-2986.455237349686
 30
0.0
 40
15.15026028548078
100
AcDbArc
 50
255.1892479927957
 51
284.9997091106931
  0
LINE
  5
DAE1
330
2
100
AcDbEntity
  8
L-ZISSEN
100
AcDbLine
 10
-25.00628576642657
 20
-3001.593044021287
 30
0.0
 11
-15.93766190869041
 21
-3001.593121184235
 31
0.0
  0
LINE
  5
DAE2
330
2
100
AcDbEntity
  8
L-TYUSIN
100
AcDbLine
 10
-14.22102140678794
 20
-2980.841384600205
 30
0.0
 11
-26.72102140678794
 21
-2980.841384600205
 31
0.0
  0
LINE
  5
DAE3
330
2
100
AcDbEntity
  8
L-ZISSEN
100
AcDbLine
 10
-17.97102140678816
 20
-2974.591384600204
 30
0.0
 11
-22.97102140678816
 21
-2974.591384600204
 31
0.0
  0
LINE
  5
DAE4
330
2
100
AcDbEntity
  8
L-ZISSEN
100
AcDbLine
 10
-25.43822262853382
 20
-3003.533569510401
 30
0.0
 11
-25.93822262853109
 21
-3003.033569510401
 31
0.0
  0
LINE
  5
DAE5
330
2
100
AcDbEntity
  8
L-ZISSEN
100
AcDbLine
 10
-25.43822262852973
 20
-3001.593100711038
 30
0.0
 11
-25.43822262853382
 21
-3003.533569510401
 31
0.0
  0
LINE
  5
DAE6
330
2
100
AcDbEntity
  8
L-ZISSEN
100
AcDbLine
 10
-25.93822262853109
 20
-3003.033569510401
 30
0.0
 11
-25.93822262853109
 21
-3001.59240409991
 31
0.0
  0
LINE
  5
DAE7
330
2
100
AcDbEntity
  8
L-ZISSEN
100
AcDbLine
 10
-25.93822262853382
 20
-3003.533569510401
 30
0.0
 11
-26.43822262853109
 21
-3004.033569510401
 31
0.0
  0
LINE
  5
DAE8
330
2
100
AcDbEntity
  8
L-ZISSEN
100
AcDbLine
 10
-28.26494140678801
 20
-2999.082671369853
 30
0.0
 11
-28.26494140678801
 21
-3001.102136829966
 31
0.0
  0
LINE
  5
DAE9
330
2
100
AcDbEntity
  8
L-ZISSEN
100
AcDbLine
 10
-29.90618867500711
 20
-2995.091384600205
 30
0.0
 11
-29.90618867500689
 21
-2998.591384600205
 31
0.0
  0
LINE
  5
DAEA
330
2
100
AcDbEntity
  8
L-ZISSEN
100
AcDbLine
 10
-15.43822262853245
 20
-3003.533569510401
 30
0.0
 11
-14.93822262853291
 21
-3003.033569510401
 31
0.0
  0
LINE
  5
DAEB
330
2
100
AcDbEntity
  8
L-ZISSEN
100
AcDbLine
 10
-17.43822262853245
 20
-3003.533569510401
 30
0.0
 11
-14.93822262853245
 21
-3003.533569510401
 31
0.0
  0
ARC
  5
DAEC
330
2
100
AcDbEntity
  8
L-ZISSEN
100
AcDbCircle
 10
-16.54931503549278
 20
-3014.096327234891
 30
0.0
 40
15.50496374778473
100
AcDbArc
 50
75.53785753829865
 51
104.651099565156
  0
ARC
  5
DAED
330
2
100
AcDbEntity
  8
L-ZISSEN
100
AcDbCircle
 10
-16.54991980330487
 20
-2986.455237349686
 30
0.0
 40
15.15026028548078
100
AcDbArc
 50
255.0002908893069
 51
284.8107520072042
  0
LINE
  5
DAEE
330
2
100
AcDbEntity
  8
L-ZISSEN
100
AcDbLine
 10
-15.43822262852836
 20
-3001.593750362332
 30
0.0
 11
-15.43822262853245
 21
-3003.533569510401
 31
0.0
  0
LINE
  5
DAEF
330
2
100
AcDbEntity
  8
L-ZISSEN
100
AcDbLine
 10
-20.47102140678748
 20
-2999.095523257855
 30
0.0
 11
-20.47102140678748
 21
-3001.090347170483
 31
0.0
  0
LINE
  5
DAF0
330
2
100
AcDbEntity
  8
L-ZISSEN
100
AcDbLine
 10
-20.47102140678748
 20
-2999.095523257855
 30
0.0
 11
-20.47102140678748
 21
-3001.090347170483
 31
0.0
  0
LINE
  5
DAF1
330
2
100
AcDbEntity
  8
L-ZISSEN
100
AcDbLine
 10
-20.47102140678748
 20
-2999.095523257855
 30
0.0
 11
-20.47102140678748
 21
-3001.090347170483
 31
0.0
  0
LINE
  5
DAF2
330
2
100
AcDbEntity
  8
L-ZISSEN
100
AcDbLine
 10
-20.47102140678748
 20
-2999.095523257855
 30
0.0
 11
-20.47102140678748
 21
-3001.090347170483
 31
0.0
  0
LINE
  5
DAF3
330
2
100
AcDbEntity
  8
L-ZISSEN
100
AcDbLine
 10
-14.93822262853291
 20
-3003.033569510401
 30
0.0
 11
-14.93822262853291
 21
-3001.59240409991
 31
0.0
  0
LINE
  5
DAF4
330
2
100
AcDbEntity
  8
L-ZISSEN
100
AcDbLine
 10
-14.93822262853245
 20
-3003.533569510401
 30
0.0
 11
-14.43822262853291
 21
-3004.033569510401
 31
0.0
  0
LINE
  5
DAF5
330
2
100
AcDbEntity
  8
L-ZISSEN
100
AcDbLine
 10
-12.67710140678696
 20
-2999.082671369853
 30
0.0
 11
-12.67710140678696
 21
-3001.102136829966
 31
0.0
  0
ARC
  5
DAF6
330
2
100
AcDbEntity
  8
L-ZISSEN
100
AcDbCircle
 10
-2.927675755528525
 20
-2984.078558345528
 30
0.0
 40
10.0
100
AcDbArc
 50
274.8684440628809
 51
358.9999999999721
  0
LINE
  5
DAF7
330
2
100
AcDbEntity
  8
L-ZISSEN
100
AcDbLine
 10
-11.03585413856876
 20
-2995.091384600205
 30
0.0
 11
-2.078994074971433
 21
-2994.042480234277
 31
0.0
  0
LINE
  5
DAF8
330
2
100
AcDbEntity
  8
L-ZISSEN
100
AcDbLine
 10
-11.03585413856876
 20
-2995.091384600205
 30
0.0
 11
-11.03585413856899
 21
-2998.591384600205
 31
0.0
  0
LINE
  5
DAF9
330
2
100
AcDbEntity
  8
L-ZISSEN
100
AcDbLine
 10
87.78438771284504
 20
-2986.091384600204
 30
0.0
 11
97.28438771284505
 21
-2986.091384600204
 31
0.0
  0
LINE
  5
DAFA
330
2
100
AcDbEntity
  8
L-TYUSIN
100
AcDbLine
 10
103.9252634220617
 20
-2981.091384600204
 30
0.0
 11
80.88438771284542
 21
-2981.091384600204
 31
0.0
  0
LINE
  5
DAFB
330
2
100
AcDbEntity
  8
L-ZISSEN
100
AcDbLine
 10
85.88438771284542
 20
-2982.284760273179
 30
0.0
 11
85.88438771284518
 21
-2979.398008927231
 31
0.0
  0
ARC
  5
DAFC
330
2
100
AcDbEntity
  8
L-ZISSEN
100
AcDbCircle
 10
88.1963902806226
 20
-2982.316171116023
 30
0.0
 40
2.312215931624567
100
AcDbArc
 50
179.2216280233825
 51
259.7359316277872
  0
ARC
  5
DAFD
330
2
100
AcDbEntity
  8
L-ZISSEN
100
AcDbCircle
 10
88.1963902806226
 20
-2979.366598084387
 30
0.0
 40
2.312215931624567
100
AcDbArc
 50
100.2640683722127
 51
180.7783719766174
  0
LINE
  5
DAFE
330
2
100
AcDbEntity
  8
L-ZISSEN
100
AcDbLine
 10
97.28438771284686
 20
-2986.091384600204
 30
0.0
 11
101.0821709083618
 21
-2986.091384600204
 31
0.0
  0
LINE
  5
DAFF
330
2
100
AcDbEntity
  8
L-ZISSEN
 48
0.3
100
AcDbLine
 10
101.0821709083618
 20
-2986.091384600204
 30
0.0
 11
102.382170908362
 21
-2986.091384600204
 31
0.0
  0
LINE
  5
DB00
330
2
100
AcDbEntity
  8
L-ZISSEN
100
AcDbLine
 10
-1.971021406787485
 20
-2905.091384600202
 30
0.0
 11
-16.72102140678862
 21
-2905.091384600204
 31
0.0
  0
LINE
  5
DB01
330
2
100
AcDbEntity
  8
L-ZISSEN
100
AcDbLine
 10
-29.22102140678816
 20
-2909.091384600204
 30
0.0
 11
-11.72102140678816
 21
-2909.091384600204
 31
0.0
  0
LINE
  5
DB02
330
2
100
AcDbEntity
  8
L-ZISSEN
100
AcDbLine
 10
-38.97102140678748
 20
-2905.091384600203
 30
0.0
 11
-24.22102140678816
 21
-2905.091384600203
 31
0.0
  0
LINE
  5
DB03
330
2
100
AcDbEntity
  8
L-ZISSEN
100
AcDbLine
 10
-46.97102140678748
 20
-2895.091384600205
 30
0.0
 11
-38.97102140678748
 21
-2895.091384600205
 31
0.0
  0
LINE
  5
DB04
330
2
100
AcDbEntity
  8
L-ZISSEN
100
AcDbLine
 10
-46.97102140678748
 20
-2895.091384600205
 30
0.0
 11
-46.97102140678748
 21
-2905.091384600204
 31
0.0
  0
LINE
  5
DB05
330
2
100
AcDbEntity
  8
L-ZISSEN
100
AcDbLine
 10
-50.42700600701505
 20
-2905.091384600204
 30
0.0
 11
-46.97102140678748
 21
-2905.091384600204
 31
0.0
  0
LINE
  5
DB06
330
2
100
AcDbEntity
  8
L-ZISSEN
100
AcDbLine
 10
-50.67439234182211
 20
-2891.59240409991
 30
0.0
 11
-50.42700600701505
 21
-2905.091384600204
 31
0.0
  0
LINE
  5
DB07
330
2
100
AcDbEntity
  8
L-ZISSEN
100
AcDbLine
 10
-38.97102140678748
 20
-2895.091384600205
 30
0.0
 11
-38.97102140678748
 21
-2905.091384600204
 31
0.0
  0
LINE
  5
DB08
330
2
100
AcDbEntity
  8
L-TYUSIN
100
AcDbLine
 10
-14.22102140678794
 20
-2914.341384600204
 30
0.0
 11
-26.72102140678794
 21
-2914.341384600204
 31
0.0
  0
LINE
  5
DB09
330
2
100
AcDbEntity
  8
L-ZISSEN
100
AcDbLine
 10
-22.97102140678816
 20
-2920.591384600204
 30
0.0
 11
-17.97102140678816
 21
-2920.591384600204
 31
0.0
  0
CIRCLE
  5
DB0A
330
2
100
AcDbEntity
  8
L-ZISSEN
100
AcDbCircle
 10
-20.47102140678794
 20
-2914.341384600204
 30
0.0
 40
3.75
  0
LINE
  5
DB0B
330
2
100
AcDbEntity
  8
L-ZISSEN
100
AcDbLine
 10
-16.72102140678816
 20
-2895.091384600204
 30
0.0
 11
-24.22102140678816
 21
-2895.091384600204
 31
0.0
  0
LINE
  5
DB0C
330
2
100
AcDbEntity
  8
L-ZISSEN
100
AcDbLine
 10
-24.22102140678816
 20
-2895.091384600204
 30
0.0
 11
-24.22102140678816
 21
-2905.091384600203
 31
0.0
  0
LINE
  5
DB0D
330
2
100
AcDbEntity
  8
L-ZISSEN
100
AcDbLine
 10
-16.72102140678839
 20
-2895.091384600204
 30
0.0
 11
-16.72102140678862
 21
-2905.091384600203
 31
0.0
  0
LINE
  5
DB0E
330
2
100
AcDbEntity
  8
L-ZISSEN
100
AcDbLine
 10
3.540333031470026
 20
-2905.091384600202
 30
0.0
 11
8.784845654693299
 21
-2905.091384600202
 31
0.0
  0
LINE
  5
DB0F
330
2
100
AcDbEntity
  8
L-ZISSEN
100
AcDbLine
 10
3.540333031470026
 20
-2895.091384600205
 30
0.0
 11
3.540333031470026
 21
-2905.091384600202
 31
0.0
  0
LINE
  5
DB10
330
2
100
AcDbEntity
  8
L-ZISSEN
100
AcDbLine
 10
-1.971021406787485
 20
-2895.091384600203
 30
0.0
 11
-1.971021406787485
 21
-2905.091384600202
 31
0.0
  0
LINE
  5
DB11
330
2
100
AcDbEntity
  8
L-ZISSEN
100
AcDbLine
 10
-1.971021406788395
 20
-2895.091384600203
 30
0.0
 11
3.540333031470026
 21
-2895.091384600205
 31
0.0
  0
LINE
  5
DB12
330
2
100
AcDbEntity
  8
L-ZISSEN
100
AcDbLine
 10
13.33310700288257
 20
-2911.3560381116
 30
0.0
 11
19.13310700288229
 21
-2911.966836503975
 31
0.0
  0
LINE
  5
DB13
330
2
100
AcDbEntity
  8
L-ZISSEN
100
AcDbLine
 10
19.13310700288229
 20
-2916.251005486573
 30
0.0
 11
11.13310700288229
 21
-2918.191384600204
 31
0.0
  0
LINE
  5
DB14
330
2
100
AcDbEntity
  8
L-ZISSEN
100
AcDbLine
 10
11.62099468857627
 20
-2896.591384600205
 30
0.0
 11
11.62099468857627
 21
-2905.091384600203
 31
0.0
  0
LINE
  5
DB15
330
2
100
AcDbEntity
  8
L-ZISSEN
100
AcDbLine
 10
9.598493054390701
 20
-2896.591384600205
 30
0.0
 11
9.598493054390701
 21
-2905.091384600203
 31
0.0
  0
LINE
  5
DB16
330
2
100
AcDbEntity
  8
L-ZISSEN
100
AcDbLine
 10
13.33310700288257
 20
-2891.891384600204
 30
0.0
 11
13.33310700288257
 21
-2911.3560381116
 31
0.0
  0
LINE
  5
DB17
330
2
100
AcDbEntity
  8
L-ZISSEN
100
AcDbLine
 10
8.784845654693299
 20
-2905.091384600204
 30
0.0
 11
9.48496319343917
 21
-2905.091384600204
 31
0.0
  0
LINE
  5
DB18
330
2
100
AcDbEntity
  8
L-ZISSEN
100
AcDbLine
 10
8.436241259538292
 20
-2921.191384600205
 30
0.0
 11
11.13310700288275
 21
-2921.191384600205
 31
0.0
  0
LINE
  5
DB19
330
2
100
AcDbEntity
  8
L-ZISSEN
100
AcDbLine
 10
11.62099468857627
 20
-2905.091384600203
 30
0.0
 11
8.958255087007955
 21
-2905.091384600203
 31
0.0
  0
LINE
  5
DB1A
330
2
100
AcDbEntity
  8
L-ZISSEN
100
AcDbLine
 10
11.13310700288229
 20
-2915.391384600204
 30
0.0
 11
9.003566021415281
 21
-2915.391384600203
 31
0.0
  0
LINE
  5
DB1B
330
2
100
AcDbEntity
  8
L-ZISSEN
100
AcDbLine
 10
9.003566021414599
 20
-2914.108920995273
 30
0.0
 11
9.003566021415281
 21
-2905.091384600204
 31
0.0
  0
LINE
  5
DB1C
330
2
100
AcDbEntity
  8
L-ZISSEN
100
AcDbLine
 10
9.003566021415281
 20
-2915.391384600204
 30
0.0
 11
9.003566021415281
 21
-2905.091384600204
 31
0.0
  0
LINE
  5
DB1D
330
2
100
AcDbEntity
  8
L-ZISSEN
100
AcDbLine
 10
11.13310700288229
 20
-2918.191384600204
 30
0.0
 11
11.13310700288229
 21
-2905.091384600203
 31
0.0
  0
LINE
  5
DB1E
330
2
100
AcDbEntity
  8
L-ZISSEN
100
AcDbLine
 10
9.933107002882479
 20
-2921.191384600205
 30
0.0
 11
9.933107002882479
 21
-2915.391384600203
 31
0.0
  0
LINE
  5
DB1F
330
2
100
AcDbEntity
  8
L-ZISSEN
100
AcDbLine
 10
11.13310700288229
 20
-2923.691384600203
 30
0.0
 11
11.63310700288229
 21
-2923.691384600203
 31
0.0
  0
LINE
  5
DB20
330
2
100
AcDbEntity
  8
L-ZISSEN
100
AcDbLine
 10
11.13310700288229
 20
-2927.691384600203
 30
0.0
 11
11.63310700288229
 21
-2927.691384600203
 31
0.0
  0
ARC
  5
DB21
330
2
100
AcDbEntity
  8
L-ZISSEN
100
AcDbCircle
 10
10.36492518470004
 20
-2925.691384600204
 30
0.0
 40
2.368181818181991
100
AcDbArc
 50
302.3784125140605
 51
57.62158748593945
  0
LINE
  5
DB22
330
2
100
AcDbEntity
  8
L-ZISSEN
100
AcDbLine
 10
8.133107002881843
 20
-2935.191384600204
 30
0.0
 11
11.13310700288184
 21
-2932.191384600205
 31
0.0
  0
LINE
  5
DB23
330
2
100
AcDbEntity
  8
L-ZISSEN
100
AcDbLine
 10
11.13310700288184
 20
-2932.191384600205
 30
0.0
 11
11.13310700288275
 21
-2908.872429183944
 31
0.0
  0
LINE
  5
DB24
330
2
100
AcDbEntity
  8
L-ZISSEN
100
AcDbLine
 10
13.33310700288257
 20
-2891.891384600204
 30
0.0
 11
11.13310700288229
 21
-2891.891384600204
 31
0.0
  0
LINE
  5
DB25
330
2
100
AcDbEntity
  8
L-ZISSEN
100
AcDbLine
 10
11.13310700288229
 20
-2891.59240409991
 30
0.0
 11
11.13310700288229
 21
-2891.891384600203
 31
0.0
  0
LINE
  5
DB26
330
2
100
AcDbEntity
  8
L-ZISSEN
100
AcDbLine
 10
11.62099468857627
 20
-2896.591384600205
 30
0.0
 11
9.598493054390701
 21
-2896.591384600205
 31
0.0
  0
LINE
  5
DB27
330
2
100
AcDbEntity
  8
L-ZISSEN
100
AcDbLine
 10
11.13310700288229
 20
-2896.591384600205
 30
0.0
 11
11.13310700288229
 21
-2891.891384600203
 31
0.0
  0
LINE
  5
DB28
330
2
100
AcDbEntity
  8
L-ZISSEN
100
AcDbLine
 10
9.528978593212059
 20
-2891.592404099909
 30
0.0
 11
13.0997820023847
 21
-2891.59240409991
 31
0.0
  0
LINE
  5
DB29
330
2
100
AcDbEntity
  8
L-ZISSEN
100
AcDbLine
 10
13.84978200238515
 20
-2891.59240409991
 30
0.0
 11
14.52897859321206
 21
-2891.59240409991
 31
0.0
  0
LINE
  5
DB2A
330
2
100
AcDbEntity
  8
L-ZISSEN
100
AcDbLine
 10
19.13310700288229
 20
-2911.966836503975
 30
0.0
 11
19.13310700288229
 21
-2916.251005486573
 31
0.0
  0
LINE
  5
DB2B
330
2
100
AcDbEntity
  8
L-ZISSEN
100
AcDbLine
 10
87.78438771284504
 20
-2909.091384600204
 30
0.0
 11
97.28438771284505
 21
-2909.091384600204
 31
0.0
  0
LINE
  5
DB2C
330
2
100
AcDbEntity
  8
L-TYUSIN
100
AcDbLine
 10
80.88438771284542
 20
-2914.091384600205
 30
0.0
 11
105.4060624224955
 21
-2914.091384600204
 31
0.0
  0
ARC
  5
DB2D
330
2
100
AcDbEntity
  8
L-ZISSEN
100
AcDbCircle
 10
88.1963902806226
 20
-2915.816171116022
 30
0.0
 40
2.312215931624567
100
AcDbArc
 50
179.2216280233825
 51
259.7359316277872
  0
ARC
  5
DB2E
330
2
100
AcDbEntity
  8
L-ZISSEN
100
AcDbCircle
 10
88.1963902806226
 20
-2912.866598084386
 30
0.0
 40
2.312215931624567
100
AcDbArc
 50
100.2640683722127
 51
180.7783719766174
  0
LINE
  5
DB2F
330
2
100
AcDbEntity
  8
L-ZISSEN
100
AcDbLine
 10
85.88438771284542
 20
-2912.89800892723
 30
0.0
 11
85.88438771284518
 21
-2915.784760273178
 31
0.0
  0
LINE
  5
DB30
330
2
100
AcDbEntity
  8
L-ZISSEN
100
AcDbLine
 10
97.28438771284505
 20
-2909.091384600204
 30
0.0
 11
100.3845052515914
 21
-2909.091384600204
 31
0.0
  0
LINE
  5
DB31
330
2
100
AcDbEntity
  8
L-ZISSEN
100
AcDbLine
 10
95.57299399298495
 20
-2909.091384600204
 30
0.0
 11
99.02897859321251
 21
-2909.091384600204
 31
0.0
  0
LINE
  5
DB32
330
2
100
AcDbEntity
  8
L-ZISSEN
100
AcDbLine
 10
103.0289785932125
 20
-2895.091384600204
 30
0.0
 11
103.0289785932125
 21
-2905.091384600204
 31
0.0
  0
LINE
  5
DB33
330
2
100
AcDbEntity
  8
L-ZISSEN
100
AcDbLine
 10
100.2731115317317
 20
-2905.091384600204
 30
0.0
 11
100.31096533042
 21
-2909.091384600204
 31
0.0
  0
LINE
  5
DB34
330
2
100
AcDbEntity
  8
L-ZISSEN
 48
0.3
100
AcDbLine
 10
102.382170908362
 20
-2909.091384600204
 30
0.0
 11
100.3845052515914
 21
-2909.091384600204
 31
0.0
  0
LINE
  5
DB35
330
2
100
AcDbEntity
  8
L-ZISSEN
100
AcDbLine
 10
99.32560765817811
 20
-2891.59240409991
 30
0.0
 11
99.57299399298495
 21
-2905.091384600204
 31
0.0
  0
LINE
  5
DB36
330
2
100
AcDbEntity
  8
L-ZISSEN
100
AcDbLine
 10
99.57299399298495
 20
-2905.091384600204
 30
0.0
 11
103.0289785932125
 21
-2905.091384600204
 31
0.0
  0
LINE
  5
DB37
330
2
100
AcDbEntity
  8
L-ZISSEN
100
AcDbLine
 10
158.7848456546933
 20
-2905.091384600204
 30
0.0
 11
157.0689846527163
 21
-2984.336977931143
 31
0.0
  0
LINE
  5
DB38
330
2
100
AcDbEntity
  8
L-ZISSEN
100
AcDbLine
 10
138.9641458614312
 20
-2995.091384600204
 30
0.0
 11
147.9210059250287
 21
-2994.042480234277
 31
0.0
  0
LINE
  5
DB39
330
2
100
AcDbEntity
  8
L-ZISSEN
100
AcDbLine
 10
122.7834617549633
 20
-3001.593025214729
 30
0.0
 11
136.2744954314616
 21
-3001.593821984501
 31
0.0
  0
LINE
  5
DB3A
330
2
100
AcDbEntity
  8
L-ZISSEN
100
AcDbLine
 10
122.7834617549633
 20
-2998.591782985091
 30
0.0
 11
136.2744954314616
 21
-2998.590986215319
 31
0.0
  0
LINE
  5
DB3B
330
2
100
AcDbEntity
  8
L-ZISSEN
100
AcDbLine
 10
124.0617773714661
 20
-3003.533569510401
 30
0.0
 11
132.5617773714675
 21
-3003.533569510401
 31
0.0
  0
ARC
  5
DB3C
330
2
100
AcDbEntity
  8
L-ZISSEN
100
AcDbCircle
 10
129.5617773714679
 20
-2980.951341425992
 30
0.0
 40
20.64106267391694
100
AcDbArc
 50
257.3236813122661
 51
282.4944195184307
  0
ARC
  5
DB3D
330
2
100
AcDbEntity
  8
L-ZISSEN
100
AcDbCircle
 10
129.5617773714679
 20
-3019.233466773826
 30
0.0
 40
20.64106267391679
100
AcDbArc
 50
77.50558048156925
 51
102.676318687748
  0
LINE
  5
DB3E
330
2
100
AcDbEntity
  8
L-ZISSEN
100
AcDbLine
 10
135.2617773714673
 20
-3013.592404099909
 30
0.0
 11
123.8617773714686
 21
-3013.592404099909
 31
0.0
  0
LINE
  5
DB3F
330
2
100
AcDbEntity
  8
L-ZISSEN
100
AcDbLine
 10
120.0938113249937
 20
-2995.091384600204
 30
0.0
 11
138.9641458614312
 21
-2995.091384600204
 31
0.0
  0
LINE
  5
DB40
330
2
100
AcDbEntity
  8
L-ZISSEN
100
AcDbLine
 10
120.0938113249942
 20
-2998.591384600205
 30
0.0
 11
138.9641458614312
 21
-2998.591384600205
 31
0.0
  0
LINE
  5
DB41
330
2
100
AcDbEntity
  8
L-ZISSEN
100
AcDbLine
 10
123.5617773714686
 20
-3013.292404099909
 30
0.0
 11
123.5617773714689
 21
-3004.033569510401
 31
0.0
  0
LINE
  5
DB42
330
2
100
AcDbEntity
  8
L-ZISSEN
100
AcDbLine
 10
126.5617773714684
 20
-3003.533569510401
 30
0.0
 11
126.5617773714686
 21
-3013.592404099909
 31
0.0
  0
LINE
  5
DB43
330
2
100
AcDbEntity
  8
L-ZISSEN
100
AcDbLine
 10
127.5617773714698
 20
-3003.533569510401
 30
0.0
 11
127.56177737147
 21
-3013.592404099909
 31
0.0
  0
LINE
  5
DB44
330
2
100
AcDbEntity
  8
L-ZISSEN
100
AcDbLine
 10
124.561777371468
 20
-3003.533569510401
 30
0.0
 11
124.5617773714682
 21
-3013.592404099909
 31
0.0
  0
LINE
  5
DB45
330
2
100
AcDbEntity
  8
L-ZISSEN
100
AcDbLine
 10
125.561777371467
 20
-3003.533569510401
 30
0.0
 11
125.561777371467
 21
-3013.592404099909
 31
0.0
  0
LINE
  5
DB46
330
2
100
AcDbEntity
  8
L-ZISSEN
100
AcDbLine
 10
123.8617773714686
 20
-3013.592404099909
 30
0.0
 11
123.5617773714689
 21
-3013.292404099909
 31
0.0
  0
LINE
  5
DB47
330
2
100
AcDbEntity
  8
L-ZISSEN
100
AcDbLine
 10
120.0938113249928
 20
-2995.091384600204
 30
0.0
 11
111.1369512613953
 21
-2994.042480234277
 31
0.0
  0
ARC
  5
DB48
330
2
100
AcDbEntity
  8
L-ZISSEN
100
AcDbCircle
 10
122.7834617549633
 20
-2996.321695044358
 30
0.0
 40
5.271330170370607
100
AcDbArc
 50
245.0771192748252
 51
295.2523389966427
  0
ARC
  5
DB49
330
2
100
AcDbEntity
  8
L-ZISSEN
100
AcDbCircle
 10
122.7834617549633
 20
-3003.86311315546
 30
0.0
 40
5.271330170370607
100
AcDbArc
 50
64.74766100341544
 51
114.9228807251748
  0
LINE
  5
DB4A
330
2
100
AcDbEntity
  8
L-ZISSEN
100
AcDbLine
 10
124.5617773714661
 20
-3003.533569510401
 30
0.0
 11
124.0617773714689
 21
-3003.033569510401
 31
0.0
  0
LINE
  5
DB4B
330
2
100
AcDbEntity
  8
L-ZISSEN
100
AcDbLine
 10
124.0617773714689
 20
-3003.033569510401
 30
0.0
 11
124.0617773714689
 21
-3001.592404099909
 31
0.0
  0
LINE
  5
DB4C
330
2
100
AcDbEntity
  8
L-ZISSEN
100
AcDbLine
 10
120.5621337513839
 20
-2999.082671369853
 30
0.0
 11
120.5621337513839
 21
-3001.102136829965
 31
0.0
  0
LINE
  5
DB4D
330
2
100
AcDbEntity
  8
L-ZISSEN
100
AcDbLine
 10
124.0617773714661
 20
-3003.533569510401
 30
0.0
 11
123.5617773714689
 21
-3004.033569510401
 31
0.0
  0
LINE
  5
DB4E
330
2
100
AcDbEntity
  8
L-ZISSEN
100
AcDbLine
 10
125.0322410534495
 20
-2999.095523257858
 30
0.0
 11
125.0322410534563
 21
-3001.089284941961
 31
0.0
  0
LINE
  5
DB4F
330
2
100
AcDbEntity
  8
L-ZISSEN
100
AcDbLine
 10
124.5617773714704
 20
-3001.593100711037
 30
0.0
 11
124.5617773714661
 21
-3003.533569510401
 31
0.0
  0
LINE
  5
DB50
330
2
100
AcDbEntity
  8
L-ZISSEN
100
AcDbLine
 10
120.0938113249937
 20
-2995.091384600204
 30
0.0
 11
120.0938113249942
 21
-2998.591384600205
 31
0.0
  0
LINE
  5
DB51
330
2
100
AcDbEntity
  8
L-ZISSEN
100
AcDbLine
 10
128.5617773714688
 20
-3003.533569510401
 30
0.0
 11
128.5617773714691
 21
-3013.592404099909
 31
0.0
  0
LINE
  5
DB52
330
2
100
AcDbEntity
  8
L-ZISSEN
100
AcDbLine
 10
129.5617773714702
 20
-3003.533569510401
 30
0.0
 11
129.5617773714704
 21
-3013.592404099909
 31
0.0
  0
LINE
  5
DB53
330
2
100
AcDbEntity
  8
L-ZISSEN
100
AcDbLine
 10
130.5617773714693
 20
-3003.533569510401
 30
0.0
 11
130.5617773714695
 21
-3013.592404099909
 31
0.0
  0
LINE
  5
DB54
330
2
100
AcDbEntity
  8
L-ZISSEN
100
AcDbLine
 10
131.5617773714684
 20
-3003.533569510401
 30
0.0
 11
131.5617773714686
 21
-3013.592404099909
 31
0.0
  0
LINE
  5
DB55
330
2
100
AcDbEntity
  8
L-ZISSEN
100
AcDbLine
 10
132.5617773714675
 20
-3003.533569510401
 30
0.0
 11
132.5617773714675
 21
-3013.592404099909
 31
0.0
  0
LINE
  5
DB56
330
2
100
AcDbEntity
  8
L-ZISSEN
100
AcDbLine
 10
133.5617773714711
 20
-3003.533569510401
 30
0.0
 11
133.5617773714714
 21
-3013.592404099909
 31
0.0
  0
LINE
  5
DB57
330
2
100
AcDbEntity
  8
L-ZISSEN
100
AcDbLine
 10
134.5617773714702
 20
-3003.533569510401
 30
0.0
 11
134.5617773714723
 21
-3013.592404099909
 31
0.0
  0
LINE
  5
DB58
330
2
100
AcDbEntity
  8
L-ZISSEN
100
AcDbLine
 10
135.561777371467
 20
-3004.033569510401
 30
0.0
 11
135.561777371467
 21
-3013.292404099909
 31
0.0
  0
LINE
  5
DB59
330
2
100
AcDbEntity
  8
L-ZISSEN
100
AcDbLine
 10
135.2617773714673
 20
-3013.592404099909
 30
0.0
 11
135.561777371467
 21
-3013.292404099909
 31
0.0
  0
ARC
  5
DB5A
330
2
100
AcDbEntity
  8
L-ZISSEN
100
AcDbCircle
 10
136.2744954314616
 20
-2996.322491814129
 30
0.0
 40
5.271330170371532
100
AcDbArc
 50
244.7408933165819
 51
295.711645114861
  0
ARC
  5
DB5B
330
2
100
AcDbEntity
  8
L-ZISSEN
100
AcDbCircle
 10
136.2744954314616
 20
-3003.86231638569
 30
0.0
 40
5.271330170371789
100
AcDbArc
 50
64.28835488513896
 51
115.259106683418
  0
LINE
  5
DB5C
330
2
100
AcDbEntity
  8
L-ZISSEN
100
AcDbLine
 10
135.0617773714673
 20
-3003.0335695104
 30
0.0
 11
135.061777371467
 21
-3001.592404099909
 31
0.0
  0
LINE
  5
DB5D
330
2
100
AcDbEntity
  8
L-ZISSEN
100
AcDbLine
 10
134.0251530084851
 20
-2999.094992143596
 30
0.0
 11
134.0251530084851
 21
-3001.089816056223
 31
0.0
  0
LINE
  5
DB5E
330
2
100
AcDbEntity
  8
L-ZISSEN
100
AcDbLine
 10
135.0617773714675
 20
-3003.533569510401
 30
0.0
 11
135.561777371467
 21
-3004.033569510401
 31
0.0
  0
LINE
  5
DB5F
330
2
100
AcDbEntity
  8
L-ZISSEN
100
AcDbLine
 10
132.5617773714675
 20
-3003.533569510401
 30
0.0
 11
135.0617773714675
 21
-3003.533569510401
 31
0.0
  0
LINE
  5
DB60
330
2
100
AcDbEntity
  8
L-ZISSEN
100
AcDbLine
 10
134.5617773714675
 20
-3003.533569510401
 30
0.0
 11
135.061777371467
 21
-3003.033569510401
 31
0.0
  0
LINE
  5
DB61
330
2
100
AcDbEntity
  8
L-ZISSEN
100
AcDbLine
 10
134.5617773714718
 20
-3001.593750362332
 30
0.0
 11
134.5617773714675
 21
-3003.533569510401
 31
0.0
  0
LINE
  5
DB62
330
2
100
AcDbEntity
  8
L-ZISSEN
100
AcDbLine
 10
138.9641458614312
 20
-2995.091384600204
 30
0.0
 11
138.9641458614307
 21
-2998.591384600205
 31
0.0
  0
LINE
  5
DB63
330
2
100
AcDbEntity
  8
L-ZISSEN
100
AcDbLine
 10
138.5614209915543
 20
-2999.112906606815
 30
0.0
 11
138.5614209915543
 21
-3001.071901593003
 31
0.0
  0
ARC
  5
DB64
330
2
100
AcDbEntity
  8
L-ZISSEN
100
AcDbCircle
 10
147.0723242444717
 20
-2984.078558345528
 30
0.0
 40
10.0
100
AcDbArc
 50
274.8684440628809
 51
358.9999999999721
  0
LINE
  5
DB65
330
2
100
AcDbEntity
  8
L-ZISSEN
100
AcDbLine
 10
148.0289785932125
 20
-2905.091384600202
 30
0.0
 11
141.0289785932125
 21
-2905.091384600203
 31
0.0
  0
LINE
  5
DB66
330
2
100
AcDbEntity
  8
L-ZISSEN
100
AcDbLine
 10
128.5692285932134
 20
-2901.875634600203
 30
0.0
 11
126.6497285932134
 21
-2901.875634600203
 31
0.0
  0
LINE
  5
DB67
330
2
100
AcDbEntity
  8
L-ZISSEN
100
AcDbLine
 10
129.5289785932118
 20
-2912.111308659302
 30
0.0
 11
120.381076832286
 21
-2910.804465550599
 31
0.0
  0
LINE
  5
DB68
330
2
100
AcDbEntity
  8
L-ZISSEN
100
AcDbLine
 10
129.5289785932118
 20
-2911.473134600203
 30
0.0
 11
119.4516035932099
 21
-2910.033509600204
 31
0.0
  0
LINE
  5
DB69
330
2
100
AcDbEntity
  8
L-ZISSEN
100
AcDbLine
 10
120.381076832286
 20
-2914.307871787583
 30
0.0
 11
129.5289785932118
 21
-2916.223039840351
 31
0.0
  0
LINE
  5
DB6A
330
2
100
AcDbEntity
  8
L-TYUSIN
100
AcDbLine
 10
121.9289785932121
 20
-2925.691384600203
 30
0.0
 11
137.1289785932119
 21
-2925.691384600203
 31
0.0
  0
LINE
  5
DB6B
330
2
100
AcDbEntity
  8
L-ZISSEN
100
AcDbLine
 10
121.9289785932121
 20
-2929.191384600203
 30
0.0
 11
137.1289785932119
 21
-2929.191384600203
 31
0.0
  0
LINE
  5
DB6C
330
2
100
AcDbEntity
  8
L-ZISSEN
100
AcDbLine
 10
121.9289785932121
 20
-2930.191384600203
 30
0.0
 11
137.1289785932119
 21
-2930.191384600203
 31
0.0
  0
LINE
  5
DB6D
330
2
100
AcDbEntity
  8
L-ZISSEN
100
AcDbLine
 10
126.6497285932134
 20
-2901.875634600203
 30
0.0
 11
129.5289785932134
 21
-2906.674384600202
 31
0.0
  0
LINE
  5
DB6E
330
2
100
AcDbEntity
  8
L-ZISSEN
100
AcDbLine
 10
129.5289785932118
 20
-2918.191384600203
 30
0.0
 11
118.7317910932099
 21
-2915.312134600203
 31
0.0
  0
LINE
  5
DB6F
330
2
100
AcDbEntity
  8
L-ZISSEN
100
AcDbLine
 10
119.5289785932116
 20
-2935.191384600203
 30
0.0
 11
139.5289785932116
 21
-2935.191384600203
 31
0.0
  0
LINE
  5
DB70
330
2
100
AcDbEntity
  8
L-ZISSEN
100
AcDbLine
 10
119.9289785932121
 20
-2932.191384600204
 30
0.0
 11
139.1289785932119
 21
-2932.191384600204
 31
0.0
  0
LINE
  5
DB71
330
2
100
AcDbEntity
  8
L-ZISSEN
100
AcDbLine
 10
141.5289785932118
 20
-2891.891384600203
 30
0.0
 11
117.5289785932118
 21
-2891.891384600203
 31
0.0
  0
LINE
  5
DB72
330
2
100
AcDbEntity
  8
L-ZISSEN
100
AcDbLine
 10
117.2289785932123
 20
-2905.091384600203
 30
0.0
 11
118.5289785932116
 21
-2905.091384600203
 31
0.0
  0
ARC
  5
DB73
330
2
100
AcDbEntity
  8
L-ZISSEN
100
AcDbCircle
 10
119.0289785932115
 20
-2920.691384600204
 30
0.0
 40
0.5
100
AcDbArc
 50
180.0
 51
270.0
  0
LINE
  5
DB74
330
2
100
AcDbEntity
  8
L-ZISSEN
100
AcDbLine
 10
117.2289785932123
 20
-2896.591384600204
 30
0.0
 11
118.5289785932116
 21
-2896.591384600204
 31
0.0
  0
LINE
  5
DB75
330
2
100
AcDbEntity
  8
L-ZISSEN
100
AcDbLine
 10
111.0289785932125
 20
-2895.091384600204
 30
0.0
 11
111.0289785932125
 21
-2905.091384600204
 31
0.0
  0
LINE
  5
DB76
330
2
100
AcDbEntity
  8
L-ZISSEN
100
AcDbLine
 10
117.2289785932123
 20
-2896.591384600204
 30
0.0
 11
117.2289785932123
 21
-2905.091384600203
 31
0.0
  0
LINE
  5
DB77
330
2
100
AcDbEntity
  8
L-ZISSEN
100
AcDbLine
 10
111.0289785932125
 20
-2905.091384600203
 30
0.0
 11
118.0289785932125
 21
-2905.091384600203
 31
0.0
  0
LINE
  5
DB78
330
2
100
AcDbEntity
  8
L-ZISSEN
100
AcDbLine
 10
117.528978593212
 20
-2891.59240409991
 30
0.0
 11
117.5289785932118
 21
-2891.891384600203
 31
0.0
  0
LINE
  5
DB79
330
2
100
AcDbEntity
  8
L-ZISSEN
100
AcDbLine
 10
119.4516035932099
 20
-2891.891384600203
 30
0.0
 11
119.4516035932099
 21
-2910.033509600204
 31
0.0
  0
CIRCLE
  5
DB7A
330
2
100
AcDbEntity
  8
L-ZISSEN
100
AcDbCircle
 10
125.2789785932115
 20
-2925.691384600203
 30
0.0
 40
2.0
  0
LINE
  5
DB7B
330
2
100
AcDbEntity
  8
L-ZISSEN
100
AcDbLine
 10
120.381076832286
 20
-2910.804465550599
 30
0.0
 11
119.4516035932099
 21
-2910.033509600204
 31
0.0
  0
LINE
  5
DB7C
330
2
100
AcDbEntity
  8
L-ZISSEN
100
AcDbLine
 10
120.381076832286
 20
-2910.166291491499
 30
0.0
 11
119.4516035932099
 21
-2910.033509600204
 31
0.0
  0
LINE
  5
DB7D
330
2
100
AcDbEntity
  8
L-ZISSEN
100
AcDbLine
 10
120.381076832286
 20
-2910.804465550599
 30
0.0
 11
120.381076832286
 21
-2914.307871787583
 31
0.0
  0
LINE
  5
DB7E
330
2
100
AcDbEntity
  8
L-ZISSEN
100
AcDbLine
 10
119.9289785932121
 20
-2932.191384600203
 30
0.0
 11
119.5289785932116
 21
-2935.191384600203
 31
0.0
  0
LINE
  5
DB7F
330
2
100
AcDbEntity
  8
L-ZISSEN
100
AcDbLine
 10
121.9289785932117
 20
-2916.164717933538
 30
0.0
 11
121.9289785932121
 21
-2930.191384600203
 31
0.0
  0
LINE
  5
DB80
330
2
100
AcDbEntity
  8
L-ZISSEN
100
AcDbLine
 10
119.5289785932116
 20
-2921.191384600203
 30
0.0
 11
119.5289785932116
 21
-2935.191384600203
 31
0.0
  0
LINE
  5
DB81
330
2
100
AcDbEntity
  8
L-ZISSEN
100
AcDbLine
 10
119.9289785932112
 20
-2921.191384600203
 30
0.0
 11
119.9289785932121
 21
-2932.191384600203
 31
0.0
  0
LINE
  5
DB82
330
2
100
AcDbEntity
  8
L-TYUSIN
100
AcDbLine
 10
125.2789785932115
 20
-2922.441384600203
 30
0.0
 11
125.2789785932115
 21
-2928.941384600203
 31
0.0
  0
LINE
  5
DB83
330
2
100
AcDbEntity
  8
L-ZISSEN
100
AcDbLine
 10
127.1296035932118
 20
-2896.117134600204
 30
0.0
 11
123.2906035932117
 21
-2896.117134600204
 31
0.0
  0
LINE
  5
DB84
330
2
100
AcDbEntity
  8
L-ZISSEN
100
AcDbLine
 10
127.1296035932118
 20
-2896.117134600204
 30
0.0
 11
123.2906035932117
 21
-2896.117134600204
 31
0.0
  0
LINE
  5
DB85
330
2
100
AcDbEntity
  8
L-ZISSEN
100
AcDbLine
 10
127.1296035932118
 20
-2897.076884600203
 30
0.0
 11
123.2906035932117
 21
-2897.076884600203
 31
0.0
  0
LINE
  5
DB86
330
2
100
AcDbEntity
  8
L-ZISSEN
100
AcDbLine
 10
127.1296035932118
 20
-2897.076884600203
 30
0.0
 11
123.2906035932117
 21
-2897.076884600203
 31
0.0
  0
LINE
  5
DB87
330
2
100
AcDbEntity
  8
L-ZISSEN
100
AcDbLine
 10
123.2906035932117
 20
-2897.076884600203
 30
0.0
 11
123.2906035932117
 21
-2898.036634600204
 31
0.0
  0
LINE
  5
DB88
330
2
100
AcDbEntity
  8
L-ZISSEN
100
AcDbLine
 10
123.2906035932117
 20
-2898.036634600204
 30
0.0
 11
120.8912285932117
 21
-2896.597009600204
 31
0.0
  0
LINE
  5
DB89
330
2
100
AcDbEntity
  8
L-ZISSEN
100
AcDbLine
 10
123.2906035932117
 20
-2896.117134600204
 30
0.0
 11
123.2906035932117
 21
-2895.157384600203
 31
0.0
  0
LINE
  5
DB8A
330
2
100
AcDbEntity
  8
L-ZISSEN
100
AcDbLine
 10
123.2906035932117
 20
-2895.157384600203
 30
0.0
 11
120.8912285932117
 21
-2896.597009600204
 31
0.0
  0
LINE
  5
DB8B
330
2
100
AcDbEntity
  8
L-ZISSEN
100
AcDbLine
 10
127.1296035932118
 20
-2896.117134600204
 30
0.0
 11
127.1296035932118
 21
-2897.076884600203
 31
0.0
  0
LINE
  5
DB8C
330
2
100
AcDbEntity
  8
L-ZISSEN
100
AcDbLine
 10
118.7317910932101
 20
-2891.891384600203
 30
0.0
 11
118.7317910932099
 21
-2915.312134600203
 31
0.0
  0
LINE
  5
DB8D
330
2
100
AcDbEntity
  8
L-ZISSEN
100
AcDbLine
 10
118.5289785932116
 20
-2891.891384600203
 30
0.0
 11
118.5289785932116
 21
-2920.691384600204
 31
0.0
  0
LINE
  5
DB8E
330
2
100
AcDbEntity
  8
L-ZISSEN
100
AcDbLine
 10
118.7317910932099
 20
-2915.312134600203
 30
0.0
 11
120.381076832286
 21
-2914.307871787583
 31
0.0
  0
LINE
  5
DB8F
330
2
100
AcDbEntity
  8
L-ZISSEN
100
AcDbLine
 10
119.0289785932115
 20
-2921.191384600204
 30
0.0
 11
121.9289785932117
 21
-2921.191384600204
 31
0.0
  0
LINE
  5
DB90
330
2
100
AcDbEntity
  8
L-ZISSEN
100
AcDbLine
 10
135.7673535932119
 20
-2898.036634600202
 30
0.0
 11
138.1667285932119
 21
-2896.597009600203
 31
0.0
  0
LINE
  5
DB91
330
2
100
AcDbEntity
  8
L-ZISSEN
100
AcDbLine
 10
135.7673535932119
 20
-2895.157384600203
 30
0.0
 11
138.1667285932119
 21
-2896.597009600203
 31
0.0
  0
LINE
  5
DB92
330
2
100
AcDbEntity
  8
L-ZISSEN
100
AcDbLine
 10
137.1289785932119
 20
-2921.191384600204
 30
0.0
 11
140.0289785932116
 21
-2921.191384600204
 31
0.0
  0
LINE
  5
DB93
330
2
100
AcDbEntity
  8
L-ZISSEN
100
AcDbLine
 10
129.5289785932118
 20
-2911.473134600203
 30
0.0
 11
139.60635359321
 21
-2910.033509600204
 31
0.0
  0
LINE
  5
DB94
330
2
100
AcDbEntity
  8
L-ZISSEN
100
AcDbLine
 10
129.5289785932118
 20
-2912.111308659302
 30
0.0
 11
138.6768803541376
 21
-2910.804465550599
 31
0.0
  0
LINE
  5
DB95
330
2
100
AcDbEntity
  8
L-ZISSEN
100
AcDbLine
 10
138.6768803541376
 20
-2914.307871787583
 30
0.0
 11
129.5289785932118
 21
-2916.223039840351
 31
0.0
  0
LINE
  5
DB96
330
2
100
AcDbEntity
  8
L-ZISSEN
100
AcDbLine
 10
129.5289785932118
 20
-2918.191384600203
 30
0.0
 11
140.32616609321
 21
-2915.312134600203
 31
0.0
  0
LINE
  5
DB98
330
2
100
AcDbEntity
  8
L-ZISSEN
100
AcDbLine
 10
130.4887285932134
 20
-2894.197634600203
 30
0.0
 11
130.4887285932134
 21
-2901.875634600203
 31
0.0
  0
LINE
  5
DB99
330
2
100
AcDbEntity
  8
L-ZISSEN
100
AcDbLine
 10
130.4887285932134
 20
-2894.197634600203
 30
0.0
 11
130.4887285932134
 21
-2901.875634600203
 31
0.0
  0
LINE
  5
DB9A
330
2
100
AcDbEntity
  8
L-ZISSEN
100
AcDbLine
 10
130.778978593212
 20
-2919.941384600203
 30
0.0
 11
130.778978593212
 21
-2917.85805126687
 31
0.0
  0
LINE
  5
DB9B
330
2
100
AcDbEntity
  8
L-ZISSEN
100
AcDbLine
 10
130.4887285932134
 20
-2901.875634600203
 30
0.0
 11
132.4082285932136
 21
-2901.875634600203
 31
0.0
  0
LINE
  5
DB9C
330
2
100
AcDbEntity
  8
L-ZISSEN
100
AcDbLine
 10
129.5289785932118
 20
-2911.473134600203
 30
0.0
 11
129.5289785932118
 21
-2912.111308659302
 31
0.0
  0
LINE
  5
DB9D
330
2
100
AcDbEntity
  8
L-ZISSEN
100
AcDbLine
 10
132.4082285932136
 20
-2901.875634600203
 30
0.0
 11
129.5289785932134
 21
-2906.674384600202
 31
0.0
  0
CIRCLE
  5
DB9E
330
2
100
AcDbEntity
  8
L-ZISSEN
100
AcDbCircle
 10
133.7789785932125
 20
-2925.691384600203
 30
0.0
 40
2.0
  0
LINE
  5
DB9F
330
2
100
AcDbEntity
  8
L-TYUSIN
100
AcDbLine
 10
133.7789785932125
 20
-2922.441384600203
 30
0.0
 11
133.7789785932125
 21
-2928.941384600203
 31
0.0
  0
LINE
  5
DBA0
330
2
100
AcDbEntity
  8
L-ZISSEN
100
AcDbLine
 10
137.1289785932119
 20
-2916.164717933536
 30
0.0
 11
137.1289785932119
 21
-2930.191384600203
 31
0.0
  0
LINE
  5
DBA1
330
2
100
AcDbEntity
  8
L-ZISSEN
100
AcDbLine
 10
131.9283535932118
 20
-2896.117134600203
 30
0.0
 11
135.7673535932119
 21
-2896.117134600203
 31
0.0
  0
LINE
  5
DBA2
330
2
100
AcDbEntity
  8
L-ZISSEN
100
AcDbLine
 10
131.9283535932118
 20
-2896.117134600203
 30
0.0
 11
135.7673535932119
 21
-2896.117134600203
 31
0.0
  0
LINE
  5
DBA3
330
2
100
AcDbEntity
  8
L-ZISSEN
100
AcDbLine
 10
131.9283535932118
 20
-2897.076884600203
 30
0.0
 11
135.7673535932119
 21
-2897.076884600203
 31
0.0
  0
LINE
  5
DBA4
330
2
100
AcDbEntity
  8
L-ZISSEN
100
AcDbLine
 10
131.9283535932118
 20
-2897.076884600203
 30
0.0
 11
135.7673535932119
 21
-2897.076884600203
 31
0.0
  0
LINE
  5
DBA5
330
2
100
AcDbEntity
  8
L-ZISSEN
100
AcDbLine
 10
131.9283535932118
 20
-2896.117134600203
 30
0.0
 11
131.9283535932118
 21
-2897.076884600203
 31
0.0
  0
LINE
  5
DBA6
330
2
100
AcDbEntity
  8
L-ZISSEN
100
AcDbLine
 10
135.7673535932119
 20
-2897.076884600203
 30
0.0
 11
135.7673535932119
 21
-2898.036634600202
 31
0.0
  0
LINE
  5
DBA7
330
2
100
AcDbEntity
  8
L-ZISSEN
100
AcDbLine
 10
135.7673535932119
 20
-2896.117134600203
 30
0.0
 11
135.7673535932119
 21
-2895.157384600203
 31
0.0
  0
LINE
  5
DBA8
330
2
100
AcDbEntity
  8
L-ZISSEN
100
AcDbLine
 10
128.5692285932134
 20
-2894.197634600203
 30
0.0
 11
128.5692285932134
 21
-2901.875634600203
 31
0.0
  0
LINE
  5
DBA9
330
2
100
AcDbEntity
  8
L-ZISSEN
100
AcDbLine
 10
128.5692285932134
 20
-2894.197634600203
 30
0.0
 11
128.5692285932134
 21
-2901.875634600203
 31
0.0
  0
LINE
  5
DBAA
330
2
100
AcDbEntity
  8
L-ZISSEN
100
AcDbLine
 10
128.278978593212
 20
-2919.941384600203
 30
0.0
 11
128.278978593212
 21
-2917.85805126687
 31
0.0
  0
ARC
  5
DBAB
330
2
100
AcDbEntity
  8
L-ZISSEN
100
AcDbCircle
 10
129.528978593212
 20
-2919.941384600203
 30
0.0
 40
1.25
100
AcDbArc
 50
180.0
 51
0.0
  0
LINE
  5
DBAC
330
2
100
AcDbEntity
  8
L-ZISSEN
100
AcDbLine
 10
130.4887285932134
 20
-2894.197634600203
 30
0.0
 11
128.5692285932134
 21
-2894.197634600203
 31
0.0
  0
LINE
  5
DBAD
330
2
100
AcDbEntity
  8
L-ZISSEN
100
AcDbLine
 10
141.8289785932127
 20
-2896.591384600204
 30
0.0
 11
141.8289785932118
 21
-2905.091384600203
 31
0.0
  0
LINE
  5
DBAE
330
2
100
AcDbEntity
  8
L-ZISSEN
100
AcDbLine
 10
139.60635359321
 20
-2891.891384600203
 30
0.0
 11
139.60635359321
 21
-2910.033509600204
 31
0.0
  0
LINE
  5
DBAF
330
2
100
AcDbEntity
  8
L-ZISSEN
100
AcDbLine
 10
140.32616609321
 20
-2891.891384600203
 30
0.0
 11
140.32616609321
 21
-2915.312134600203
 31
0.0
  0
LINE
  5
DBB0
330
2
100
AcDbEntity
  8
L-ZISSEN
100
AcDbLine
 10
140.5289785932116
 20
-2891.891384600203
 30
0.0
 11
140.5289785932116
 21
-2920.691384600204
 31
0.0
  0
LINE
  5
DBB1
330
2
100
AcDbEntity
  8
L-ZISSEN
100
AcDbLine
 10
138.6768803541376
 20
-2910.166291491499
 30
0.0
 11
139.60635359321
 21
-2910.033509600204
 31
0.0
  0
LINE
  5
DBB2
330
2
100
AcDbEntity
  8
L-ZISSEN
100
AcDbLine
 10
138.6768803541376
 20
-2910.804465550599
 30
0.0
 11
139.60635359321
 21
-2910.033509600204
 31
0.0
  0
LINE
  5
DBB3
330
2
100
AcDbEntity
  8
L-ZISSEN
100
AcDbLine
 10
140.32616609321
 20
-2915.312134600203
 30
0.0
 11
138.6768803541376
 21
-2914.307871787583
 31
0.0
  0
LINE
  5
DBB4
330
2
100
AcDbEntity
  8
L-ZISSEN
100
AcDbLine
 10
138.6768803541376
 20
-2910.804465550599
 30
0.0
 11
138.6768803541376
 21
-2914.307871787583
 31
0.0
  0
LINE
  5
DBB5
330
2
100
AcDbEntity
  8
L-ZISSEN
100
AcDbLine
 10
141.8289785932118
 20
-2905.091384600203
 30
0.0
 11
140.5289785932116
 21
-2905.091384600204
 31
0.0
  0
LINE
  5
DBB6
330
2
100
AcDbEntity
  8
L-ZISSEN
100
AcDbLine
 10
141.8289785932118
 20
-2905.091384600203
 30
0.0
 11
140.5289785932116
 21
-2905.091384600203
 31
0.0
  0
ARC
  5
DBB7
330
2
100
AcDbEntity
  8
L-ZISSEN
100
AcDbCircle
 10
140.0289785932116
 20
-2920.691384600204
 30
0.0
 40
0.5
100
AcDbArc
 50
270.0
 51
0.0
  0
LINE
  5
DBB8
330
2
100
AcDbEntity
  8
L-ZISSEN
100
AcDbLine
 10
139.1289785932119
 20
-2932.191384600204
 30
0.0
 11
139.5289785932125
 21
-2935.191384600203
 31
0.0
  0
LINE
  5
DBB9
330
2
100
AcDbEntity
  8
L-ZISSEN
100
AcDbLine
 10
139.5289785932125
 20
-2921.191384600203
 30
0.0
 11
139.5289785932125
 21
-2935.191384600203
 31
0.0
  0
LINE
  5
DBBA
330
2
100
AcDbEntity
  8
L-ZISSEN
100
AcDbLine
 10
139.1289785932119
 20
-2921.191384600203
 30
0.0
 11
139.1289785932119
 21
-2932.191384600204
 31
0.0
  0
LINE
  5
DBBB
330
2
100
AcDbEntity
  8
L-ZISSEN
100
AcDbLine
 10
141.8289785932127
 20
-2896.591384600204
 30
0.0
 11
140.5289785932116
 21
-2896.591384600204
 31
0.0
  0
LINE
  5
DBBC
330
2
100
AcDbEntity
  8
L-ZISSEN
100
AcDbLine
 10
141.5289785932116
 20
-2891.592404099909
 30
0.0
 11
141.5289785932116
 21
-2891.891384600203
 31
0.0
  0
LINE
  5
DBBD
330
2
100
AcDbEntity
  8
L-ZISSEN
100
AcDbLine
 10
153.54033303147
 20
-2905.091384600202
 30
0.0
 11
158.7848456546933
 21
-2905.091384600202
 31
0.0
  0
LINE
  5
DBBE
330
2
100
AcDbEntity
  8
L-ZISSEN
100
AcDbLine
 10
153.54033303147
 20
-2895.091384600204
 30
0.0
 11
153.54033303147
 21
-2905.091384600202
 31
0.0
  0
LINE
  5
DBBF
330
2
100
AcDbEntity
  8
L-ZISSEN
100
AcDbLine
 10
148.0289785932125
 20
-2895.091384600203
 30
0.0
 11
148.0289785932125
 21
-2905.091384600202
 31
0.0
  0
LINE
  5
DBC0
330
2
100
AcDbEntity
  8
L-ZISSEN
100
AcDbLine
 10
148.0289785932115
 20
-2895.091384600203
 30
0.0
 11
153.54033303147
 21
-2895.091384600204
 31
0.0
  0
LINE
  5
DBC1
330
2
100
AcDbEntity
  8
L-ZISSEN
100
AcDbLine
 10
159.6652617086376
 20
-2891.59240409991
 30
0.0
 11
159.4849631934391
 21
-2905.091384600204
 31
0.0
  0
LINE
  5
DBC2
330
2
100
AcDbEntity
  8
L-ZISSEN
100
AcDbLine
 10
158.7848456546933
 20
-2905.091384600204
 30
0.0
 11
159.4849631934391
 21
-2905.091384600204
 31
0.0
  0
LINE
  5
DBEB
330
2
100
AcDbEntity
  8
L-ZISSEN
100
AcDbLine
 10
159.5289785932091
 20
-2747.199463667085
 30
0.0
 11
159.5289785932118
 21
-2641.85647406027
 31
0.0
  0
LINE
  5
DBEC
330
2
100
AcDbEntity
  8
L-ZISSEN
100
AcDbLine
 10
146.3789785932112
 20
-2652.195212971903
 30
0.0
 11
146.3789785932112
 21
-2734.695212971904
 31
0.0
  0
LINE
  5
DBED
330
2
100
AcDbEntity
  8
L-ZISSEN
100
AcDbLine
 10
154.808978593212
 20
-2652.195212971903
 30
0.0
 11
154.808978593212
 21
-2734.695212971904
 31
0.0
  0
LINE
  5
DBEE
330
2
100
AcDbEntity
  8
L-ZISSEN
100
AcDbLine
 10
112.6789785932123
 20
-2652.195212971903
 30
0.0
 11
112.6789785932123
 21
-2734.695212971903
 31
0.0
  0
LINE
  5
DBEF
330
2
100
AcDbEntity
  8
L-ZISSEN
100
AcDbLine
 10
99.52897859321183
 20
-2747.199463667085
 30
0.0
 11
99.52897859321183
 21
-2641.856474060272
 31
0.0
  0
LINE
  5
DBF0
330
2
100
AcDbEntity
  8
L-ZISSEN
100
AcDbLine
 10
104.2489785932116
 20
-2652.195212971903
 30
0.0
 11
104.2489785932116
 21
-2734.695212971903
 31
0.0
  0
LINE
  5
DBF1
330
2
100
AcDbEntity
  8
L-ZISSEN
100
AcDbLine
 10
119.5289785932118
 20
-2787.856474060271
 30
0.0
 11
139.5289785932118
 21
-2787.856474060271
 31
0.0
  0
LINE
  5
DBF2
330
2
100
AcDbEntity
  8
L-ZISSEN
100
AcDbLine
 10
119.5289785932118
 20
-2774.356474060271
 30
0.0
 11
139.5289785932118
 21
-2774.356474060271
 31
0.0
  0
LINE
  5
DBF3
330
2
100
AcDbEntity
  8
L-ZISSEN
100
AcDbLine
 10
119.5289785932118
 20
-2773.656474060271
 30
0.0
 11
139.5289785932118
 21
-2773.656474060271
 31
0.0
  0
LINE
  5
DBF4
330
2
100
AcDbEntity
  8
L-ZISSEN
100
AcDbLine
 10
140.5289785932118
 20
-2770.156474060271
 30
0.0
 11
118.5289785932118
 21
-2770.156474060271
 31
0.0
  0
LINE
  5
DBF5
330
2
100
AcDbEntity
  8
L-ZISSEN
100
AcDbLine
 10
117.5289785932118
 20
-2761.156474060271
 30
0.0
 11
141.5289785932118
 21
-2761.156474060271
 31
0.0
  0
LINE
  5
DBF6
330
2
100
AcDbEntity
  8
L-ZISSEN
100
AcDbLine
 10
117.5289785932118
 20
-2757.156474060271
 30
0.0
 11
141.5289785932118
 21
-2757.156474060271
 31
0.0
  0
LINE
  5
DBF7
330
2
100
AcDbEntity
  8
L-ZISSEN
100
AcDbLine
 10
117.5289785932118
 20
-2758.656474060271
 30
0.0
 11
141.5289785932118
 21
-2758.656474060271
 31
0.0
  0
LINE
  5
DBF8
330
2
100
AcDbEntity
  8
L-ZISSEN
100
AcDbLine
 10
108.4639785932108
 20
-2736.695212971904
 30
0.0
 11
104.2489785932116
 21
-2734.695212971903
 31
0.0
  0
ARC
  5
DBF9
330
2
100
AcDbEntity
  8
L-ZISSEN
100
AcDbCircle
 10
129.5289785932095
 20
-2658.343068541614
 30
0.0
 40
99.53938471878538
100
AcDbArc
 50
256.0937629349411
 51
263.0758486315317
  0
ARC
  5
DBFA
330
2
100
AcDbEntity
  8
L-ZISSEN
100
AcDbCircle
 10
107.5289785932091
 20
-2747.199463667085
 30
0.0
 40
8.000000000000113
100
AcDbArc
 50
180.0
 51
256.0937629347642
  0
LINE
  5
DBFB
330
2
100
AcDbEntity
  8
L-ZISSEN
100
AcDbLine
 10
118.5289785932118
 20
-2761.156474060271
 30
0.0
 11
118.5289785932118
 21
-2770.156474060271
 31
0.0
  0
LINE
  5
DBFC
330
2
100
AcDbEntity
  8
L-ZISSEN
100
AcDbLine
 10
119.5289785932118
 20
-2787.856474060271
 30
0.0
 11
119.5289785932118
 21
-2774.356474060271
 31
0.0
  0
LINE
  5
DBFD
330
2
100
AcDbEntity
  8
L-ZISSEN
100
AcDbLine
 10
119.5289785932118
 20
-2773.656474060271
 30
0.0
 11
119.5289785932118
 21
-2770.156474060271
 31
0.0
  0
LINE
  5
DBFE
330
2
100
AcDbEntity
  8
L-ZISSEN
100
AcDbLine
 10
120.5289785932118
 20
-2774.356474060271
 30
0.0
 11
120.5289785932122
 21
-2773.656474060271
 31
0.0
  0
LINE
  5
DBFF
330
2
100
AcDbEntity
  8
L-ZISSEN
100
AcDbLine
 10
117.5289785932118
 20
-2761.156474060271
 30
0.0
 11
117.5289785932118
 21
-2757.156474060271
 31
0.0
  0
LINE
  5
DC00
330
2
100
AcDbEntity
  8
L-ZISSEN
100
AcDbLine
 10
112.6789785932123
 20
-2734.695212971904
 30
0.0
 11
108.4639785932108
 21
-2736.695212971904
 31
0.0
  0
ARC
  5
DC01
330
2
100
AcDbEntity
  8
L-ZISSEN
100
AcDbCircle
 10
129.5289785932095
 20
-2658.343068541614
 30
0.0
 40
99.53938471878515
100
AcDbArc
 50
276.9241513684709
 51
283.9062370650462
  0
LINE
  5
DC02
330
2
100
AcDbEntity
  8
L-ZISSEN
100
AcDbLine
 10
140.5289785932118
 20
-2761.156474060271
 30
0.0
 11
140.5289785932118
 21
-2770.156474060271
 31
0.0
  0
LINE
  5
DC03
330
2
100
AcDbEntity
  8
L-ZISSEN
100
AcDbLine
 10
139.5289785932118
 20
-2787.856474060271
 30
0.0
 11
139.5289785932118
 21
-2774.356474060271
 31
0.0
  0
LINE
  5
DC04
330
2
100
AcDbEntity
  8
L-ZISSEN
100
AcDbLine
 10
139.5289785932118
 20
-2773.656474060271
 30
0.0
 11
139.528978593212
 21
-2770.156474060271
 31
0.0
  0
LINE
  5
DC05
330
2
100
AcDbEntity
  8
L-ZISSEN
100
AcDbLine
 10
138.5289785932122
 20
-2774.356474060271
 30
0.0
 11
138.5289785932118
 21
-2773.656474060271
 31
0.0
  0
LINE
  5
DC06
330
2
100
AcDbEntity
  8
L-ZISSEN
100
AcDbLine
 10
141.5289785932118
 20
-2761.156474060271
 30
0.0
 11
141.5289785932118
 21
-2757.156474060271
 31
0.0
  0
LINE
  5
DC07
330
2
100
AcDbEntity
  8
L-ZISSEN
100
AcDbLine
 10
150.5939785932127
 20
-2736.695212971904
 30
0.0
 11
154.808978593212
 21
-2734.695212971903
 31
0.0
  0
ARC
  5
DC08
330
2
100
AcDbEntity
  8
L-ZISSEN
100
AcDbCircle
 10
151.5289785932077
 20
-2747.199463667085
 30
0.0
 40
8.000000000000113
100
AcDbArc
 50
283.9062370650588
 51
0.0
  0
LINE
  5
DC09
330
2
100
AcDbEntity
  8
L-ZISSEN
100
AcDbLine
 10
146.3789785932112
 20
-2734.695212971904
 30
0.0
 11
150.5939785932127
 21
-2736.695212971904
 31
0.0
  0
LINE
  5
DC0B
330
2
100
AcDbEntity
  8
L-ZISSEN
100
AcDbLine
 10
129.5289785932118
 20
-2668.106474060272
 30
0.0
 11
116.4039785932095
 21
-2666.231474060272
 31
0.0
  0
LINE
  5
DC0C
330
2
100
AcDbEntity
  8
L-ZISSEN
100
AcDbLine
 10
117.6145454583775
 20
-2671.798499571316
 30
0.0
 11
129.5289785932118
 21
-2674.292857545747
 31
0.0
  0
LINE
  5
DC0D
330
2
100
AcDbEntity
  8
L-ZISSEN
100
AcDbLine
 10
129.5289785932118
 20
-2668.937646317499
 30
0.0
 11
117.6145454583775
 21
-2667.235584441094
 31
0.0
  0
LINE
  5
DC0E
330
2
100
AcDbEntity
  8
L-ZISSEN
100
AcDbLine
 10
126.4039785932118
 20
-2649.356474060272
 30
0.0
 11
121.4039785932118
 21
-2649.356474060272
 31
0.0
  0
LINE
  5
DC0F
330
2
100
AcDbEntity
  8
L-ZISSEN
100
AcDbLine
 10
126.4039785932118
 20
-2649.356474060272
 30
0.0
 11
121.4039785932118
 21
-2649.356474060272
 31
0.0
  0
LINE
  5
DC10
330
2
100
AcDbEntity
  8
L-ZISSEN
100
AcDbLine
 10
126.4039785932118
 20
-2648.106474060272
 30
0.0
 11
121.4039785932118
 21
-2648.106474060272
 31
0.0
  0
LINE
  5
DC11
330
2
100
AcDbEntity
  8
L-ZISSEN
100
AcDbLine
 10
126.4039785932118
 20
-2648.106474060272
 30
0.0
 11
121.4039785932118
 21
-2648.106474060272
 31
0.0
  0
LINE
  5
DC12
330
2
100
AcDbEntity
  8
L-ZISSEN
100
AcDbLine
 10
116.7164785932118
 20
-2681.856474060272
 30
0.0
 11
142.3414785932118
 21
-2681.856474060272
 31
0.0
  0
LINE
  5
DC13
330
2
100
AcDbEntity
  8
L-ZISSEN
100
AcDbLine
 10
129.5289785932118
 20
-2676.856474060272
 30
0.0
 11
115.4664785932095
 21
-2673.106474060272
 31
0.0
  0
LINE
  5
DC14
330
2
100
AcDbEntity
  8
L-ZISSEN
100
AcDbLine
 10
104.2489785932116
 20
-2652.195212971903
 30
0.0
 11
112.6789785932123
 21
-2652.195212971903
 31
0.0
  0
ARC
  5
DC15
330
2
100
AcDbEntity
  8
L-ZISSEN
100
AcDbCircle
 10
116.7164785932118
 20
-2680.606474060272
 30
0.0
 40
1.250000000000568
100
AcDbArc
 50
180.0
 51
270.0
  0
LINE
  5
DC16
330
2
100
AcDbEntity
  8
L-ZISSEN
100
AcDbLine
 10
115.4664785932095
 20
-2673.106474060272
 30
0.0
 11
117.6145454583775
 21
-2671.798499571316
 31
0.0
  0
LINE
  5
DC17
330
2
100
AcDbEntity
  8
L-ZISSEN
100
AcDbLine
 10
115.4664785932095
 20
-2641.856474060272
 30
0.0
 11
115.4664785932095
 21
-2680.606474060272
 31
0.0
  0
LINE
  5
DC18
330
2
100
AcDbEntity
  8
L-ZISSEN
100
AcDbLine
 10
115.4664785932095
 20
-2641.856474060272
 30
0.0
 11
115.4664785932095
 21
-2665.645749427405
 31
0.0
  0
LINE
  5
DC19
330
2
100
AcDbEntity
  8
L-ZISSEN
100
AcDbLine
 10
120.1539785932118
 20
-2674.356474060271
 30
0.0
 11
120.1539785932095
 21
-2681.856474060272
 31
0.0
  0
LINE
  5
DC1A
330
2
100
AcDbEntity
  8
L-ZISSEN
100
AcDbLine
 10
121.4039785932118
 20
-2646.856474060272
 30
0.0
 11
118.2789785932118
 21
-2648.731474060272
 31
0.0
  0
LINE
  5
DC1B
330
2
100
AcDbEntity
  8
L-ZISSEN
100
AcDbLine
 10
121.4039785932118
 20
-2648.106474060272
 30
0.0
 11
121.4039785932118
 21
-2646.856474060272
 31
0.0
  0
LINE
  5
DC1C
330
2
100
AcDbEntity
  8
L-ZISSEN
100
AcDbLine
 10
121.4039785932118
 20
-2650.606474060272
 30
0.0
 11
118.2789785932118
 21
-2648.731474060272
 31
0.0
  0
LINE
  5
DC1D
330
2
100
AcDbEntity
  8
L-ZISSEN
100
AcDbLine
 10
121.4039785932118
 20
-2649.356474060272
 30
0.0
 11
121.4039785932118
 21
-2650.606474060272
 31
0.0
  0
LINE
  5
DC1E
330
2
100
AcDbEntity
  8
L-ZISSEN
100
AcDbLine
 10
117.6145454583775
 20
-2666.404412183867
 30
0.0
 11
116.4039785932095
 21
-2666.231474060272
 31
0.0
  0
LINE
  5
DC1F
330
2
100
AcDbEntity
  8
L-ZISSEN
100
AcDbLine
 10
117.6145454583775
 20
-2667.235584441094
 30
0.0
 11
116.4039785932095
 21
-2666.231474060272
 31
0.0
  0
LINE
  5
DC20
330
2
100
AcDbEntity
  8
L-ZISSEN
100
AcDbLine
 10
117.6145454583775
 20
-2667.235584441094
 30
0.0
 11
117.6145454583775
 21
-2671.798499571316
 31
0.0
  0
LINE
  5
DC21
330
2
100
AcDbEntity
  8
L-ZISSEN
100
AcDbLine
 10
116.4039785932095
 20
-2641.856474060272
 30
0.0
 11
116.4039785932095
 21
-2666.231474060272
 31
0.0
  0
LINE
  5
DC22
330
2
100
AcDbEntity
  8
L-ZISSEN
100
AcDbLine
 10
132.6539785932118
 20
-2649.356474060271
 30
0.0
 11
137.6539785932118
 21
-2649.356474060271
 31
0.0
  0
LINE
  5
DC23
330
2
100
AcDbEntity
  8
L-ZISSEN
100
AcDbLine
 10
132.6539785932118
 20
-2649.356474060271
 30
0.0
 11
137.6539785932118
 21
-2649.356474060271
 31
0.0
  0
LINE
  5
DC24
330
2
100
AcDbEntity
  8
L-ZISSEN
100
AcDbLine
 10
132.6539785932118
 20
-2648.106474060271
 30
0.0
 11
137.6539785932118
 21
-2648.106474060271
 31
0.0
  0
LINE
  5
DC25
330
2
100
AcDbEntity
  8
L-ZISSEN
100
AcDbLine
 10
132.6539785932118
 20
-2648.106474060271
 30
0.0
 11
137.6539785932118
 21
-2648.106474060271
 31
0.0
  0
LINE
  5
DC26
330
2
100
AcDbEntity
  8
L-ZISSEN
100
AcDbLine
 10
129.5289785932118
 20
-2676.856474060272
 30
0.0
 11
143.5914785932095
 21
-2673.106474060272
 31
0.0
  0
LINE
  5
DC27
330
2
100
AcDbEntity
  8
L-ZISSEN
100
AcDbLine
 10
141.4434117280461
 20
-2671.798499571316
 30
0.0
 11
129.5289785932118
 21
-2674.292857545747
 31
0.0
  0
LINE
  5
DC28
330
2
100
AcDbEntity
  8
L-ZISSEN
100
AcDbLine
 10
129.5289785932118
 20
-2668.937646317499
 30
0.0
 11
141.4434117280461
 21
-2667.235584441094
 31
0.0
  0
LINE
  5
DC29
330
2
100
AcDbEntity
  8
L-ZISSEN
100
AcDbLine
 10
129.5289785932118
 20
-2668.106474060272
 30
0.0
 11
142.6539785932095
 21
-2666.231474060272
 31
0.0
  0
ARC
  5
DC2A
330
2
100
AcDbEntity
  8
L-ZISSEN
100
AcDbCircle
 10
129.5289785932118
 20
-2678.106474060272
 30
0.0
 40
1.250000000000568
100
AcDbArc
 50
180.0
 51
0.0
  0
CIRCLE
  5
DC2B
330
2
100
AcDbEntity
  8
L-ZISSEN
100
AcDbCircle
 10
129.5289785932118
 20
-2671.852928761445
 30
0.0
 40
1.25
  0
LINE
  5
DC2C
330
2
100
AcDbEntity
  8
L-TYUSIN
100
AcDbLine
 10
127.3421850306567
 20
-2671.852928761445
 30
0.0
 11
131.5369650055686
 21
-2671.852928761445
 31
0.0
  0
LINE
  5
DC2D
330
2
100
AcDbEntity
  8
L-ZISSEN
100
AcDbLine
 10
130.7789785932141
 20
-2645.60647406027
 30
0.0
 11
128.2789785932141
 21
-2645.60647406027
 31
0.0
  0
LINE
  5
DC2E
330
2
100
AcDbEntity
  8
L-ZISSEN
100
AcDbLine
 10
128.2789785932141
 20
-2645.60647406027
 30
0.0
 11
128.2789785932141
 21
-2655.60647406027
 31
0.0
  0
LINE
  5
DC2F
330
2
100
AcDbEntity
  8
L-ZISSEN
100
AcDbLine
 10
128.2789785932141
 20
-2645.60647406027
 30
0.0
 11
128.2789785932141
 21
-2655.60647406027
 31
0.0
  0
LINE
  5
DC30
330
2
100
AcDbEntity
  8
L-ZISSEN
100
AcDbLine
 10
126.4039785932118
 20
-2648.106474060272
 30
0.0
 11
126.4039785932118
 21
-2649.356474060272
 31
0.0
  0
LINE
  5
DC31
330
2
100
AcDbEntity
  8
L-ZISSEN
100
AcDbLine
 10
128.2789785932095
 20
-2676.523140726937
 30
0.0
 11
128.2789785932118
 21
-2678.106474060272
 31
0.0
  0
LINE
  5
DC32
330
2
100
AcDbEntity
  8
L-ZISSEN
100
AcDbLine
 10
130.7789785932141
 20
-2645.60647406027
 30
0.0
 11
130.7789785932141
 21
-2655.60647406027
 31
0.0
  0
LINE
  5
DC33
330
2
100
AcDbEntity
  8
L-ZISSEN
100
AcDbLine
 10
130.7789785932141
 20
-2645.60647406027
 30
0.0
 11
130.7789785932141
 21
-2655.60647406027
 31
0.0
  0
LINE
  5
DC34
330
2
100
AcDbEntity
  8
L-ZISSEN
100
AcDbLine
 10
130.7789785932141
 20
-2655.60647406027
 30
0.0
 11
133.2789785932141
 21
-2655.60647406027
 31
0.0
  0
LINE
  5
DC35
330
2
100
AcDbEntity
  8
L-ZISSEN
100
AcDbLine
 10
133.2789785932141
 20
-2655.60647406027
 30
0.0
 11
129.5289785932141
 21
-2661.85647406027
 31
0.0
  0
LINE
  5
DC36
330
2
100
AcDbEntity
  8
L-ZISSEN
100
AcDbLine
 10
132.6539785932118
 20
-2648.106474060271
 30
0.0
 11
132.6539785932118
 21
-2649.356474060271
 31
0.0
  0
LINE
  5
DC37
330
2
100
AcDbEntity
  8
L-ZISSEN
100
AcDbLine
 10
130.7789785932118
 20
-2676.523140726938
 30
0.0
 11
130.7789785932118
 21
-2678.106474060272
 31
0.0
  0
LINE
  5
DC38
330
2
100
AcDbEntity
  8
L-ZISSEN
100
AcDbLine
 10
129.5289785932118
 20
-2676.856474060272
 30
0.0
 11
129.5289785932118
 21
-2674.292857545747
 31
0.0
  0
LINE
  5
DC39
330
2
100
AcDbEntity
  8
L-ZISSEN
100
AcDbLine
 10
129.5289785932118
 20
-2668.106474060272
 30
0.0
 11
129.5289785932118
 21
-2668.937646317499
 31
0.0
  0
LINE
  5
DC3A
330
2
100
AcDbEntity
  8
L-ZISSEN
100
AcDbLine
 10
125.7789785932141
 20
-2655.60647406027
 30
0.0
 11
129.5289785932141
 21
-2661.85647406027
 31
0.0
  0
LINE
  5
DC3B
330
2
100
AcDbEntity
  8
L-ZISSEN
100
AcDbLine
 10
128.2789785932141
 20
-2655.60647406027
 30
0.0
 11
125.7789785932141
 21
-2655.60647406027
 31
0.0
  0
LINE
  5
DC3C
330
2
100
AcDbEntity
  8
L-ZISSEN
100
AcDbLine
 10
138.9039785932095
 20
-2674.356474060272
 30
0.0
 11
138.9039785932095
 21
-2681.856474060272
 31
0.0
  0
LINE
  5
DC3D
330
2
100
AcDbEntity
  8
L-ZISSEN
100
AcDbLine
 10
143.5914785932095
 20
-2641.856474060272
 30
0.0
 11
143.5914785932095
 21
-2680.606474060272
 31
0.0
  0
ARC
  5
DC3E
330
2
100
AcDbEntity
  8
L-ZISSEN
100
AcDbCircle
 10
142.3414785932118
 20
-2680.606474060272
 30
0.0
 40
1.249999999999715
100
AcDbArc
 50
270.0
 51
0.0
  0
LINE
  5
DC3F
330
2
100
AcDbEntity
  8
L-ZISSEN
100
AcDbLine
 10
137.6539785932118
 20
-2646.856474060271
 30
0.0
 11
140.7789785932118
 21
-2648.731474060271
 31
0.0
  0
LINE
  5
DC40
330
2
100
AcDbEntity
  8
L-ZISSEN
100
AcDbLine
 10
137.6539785932118
 20
-2648.106474060271
 30
0.0
 11
137.6539785932118
 21
-2646.856474060271
 31
0.0
  0
LINE
  5
DC41
330
2
100
AcDbEntity
  8
L-ZISSEN
100
AcDbLine
 10
137.6539785932118
 20
-2650.606474060271
 30
0.0
 11
140.7789785932118
 21
-2648.731474060271
 31
0.0
  0
LINE
  5
DC42
330
2
100
AcDbEntity
  8
L-ZISSEN
100
AcDbLine
 10
137.6539785932118
 20
-2649.356474060271
 30
0.0
 11
137.6539785932118
 21
-2650.606474060271
 31
0.0
  0
LINE
  5
DC43
330
2
100
AcDbEntity
  8
L-ZISSEN
100
AcDbLine
 10
143.5914785932095
 20
-2673.106474060272
 30
0.0
 11
141.4434117280461
 21
-2671.798499571316
 31
0.0
  0
LINE
  5
DC44
330
2
100
AcDbEntity
  8
L-ZISSEN
100
AcDbLine
 10
141.4434117280461
 20
-2667.235584441094
 30
0.0
 11
142.6539785932095
 21
-2666.231474060272
 31
0.0
  0
LINE
  5
DC45
330
2
100
AcDbEntity
  8
L-ZISSEN
100
AcDbLine
 10
141.4434117280461
 20
-2666.404412183867
 30
0.0
 11
142.6539785932095
 21
-2666.231474060272
 31
0.0
  0
LINE
  5
DC46
330
2
100
AcDbEntity
  8
L-ZISSEN
100
AcDbLine
 10
141.4434117280461
 20
-2667.235584441094
 30
0.0
 11
141.4434117280461
 21
-2671.798499571316
 31
0.0
  0
LINE
  5
DC47
330
2
100
AcDbEntity
  8
L-ZISSEN
100
AcDbLine
 10
142.6539785932095
 20
-2641.856474060272
 30
0.0
 11
142.6539785932095
 21
-2666.231474060272
 31
0.0
  0
LINE
  5
DC48
330
2
100
AcDbEntity
  8
L-ZISSEN
100
AcDbLine
 10
143.5914785932095
 20
-2641.856474060272
 30
0.0
 11
143.5914785932095
 21
-2665.645749427405
 31
0.0
  0
LINE
  5
DC49
330
2
100
AcDbEntity
  8
L-ZISSEN
100
AcDbLine
 10
154.808978593212
 20
-2652.195212971903
 30
0.0
 11
146.3789785932112
 21
-2652.195212971903
 31
0.0
  0
LINE
  5
DC4A
330
2
100
AcDbEntity
  8
L-ZISSEN
100
AcDbLine
 10
4.808978593212032
 20
-2652.195212971903
 30
0.0
 11
4.808978593209189
 21
-2734.695212971902
 31
0.0
  0
LINE
  5
DC4B
330
2
100
AcDbEntity
  8
L-ZISSEN
100
AcDbLine
 10
-3.621021406790987
 20
-2652.195212971903
 30
0.0
 11
-3.621021406790987
 21
-2734.695212971904
 31
0.0
  0
LINE
  5
DC4C
330
2
100
AcDbEntity
  8
L-ZISSEN
100
AcDbLine
 10
9.528978593208989
 20
-2747.199463667085
 30
0.0
 11
9.528978593211832
 21
-2641.856474060271
 31
0.0
  0
LINE
  5
DC4D
330
2
100
AcDbEntity
  8
L-ZISSEN
100
AcDbLine
 10
-37.32102140678762
 20
-2652.195212971903
 30
0.0
 11
-37.32102140678762
 21
-2734.695212971902
 31
0.0
  0
LINE
  5
DC4E
330
2
100
AcDbEntity
  8
L-ZISSEN
100
AcDbLine
 10
-45.75102140679064
 20
-2652.195212971903
 30
0.0
 11
-45.75102140678791
 21
-2734.695212971904
 31
0.0
  0
LINE
  5
DC4F
330
2
100
AcDbEntity
  8
L-ZISSEN
100
AcDbLine
 10
-50.4710214067909
 20
-2747.199463667085
 30
0.0
 11
-50.47102140678816
 21
-2641.856474060271
 31
0.0
  0
ARC
  5
DC50
330
2
100
AcDbEntity
  8
L-ZISSEN
100
AcDbCircle
 10
1.528978593207739
 20
-2747.199463667085
 30
0.0
 40
8.000000000000113
100
AcDbArc
 50
283.9062370650588
 51
0.0
  0
LINE
  5
DC51
330
2
100
AcDbEntity
  8
L-ZISSEN
100
AcDbLine
 10
0.5939785932105224
 20
-2736.695212971904
 30
0.0
 11
4.808978593207484
 21
-2734.695212971903
 31
0.0
  0
ARC
  5
DC52
330
2
100
AcDbEntity
  8
L-ZISSEN
100
AcDbCircle
 10
-20.47102140679044
 20
-2658.343068541614
 30
0.0
 40
99.53938471878538
100
AcDbArc
 50
256.0937629349411
 51
263.0758486315317
  0
LINE
  5
DC53
330
2
100
AcDbEntity
  8
L-ZISSEN
100
AcDbLine
 10
-41.5360214067914
 20
-2736.695212971904
 30
0.0
 11
-45.75102140679064
 21
-2734.695212971903
 31
0.0
  0
ARC
  5
DC54
330
2
100
AcDbEntity
  8
L-ZISSEN
100
AcDbCircle
 10
-42.47102140679089
 20
-2747.199463667085
 30
0.0
 40
8.000000000000113
100
AcDbArc
 50
180.0
 51
256.0937629347642
  0
LINE
  5
DC55
330
2
100
AcDbEntity
  8
L-ZISSEN
100
AcDbLine
 10
-37.32102140678989
 20
-2734.695212971903
 30
0.0
 11
-41.5360214067914
 21
-2736.695212971904
 31
0.0
  0
LINE
  5
DC56
330
2
100
AcDbEntity
  8
L-ZISSEN
100
AcDbLine
 10
-32.47102140678816
 20
-2761.156474060271
 30
0.0
 11
-8.471021406788167
 21
-2761.156474060271
 31
0.0
  0
LINE
  5
DC57
330
2
100
AcDbEntity
  8
L-ZISSEN
100
AcDbLine
 10
-32.47102140678816
 20
-2757.156474060271
 30
0.0
 11
-8.471021406788167
 21
-2757.156474060271
 31
0.0
  0
LINE
  5
DC58
330
2
100
AcDbEntity
  8
L-ZISSEN
100
AcDbLine
 10
-32.47102140678816
 20
-2758.656474060271
 30
0.0
 11
-8.471021406788167
 21
-2758.656474060271
 31
0.0
  0
LINE
  5
DC59
330
2
100
AcDbEntity
  8
L-ZISSEN
100
AcDbLine
 10
-30.47102140678816
 20
-2787.856474060271
 30
0.0
 11
-10.47102140678816
 21
-2787.856474060271
 31
0.0
  0
LINE
  5
DC5A
330
2
100
AcDbEntity
  8
L-ZISSEN
100
AcDbLine
 10
-30.47102140678816
 20
-2774.356474060271
 30
0.0
 11
-10.47102140678816
 21
-2774.356474060271
 31
0.0
  0
LINE
  5
DC5B
330
2
100
AcDbEntity
  8
L-ZISSEN
100
AcDbLine
 10
-30.47102140678816
 20
-2773.656474060271
 30
0.0
 11
-10.47102140678816
 21
-2773.656474060271
 31
0.0
  0
LINE
  5
DC5C
330
2
100
AcDbEntity
  8
L-ZISSEN
100
AcDbLine
 10
-9.471021406788167
 20
-2770.156474060271
 30
0.0
 11
-31.47102140678816
 21
-2770.156474060271
 31
0.0
  0
LINE
  5
DC5D
330
2
100
AcDbEntity
  8
L-ZISSEN
100
AcDbLine
 10
-32.47102140678816
 20
-2761.156474060271
 30
0.0
 11
-32.47102140678816
 21
-2757.156474060271
 31
0.0
  0
LINE
  5
DC5E
330
2
100
AcDbEntity
  8
L-ZISSEN
100
AcDbLine
 10
-30.47102140678816
 20
-2787.856474060271
 30
0.0
 11
-30.47102140678816
 21
-2774.356474060271
 31
0.0
  0
LINE
  5
DC5F
330
2
100
AcDbEntity
  8
L-ZISSEN
100
AcDbLine
 10
-30.47102140678816
 20
-2773.656474060271
 30
0.0
 11
-30.47102140678816
 21
-2770.156474060271
 31
0.0
  0
LINE
  5
DC60
330
2
100
AcDbEntity
  8
L-ZISSEN
100
AcDbLine
 10
-29.47102140678817
 20
-2774.356474060271
 30
0.0
 11
-29.47102140678771
 21
-2773.656474060271
 31
0.0
  0
LINE
  5
DC61
330
2
100
AcDbEntity
  8
L-ZISSEN
100
AcDbLine
 10
-31.47102140678816
 20
-2761.156474060271
 30
0.0
 11
-31.47102140678816
 21
-2770.156474060271
 31
0.0
  0
ARC
  5
DC62
330
2
100
AcDbEntity
  8
L-ZISSEN
100
AcDbCircle
 10
-20.47102140679044
 20
-2658.343068541614
 30
0.0
 40
99.53938471878515
100
AcDbArc
 50
276.9241513684709
 51
283.9062370650462
  0
LINE
  5
DC63
330
2
100
AcDbEntity
  8
L-ZISSEN
100
AcDbLine
 10
-8.471021406788167
 20
-2761.156474060271
 30
0.0
 11
-8.471021406788167
 21
-2757.156474060271
 31
0.0
  0
LINE
  5
DC64
330
2
100
AcDbEntity
  8
L-ZISSEN
100
AcDbLine
 10
-10.47102140678816
 20
-2787.856474060271
 30
0.0
 11
-10.47102140678816
 21
-2774.356474060271
 31
0.0
  0
LINE
  5
DC65
330
2
100
AcDbEntity
  8
L-ZISSEN
100
AcDbLine
 10
-10.47102140678816
 20
-2773.656474060271
 30
0.0
 11
-10.47102140678794
 21
-2770.156474060271
 31
0.0
  0
LINE
  5
DC66
330
2
100
AcDbEntity
  8
L-ZISSEN
100
AcDbLine
 10
-11.47102140678771
 20
-2774.356474060271
 30
0.0
 11
-11.47102140678816
 21
-2773.656474060271
 31
0.0
  0
LINE
  5
DC67
330
2
100
AcDbEntity
  8
L-ZISSEN
100
AcDbLine
 10
-9.471021406788167
 20
-2761.156474060271
 30
0.0
 11
-9.471021406788167
 21
-2770.156474060271
 31
0.0
  0
LINE
  5
DC68
330
2
100
AcDbEntity
  8
L-ZISSEN
100
AcDbLine
 10
-3.621021406793261
 20
-2734.695212971903
 30
0.0
 11
0.5939785932105224
 21
-2736.695212971904
 31
0.0
  0
LINE
  5
DC69
330
2
100
AcDbEntity
  8
L-ZISSEN
100
AcDbLine
 10
4.808978593212032
 20
-2652.195212971903
 30
0.0
 11
-3.621021406790987
 21
-2652.195212971903
 31
0.0
  0
LINE
  5
DC6B
330
2
100
AcDbEntity
  8
L-ZISSEN
100
AcDbLine
 10
-45.75102140679064
 20
-2652.195212971903
 30
0.0
 11
-37.32102140678762
 21
-2652.195212971903
 31
0.0
  0
LINE
  5
DC6C
330
2
100
AcDbEntity
  8
L-ZISSEN
100
AcDbLine
 10
18.52897859321046
 20
-2667.805580848652
 30
0.0
 11
13.02897859321319
 21
-2669.745959962282
 31
0.0
  0
LINE
  5
DC6D
330
2
100
AcDbEntity
  8
L-ZISSEN
100
AcDbLine
 10
9.528978593211832
 20
-2641.856474060271
 30
0.0
 11
9.528978593211832
 21
-2683.18046851447
 31
0.0
  0
LINE
  5
DC6E
330
2
100
AcDbEntity
  8
L-ZISSEN
100
AcDbLine
 10
11.07939977399155
 20
-2675.329956345731
 30
0.0
 11
9.528978593211832
 21
-2675.329956345731
 31
0.0
  0
LINE
  5
DC6F
330
2
100
AcDbEntity
  8
L-ZISSEN
100
AcDbLine
 10
11.07939977399155
 20
-2675.329956345731
 30
0.0
 11
12.84307391776337
 21
-2667.849980598287
 31
0.0
  0
LINE
  5
DC70
330
2
100
AcDbEntity
  8
L-ZISSEN
100
AcDbLine
 10
9.592815943235564
 20
-2674.979440574907
 30
0.0
 11
11.35649008700738
 21
-2667.499464827463
 31
0.0
  0
LINE
  5
DC71
330
2
100
AcDbEntity
  8
L-ZISSEN
100
AcDbLine
 10
13.02897859321319
 20
-2669.745959962282
 30
0.0
 11
12.84307391776337
 21
-2669.745959962282
 31
0.0
  0
LINE
  5
DC72
330
2
100
AcDbEntity
  8
L-ZISSEN
100
AcDbLine
 10
12.84307391776337
 20
-2667.849980598287
 30
0.0
 11
12.84307391776337
 21
-2665.663496357352
 31
0.0
  0
LINE
  5
DC73
330
2
100
AcDbEntity
  8
L-ZISSEN
100
AcDbLine
 10
11.35649008700738
 20
-2665.663496357353
 30
0.0
 11
11.35649008700738
 21
-2667.499464827463
 31
0.0
  0
LINE
  5
DC74
330
2
100
AcDbEntity
  8
L-ZISSEN
100
AcDbLine
 10
12.84307391776337
 20
-2665.663496357352
 30
0.0
 11
9.528978593211832
 21
-2665.663496357352
 31
0.0
  0
LINE
  5
DC75
330
2
100
AcDbEntity
  8
L-ZISSEN
100
AcDbLine
 10
12.84307391776337
 20
-2669.745959962282
 30
0.0
 11
12.84307391776337
 21
-2641.856474060272
 31
0.0
  0
LINE
  5
DC76
330
2
100
AcDbEntity
  8
L-ZISSEN
100
AcDbLine
 10
14.52897859321183
 20
-2641.856474060272
 30
0.0
 11
14.52897859321183
 21
-2662.856474060271
 31
0.0
  0
LINE
  5
DC77
330
2
100
AcDbEntity
  8
L-ZISSEN
100
AcDbLine
 10
18.52897859321046
 20
-2663.521411866053
 30
0.0
 11
18.52897859321046
 21
-2667.805580848652
 31
0.0
  0
LINE
  5
DC78
330
2
100
AcDbEntity
  8
L-ZISSEN
100
AcDbLine
 10
14.52897859321183
 20
-2662.856474060271
 30
0.0
 11
18.52897859321046
 21
-2663.521411866053
 31
0.0
  0
LINE
  5
DD9E
330
2
100
AcDbEntity
  8
L-ZISSEN
100
AcDbLine
 10
-22.00746396598293
 20
-2890.31203530058
 30
0.0
 11
-35.47102140678799
 21
-2879.092404099909
 31
0.0
  0
TEXT
  5
DD9F
330
2
100
AcDbEntity
  8
L-ZISSEN
100
AcDbText
 10
-48.47102140678799
 20
-2881.34240409991
 30
0.0
 40
4.5
  1
P.P
100
AcDbText
  0
LINE
  5
DDA0
330
2
100
AcDbEntity
  8
L-ZISSEN
100
AcDbLine
 10
-35.47102140678799
 20
-2879.092404099909
 30
0.0
 11
-37.471021406788
 21
-2879.092404099909
 31
0.0
  0
SOLID
  5
DDA1
330
2
100
AcDbEntity
  8
L-ZISSEN
100
AcDbTrace
 10
-22.22085876587107
 20
-2890.568109060446
 30
0.0
 11
-21.79406916609474
 21
-2890.055961540715
 31
0.0
 12
-20.47102140678816
 22
-2891.59240409991
 32
0.0
 13
-20.47102140678816
 23
-2891.59240409991
 33
0.0
  0
LINE
  5
DDA8
330
2
100
AcDbEntity
  8
L-ZISSEN
100
AcDbLine
 10
114.528978593212
 20
-2879.092404099909
 30
0.0
 11
112.528978593212
 21
-2879.092404099909
 31
0.0
  0
TEXT
  5
DDA9
330
2
100
AcDbEntity
  8
L-ZISSEN
100
AcDbText
 10
101.528978593212
 20
-2881.34240409991
 30
0.0
 40
4.5
  1
P.P
100
AcDbText
  0
LINE
  5
DDAA
330
2
100
AcDbEntity
  8
L-ZISSEN
100
AcDbLine
 10
127.9925360340171
 20
-2890.31203530058
 30
0.0
 11
114.528978593212
 21
-2879.092404099909
 31
0.0
  0
SOLID
  5
DDAB
330
2
100
AcDbEntity
  8
L-ZISSEN
100
AcDbTrace
 10
127.7791412341289
 20
-2890.568109060446
 30
0.0
 11
128.2059308339053
 21
-2890.055961540715
 31
0.0
 12
129.5289785932118
 22
-2891.59240409991
 32
0.0
 13
129.5289785932118
 23
-2891.59240409991
 33
0.0
  0
LINE
  5
DDAE
330
2
100
AcDbEntity
  8
L-ZISSEN
100
AcDbLine
 10
127.9925360340171
 20
-2640.576105260942
 30
0.0
 11
114.528978593212
 21
-2629.356474060271
 31
0.0
  0
TEXT
  5
DDAF
330
2
100
AcDbEntity
  8
L-ZISSEN
100
AcDbText
 10
101.528978593212
 20
-2631.606474060272
 30
0.0
 40
4.5
  1
P.P
100
AcDbText
  0
LINE
  5
DDB0
330
2
100
AcDbEntity
  8
L-ZISSEN
100
AcDbLine
 10
114.528978593212
 20
-2629.356474060271
 30
0.0
 11
112.528978593212
 21
-2629.356474060271
 31
0.0
  0
SOLID
  5
DDB1
330
2
100
AcDbEntity
  8
L-ZISSEN
100
AcDbTrace
 10
127.7791412341289
 20
-2640.832179020808
 30
0.0
 11
128.2059308339053
 21
-2640.320031501077
 31
0.0
 12
129.5289785932118
 22
-2641.856474060272
 32
0.0
 13
129.5289785932118
 23
-2641.856474060272
 33
0.0
  0
LINE
  5
DDB2
330
2
100
AcDbEntity
  8
L-ZISSEN
100
AcDbLine
 10
-35.47102140678799
 20
-2629.356474060271
 30
0.0
 11
-37.471021406788
 21
-2629.356474060271
 31
0.0
  0
TEXT
  5
DDB3
330
2
100
AcDbEntity
  8
L-ZISSEN
100
AcDbText
 10
-48.47102140678799
 20
-2631.606474060272
 30
0.0
 40
4.5
  1
P.P
100
AcDbText
  0
LINE
  5
DDB4
330
2
100
AcDbEntity
  8
L-ZISSEN
100
AcDbLine
 10
-22.00746396598293
 20
-2640.576105260942
 30
0.0
 11
-35.47102140678799
 21
-2629.356474060271
 31
0.0
  0
SOLID
  5
DDB5
330
2
100
AcDbEntity
  8
L-ZISSEN
100
AcDbTrace
 10
-22.22085876587107
 20
-2640.832179020808
 30
0.0
 11
-21.79406916609474
 21
-2640.320031501077
 31
0.0
 12
-20.47102140678816
 22
-2641.856474060272
 32
0.0
 13
-20.47102140678816
 23
-2641.856474060272
 33
0.0
  0
LINE
  5
E2CE
330
2
100
AcDbEntity
  8
L-TYUSIN
100
AcDbLine
 10
-385.4561389882687
 20
-3015.173374545466
 30
0.0
 11
-385.4561389882687
 21
-2742.673374545467
 31
0.0
  0
LINE
  5
E2CF
330
2
100
AcDbEntity
  8
L-ZISSEN
100
AcDbLine
 10
-409.4561389882724
 20
-2750.073374545467
 30
0.0
 11
-410.1952679359156
 21
-2797.337410864036
 31
0.0
  0
LINE
  5
E2D0
330
2
100
AcDbEntity
  8
L-ZISSEN
100
AcDbLine
 10
-361.4561389882724
 20
-2750.073374545467
 30
0.0
 11
-360.7170100406292
 21
-2797.337410864036
 31
0.0
  0
CIRCLE
  5
E2D3
330
2
100
AcDbEntity
  8
L-SAISEN
100
AcDbCircle
 10
-385.4561389882687
 20
-2862.173374545467
 30
0.0
 40
13.25
  0
CIRCLE
  5
E2D4
330
2
100
AcDbEntity
  8
L-ZISSEN
100
AcDbCircle
 10
-385.4561389882687
 20
-2862.173374545467
 30
0.0
 40
12.0
  0
ARC
  5
E2D5
330
2
100
AcDbEntity
  8
L-ZISSEN
100
AcDbCircle
 10
-385.4561389882687
 20
-2753.984668439819
 30
0.0
 40
67.68870610564736
100
AcDbArc
 50
259.4215471024278
 51
280.5784528975721
  0
ARC
  5
E2D6
330
2
100
AcDbEntity
  8
L-ZISSEN
100
AcDbCircle
 10
-385.4561389882687
 20
-2883.362080651114
 30
0.0
 40
67.68870610564736
100
AcDbArc
 50
79.42154710242788
 51
100.5784528975721
  0
LINE
  5
E2D7
330
2
100
AcDbEntity
  8
L-ZISSEN
100
AcDbLine
 10
-364.2429355526723
 20
-2821.673374545467
 30
0.0
 11
-406.6693424238652
 21
-2821.673374545467
 31
0.0
  0
LINE
  5
E2D8
330
2
100
AcDbEntity
  8
L-ZISSEN
100
AcDbLine
 10
-364.2429355526723
 20
-2815.673374545467
 30
0.0
 11
-406.6693424238652
 21
-2815.673374545467
 31
0.0
  0
LINE
  5
E2D9
330
2
100
AcDbEntity
  8
L-ZISSEN
100
AcDbLine
 10
-406.9561389882688
 20
-2801.673374545467
 30
0.0
 11
-363.9561389882687
 21
-2801.673374545467
 31
0.0
  0
LINE
  5
E2DA
330
2
100
AcDbEntity
  8
L-ZISSEN
100
AcDbLine
 10
-409.7674802614669
 20
-2810.673374545467
 30
0.0
 11
-361.144797715076
 21
-2810.673374545467
 31
0.0
  0
LINE
  5
E2DB
330
2
100
AcDbEntity
  8
L-ZISSEN
100
AcDbLine
 10
-363.0167288524881
 20
-2799.673374545467
 30
0.0
 11
-407.8955491240566
 21
-2799.673374545467
 31
0.0
  0
LINE
  5
E2DC
330
2
100
AcDbEntity
  8
L-ZISSEN
100
AcDbLine
 10
-407.2061389882687
 20
-2842.173374545467
 30
0.0
 11
-363.7061389882688
 21
-2842.173374545467
 31
0.0
  0
LINE
  5
E2DD
330
2
100
AcDbEntity
  8
L-ZISSEN
100
AcDbLine
 10
-407.2061389882687
 20
-2838.673374545467
 30
0.0
 11
-363.7061389882688
 21
-2838.673374545467
 31
0.0
  0
LINE
  5
E2E1
330
2
100
AcDbEntity
  8
L-TYUSIN
100
AcDbLine
 10
-420.9561389882687
 20
-2862.173374545469
 30
0.0
 11
-312.9561389882687
 21
-2862.173374545463
 31
0.0
  0
LINE
  5
E2E2
330
2
100
AcDbEntity
  8
L-SOUZOU
100
AcDbLine
 10
-432.4561389882721
 20
-2823.673374545467
 30
0.0
 11
-350.4561389882705
 21
-2823.673374545467
 31
0.0
  0
LINE
  5
E2E3
330
2
100
AcDbEntity
  8
L-ZISSEN
100
AcDbLine
 10
-420.4561389882669
 20
-2823.673374545467
 30
0.0
 11
-350.4561389882705
 21
-2823.673374545467
 31
0.0
  0
LINE
  5
E2E4
330
2
100
AcDbEntity
  8
L-ZISSEN
100
AcDbLine
 10
-420.4561389882705
 20
-2835.673374545467
 30
0.0
 11
-350.4561389882705
 21
-2835.673374545467
 31
0.0
  0
LINE
  5
E2E5
330
2
100
AcDbEntity
  8
L-SOUZOU
100
AcDbLine
 10
-430.4561389882706
 20
-2821.673374545467
 30
0.0
 11
-350.4561389882705
 21
-2821.673374545467
 31
0.0
  0
LINE
  5
E2E6
330
2
100
AcDbEntity
  8
L-SOUZOU
100
AcDbLine
 10
-433.4561389882724
 20
-2796.673374545467
 30
0.0
 11
-431.4561389882688
 21
-2796.673374545467
 31
0.0
  0
LINE
  5
E2E7
330
2
100
AcDbEntity
  8
L-TYUSIN
100
AcDbLine
 10
-435.5584379551687
 20
-2805.673374545467
 30
0.0
 11
-428.7466759523117
 21
-2805.673374545467
 31
0.0
  0
ARC
  5
E2E8
330
2
100
AcDbEntity
  8
L-SOUZOU
100
AcDbCircle
 10
-432.4561389882721
 20
-2822.673374545466
 30
0.0
 40
1.000000000000227
100
AcDbArc
 50
180.0
 51
270.0
  0
LINE
  5
E2E9
330
2
100
AcDbEntity
  8
L-SOUZOU
100
AcDbLine
 10
-433.4561389882724
 20
-2796.673374545467
 30
0.0
 11
-433.4561389882724
 21
-2822.689654344796
 31
0.0
  0
LINE
  5
E2EA
330
2
100
AcDbEntity
  8
L-ZISSEN
100
AcDbLine
 10
-420.4561389882705
 20
-2849.173374545467
 30
0.0
 11
-407.2061389882687
 21
-2849.173374545467
 31
0.0
  0
ARC
  5
E2EC
330
2
100
AcDbEntity
  8
L-ZISSEN
100
AcDbCircle
 10
-406.6693424238652
 20
-2787.541419927979
 30
0.0
 40
34.1319546174875
100
AcDbArc
 50
255.0820176392774
 51
284.9179823607225
  0
ARC
  5
E2ED
330
2
100
AcDbEntity
  8
L-ZISSEN
100
AcDbCircle
 10
-406.6693424238652
 20
-2849.805329162954
 30
0.0
 40
34.1319546174875
100
AcDbArc
 50
75.08201763927741
 51
104.9179823607225
  0
ARC
  5
E2EE
330
2
100
AcDbEntity
  8
L-ZISSEN
100
AcDbCircle
 10
-407.8955491240566
 20
-2797.373374545466
 30
0.0
 40
2.299999999999999
100
AcDbArc
 50
179.1040647226661
 51
270.0
  0
LINE
  5
E2F1
330
2
100
AcDbEntity
  8
L-ZISSEN
100
AcDbLine
 10
-410.3792645712014
 20
-2829.683981353278
 30
0.0
 11
-420.4561389882687
 21
-2829.683981353278
 31
0.0
  0
LINE
  5
E2F2
330
2
100
AcDbEntity
  8
L-ZISSEN
100
AcDbLine
 10
-420.4561389882669
 20
-2835.673374545467
 30
0.0
 11
-420.4561389882669
 21
-2823.673374545467
 31
0.0
  0
LINE
  5
E2F3
330
2
100
AcDbEntity
  8
L-ZISSEN
100
AcDbLine
 10
-420.4561389882705
 20
-2835.673374545467
 30
0.0
 11
-420.4561389882705
 21
-2849.173374545467
 31
0.0
  0
ARC
  5
E2F4
330
2
100
AcDbEntity
  8
L-SOUZOU
100
AcDbCircle
 10
-430.4561389882706
 20
-2820.673374545466
 30
0.0
 40
1.000000000000227
100
AcDbArc
 50
180.0
 51
270.0
  0
LINE
  5
E2F5
330
2
100
AcDbEntity
  8
L-SOUZOU
100
AcDbLine
 10
-431.4561389882688
 20
-2796.673374545467
 30
0.0
 11
-431.4561389882688
 21
-2820.789455102394
 31
0.0
  0
LINE
  5
E2F6
330
2
100
AcDbEntity
  8
L-ZISSEN
100
AcDbLine
 10
-410.3792645712015
 20
-2823.673374545467
 30
0.0
 11
-410.3792645712014
 21
-2829.683981353278
 31
0.0
  0
ARC
  5
E2F7
330
2
100
AcDbEntity
  8
L-ZISSEN
100
AcDbCircle
 10
-414.7513277618505
 20
-2828.299560933583
 30
0.0
 40
2.715501624969247
100
AcDbArc
 50
354.9022474682891
 51
91.24326520780831
  0
ARC
  5
E2F8
330
2
100
AcDbEntity
  8
L-ZISSEN
100
AcDbCircle
 10
-416.0840757976179
 20
-2828.299560933583
 30
0.0
 40
2.715501624969762
100
AcDbArc
 50
88.7567347921917
 51
185.0977525317109
  0
LINE
  5
E2F9
330
2
100
AcDbEntity
  8
L-ZISSEN
100
AcDbLine
 10
-412.0465671634751
 20
-2829.683981353278
 30
0.0
 11
-418.7888363959951
 21
-2829.683981353278
 31
0.0
  0
LINE
  5
E2FA
330
2
100
AcDbEntity
  8
L-ZISSEN
100
AcDbLine
 10
-418.7888363959951
 20
-2828.540847445174
 30
0.0
 11
-412.0465671634751
 21
-2828.540847445174
 31
0.0
  0
LINE
  5
E2FB
330
2
100
AcDbEntity
  8
L-ZISSEN
100
AcDbLine
 10
-417.7061389882688
 20
-2875.173374545467
 30
0.0
 11
-417.7061389882688
 21
-2849.173374545467
 31
0.0
  0
LINE
  5
E2FC
330
2
100
AcDbEntity
  8
L-ZISSEN
100
AcDbLine
 10
-418.7888363959951
 20
-2829.683981353278
 30
0.0
 11
-418.7888363959951
 21
-2828.540847445174
 31
0.0
  0
LINE
  5
E2FD
330
2
100
AcDbEntity
  8
L-ZISSEN
100
AcDbLine
 10
-412.0465671634751
 20
-2828.540847445174
 30
0.0
 11
-412.0465671634751
 21
-2829.683981353278
 31
0.0
  0
LINE
  5
E2FE
330
2
100
AcDbEntity
  8
L-ZISSEN
100
AcDbLine
 10
-414.8102470014305
 20
-2825.58469858009
 30
0.0
 11
-414.8102470014305
 21
-2826.56971231206
 31
0.0
  0
LINE
  5
E2FF
330
2
100
AcDbEntity
  8
L-ZISSEN
100
AcDbLine
 10
-416.0251565580397
 20
-2826.56971231206
 30
0.0
 11
-416.0251565580397
 21
-2825.58469858009
 31
0.0
  0
LINE
  5
E300
330
2
100
AcDbEntity
  8
L-ZISSEN
100
AcDbLine
 10
-414.8102470014305
 20
-2826.56971231206
 30
0.0
 11
-416.0251565580397
 21
-2826.56971231206
 31
0.0
  0
LINE
  5
E301
330
2
100
AcDbEntity
  8
L-ZISSEN
100
AcDbLine
 10
-415.4561389882688
 20
-2816.823780804122
 30
0.0
 11
-415.4561389882688
 21
-2820.522968286812
 31
0.0
  0
LINE
  5
E302
330
2
100
AcDbEntity
  8
L-SAISEN
100
AcDbLine
 10
-409.7674802614669
 20
-2810.657094746142
 30
0.0
 11
-409.7674802614669
 21
-2815.814273457822
 31
0.0
  0
LINE
  5
E303
330
2
100
AcDbEntity
  8
L-ZISSEN
100
AcDbLine
 10
-411.4561389882688
 20
-2811.388532605175
 30
0.0
 11
-411.4561389882688
 21
-2816.010700822621
 31
0.0
  0
LINE
  5
E304
330
2
100
AcDbEntity
  8
L-ZISSEN
100
AcDbLine
 10
-409.7674802614669
 20
-2810.673374545467
 30
0.0
 11
-411.4561389882688
 21
-2811.4048124045
 31
0.0
  0
LINE
  5
E305
330
2
100
AcDbEntity
  8
L-SAISEN
100
AcDbLine
 10
-409.7674802614669
 20
-2821.532475633112
 30
0.0
 11
-409.7674802614669
 21
-2823.673374545467
 31
0.0
  0
LINE
  5
E306
330
2
100
AcDbEntity
  8
L-ZISSEN
100
AcDbLine
 10
-411.4561389882688
 20
-2821.336048268312
 30
0.0
 11
-411.4561389882688
 21
-2823.673374545467
 31
0.0
  0
LINE
  5
E30B
330
2
100
AcDbEntity
  8
L-ZISSEN
100
AcDbLine
 10
-407.2061389882687
 20
-2835.673374545467
 30
0.0
 11
-407.2061389882687
 21
-2897.173374545467
 31
0.0
  0
LINE
  5
E30C
330
2
100
AcDbEntity
  8
L-ZISSEN
100
AcDbLine
 10
-405.7061389882724
 20
-2799.673374545467
 30
0.0
 11
-405.7061389882724
 21
-2801.673374545467
 31
0.0
  0
LINE
  5
E30D
330
2
100
AcDbEntity
  8
L-ZISSEN
100
AcDbLine
 10
-406.9561389882688
 20
-2801.673374545467
 30
0.0
 11
-406.9561389882688
 21
-2810.657094746142
 31
0.0
  0
LINE
  5
E30E
330
2
100
AcDbEntity
  8
L-ZISSEN
100
AcDbLine
 10
-397.8825458594616
 20
-2816.823780804122
 30
0.0
 11
-397.8825458594616
 21
-2820.522968286812
 31
0.0
  0
LINE
  5
E30F
330
2
100
AcDbEntity
  8
L-SOUZOU
100
AcDbLine
 10
-339.7061389882688
 20
-2841.773374545465
 30
0.0
 11
-325.2061389882688
 21
-2841.773374545465
 31
0.0
  0
LINE
  5
E310
330
2
100
AcDbEntity
  8
L-SOUZOU
100
AcDbLine
 10
-339.7061389882688
 20
-2882.573374545465
 30
0.0
 11
-325.2061389882688
 21
-2882.573374545465
 31
0.0
  0
LINE
  5
E311
330
2
100
AcDbEntity
  8
L-ZISSEN
100
AcDbLine
 10
-363.7061389882688
 20
-2849.173374545467
 30
0.0
 11
-350.4561389882705
 21
-2849.173374545467
 31
0.0
  0
ARC
  5
E313
330
2
100
AcDbEntity
  8
L-ZISSEN
100
AcDbCircle
 10
-364.2429355526723
 20
-2849.805329162954
 30
0.0
 40
34.1319546174875
100
AcDbArc
 50
75.08201763927741
 51
104.9179823607225
  0
ARC
  5
E314
330
2
100
AcDbEntity
  8
L-ZISSEN
100
AcDbCircle
 10
-364.2429355526723
 20
-2787.541419927979
 30
0.0
 40
34.1319546174875
100
AcDbArc
 50
255.0820176392774
 51
284.9179823607225
  0
LINE
  5
E316
330
2
100
AcDbEntity
  8
L-ZISSEN
100
AcDbLine
 10
-360.5330134053342
 20
-2829.683981353278
 30
0.0
 11
-350.4561389882687
 21
-2829.683981353278
 31
0.0
  0
ARC
  5
E317
330
2
100
AcDbEntity
  8
L-ZISSEN
100
AcDbCircle
 10
-363.0167288524881
 20
-2797.373374545466
 30
0.0
 40
2.299999999999999
100
AcDbArc
 50
270.0
 51
0.8959352773338501
  0
LINE
  5
E318
330
2
100
AcDbEntity
  8
L-ZISSEN
100
AcDbLine
 10
-361.144797715076
 20
-2810.673374545467
 30
0.0
 11
-359.4561389882688
 21
-2811.4048124045
 31
0.0
  0
LINE
  5
E31B
330
2
100
AcDbEntity
  8
L-ZISSEN
100
AcDbLine
 10
-373.0297321170759
 20
-2816.823780804122
 30
0.0
 11
-373.0297321170759
 21
-2820.522968286812
 31
0.0
  0
LINE
  5
E31C
330
2
100
AcDbEntity
  8
L-ZISSEN
100
AcDbLine
 10
-360.5330134053342
 20
-2823.673374545467
 30
0.0
 11
-360.5330134053342
 21
-2829.683981353278
 31
0.0
  0
LINE
  5
E31E
330
2
100
AcDbEntity
  8
L-ZISSEN
100
AcDbLine
 10
-363.7061389882688
 20
-2835.673374545467
 30
0.0
 11
-363.7061389882688
 21
-2897.173374545467
 31
0.0
  0
LINE
  5
E31F
330
2
100
AcDbEntity
  8
L-ZISSEN
100
AcDbLine
 10
-365.2061389882724
 20
-2799.673374545467
 30
0.0
 11
-365.2061389882724
 21
-2801.673374545467
 31
0.0
  0
LINE
  5
E320
330
2
100
AcDbEntity
  8
L-ZISSEN
100
AcDbLine
 10
-363.9561389882687
 20
-2801.673374545467
 30
0.0
 11
-363.9561389882687
 21
-2810.657094746142
 31
0.0
  0
LINE
  5
E321
330
2
100
AcDbEntity
  8
L-SAISEN
100
AcDbLine
 10
-361.144797715076
 20
-2810.673374545467
 30
0.0
 11
-361.144797715076
 21
-2815.814273457821
 31
0.0
  0
LINE
  5
E322
330
2
100
AcDbEntity
  8
L-SAISEN
100
AcDbLine
 10
-361.1447977150705
 20
-2821.532475633112
 30
0.0
 11
-361.1447977150705
 21
-2823.673374545467
 31
0.0
  0
LINE
  5
E324
330
2
100
AcDbEntity
  8
L-SOUZOU
100
AcDbLine
 10
-348.7061389882688
 20
-2855.373374545465
 30
0.0
 11
-341.2061389882688
 21
-2855.373374545465
 31
0.0
  0
LINE
  5
E325
330
2
100
AcDbEntity
  8
L-SOUZOU
100
AcDbLine
 10
-348.7061389882688
 20
-2868.973374545465
 30
0.0
 11
-341.2061389882688
 21
-2868.973374545465
 31
0.0
  0
LINE
  5
E326
330
2
100
AcDbEntity
  8
L-ZISSEN
100
AcDbLine
 10
-350.4561389882705
 20
-2835.673374545467
 30
0.0
 11
-350.4561389882705
 21
-2823.673374545467
 31
0.0
  0
ARC
  5
E327
330
2
100
AcDbEntity
  8
L-ZISSEN
100
AcDbCircle
 10
-356.1609502146852
 20
-2828.299560933583
 30
0.0
 40
2.715501624970328
100
AcDbArc
 50
88.7567347921917
 51
185.0977525317109
  0
LINE
  5
E328
330
2
100
AcDbEntity
  8
L-ZISSEN
100
AcDbLine
 10
-350.4561389882687
 20
-2829.683981353278
 30
0.0
 11
-350.4561389882687
 21
-2824.673374545471
 31
0.0
  0
ARC
  5
E329
330
2
100
AcDbEntity
  8
L-ZISSEN
100
AcDbCircle
 10
-354.8282021789195
 20
-2828.299560933583
 30
0.0
 40
2.715501624969247
100
AcDbArc
 50
354.9022474682891
 51
91.24326520780831
  0
LINE
  5
E32A
330
2
100
AcDbEntity
  8
L-SOUZOU
100
AcDbLine
 10
-353.2061389882688
 20
-2867.958065153256
 30
0.0
 11
-350.2061389882688
 21
-2868.051819838369
 31
0.0
  0
LINE
  5
E32B
330
2
100
AcDbEntity
  8
L-SOUZOU
100
AcDbLine
 10
-353.2061389882688
 20
-2868.814065153257
 30
0.0
 11
-348.7061389882689
 21
-2868.954697180925
 31
0.0
  0
LINE
  5
E32C
330
2
100
AcDbEntity
  8
L-ZISSEN
100
AcDbLine
 10
-352.1234415805406
 20
-2829.683981353278
 30
0.0
 11
-358.8657108130642
 21
-2829.683981353278
 31
0.0
  0
LINE
  5
E32D
330
2
100
AcDbEntity
  8
L-ZISSEN
100
AcDbLine
 10
-358.8657108130642
 20
-2828.540847445174
 30
0.0
 11
-352.1234415805406
 21
-2828.540847445174
 31
0.0
  0
LINE
  5
E32E
330
2
100
AcDbEntity
  8
L-SOUZOU
100
AcDbLine
 10
-353.2061389882688
 20
-2855.532683937674
 30
0.0
 11
-348.7061389882689
 21
-2855.392051910005
 31
0.0
  0
LINE
  5
E32F
330
2
100
AcDbEntity
  8
L-SOUZOU
100
AcDbLine
 10
-353.2061389882688
 20
-2856.388683937674
 30
0.0
 11
-350.2061389882688
 21
-2856.294929252562
 31
0.0
  0
LINE
  5
E330
330
2
100
AcDbEntity
  8
L-ZISSEN
100
AcDbLine
 10
-353.2061389882688
 20
-2875.173374545467
 30
0.0
 11
-353.2061389882688
 21
-2849.173374545467
 31
0.0
  0
LINE
  5
E331
330
2
100
AcDbEntity
  8
L-ZISSEN
100
AcDbLine
 10
-358.8657108130642
 20
-2829.683981353278
 30
0.0
 11
-358.8657108130642
 21
-2828.540847445174
 31
0.0
  0
LINE
  5
E332
330
2
100
AcDbEntity
  8
L-SOUZOU
100
AcDbLine
 10
-350.2061389882688
 20
-2855.438929252562
 30
0.0
 11
-350.2061389882687
 21
-2868.907819838369
 31
0.0
  0
LINE
  5
E333
330
2
100
AcDbEntity
  8
L-SOUZOU
100
AcDbLine
 10
-348.7061389882688
 20
-2855.373374545465
 30
0.0
 11
-348.7061389882688
 21
-2868.973374545465
 31
0.0
  0
LINE
  5
E334
330
2
100
AcDbEntity
  8
L-SOUZOU
100
AcDbLine
 10
-350.2061389882688
 20
-2868.051819838369
 30
0.0
 11
-349.3225246605845
 21
-2868.935434166053
 31
0.0
  0
LINE
  5
E335
330
2
100
AcDbEntity
  8
L-ZISSEN
100
AcDbLine
 10
-352.1234415805406
 20
-2828.540847445174
 30
0.0
 11
-352.1234415805406
 21
-2829.683981353278
 31
0.0
  0
LINE
  5
E336
330
2
100
AcDbEntity
  8
L-ZISSEN
100
AcDbLine
 10
-350.4561389882705
 20
-2835.673374545467
 30
0.0
 11
-350.4561389882705
 21
-2849.173374545467
 31
0.0
  0
LINE
  5
E337
330
2
100
AcDbEntity
  8
L-SOUZOU
100
AcDbLine
 10
-350.2061389882688
 20
-2856.294929252562
 30
0.0
 11
-349.3225246605845
 21
-2855.411314924877
 31
0.0
  0
LINE
  5
E338
330
2
100
AcDbEntity
  8
L-ZISSEN
100
AcDbLine
 10
-354.8871214184978
 20
-2826.56971231206
 30
0.0
 11
-356.1020309751051
 21
-2826.56971231206
 31
0.0
  0
LINE
  5
E339
330
2
100
AcDbEntity
  8
L-ZISSEN
100
AcDbLine
 10
-356.1020309751051
 20
-2826.56971231206
 30
0.0
 11
-356.1020309751051
 21
-2825.58469858009
 31
0.0
  0
LINE
  5
E33A
330
2
100
AcDbEntity
  8
L-ZISSEN
100
AcDbLine
 10
-354.8871214184978
 20
-2825.58469858009
 30
0.0
 11
-354.8871214184978
 21
-2826.56971231206
 31
0.0
  0
LINE
  5
E33B
330
2
100
AcDbEntity
  8
L-ZISSEN
100
AcDbLine
 10
-355.4561389882687
 20
-2816.823780804122
 30
0.0
 11
-355.4561389882687
 21
-2820.522968286812
 31
0.0
  0
LINE
  5
E33C
330
2
100
AcDbEntity
  8
L-ZISSEN
100
AcDbLine
 10
-359.4561389882688
 20
-2811.4048124045
 30
0.0
 11
-359.4561389882688
 21
-2816.010700822621
 31
0.0
  0
LINE
  5
E33D
330
2
100
AcDbEntity
  8
L-ZISSEN
100
AcDbLine
 10
-359.4561389882688
 20
-2821.336048268312
 30
0.0
 11
-359.4561389882688
 21
-2823.673374545467
 31
0.0
  0
LINE
  5
E33E
330
2
100
AcDbEntity
  8
L-SOUZOU
 48
0.5
100
AcDbLine
 10
-350.4561389882705
 20
-2821.673374545467
 30
0.0
 11
-350.4561389882705
 21
-2823.673374545467
 31
0.0
  0
ARC
  5
E33F
330
2
100
AcDbEntity
  8
L-SOUZOU
100
AcDbCircle
 10
-339.7061389882688
 20
-2881.073374545465
 30
0.0
 40
1.5
100
AcDbArc
 50
180.0
 51
270.0
  0
ARC
  5
E340
330
2
100
AcDbEntity
  8
L-SOUZOU
100
AcDbCircle
 10
-339.7061389882688
 20
-2843.273374545465
 30
0.0
 40
1.5
100
AcDbArc
 50
90.0
 51
180.0
  0
LINE
  5
E341
330
2
100
AcDbEntity
  8
L-SOUZOU
100
AcDbLine
 10
-341.2061389882688
 20
-2843.273374545465
 30
0.0
 11
-341.2061389882688
 21
-2881.073374545465
 31
0.0
  0
LINE
  5
E342
330
2
100
AcDbEntity
  8
L-SOUZOU
100
AcDbLine
 10
-325.2061389882688
 20
-2883.173374545465
 30
0.0
 11
-317.7061389882688
 21
-2883.173374545465
 31
0.0
  0
LINE
  5
E343
330
2
100
AcDbEntity
  8
L-SOUZOU
100
AcDbLine
 10
-325.2061389882688
 20
-2841.173374545465
 30
0.0
 11
-317.7061389882688
 21
-2841.173374545465
 31
0.0
  0
LINE
  5
E344
330
2
100
AcDbEntity
  8
L-SOUZOU
100
AcDbLine
 10
-325.2061389882688
 20
-2841.173374545465
 30
0.0
 11
-325.2061389882688
 21
-2883.173374545465
 31
0.0
  0
ARC
  5
E345
330
2
100
AcDbEntity
  8
L-SOUZOU
100
AcDbCircle
 10
-317.7061389882688
 20
-2881.673374545465
 30
0.0
 40
1.5
100
AcDbArc
 50
270.0
 51
0.0
  0
ARC
  5
E346
330
2
100
AcDbEntity
  8
L-SOUZOU
100
AcDbCircle
 10
-317.7061389882688
 20
-2842.673374545465
 30
0.0
 40
1.5
100
AcDbArc
 50
0.0
 51
90.0
  0
LINE
  5
E347
330
2
100
AcDbEntity
  8
L-SOUZOU
100
AcDbLine
 10
-316.2061389882688
 20
-2842.673374545465
 30
0.0
 11
-316.2061389882688
 21
-2881.673374545465
 31
0.0
  0
LINE
  5
E348
330
2
100
AcDbEntity
  8
L-ZISSEN
100
AcDbLine
 10
-363.4561389882684
 20
-2747.673374545467
 30
0.0
 11
-407.4561389882705
 21
-2747.673374545467
 31
0.0
  0
LINE
  5
E349
330
2
100
AcDbEntity
  8
L-ZISSEN
100
AcDbLine
 10
-409.4561389882724
 20
-2750.073374545467
 30
0.0
 11
-407.4561389882705
 21
-2747.673374545467
 31
0.0
  0
LINE
  5
E34A
330
2
100
AcDbEntity
  8
L-ZISSEN
100
AcDbLine
 10
-361.4561389882724
 20
-2750.073374545467
 30
0.0
 11
-363.4561389882687
 21
-2747.673374545467
 31
0.0
  0
LINE
  5
E34B
330
2
100
AcDbEntity
  8
L-ZISSEN
100
AcDbLine
 10
-420.4561389882669
 20
-2897.173374545467
 30
0.0
 11
-350.4561389882705
 21
-2897.173374545467
 31
0.0
  0
LINE
  5
E34C
330
2
100
AcDbEntity
  8
L-ZISSEN
100
AcDbLine
 10
-420.4561389882669
 20
-2875.173374545467
 30
0.0
 11
-407.2061389882687
 21
-2875.173374545467
 31
0.0
  0
LINE
  5
E34F
330
2
100
AcDbEntity
  8
L-ZISSEN
100
AcDbLine
 10
-420.4561389882705
 20
-2875.173374545466
 30
0.0
 11
-420.4561389882705
 21
-2897.173374545467
 31
0.0
  0
LINE
  5
E350
330
2
100
AcDbEntity
  8
L-ZISSEN
100
AcDbLine
 10
-350.4561389882705
 20
-2875.173374545466
 30
0.0
 11
-350.4561389882705
 21
-2897.173374545467
 31
0.0
  0
LINE
  5
E351
330
2
100
AcDbEntity
  8
L-ZISSEN
100
AcDbLine
 10
-363.7061389882688
 20
-2875.173374545467
 30
0.0
 11
-350.4561389882705
 21
-2875.173374545467
 31
0.0
  0
LINE
  5
E384
330
2
100
AcDbEntity
  8
L-ZISSEN
100
AcDbLine
 10
-350.4561389882687
 20
-2897.173374545467
 30
0.0
 11
-350.4561389882687
 21
-2918.173374545466
 31
0.0
  0
LINE
  5
E385
330
2
100
AcDbEntity
  8
L-ZISSEN
100
AcDbLine
 10
-355.4561389882687
 20
-2897.173374545466
 30
0.0
 11
-355.4561389882687
 21
-2938.497368999665
 31
0.0
  0
LINE
  5
E386
330
2
100
AcDbEntity
  8
L-ZISSEN
100
AcDbLine
 10
-352.1420436637172
 20
-2925.062860447477
 30
0.0
 11
-352.1420436637172
 21
-2897.173374545467
 31
0.0
  0
LINE
  5
E387
330
2
100
AcDbEntity
  8
L-ZISSEN
100
AcDbLine
 10
-355.456138988271
 20
-2983.577058589455
 30
0.0
 11
-355.4561389882687
 21
-2897.173374545466
 31
0.0
  0
LINE
  5
E388
330
2
100
AcDbEntity
  8
L-ZISSEN
100
AcDbLine
 10
-360.1761389882685
 20
-2907.512113457098
 30
0.0
 11
-360.1761389882708
 21
-2975.512113457098
 31
0.0
  0
LINE
  5
E389
330
2
100
AcDbEntity
  8
L-ZISSEN
100
AcDbLine
 10
-368.6061389882715
 20
-2907.512113457098
 30
0.0
 11
-368.6061389882715
 21
-2975.512113457098
 31
0.0
  0
LINE
  5
E38A
330
2
100
AcDbEntity
  8
L-ZISSEN
100
AcDbLine
 10
-352.1420436637172
 20
-2920.980396842547
 30
0.0
 11
-355.4561389882687
 21
-2920.980396842547
 31
0.0
  0
LINE
  5
E38B
330
2
100
AcDbEntity
  8
L-ZISSEN
100
AcDbLine
 10
-353.905717807489
 20
-2930.646856830925
 30
0.0
 11
-355.4561389882687
 21
-2930.646856830925
 31
0.0
  0
LINE
  5
E38C
330
2
100
AcDbEntity
  8
L-ZISSEN
100
AcDbLine
 10
-355.392301638245
 20
-2930.296341060103
 30
0.0
 11
-353.6286274944732
 21
-2922.816365312659
 31
0.0
  0
ARC
  5
E38D
330
2
100
AcDbEntity
  8
L-ZISSEN
100
AcDbCircle
 10
-363.456138988261
 20
-2983.577058589455
 30
0.0
 40
8.000000000000113
100
AcDbArc
 50
283.9062370650529
 51
0.0
  0
LINE
  5
E38E
330
2
100
AcDbEntity
  8
L-ZISSEN
100
AcDbLine
 10
-368.6061389882715
 20
-2975.512113457098
 30
0.0
 11
-364.3911389882678
 21
-2977.512113457098
 31
0.0
  0
ARC
  5
E38F
330
2
100
AcDbEntity
  8
L-ZISSEN
100
AcDbCircle
 10
-385.4561389882651
 20
-2894.720663463983
 30
0.0
 40
99.53938471878515
100
AcDbArc
 50
275.3320776948651
 51
283.9062370650426
  0
LINE
  5
E390
330
2
100
AcDbEntity
  8
L-ZISSEN
100
AcDbLine
 10
-364.3911389882678
 20
-2977.512113457098
 30
0.0
 11
-360.1761389882708
 21
-2975.512113457098
 31
0.0
  0
LINE
  5
E391
330
2
100
AcDbEntity
  8
L-ZISSEN
100
AcDbLine
 10
-350.4561389882687
 20
-2918.173374545466
 30
0.0
 11
-346.4561389882701
 21
-2918.838312351249
 31
0.0
  0
LINE
  5
E392
330
2
100
AcDbEntity
  8
L-ZISSEN
100
AcDbLine
 10
-346.4561389882701
 20
-2923.122481333847
 30
0.0
 11
-351.9561389882674
 21
-2925.062860447477
 31
0.0
  0
LINE
  5
E393
330
2
100
AcDbEntity
  8
L-ZISSEN
100
AcDbLine
 10
-352.1420436637172
 20
-2923.166881083482
 30
0.0
 11
-352.1420436637172
 21
-2920.980396842547
 31
0.0
  0
LINE
  5
E394
330
2
100
AcDbEntity
  8
L-ZISSEN
100
AcDbLine
 10
-353.6286274944732
 20
-2920.980396842548
 30
0.0
 11
-353.6286274944732
 21
-2922.816365312659
 31
0.0
  0
LINE
  5
E395
330
2
100
AcDbEntity
  8
L-ZISSEN
100
AcDbLine
 10
-353.905717807489
 20
-2930.646856830925
 30
0.0
 11
-352.1420436637172
 21
-2923.166881083482
 31
0.0
  0
LINE
  5
E396
330
2
100
AcDbEntity
  8
L-ZISSEN
100
AcDbLine
 10
-351.9561389882674
 20
-2925.062860447477
 30
0.0
 11
-352.1420436637172
 21
-2925.062860447477
 31
0.0
  0
LINE
  5
E397
330
2
100
AcDbEntity
  8
L-ZISSEN
100
AcDbLine
 10
-346.4561389882701
 20
-2918.838312351249
 30
0.0
 11
-346.4561389882701
 21
-2923.122481333847
 31
0.0
  0
LINE
  5
E398
330
2
100
AcDbEntity
  8
L-ZISSEN
100
AcDbLine
 10
-379.4561389882683
 20
-2995.173374545466
 30
0.0
 11
-378.6211660091722
 21
-2995.173374545466
 31
0.0
  0
LINE
  5
E399
330
2
100
AcDbEntity
  8
L-ZISSEN
100
AcDbLine
 10
-376.4561389882665
 20
-2995.032925746031
 30
0.0
 11
-379.4561389882683
 21
-2995.032925746031
 31
0.0
  0
LINE
  5
E39A
330
2
100
AcDbEntity
  8
L-ZISSEN
100
AcDbLine
 10
-376.4561389882665
 20
-2995.032925746031
 30
0.0
 11
-379.4561389882683
 21
-2995.032925746031
 31
0.0
  0
ARC
  5
E39B
330
2
100
AcDbEntity
  8
L-ZISSEN
100
AcDbCircle
 10
-378.7434209282737
 20
-3000.443286831247
 30
0.0
 40
5.271330170371789
100
AcDbArc
 50
64.28835488513648
 51
115.2591066834208
  0
ARC
  5
E39C
330
2
100
AcDbEntity
  8
L-ZISSEN
100
AcDbCircle
 10
-378.743420928275
 20
-2992.903462259686
 30
0.0
 40
5.271330170371532
100
AcDbArc
 50
244.7408933165791
 51
295.7116451148635
  0
LINE
  5
E39D
330
2
100
AcDbEntity
  8
L-ZISSEN
100
AcDbLine
 10
-376.4561389882665
 20
-2993.829324085517
 30
0.0
 11
-394.706138988267
 21
-2993.829324085517
 31
0.0
  0
LINE
  5
E39E
330
2
100
AcDbEntity
  8
L-ZISSEN
100
AcDbLine
 10
-392.2344546047734
 20
-2998.173995660286
 30
0.0
 11
-378.743420928275
 21
-2998.174792430058
 31
0.0
  0
LINE
  5
E39F
330
2
100
AcDbEntity
  8
L-ZISSEN
100
AcDbLine
 10
-402.3061389882682
 20
-2975.512113457098
 30
0.0
 11
-406.5211389882697
 21
-2977.512113457098
 31
0.0
  0
ARC
  5
E3A0
330
2
100
AcDbEntity
  8
L-ZISSEN
100
AcDbCircle
 10
-385.4561389882651
 20
-2894.720663463983
 30
0.0
 40
99.53938471878538
100
AcDbArc
 50
256.0937629349466
 51
264.6679223051348
  0
ARC
  5
E3A1
330
2
100
AcDbEntity
  8
L-ZISSEN
100
AcDbCircle
 10
-407.4561389882596
 20
-2983.577058589455
 30
0.0
 40
8.000000000000113
100
AcDbArc
 50
180.0
 51
256.0937629347646
  0
LINE
  5
E3A2
330
2
100
AcDbEntity
  8
L-ZISSEN
100
AcDbLine
 10
-406.5211389882697
 20
-2977.512113457098
 30
0.0
 11
-410.7361389882689
 21
-2975.512113457098
 31
0.0
  0
LINE
  5
E3A3
330
2
100
AcDbEntity
  8
L-ZISSEN
100
AcDbLine
 10
-390.9561389882706
 20
-3000.114539955958
 30
0.0
 11
-391.4561389882678
 21
-3000.614539955958
 31
0.0
  0
ARC
  5
E3A4
330
2
100
AcDbEntity
  8
L-ZISSEN
100
AcDbCircle
 10
-392.2344546047721
 20
-3000.444083601018
 30
0.0
 40
5.271330170370607
100
AcDbArc
 50
64.74766100341231
 51
114.9228807251722
  0
ARC
  5
E3A5
330
2
100
AcDbEntity
  8
L-ZISSEN
100
AcDbCircle
 10
-392.2344546047734
 20
-2992.902665489916
 30
0.0
 40
5.271330170370607
100
AcDbArc
 50
245.0771192748277
 51
295.2523389966478
  0
LINE
  5
E3A6
330
2
100
AcDbEntity
  8
L-ZISSEN
100
AcDbLine
 10
-379.4561389882683
 20
-2995.032925746031
 30
0.0
 11
-394.4561389882683
 21
-2995.032925746031
 31
0.0
  0
LINE
  5
E3A7
330
2
100
AcDbEntity
  8
L-ZISSEN
100
AcDbLine
 10
-379.4561389882683
 20
-2995.032925746031
 30
0.0
 11
-394.4561389882683
 21
-2995.032925746031
 31
0.0
  0
LINE
  5
E3A8
330
2
100
AcDbEntity
  8
L-ZISSEN
100
AcDbLine
 10
-392.3153731860607
 20
-2995.173374545466
 30
0.0
 11
-379.4561389882683
 21
-2995.173374545466
 31
0.0
  0
LINE
  5
E3A9
330
2
100
AcDbEntity
  8
L-ZISSEN
100
AcDbLine
 10
-379.7561389882694
 20
-3010.173374545466
 30
0.0
 11
-391.1561389882681
 21
-3010.173374545466
 31
0.0
  0
LINE
  5
E3AA
330
2
100
AcDbEntity
  8
L-ZISSEN
100
AcDbLine
 10
-394.4561389882683
 20
-2995.032925746031
 30
0.0
 11
-394.4561389882683
 21
-2993.829324085517
 31
0.0
  0
LINE
  5
E3AB
330
2
100
AcDbEntity
  8
L-ZISSEN
100
AcDbLine
 10
-394.4557826083515
 20
-2995.66364181541
 30
0.0
 11
-394.4557826083515
 21
-2997.683107275523
 31
0.0
  0
LINE
  5
E3AC
330
2
100
AcDbEntity
  8
L-ZISSEN
100
AcDbLine
 10
-391.1561389882681
 20
-3010.173374545466
 30
0.0
 11
-391.4561389882678
 21
-3009.873374545467
 31
0.0
  0
LINE
  5
E3AD
330
2
100
AcDbEntity
  8
L-ZISSEN
100
AcDbLine
 10
-391.4561389882679
 20
-3009.873374545467
 30
0.0
 11
-391.4561389882678
 21
-3000.614539955958
 31
0.0
  0
ARC
  5
E3AE
330
2
100
AcDbEntity
  8
L-ZISSEN
100
AcDbCircle
 10
-385.4561389882674
 20
-3015.814437219384
 30
0.0
 40
20.64106267391679
100
AcDbArc
 50
77.50558048157066
 51
102.6763186877428
  0
ARC
  5
E3AF
330
2
100
AcDbEntity
  8
L-ZISSEN
100
AcDbCircle
 10
-385.4561389882687
 20
-2977.532311871549
 30
0.0
 40
20.64106267391694
100
AcDbArc
 50
257.3236813122691
 51
282.4944195184277
  0
LINE
  5
E3B0
330
2
100
AcDbEntity
  8
L-ZISSEN
100
AcDbLine
 10
-390.9561389882706
 20
-3000.114539955958
 30
0.0
 11
-382.4561389882692
 21
-3000.114539955958
 31
0.0
  0
LINE
  5
E3B1
330
2
100
AcDbEntity
  8
L-ZISSEN
100
AcDbLine
 10
-389.9856753062859
 20
-2995.676493703415
 30
0.0
 11
-389.9856753062791
 21
-2997.670255387518
 31
0.0
  0
LINE
  5
E3B2
330
2
100
AcDbEntity
  8
L-ZISSEN
100
AcDbLine
 10
-387.4561389882669
 20
-3000.114539955958
 30
0.0
 11
-387.4561389882668
 21
-3010.173374545466
 31
0.0
  0
LINE
  5
E3B3
330
2
100
AcDbEntity
  8
L-ZISSEN
100
AcDbLine
 10
-386.4561389882678
 20
-3000.114539955958
 30
0.0
 11
-386.4561389882677
 21
-3010.173374545466
 31
0.0
  0
LINE
  5
E3B4
330
2
100
AcDbEntity
  8
L-ZISSEN
100
AcDbLine
 10
-385.4561389882665
 20
-3000.114539955958
 30
0.0
 11
-385.4561389882663
 21
-3010.173374545466
 31
0.0
  0
LINE
  5
E3B5
330
2
100
AcDbEntity
  8
L-ZISSEN
100
AcDbLine
 10
-388.4561389882683
 20
-3000.114539955958
 30
0.0
 11
-388.4561389882682
 21
-3010.173374545466
 31
0.0
  0
LINE
  5
E3B6
330
2
100
AcDbEntity
  8
L-ZISSEN
100
AcDbLine
 10
-389.4561389882696
 20
-3000.114539955958
 30
0.0
 11
-389.4561389882696
 21
-3010.173374545466
 31
0.0
  0
LINE
  5
E3B7
330
2
100
AcDbEntity
  8
L-ZISSEN
100
AcDbLine
 10
-390.4561389882664
 20
-2998.174071156594
 30
0.0
 11
-390.4561389882705
 21
-3000.114539955958
 31
0.0
  0
LINE
  5
E3B8
330
2
100
AcDbEntity
  8
L-ZISSEN
100
AcDbLine
 10
-390.9561389882678
 20
-2999.614539955958
 30
0.0
 11
-390.9561389882678
 21
-2998.173374545467
 31
0.0
  0
LINE
  5
E3B9
330
2
100
AcDbEntity
  8
L-ZISSEN
100
AcDbLine
 10
-390.4561389882705
 20
-3000.114539955958
 30
0.0
 11
-390.9561389882678
 21
-2999.614539955958
 31
0.0
  0
LINE
  5
E3BA
330
2
100
AcDbEntity
  8
L-ZISSEN
100
AcDbLine
 10
-390.4561389882687
 20
-3000.114539955958
 30
0.0
 11
-390.4561389882686
 21
-3010.173374545466
 31
0.0
  0
LINE
  5
E3BB
330
2
100
AcDbEntity
  8
L-ZISSEN
100
AcDbLine
 10
-379.9561389882695
 20
-2999.614539955958
 30
0.0
 11
-379.9561389882696
 21
-2998.173374545467
 31
0.0
  0
LINE
  5
E3BC
330
2
100
AcDbEntity
  8
L-ZISSEN
100
AcDbLine
 10
-379.9561389882692
 20
-3000.114539955958
 30
0.0
 11
-379.4561389882697
 21
-3000.614539955958
 31
0.0
  0
LINE
  5
E3BD
330
2
100
AcDbEntity
  8
L-ZISSEN
100
AcDbLine
 10
-380.9927633512502
 20
-2995.675962589153
 30
0.0
 11
-380.9927633512502
 21
-2997.670786501781
 31
0.0
  0
LINE
  5
E3BE
330
2
100
AcDbEntity
  8
L-ZISSEN
100
AcDbLine
 10
-382.4561389882679
 20
-2995.173374545466
 30
0.0
 11
-382.4561389882679
 21
-2995.032925746031
 31
0.0
  0
LINE
  5
E3BF
330
2
100
AcDbEntity
  8
L-ZISSEN
100
AcDbLine
 10
-380.456138988265
 20
-2998.174720807889
 30
0.0
 11
-380.4561389882692
 21
-3000.114539955958
 31
0.0
  0
LINE
  5
E3C0
330
2
100
AcDbEntity
  8
L-ZISSEN
100
AcDbLine
 10
-382.4561389882692
 20
-3000.114539955958
 30
0.0
 11
-379.9561389882692
 21
-3000.114539955958
 31
0.0
  0
LINE
  5
E3C1
330
2
100
AcDbEntity
  8
L-ZISSEN
100
AcDbLine
 10
-380.4561389882692
 20
-3000.114539955958
 30
0.0
 11
-379.9561389882696
 21
-2999.614539955958
 31
0.0
  0
LINE
  5
E3C2
330
2
100
AcDbEntity
  8
L-ZISSEN
100
AcDbLine
 10
-379.7561389882694
 20
-3010.173374545466
 30
0.0
 11
-379.4561389882697
 21
-3009.873374545467
 31
0.0
  0
LINE
  5
E3C3
330
2
100
AcDbEntity
  8
L-ZISSEN
100
AcDbLine
 10
-384.4561389882674
 20
-3000.114539955958
 30
0.0
 11
-384.4561389882672
 21
-3010.173374545466
 31
0.0
  0
LINE
  5
E3C4
330
2
100
AcDbEntity
  8
L-ZISSEN
100
AcDbLine
 10
-383.4561389882683
 20
-3000.114539955958
 30
0.0
 11
-383.4561389882681
 21
-3010.173374545466
 31
0.0
  0
LINE
  5
E3C5
330
2
100
AcDbEntity
  8
L-ZISSEN
100
AcDbLine
 10
-382.4561389882692
 20
-3000.114539955958
 30
0.0
 11
-382.4561389882692
 21
-3010.173374545466
 31
0.0
  0
LINE
  5
E3C6
330
2
100
AcDbEntity
  8
L-ZISSEN
100
AcDbLine
 10
-381.4561389882655
 20
-3000.114539955958
 30
0.0
 11
-381.4561389882655
 21
-3010.173374545466
 31
0.0
  0
LINE
  5
E3C7
330
2
100
AcDbEntity
  8
L-ZISSEN
100
AcDbLine
 10
-380.4561389882664
 20
-3000.114539955958
 30
0.0
 11
-380.4561389882644
 21
-3010.173374545466
 31
0.0
  0
LINE
  5
E3C8
330
2
100
AcDbEntity
  8
L-ZISSEN
100
AcDbLine
 10
-379.4561389882697
 20
-3000.614539955958
 30
0.0
 11
-379.4561389882697
 21
-3009.873374545467
 31
0.0
  0
LINE
  5
E3C9
330
2
100
AcDbEntity
  8
L-ZISSEN
100
AcDbLine
 10
-376.2061389882656
 20
-2993.829324085517
 30
0.0
 11
-376.4561389882665
 21
-2993.829324085517
 31
0.0
  0
LINE
  5
E3CA
330
2
100
AcDbEntity
  8
L-ZISSEN
100
AcDbLine
 10
-376.581138988267
 20
-2995.03292574603
 30
0.0
 11
-376.581138988267
 21
-2993.829324085517
 31
0.0
  0
LINE
  5
E3CB
330
2
100
AcDbEntity
  8
L-ZISSEN
100
AcDbLine
 10
-376.4564953681811
 20
-2995.693877052372
 30
0.0
 11
-376.4564953681811
 21
-2997.65287203856
 31
0.0
  0
LINE
  5
E3CC
330
2
100
AcDbEntity
  8
L-ZISSEN
100
AcDbLine
 10
-415.456138988271
 20
-2983.577058589455
 30
0.0
 11
-415.4561389882688
 21
-2897.173374545466
 31
0.0
  0
LINE
  5
E3CD
330
2
100
AcDbEntity
  8
L-ZISSEN
100
AcDbLine
 10
-402.3061389882682
 20
-2907.512113457098
 30
0.0
 11
-402.3061389882682
 21
-2975.512113457098
 31
0.0
  0
LINE
  5
E3CE
330
2
100
AcDbEntity
  8
L-ZISSEN
100
AcDbLine
 10
-410.7361389882712
 20
-2907.512113457098
 30
0.0
 11
-410.7361389882689
 21
-2975.512113457098
 31
0.0
  0
LINE
  5
E3CF
330
2
100
AcDbEntity
  8
L-ZISSEN
100
AcDbLine
 10
-410.7361389882712
 20
-2907.512113457098
 30
0.0
 11
-402.3061389882682
 21
-2907.512113457098
 31
0.0
  0
LINE
  5
E3D0
330
2
100
AcDbEntity
  8
L-ZISSEN
100
AcDbLine
 10
-360.1761389882685
 20
-2907.512113457098
 30
0.0
 11
-368.6061389882715
 21
-2907.512113457098
 31
0.0
  0
LINE
  5
E3D2
330
2
100
AcDbEntity
  8
L-TYUSIN
100
AcDbLine
 10
-185.4561389882687
 20
-3015.173374545466
 30
0.0
 11
-185.4561389882687
 21
-2742.673374545467
 31
0.0
  0
LINE
  5
E3D3
330
2
100
AcDbEntity
  8
L-ZISSEN
100
AcDbLine
 10
-209.4561389882724
 20
-2750.073374545467
 30
0.0
 11
-210.1952679359155
 21
-2797.337410864036
 31
0.0
  0
LINE
  5
E3D4
330
2
100
AcDbEntity
  8
L-ZISSEN
100
AcDbLine
 10
-161.4561389882724
 20
-2750.073374545467
 30
0.0
 11
-160.7170100406292
 21
-2797.337410864036
 31
0.0
  0
CIRCLE
  5
E3D7
330
2
100
AcDbEntity
  8
L-SOUZOU
100
AcDbCircle
 10
-185.4561389882686
 20
-2862.173374545463
 30
0.0
 40
18.0
  0
CIRCLE
  5
E3D8
330
2
100
AcDbEntity
  8
L-SOUZOU
100
AcDbCircle
 10
-185.4561389882686
 20
-2862.173374545463
 30
0.0
 40
21.0
  0
LINE
  5
E3DA
330
2
100
AcDbEntity
  8
L-ZISSEN
100
AcDbLine
 10
-147.9561389882687
 20
-2835.673374545467
 30
0.0
 11
-222.9561389882687
 21
-2835.673374545467
 31
0.0
  0
LINE
  5
E3DB
330
2
100
AcDbEntity
  8
L-ZISSEN
100
AcDbLine
 10
-222.9561389882687
 20
-2849.173374545467
 30
0.0
 11
-147.9561389882687
 21
-2849.173374545467
 31
0.0
  0
LINE
  5
E3DC
330
2
100
AcDbEntity
  8
L-TYUSIN
100
AcDbLine
 10
-225.4561389882685
 20
-2862.173374545463
 30
0.0
 11
-145.4561389882649
 21
-2862.173374545463
 31
0.0
  0
LINE
  5
E3DF
330
2
100
AcDbEntity
  8
L-ZISSEN
100
AcDbLine
 10
-164.2429355526723
 20
-2815.673374545467
 30
0.0
 11
-206.6693424238652
 21
-2815.673374545467
 31
0.0
  0
LINE
  5
E3E0
330
2
100
AcDbEntity
  8
L-ZISSEN
100
AcDbLine
 10
-164.2429355526723
 20
-2821.673374545467
 30
0.0
 11
-206.6693424238652
 21
-2821.673374545467
 31
0.0
  0
LINE
  5
E3E1
330
2
100
AcDbEntity
  8
L-ZISSEN
100
AcDbLine
 10
-207.8955491240566
 20
-2799.673374545467
 30
0.0
 11
-163.0167288524882
 21
-2799.673374545467
 31
0.0
  0
LINE
  5
E3E2
330
2
100
AcDbEntity
  8
L-ZISSEN
100
AcDbLine
 10
-206.9561389882687
 20
-2801.673374545467
 30
0.0
 11
-163.9561389882669
 21
-2801.673374545467
 31
0.0
  0
LINE
  5
E3E3
330
2
100
AcDbEntity
  8
L-ZISSEN
100
AcDbLine
 10
-209.7674802614633
 20
-2811.67337454547
 30
0.0
 11
-161.1447977150742
 21
-2811.67337454547
 31
0.0
  0
LINE
  5
E3E4
330
2
100
AcDbEntity
  8
L-ZISSEN
100
AcDbLine
 10
-150.4561389882687
 20
-2823.673374545467
 30
0.0
 11
-220.4561389882688
 21
-2823.673374545467
 31
0.0
  0
LINE
  5
E3E5
330
2
100
AcDbEntity
  8
L-SOUZOU
100
AcDbLine
 10
-150.4561389882687
 20
-2821.673374545467
 30
0.0
 11
-220.4561389882687
 21
-2821.673374545467
 31
0.0
  0
LINE
  5
E3E6
330
2
100
AcDbEntity
  8
L-SOUZOU
100
AcDbLine
 10
-150.4561389882687
 20
-2823.673374545467
 30
0.0
 11
-220.4561389882687
 21
-2823.673374545467
 31
0.0
  0
LINE
  5
E3E7
330
2
100
AcDbEntity
  8
L-SOUZOU
100
AcDbLine
 10
-177.0345389882729
 20
-2853.751774545463
 30
0.0
 11
-197.7577389882747
 21
-2874.474974545463
 31
0.0
  0
LINE
  5
E3E8
330
2
100
AcDbEntity
  8
L-SOUZOU
100
AcDbLine
 10
-186.1417389882714
 20
-2864.051774545464
 30
0.0
 11
-196.2041389882725
 21
-2873.504574545463
 31
0.0
  0
LINE
  5
E3E9
330
2
100
AcDbEntity
  8
L-SOUZOU
100
AcDbLine
 10
-187.3345389882729
 20
-2862.858974545463
 30
0.0
 11
-196.787338988272
 21
-2872.921374545463
 31
0.0
  0
ARC
  5
E3EA
330
2
100
AcDbEntity
  8
L-ZISSEN
100
AcDbCircle
 10
-185.4561389882687
 20
-2883.362080651114
 30
0.0
 40
67.68870610564736
100
AcDbArc
 50
79.42154710242788
 51
100.5784528975721
  0
ARC
  5
E3EB
330
2
100
AcDbEntity
  8
L-ZISSEN
100
AcDbCircle
 10
-185.4561389882687
 20
-2753.984668439819
 30
0.0
 40
67.68870610564736
100
AcDbArc
 50
259.4215471024278
 51
280.5784528975721
  0
LINE
  5
E3ED
330
2
100
AcDbEntity
  8
L-ZISSEN
100
AcDbLine
 10
-203.9177017797369
 20
-2829.683981353278
 30
0.0
 11
-220.4561389882688
 21
-2829.683981353278
 31
0.0
  0
LINE
  5
E3EE
330
2
100
AcDbEntity
  8
L-SOUZOU
100
AcDbLine
 10
-210.2011890543485
 20
-2796.673374545467
 30
0.0
 11
-219.4561389882669
 21
-2796.673374545467
 31
0.0
  0
ARC
  5
E3EF
330
2
100
AcDbEntity
  8
L-SOUZOU
100
AcDbCircle
 10
-213.5061389882651
 20
-2806.673374545473
 30
0.0
 40
4.199999999999988
100
AcDbArc
 50
90.0
 51
270.0
  0
LINE
  5
E3F0
330
2
100
AcDbEntity
  8
L-TYUSIN
 48
0.5
100
AcDbLine
 10
-204.9561389882669
 20
-2806.673374545473
 30
0.0
 11
-219.9561389882669
 21
-2806.673374545473
 31
0.0
  0
LINE
  5
E3F1
330
2
100
AcDbEntity
  8
L-ZISSEN
100
AcDbLine
 10
-220.4561389882689
 20
-2823.673374545467
 30
0.0
 11
-220.4561389882687
 21
-2835.673374545467
 31
0.0
  0
LINE
  5
E3F2
330
2
100
AcDbEntity
  8
L-ZISSEN
100
AcDbLine
 10
-222.9561389882687
 20
-2897.173374545467
 30
0.0
 11
-222.9561389882687
 21
-2842.173374545467
 31
0.0
  0
LINE
  5
E3F3
330
2
100
AcDbEntity
  8
L-ZISSEN
100
AcDbLine
 10
-222.9561389882687
 20
-2838.673374545467
 30
0.0
 11
-222.9561389882687
 21
-2835.673374545467
 31
0.0
  0
LINE
  5
E3F4
330
2
100
AcDbEntity
  8
L-ZISSEN
100
AcDbLine
 10
-222.9561389882687
 20
-2838.673374545467
 30
0.0
 11
-220.4561389882687
 21
-2838.673374545467
 31
0.0
  0
LINE
  5
E3F5
330
2
100
AcDbEntity
  8
L-ZISSEN
100
AcDbLine
 10
-220.4561389882687
 20
-2842.173374545467
 30
0.0
 11
-222.9561389882687
 21
-2842.173374545467
 31
0.0
  0
LINE
  5
E3F6
330
2
100
AcDbEntity
  8
L-ZISSEN
100
AcDbLine
 10
-220.4561389882687
 20
-2838.673374545467
 30
0.0
 11
-220.4561389882687
 21
-2842.173374545467
 31
0.0
  0
LINE
  5
E3F7
330
2
100
AcDbEntity
  8
L-SOUZOU
100
AcDbLine
 10
-219.4561389882669
 20
-2796.673374545467
 30
0.0
 11
-220.4561389882687
 21
-2797.673374545466
 31
0.0
  0
LINE
  5
E3F8
330
2
100
AcDbEntity
  8
L-SOUZOU
100
AcDbLine
 10
-220.4561389882687
 20
-2823.673374545467
 30
0.0
 11
-220.4561389882687
 21
-2797.673374545466
 31
0.0
  0
ARC
  5
E3FD
330
2
100
AcDbEntity
  8
L-ZISSEN
100
AcDbCircle
 10
-206.6693424238652
 20
-2849.805329162954
 30
0.0
 40
34.1319546174875
100
AcDbArc
 50
75.08201763927741
 51
104.9179823607225
  0
ARC
  5
E3FE
330
2
100
AcDbEntity
  8
L-ZISSEN
100
AcDbCircle
 10
-206.6693424238652
 20
-2787.541419927979
 30
0.0
 40
34.1319546174875
100
AcDbArc
 50
255.0820176392774
 51
284.9179823607225
  0
ARC
  5
E3FF
330
2
100
AcDbEntity
  8
L-ZISSEN
100
AcDbCircle
 10
-208.2897649703859
 20
-2828.299560933583
 30
0.0
 40
2.715501624970328
100
AcDbArc
 50
354.9022474682891
 51
91.24326520780831
  0
ARC
  5
E400
330
2
100
AcDbEntity
  8
L-ZISSEN
100
AcDbCircle
 10
-209.6225130061516
 20
-2828.299560933583
 30
0.0
 40
2.715501624969247
100
AcDbArc
 50
88.7567347921917
 51
185.0977525317109
  0
LINE
  5
E401
330
2
100
AcDbEntity
  8
L-ZISSEN
100
AcDbLine
 10
-205.585004372007
 20
-2828.540847445174
 30
0.0
 11
-212.3272736045305
 21
-2828.540847445174
 31
0.0
  0
LINE
  5
E402
330
2
100
AcDbEntity
  8
L-ZISSEN
100
AcDbLine
 10
-212.3272736045305
 20
-2829.683981353278
 30
0.0
 11
-205.585004372007
 21
-2829.683981353278
 31
0.0
  0
LINE
  5
E403
330
2
100
AcDbEntity
  8
L-ZISSEN
100
AcDbLine
 10
-212.3272736045305
 20
-2828.540847445174
 30
0.0
 11
-212.3272736045305
 21
-2829.683981353278
 31
0.0
  0
LINE
  5
E404
330
2
100
AcDbEntity
  8
L-ZISSEN
100
AcDbLine
 10
-215.4561389882687
 20
-2849.173374545467
 30
0.0
 11
-215.4561389882687
 21
-2835.673374545467
 31
0.0
  0
LINE
  5
E406
330
2
100
AcDbEntity
  8
L-ZISSEN
100
AcDbLine
 10
-205.585004372007
 20
-2829.683981353278
 30
0.0
 11
-205.585004372007
 21
-2828.540847445174
 31
0.0
  0
LINE
  5
E407
330
2
100
AcDbEntity
  8
L-SOUZOU
100
AcDbLine
 10
-211.4061389882651
 20
-2802.473374545474
 30
0.0
 11
-213.5061389882651
 21
-2802.473374545474
 31
0.0
  0
LINE
  5
E408
330
2
100
AcDbEntity
  8
L-SOUZOU
100
AcDbLine
 10
-211.4061389882651
 20
-2810.873374545473
 30
0.0
 11
-213.5061389882651
 21
-2810.873374545473
 31
0.0
  0
LINE
  5
E409
330
2
100
AcDbEntity
  8
L-ZISSEN
100
AcDbLine
 10
-215.4561389882687
 20
-2816.823780804122
 30
0.0
 11
-215.4561389882687
 21
-2820.522968286812
 31
0.0
  0
LINE
  5
E40A
330
2
100
AcDbEntity
  8
L-TYUSIN
100
AcDbLine
 10
-212.4561389882651
 20
-2800.173374545474
 30
0.0
 11
-212.4561389882651
 21
-2813.173374545473
 31
0.0
  0
LINE
  5
E40B
330
2
100
AcDbEntity
  8
L-ZISSEN
100
AcDbLine
 10
-209.5635937665733
 20
-2826.56971231206
 30
0.0
 11
-208.3486842099659
 21
-2826.56971231206
 31
0.0
  0
LINE
  5
E40C
330
2
100
AcDbEntity
  8
L-ZISSEN
100
AcDbLine
 10
-209.5635937665733
 20
-2825.58469858009
 30
0.0
 11
-209.5635937665733
 21
-2826.56971231206
 31
0.0
  0
LINE
  5
E40D
330
2
100
AcDbEntity
  8
L-ZISSEN
100
AcDbLine
 10
-208.3486842099659
 20
-2826.56971231206
 30
0.0
 11
-208.3486842099659
 21
-2825.58469858009
 31
0.0
  0
ARC
  5
E40E
330
2
100
AcDbEntity
  8
L-SOUZOU
100
AcDbCircle
 10
-211.4061389882651
 20
-2806.673374545473
 30
0.0
 40
4.199999999999988
100
AcDbArc
 50
270.0
 51
90.0
  0
ARC
  5
E40F
330
2
100
AcDbEntity
  8
L-ZISSEN
100
AcDbCircle
 10
-207.8955491240566
 20
-2797.373374545466
 30
0.0
 40
2.299999999999999
100
AcDbArc
 50
179.1040647226661
 51
270.0
  0
LINE
  5
E410
330
2
100
AcDbEntity
  8
L-ZISSEN
100
AcDbLine
 10
-209.7674802614633
 20
-2811.67337454547
 30
0.0
 11
-211.4561389882669
 21
-2812.404812404505
 31
0.0
  0
LINE
  5
E411
330
2
100
AcDbEntity
  8
L-ZISSEN
100
AcDbLine
 10
-211.4561389882669
 20
-2812.404812404505
 30
0.0
 11
-211.4561389882669
 21
-2816.010700822621
 31
0.0
  0
LINE
  5
E412
330
2
100
AcDbEntity
  8
L-SAISEN
100
AcDbLine
 10
-209.7674802614633
 20
-2811.67337454547
 30
0.0
 11
-209.7674802614633
 21
-2815.814273457821
 31
0.0
  0
LINE
  5
E413
330
2
100
AcDbEntity
  8
L-SAISEN
100
AcDbLine
 10
-209.7674802614669
 20
-2821.532475633112
 30
0.0
 11
-209.7674802614669
 21
-2823.673374545467
 31
0.0
  0
LINE
  5
E414
330
2
100
AcDbEntity
  8
L-ZISSEN
100
AcDbLine
 10
-211.4561389882687
 20
-2821.336048268312
 30
0.0
 11
-211.4561389882687
 21
-2823.673374545467
 31
0.0
  0
LINE
  5
E415
330
2
100
AcDbEntity
  8
L-ZISSEN
100
AcDbLine
 10
-205.7061389882669
 20
-2799.673374545467
 30
0.0
 11
-205.7061389882669
 21
-2801.673374545472
 31
0.0
  0
LINE
  5
E416
330
2
100
AcDbEntity
  8
L-ZISSEN
100
AcDbLine
 10
-206.9561389882687
 20
-2801.673374545472
 30
0.0
 11
-206.9561389882687
 21
-2811.67337454547
 31
0.0
  0
LINE
  5
E417
330
2
100
AcDbEntity
  8
L-ZISSEN
100
AcDbLine
 10
-203.9177017797369
 20
-2823.673374545467
 30
0.0
 11
-203.9177017797369
 21
-2829.683981353278
 31
0.0
  0
LINE
  5
E418
330
2
100
AcDbEntity
  8
L-ZISSEN
100
AcDbLine
 10
-200.4561389882688
 20
-2875.173374545466
 30
0.0
 11
-200.4561389882688
 21
-2849.173374545467
 31
0.0
  0
LINE
  5
E419
330
2
100
AcDbEntity
  8
L-SOUZOU
100
AcDbLine
 10
-196.7697389882742
 20
-2873.486974545463
 30
0.0
 11
-196.7785389882731
 21
-2873.478174545462
 31
0.0
  0
LINE
  5
E41A
330
2
100
AcDbEntity
  8
L-SOUZOU
100
AcDbLine
 10
-196.7697389882742
 20
-2873.486974545463
 30
0.0
 11
-196.7609389882754
 21
-2873.495774545463
 31
0.0
  0
ARC
  5
E41B
330
2
100
AcDbEntity
  8
L-SOUZOU
100
AcDbCircle
 10
-196.4785389882732
 20
-2873.212574545463
 30
0.0
 40
0.4
100
AcDbArc
 50
225.0000000000921
 51
313.209999999828
  0
ARC
  5
E41C
330
2
100
AcDbEntity
  8
L-SOUZOU
100
AcDbCircle
 10
-196.4953389882736
 20
-2873.195774545464
 30
0.0
 40
0.4
100
AcDbArc
 50
136.7899999998952
 51
225.0000000000921
  0
LINE
  5
E41D
330
2
100
AcDbEntity
  8
L-ZISSEN
100
AcDbLine
 10
-197.8825458594616
 20
-2816.823780804122
 30
0.0
 11
-197.8825458594616
 21
-2820.522968286812
 31
0.0
  0
ARC
  5
E41F
330
2
100
AcDbEntity
  8
L-ZISSEN
100
AcDbCircle
 10
-164.2429355526723
 20
-2787.541419927979
 30
0.0
 40
34.1319546174875
100
AcDbArc
 50
255.0820176392774
 51
284.9179823607225
  0
ARC
  5
E420
330
2
100
AcDbEntity
  8
L-ZISSEN
100
AcDbCircle
 10
-164.2429355526723
 20
-2849.805329162954
 30
0.0
 40
34.1319546174875
100
AcDbArc
 50
75.08201763927741
 51
104.9179823607225
  0
LINE
  5
E425
330
2
100
AcDbEntity
  8
L-SOUZOU
100
AcDbLine
 10
-179.516138988272
 20
-2854.536574545463
 30
0.0
 11
-184.8889389882724
 21
-2860.255774545463
 31
0.0
  0
CIRCLE
  5
E426
330
2
100
AcDbEntity
  8
L-SAISEN
100
AcDbCircle
 10
-185.4561389882686
 20
-2862.173374545463
 30
0.0
 40
6.58
  0
CIRCLE
  5
E427
330
2
100
AcDbEntity
  8
L-ZISSEN
100
AcDbCircle
 10
-185.4561389882686
 20
-2862.173374545463
 30
0.0
 40
5.724999999999999
  0
LINE
  5
E428
330
2
100
AcDbEntity
  8
L-SOUZOU
100
AcDbLine
 10
-177.8193389882727
 20
-2856.233374545463
 30
0.0
 11
-183.5385389882708
 21
-2861.606174545464
 31
0.0
  0
ARC
  5
E429
330
2
100
AcDbEntity
  8
L-SOUZOU
100
AcDbCircle
 10
-185.4561389882686
 20
-2862.173374545463
 30
0.0
 40
2.0
100
AcDbArc
 50
73.51949999986849
 51
200.0599999999725
  0
ARC
  5
E42A
330
2
100
AcDbEntity
  8
L-SOUZOU
100
AcDbCircle
 10
-185.4561389882686
 20
-2862.173374545463
 30
0.0
 40
2.0
100
AcDbArc
 50
249.939999999777
 51
16.4805000000797
  0
CIRCLE
  5
E42B
330
2
100
AcDbEntity
  8
L-SOUZOU
100
AcDbCircle
 10
-185.4561389882686
 20
-2862.173374545463
 30
0.0
 40
1.2
  0
LINE
  5
E42C
330
2
100
AcDbEntity
  8
L-SOUZOU
100
AcDbLine
 10
-179.516138988272
 20
-2854.536574545463
 30
0.0
 11
-177.8193389882727
 21
-2856.233374545463
 31
0.0
  0
LINE
  5
E42D
330
2
100
AcDbEntity
  8
L-ZISSEN
100
AcDbLine
 10
-170.4561389882687
 20
-2875.173374545466
 30
0.0
 11
-170.4561389882687
 21
-2849.173374545467
 31
0.0
  0
LINE
  5
E42E
330
2
100
AcDbEntity
  8
L-ZISSEN
100
AcDbLine
 10
-173.0297321170759
 20
-2816.823780804122
 30
0.0
 11
-173.0297321170759
 21
-2820.522968286812
 31
0.0
  0
LINE
  5
E431
330
2
100
AcDbEntity
  8
L-ZISSEN
100
AcDbLine
 10
-166.9945761968006
 20
-2829.683981353278
 30
0.0
 11
-150.4561389882687
 21
-2829.683981353278
 31
0.0
  0
LINE
  5
E433
330
2
100
AcDbEntity
  8
L-SOUZOU
100
AcDbLine
 10
-151.4561389882669
 20
-2796.673374545467
 30
0.0
 11
-160.7110889221871
 21
-2796.673374545467
 31
0.0
  0
LINE
  5
E434
330
2
100
AcDbEntity
  8
L-TYUSIN
 48
0.5
100
AcDbLine
 10
-150.9561389882687
 20
-2806.673374545473
 30
0.0
 11
-165.9561389882687
 21
-2806.673374545473
 31
0.0
  0
LINE
  5
E435
330
2
100
AcDbEntity
  8
L-SOUZOU
100
AcDbLine
 10
-159.5061389882724
 20
-2802.473374545474
 30
0.0
 11
-157.4061389882723
 21
-2802.473374545474
 31
0.0
  0
LINE
  5
E436
330
2
100
AcDbEntity
  8
L-SOUZOU
100
AcDbLine
 10
-159.5061389882724
 20
-2810.873374545473
 30
0.0
 11
-157.4061389882723
 21
-2810.873374545473
 31
0.0
  0
LINE
  5
E437
330
2
100
AcDbEntity
  8
L-ZISSEN
100
AcDbLine
 10
-166.9945761968006
 20
-2823.673374545467
 30
0.0
 11
-166.9945761968006
 21
-2829.683981353278
 31
0.0
  0
ARC
  5
E438
330
2
100
AcDbEntity
  8
L-ZISSEN
100
AcDbCircle
 10
-161.2897649703859
 20
-2828.299560933583
 30
0.0
 40
2.715501624969247
100
AcDbArc
 50
354.9022474682891
 51
91.24326520780831
  0
ARC
  5
E439
330
2
100
AcDbEntity
  8
L-ZISSEN
100
AcDbCircle
 10
-162.6225130061516
 20
-2828.299560933583
 30
0.0
 40
2.715501624970328
100
AcDbArc
 50
88.7567347921917
 51
185.0977525317109
  0
LINE
  5
E43A
330
2
100
AcDbEntity
  8
L-ZISSEN
100
AcDbLine
 10
-158.5850043720069
 20
-2829.683981353278
 30
0.0
 11
-165.3272736045305
 21
-2829.683981353278
 31
0.0
  0
LINE
  5
E43B
330
2
100
AcDbEntity
  8
L-ZISSEN
100
AcDbLine
 10
-165.3272736045305
 20
-2828.540847445174
 30
0.0
 11
-158.5850043720069
 21
-2828.540847445174
 31
0.0
  0
LINE
  5
E43C
330
2
100
AcDbEntity
  8
L-ZISSEN
100
AcDbLine
 10
-165.3272736045305
 20
-2829.683981353278
 30
0.0
 11
-165.3272736045305
 21
-2828.540847445174
 31
0.0
  0
LINE
  5
E43E
330
2
100
AcDbEntity
  8
L-ZISSEN
100
AcDbLine
 10
-158.5850043720069
 20
-2828.540847445174
 30
0.0
 11
-158.5850043720069
 21
-2829.683981353278
 31
0.0
  0
LINE
  5
E43F
330
2
100
AcDbEntity
  8
L-ZISSEN
100
AcDbLine
 10
-163.9561389882669
 20
-2801.673374545472
 30
0.0
 11
-163.9561389882669
 21
-2811.67337454547
 31
0.0
  0
LINE
  5
E440
330
2
100
AcDbEntity
  8
L-ZISSEN
100
AcDbLine
 10
-165.206138988267
 20
-2799.673374545467
 30
0.0
 11
-165.2061389882669
 21
-2801.673374545472
 31
0.0
  0
LINE
  5
E441
330
2
100
AcDbEntity
  8
L-ZISSEN
100
AcDbLine
 10
-161.3486842099641
 20
-2825.58469858009
 30
0.0
 11
-161.3486842099641
 21
-2826.56971231206
 31
0.0
  0
LINE
  5
E442
330
2
100
AcDbEntity
  8
L-ZISSEN
100
AcDbLine
 10
-162.5635937665715
 20
-2826.56971231206
 30
0.0
 11
-162.5635937665715
 21
-2825.58469858009
 31
0.0
  0
LINE
  5
E443
330
2
100
AcDbEntity
  8
L-ZISSEN
100
AcDbLine
 10
-161.3486842099641
 20
-2826.56971231206
 30
0.0
 11
-162.5635937665715
 21
-2826.56971231206
 31
0.0
  0
LINE
  5
E444
330
2
100
AcDbEntity
  8
L-ZISSEN
100
AcDbLine
 10
-161.1447977150742
 20
-2811.67337454547
 30
0.0
 11
-159.4561389882687
 21
-2812.404812404505
 31
0.0
  0
ARC
  5
E445
330
2
100
AcDbEntity
  8
L-SOUZOU
100
AcDbCircle
 10
-159.5061389882724
 20
-2806.673374545473
 30
0.0
 40
4.199999999999988
100
AcDbArc
 50
90.0
 51
270.0
  0
ARC
  5
E446
330
2
100
AcDbEntity
  8
L-ZISSEN
100
AcDbCircle
 10
-163.0167288524882
 20
-2797.373374545466
 30
0.0
 40
2.299999999999999
100
AcDbArc
 50
270.0
 51
0.8959352773338501
  0
LINE
  5
E447
330
2
100
AcDbEntity
  8
L-SAISEN
100
AcDbLine
 10
-161.1447977150742
 20
-2811.67337454547
 30
0.0
 11
-161.1447977150742
 21
-2815.814273457821
 31
0.0
  0
LINE
  5
E448
330
2
100
AcDbEntity
  8
L-SAISEN
100
AcDbLine
 10
-161.1447977150705
 20
-2821.532475633112
 30
0.0
 11
-161.1447977150705
 21
-2823.673374545467
 31
0.0
  0
LINE
  5
E449
330
2
100
AcDbEntity
  8
L-ZISSEN
100
AcDbLine
 10
-159.4561389882687
 20
-2812.404812404505
 30
0.0
 11
-159.4561389882687
 21
-2816.010700822621
 31
0.0
  0
LINE
  5
E44A
330
2
100
AcDbEntity
  8
L-ZISSEN
100
AcDbLine
 10
-159.4561389882687
 20
-2821.336048268312
 30
0.0
 11
-159.4561389882687
 21
-2823.673374545467
 31
0.0
  0
LINE
  5
E44B
330
2
100
AcDbEntity
  8
L-TYUSIN
100
AcDbLine
 10
-158.4561389882669
 20
-2800.173374545474
 30
0.0
 11
-158.4561389882669
 21
-2813.173374545473
 31
0.0
  0
LINE
  5
E44C
330
2
100
AcDbEntity
  8
L-ZISSEN
100
AcDbLine
 10
-150.4561389882687
 20
-2824.673374545471
 30
0.0
 11
-150.4561389882687
 21
-2835.673374545467
 31
0.0
  0
LINE
  5
E44D
330
2
100
AcDbEntity
  8
L-ZISSEN
100
AcDbLine
 10
-155.4561389882687
 20
-2849.173374545467
 30
0.0
 11
-155.4561389882687
 21
-2835.673374545467
 31
0.0
  0
LINE
  5
E44E
330
2
100
AcDbEntity
  8
L-ZISSEN
100
AcDbLine
 10
-147.9561389882687
 20
-2897.173374545467
 30
0.0
 11
-147.9561389882687
 21
-2842.173374545467
 31
0.0
  0
SOLID
  5
E44F
330
2
100
AcDbEntity
  8
L-ZISSEN
100
AcDbTrace
 10
-146.4453741648869
 20
-2860.321079917968
 30
0.0
 11
-146.9656191696616
 21
-2859.904199144303
 31
0.0
 12
-147.9561389882687
 22
-2861.67337454546
 32
0.0
 13
-147.9561389882687
 23
-2861.67337454546
 33
0.0
  0
LINE
  5
E450
330
2
100
AcDbEntity
  8
L-ZISSEN
100
AcDbLine
 10
-147.9561389882687
 20
-2838.673374545467
 30
0.0
 11
-147.9561389882687
 21
-2835.673374545467
 31
0.0
  0
LINE
  5
E451
330
2
100
AcDbEntity
  8
L-ZISSEN
100
AcDbLine
 10
-150.4561389882687
 20
-2838.673374545467
 30
0.0
 11
-150.4561389882687
 21
-2842.173374545467
 31
0.0
  0
LINE
  5
E452
330
2
100
AcDbEntity
  8
L-ZISSEN
100
AcDbLine
 10
-150.4561389882687
 20
-2842.173374545467
 30
0.0
 11
-147.9561389882687
 21
-2842.173374545467
 31
0.0
  0
LINE
  5
E453
330
2
100
AcDbEntity
  8
L-ZISSEN
100
AcDbLine
 10
-147.9561389882687
 20
-2838.673374545467
 30
0.0
 11
-150.4561389882687
 21
-2838.673374545467
 31
0.0
  0
LINE
  5
E454
330
2
100
AcDbEntity
  8
L-ZISSEN
100
AcDbLine
 10
-155.4561389882687
 20
-2816.823780804122
 30
0.0
 11
-155.4561389882687
 21
-2820.522968286812
 31
0.0
  0
ARC
  5
E455
330
2
100
AcDbEntity
  8
L-SOUZOU
100
AcDbCircle
 10
-157.4061389882723
 20
-2806.673374545473
 30
0.0
 40
4.199999999999988
100
AcDbArc
 50
270.0
 51
90.0
  0
LINE
  5
E456
330
2
100
AcDbEntity
  8
L-SOUZOU
100
AcDbLine
 10
-150.4561389882687
 20
-2824.673374545471
 30
0.0
 11
-150.4561389882687
 21
-2797.673374545466
 31
0.0
  0
LINE
  5
E457
330
2
100
AcDbEntity
  8
L-SOUZOU
100
AcDbLine
 10
-151.4561389882669
 20
-2796.673374545467
 30
0.0
 11
-150.4561389882687
 21
-2797.673374545466
 31
0.0
  0
LINE
  5
E45B
330
2
100
AcDbEntity
  8
L-ZISSEN
100
AcDbLine
 10
-163.4561389882687
 20
-2747.673374545467
 30
0.0
 11
-207.4561389882705
 21
-2747.673374545467
 31
0.0
  0
LINE
  5
E45C
330
2
100
AcDbEntity
  8
L-ZISSEN
100
AcDbLine
 10
-209.4561389882724
 20
-2750.073374545467
 30
0.0
 11
-207.4561389882705
 21
-2747.673374545467
 31
0.0
  0
LINE
  5
E45D
330
2
100
AcDbEntity
  8
L-ZISSEN
100
AcDbLine
 10
-161.4561389882724
 20
-2750.073374545467
 30
0.0
 11
-163.4561389882687
 21
-2747.673374545467
 31
0.0
  0
LINE
  5
E462
330
2
100
AcDbEntity
  8
L-ZISSEN
100
AcDbLine
 10
-407.2061389882687
 20
-2885.673374545467
 30
0.0
 11
-363.7061389882688
 21
-2885.673374545467
 31
0.0
  0
LINE
  5
E463
330
2
100
AcDbEntity
  8
L-ZISSEN
100
AcDbLine
 10
-407.2061389882687
 20
-2882.173374545467
 30
0.0
 11
-363.7061389882688
 21
-2882.173374545467
 31
0.0
  0
LINE
  5
E466
330
2
100
AcDbEntity
  8
L-ZISSEN
100
AcDbLine
 10
-222.9561389882687
 20
-2875.173374545466
 30
0.0
 11
-147.9561389882687
 21
-2875.173374545466
 31
0.0
  0
LINE
  5
E467
330
2
100
AcDbEntity
  8
L-ZISSEN
100
AcDbLine
 10
-222.9561389882687
 20
-2897.173374545467
 30
0.0
 11
-147.9561389882687
 21
-2897.173374545467
 31
0.0
  0
LINE
  5
E469
330
2
100
AcDbEntity
  8
L-ZISSEN
100
AcDbLine
 10
-205.4561389882688
 20
-2875.173374545466
 30
0.0
 11
-205.4561389882687
 21
-2849.173374545467
 31
0.0
  0
LINE
  5
E46A
330
2
100
AcDbEntity
  8
L-ZISSEN
100
AcDbLine
 10
-165.4561389882683
 20
-2875.173374545466
 30
0.0
 11
-165.4561389882684
 21
-2849.173374545467
 31
0.0
  0
LINE
  5
E46B
330
2
100
AcDbEntity
  8
L-ZISSEN
100
AcDbLine
 10
-219.4561389882687
 20
-2875.173374545466
 30
0.0
 11
-219.4561389882688
 21
-2849.173374545467
 31
0.0
  0
LINE
  5
E46C
330
2
100
AcDbEntity
  8
L-ZISSEN
100
AcDbLine
 10
-151.4561389882687
 20
-2875.173374545466
 30
0.0
 11
-151.4561389882687
 21
-2849.173374545467
 31
0.0
  0
LINE
  5
E46D
330
2
100
AcDbEntity
  8
L-ZISSEN
100
AcDbLine
 10
-217.9561389882687
 20
-2875.173374545466
 30
0.0
 11
-217.9561389882688
 21
-2849.173374545467
 31
0.0
  0
LINE
  5
E46E
330
2
100
AcDbEntity
  8
L-ZISSEN
100
AcDbLine
 10
-152.9561389882687
 20
-2875.173374545466
 30
0.0
 11
-152.9561389882687
 21
-2849.173374545467
 31
0.0
  0
LINE
  5
E46F
330
2
100
AcDbEntity
  8
L-TYUSIN
100
AcDbLine
 10
-187.6429325508238
 20
-2927.16982924664
 30
0.0
 11
-183.448152575912
 21
-2927.16982924664
 31
0.0
  0
CIRCLE
  5
E470
330
2
100
AcDbEntity
  8
L-ZISSEN
100
AcDbCircle
 10
-185.4561389882687
 20
-2927.16982924664
 30
0.0
 40
1.25
  0
ARC
  5
E471
330
2
100
AcDbEntity
  8
L-ZISSEN
100
AcDbCircle
 10
-185.4561389882687
 20
-2933.423374545467
 30
0.0
 40
1.250000000000568
100
AcDbArc
 50
180.0
 51
0.0
  0
LINE
  5
E472
330
2
100
AcDbEntity
  8
L-ZISSEN
100
AcDbLine
 10
-184.2061389882664
 20
-2900.923374545465
 30
0.0
 11
-186.7061389882665
 21
-2900.923374545465
 31
0.0
  0
LINE
  5
E473
330
2
100
AcDbEntity
  8
L-ZISSEN
100
AcDbLine
 10
-189.2061389882664
 20
-2910.923374545466
 30
0.0
 11
-185.4561389882665
 21
-2917.173374545466
 31
0.0
  0
LINE
  5
E474
330
2
100
AcDbEntity
  8
L-ZISSEN
100
AcDbLine
 10
-185.4561389882687
 20
-2932.173374545467
 30
0.0
 11
-199.518638988271
 21
-2928.423374545467
 31
0.0
  0
LINE
  5
E475
330
2
100
AcDbEntity
  8
L-ZISSEN
100
AcDbLine
 10
-185.4561389882687
 20
-2924.254546802694
 30
0.0
 11
-197.3705721231031
 21
-2922.552484926289
 31
0.0
  0
LINE
  5
E476
330
2
100
AcDbEntity
  8
L-ZISSEN
100
AcDbLine
 10
-197.3705721231031
 20
-2927.115400056511
 30
0.0
 11
-185.4561389882687
 21
-2929.609758030942
 31
0.0
  0
LINE
  5
E477
330
2
100
AcDbEntity
  8
L-ZISSEN
100
AcDbLine
 10
-185.4561389882687
 20
-2923.423374545467
 30
0.0
 11
-198.581138988271
 21
-2921.548374545467
 31
0.0
  0
LINE
  5
E478
330
2
100
AcDbEntity
  8
L-ZISSEN
100
AcDbLine
 10
-192.2344546047734
 20
-2998.173995660286
 30
0.0
 11
-178.7434209282751
 21
-2998.174792430058
 31
0.0
  0
LINE
  5
E479
330
2
100
AcDbEntity
  8
L-ZISSEN
100
AcDbLine
 10
-179.4561389882683
 20
-2995.032925746031
 30
0.0
 11
-194.4561389882683
 21
-2995.032925746031
 31
0.0
  0
LINE
  5
E47A
330
2
100
AcDbEntity
  8
L-ZISSEN
100
AcDbLine
 10
-192.3153731860607
 20
-2995.173374545466
 30
0.0
 11
-179.4561389882683
 21
-2995.173374545466
 31
0.0
  0
LINE
  5
E47B
330
2
100
AcDbEntity
  8
L-ZISSEN
100
AcDbLine
 10
-179.4561389882683
 20
-2995.032925746031
 30
0.0
 11
-194.4561389882683
 21
-2995.032925746031
 31
0.0
  0
ARC
  5
E47C
330
2
100
AcDbEntity
  8
L-ZISSEN
100
AcDbCircle
 10
-185.4561389882687
 20
-2977.532311871549
 30
0.0
 40
20.64106267391694
100
AcDbArc
 50
257.3236813122691
 51
282.4944195184277
  0
LINE
  5
E47D
330
2
100
AcDbEntity
  8
L-ZISSEN
100
AcDbLine
 10
-190.9561389882705
 20
-3000.114539955958
 30
0.0
 11
-182.4561389882692
 21
-3000.114539955958
 31
0.0
  0
ARC
  5
E47E
330
2
100
AcDbEntity
  8
L-ZISSEN
100
AcDbCircle
 10
-185.4561389882674
 20
-3015.814437219384
 30
0.0
 40
20.64106267391679
100
AcDbArc
 50
77.50558048157066
 51
102.6763186877428
  0
LINE
  5
E47F
330
2
100
AcDbEntity
  8
L-ZISSEN
100
AcDbLine
 10
-179.7561389882694
 20
-3010.173374545466
 30
0.0
 11
-191.1561389882681
 21
-3010.173374545466
 31
0.0
  0
LINE
  5
E480
330
2
100
AcDbEntity
  8
L-ZISSEN
100
AcDbLine
 10
-198.2686389882687
 20
-2937.173374545467
 30
0.0
 11
-172.6436389882687
 21
-2937.173374545467
 31
0.0
  0
LINE
  5
E481
330
2
100
AcDbEntity
  8
L-ZISSEN
100
AcDbLine
 10
-176.4561389882665
 20
-2993.829324085517
 30
0.0
 11
-194.7061389882715
 21
-2993.829324085517
 31
0.0
  0
LINE
  5
E482
330
2
100
AcDbEntity
  8
L-ZISSEN
100
AcDbLine
 10
-199.518638988271
 20
-2897.173374545467
 30
0.0
 11
-199.518638988271
 21
-2935.923374545467
 31
0.0
  0
LINE
  5
E483
330
2
100
AcDbEntity
  8
L-ZISSEN
100
AcDbLine
 10
-199.518638988271
 20
-2897.173374545467
 30
0.0
 11
-199.518638988271
 21
-2920.962649912599
 31
0.0
  0
LINE
  5
E484
330
2
100
AcDbEntity
  8
L-ZISSEN
100
AcDbLine
 10
-198.581138988271
 20
-2897.173374545467
 30
0.0
 11
-198.581138988271
 21
-2921.548374545467
 31
0.0
  0
LINE
  5
E485
330
2
100
AcDbEntity
  8
L-ZISSEN
100
AcDbLine
 10
-202.3061389882682
 20
-2907.512113457098
 30
0.0
 11
-202.3061389882682
 21
-2975.512113457098
 31
0.0
  0
LINE
  5
E486
330
2
100
AcDbEntity
  8
L-ZISSEN
100
AcDbLine
 10
-210.7361389882689
 20
-2907.512113457098
 30
0.0
 11
-210.7361389882689
 21
-2975.512113457098
 31
0.0
  0
LINE
  5
E487
330
2
100
AcDbEntity
  8
L-ZISSEN
100
AcDbLine
 10
-215.4561389882687
 20
-2983.577058589455
 30
0.0
 11
-215.4561389882687
 21
-2897.173374545467
 31
0.0
  0
LINE
  5
E488
330
2
100
AcDbEntity
  8
L-ZISSEN
100
AcDbLine
 10
-206.5211389882697
 20
-2977.512113457098
 30
0.0
 11
-210.7361389882689
 21
-2975.512113457098
 31
0.0
  0
ARC
  5
E489
330
2
100
AcDbEntity
  8
L-ZISSEN
100
AcDbCircle
 10
-207.4561389882679
 20
-2983.577058589455
 30
0.0
 40
8.000000000000113
100
AcDbArc
 50
180.0
 51
256.0937629349466
  0
LINE
  5
E48A
330
2
100
AcDbEntity
  8
L-ZISSEN
100
AcDbLine
 10
-199.518638988271
 20
-2928.423374545467
 30
0.0
 11
-197.3705721231031
 21
-2927.115400056511
 31
0.0
  0
LINE
  5
E48B
330
2
100
AcDbEntity
  8
L-ZISSEN
100
AcDbLine
 10
-197.3705721231031
 20
-2922.552484926289
 30
0.0
 11
-198.581138988271
 21
-2921.548374545467
 31
0.0
  0
LINE
  5
E48C
330
2
100
AcDbEntity
  8
L-ZISSEN
100
AcDbLine
 10
-197.3705721231031
 20
-2921.721312669062
 30
0.0
 11
-198.581138988271
 21
-2921.548374545467
 31
0.0
  0
ARC
  5
E48D
330
2
100
AcDbEntity
  8
L-ZISSEN
100
AcDbCircle
 10
-185.4561389882674
 20
-2894.720663463984
 30
0.0
 40
99.53938471878538
100
AcDbArc
 50
256.0937629349573
 51
264.6679223051348
  0
LINE
  5
E48E
330
2
100
AcDbEntity
  8
L-ZISSEN
100
AcDbLine
 10
-202.3061389882682
 20
-2975.512113457098
 30
0.0
 11
-206.5211389882697
 21
-2977.512113457098
 31
0.0
  0
ARC
  5
E48F
330
2
100
AcDbEntity
  8
L-ZISSEN
100
AcDbCircle
 10
-198.2686389882687
 20
-2935.923374545467
 30
0.0
 40
1.250000000000568
100
AcDbArc
 50
180.0
 51
270.0
  0
ARC
  5
E490
330
2
100
AcDbEntity
  8
L-ZISSEN
100
AcDbCircle
 10
-192.2344546047734
 20
-2992.902665489916
 30
0.0
 40
5.271330170370607
100
AcDbArc
 50
245.0771192748277
 51
295.2523389966478
  0
ARC
  5
E491
330
2
100
AcDbEntity
  8
L-ZISSEN
100
AcDbCircle
 10
-192.234454604772
 20
-3000.444083601018
 30
0.0
 40
5.271330170370607
100
AcDbArc
 50
64.74766100341231
 51
114.9228807251722
  0
LINE
  5
E492
330
2
100
AcDbEntity
  8
L-ZISSEN
100
AcDbLine
 10
-194.4561389882683
 20
-2995.032925746031
 30
0.0
 11
-194.4561389882683
 21
-2993.829324085517
 31
0.0
  0
LINE
  5
E493
330
2
100
AcDbEntity
  8
L-ZISSEN
100
AcDbLine
 10
-194.4557826083514
 20
-2995.66364181541
 30
0.0
 11
-194.4557826083514
 21
-2997.683107275523
 31
0.0
  0
LINE
  5
E494
330
2
100
AcDbEntity
  8
L-ZISSEN
100
AcDbLine
 10
-194.4561389882683
 20
-2995.032925746031
 30
0.0
 11
-194.4561389882683
 21
-2993.829324085517
 31
0.0
  0
LINE
  5
E495
330
2
100
AcDbEntity
  8
L-ZISSEN
100
AcDbLine
 10
-190.4561389882663
 20
-2998.174071156594
 30
0.0
 11
-190.4561389882706
 21
-3000.114539955958
 31
0.0
  0
LINE
  5
E496
330
2
100
AcDbEntity
  8
L-ZISSEN
100
AcDbLine
 10
-190.9561389882678
 20
-2999.614539955958
 30
0.0
 11
-190.9561389882678
 21
-2998.173374545467
 31
0.0
  0
LINE
  5
E497
330
2
100
AcDbEntity
  8
L-ZISSEN
100
AcDbLine
 10
-190.9561389882705
 20
-3000.114539955958
 30
0.0
 11
-191.4561389882678
 21
-3000.614539955958
 31
0.0
  0
LINE
  5
E498
330
2
100
AcDbEntity
  8
L-ZISSEN
100
AcDbLine
 10
-190.4561389882706
 20
-3000.114539955958
 30
0.0
 11
-190.9561389882678
 21
-2999.614539955958
 31
0.0
  0
LINE
  5
E499
330
2
100
AcDbEntity
  8
L-ZISSEN
100
AcDbLine
 10
-189.9856753062858
 20
-2995.676493703415
 30
0.0
 11
-189.985675306279
 21
-2997.670255387518
 31
0.0
  0
LINE
  5
E49A
330
2
100
AcDbEntity
  8
L-ZISSEN
100
AcDbLine
 10
-191.1561389882681
 20
-3010.173374545466
 30
0.0
 11
-191.4561389882678
 21
-3009.873374545467
 31
0.0
  0
LINE
  5
E49B
330
2
100
AcDbEntity
  8
L-ZISSEN
100
AcDbLine
 10
-188.4561389882683
 20
-3000.114539955958
 30
0.0
 11
-188.4561389882682
 21
-3010.173374545466
 31
0.0
  0
LINE
  5
E49C
330
2
100
AcDbEntity
  8
L-ZISSEN
100
AcDbLine
 10
-190.4561389882687
 20
-3000.114539955958
 30
0.0
 11
-190.4561389882686
 21
-3010.173374545466
 31
0.0
  0
LINE
  5
E49D
330
2
100
AcDbEntity
  8
L-ZISSEN
100
AcDbLine
 10
-189.4561389882697
 20
-3000.114539955958
 30
0.0
 11
-189.4561389882697
 21
-3010.173374545466
 31
0.0
  0
LINE
  5
E49E
330
2
100
AcDbEntity
  8
L-ZISSEN
100
AcDbLine
 10
-191.4561389882679
 20
-3009.873374545467
 30
0.0
 11
-191.4561389882678
 21
-3000.614539955958
 31
0.0
  0
LINE
  5
E49F
330
2
100
AcDbEntity
  8
L-ZISSEN
100
AcDbLine
 10
-187.4561389882669
 20
-3000.114539955958
 30
0.0
 11
-187.4561389882668
 21
-3010.173374545466
 31
0.0
  0
LINE
  5
E4A0
330
2
100
AcDbEntity
  8
L-ZISSEN
100
AcDbLine
 10
-186.4561389882678
 20
-3000.114539955958
 30
0.0
 11
-186.4561389882677
 21
-3010.173374545466
 31
0.0
  0
LINE
  5
E4A1
330
2
100
AcDbEntity
  8
L-ZISSEN
100
AcDbLine
 10
-194.8311389882687
 20
-2929.673374545466
 30
0.0
 11
-194.831138988271
 21
-2937.173374545467
 31
0.0
  0
LINE
  5
E4A2
330
2
100
AcDbEntity
  8
L-ZISSEN
100
AcDbLine
 10
-197.3705721231031
 20
-2922.552484926289
 30
0.0
 11
-197.3705721231031
 21
-2927.115400056511
 31
0.0
  0
LINE
  5
E4A3
330
2
100
AcDbEntity
  8
L-ZISSEN
100
AcDbLine
 10
-186.706138988271
 20
-2931.840041212133
 30
0.0
 11
-186.7061389882687
 21
-2933.423374545467
 31
0.0
  0
LINE
  5
E4A4
330
2
100
AcDbEntity
  8
L-ZISSEN
100
AcDbLine
 10
-210.7361389882689
 20
-2907.512113457098
 30
0.0
 11
-202.3061389882682
 21
-2907.512113457098
 31
0.0
  0
LINE
  5
E4A5
330
2
100
AcDbEntity
  8
L-ZISSEN
100
AcDbLine
 10
-188.5811389882687
 20
-2903.423374545467
 30
0.0
 11
-193.5811389882687
 21
-2903.423374545467
 31
0.0
  0
LINE
  5
E4A6
330
2
100
AcDbEntity
  8
L-ZISSEN
100
AcDbLine
 10
-188.5811389882687
 20
-2903.423374545467
 30
0.0
 11
-193.5811389882687
 21
-2903.423374545467
 31
0.0
  0
LINE
  5
E4A7
330
2
100
AcDbEntity
  8
L-ZISSEN
100
AcDbLine
 10
-188.5811389882687
 20
-2904.673374545467
 30
0.0
 11
-193.5811389882687
 21
-2904.673374545467
 31
0.0
  0
LINE
  5
E4A8
330
2
100
AcDbEntity
  8
L-ZISSEN
100
AcDbLine
 10
-188.5811389882687
 20
-2904.673374545467
 30
0.0
 11
-193.5811389882687
 21
-2904.673374545467
 31
0.0
  0
LINE
  5
E4A9
330
2
100
AcDbEntity
  8
L-ZISSEN
100
AcDbLine
 10
-193.5811389882687
 20
-2904.673374545467
 30
0.0
 11
-193.5811389882687
 21
-2905.923374545467
 31
0.0
  0
LINE
  5
E4AA
330
2
100
AcDbEntity
  8
L-ZISSEN
100
AcDbLine
 10
-193.5811389882687
 20
-2903.423374545467
 30
0.0
 11
-193.5811389882687
 21
-2902.173374545467
 31
0.0
  0
LINE
  5
E4AB
330
2
100
AcDbEntity
  8
L-ZISSEN
100
AcDbLine
 10
-193.5811389882687
 20
-2905.923374545467
 30
0.0
 11
-196.7061389882687
 21
-2904.048374545467
 31
0.0
  0
LINE
  5
E4AC
330
2
100
AcDbEntity
  8
L-ZISSEN
100
AcDbLine
 10
-193.5811389882687
 20
-2902.173374545467
 30
0.0
 11
-196.7061389882687
 21
-2904.048374545467
 31
0.0
  0
LINE
  5
E4AD
330
2
100
AcDbEntity
  8
L-ZISSEN
100
AcDbLine
 10
-186.7061389882665
 20
-2910.923374545466
 30
0.0
 11
-189.2061389882664
 21
-2910.923374545466
 31
0.0
  0
LINE
  5
E4AE
330
2
100
AcDbEntity
  8
L-ZISSEN
100
AcDbLine
 10
-188.5811389882687
 20
-2903.423374545467
 30
0.0
 11
-188.5811389882687
 21
-2904.673374545467
 31
0.0
  0
LINE
  5
E4AF
330
2
100
AcDbEntity
  8
L-ZISSEN
100
AcDbLine
 10
-186.7061389882665
 20
-2900.923374545465
 30
0.0
 11
-186.7061389882665
 21
-2910.923374545466
 31
0.0
  0
LINE
  5
E4B0
330
2
100
AcDbEntity
  8
L-ZISSEN
100
AcDbLine
 10
-186.7061389882665
 20
-2900.923374545465
 30
0.0
 11
-186.7061389882665
 21
-2910.923374545466
 31
0.0
  0
LINE
  5
E4B1
330
2
100
AcDbEntity
  8
L-ZISSEN
100
AcDbLine
 10
-171.393638988271
 20
-2897.173374545467
 30
0.0
 11
-171.393638988271
 21
-2935.923374545467
 31
0.0
  0
LINE
  5
E4B2
330
2
100
AcDbEntity
  8
L-ZISSEN
100
AcDbLine
 10
-171.393638988271
 20
-2897.173374545467
 30
0.0
 11
-171.393638988271
 21
-2920.962649912599
 31
0.0
  0
LINE
  5
E4B3
330
2
100
AcDbEntity
  8
L-ZISSEN
100
AcDbLine
 10
-172.331138988271
 20
-2897.173374545467
 30
0.0
 11
-172.331138988271
 21
-2921.548374545467
 31
0.0
  0
LINE
  5
E4B4
330
2
100
AcDbEntity
  8
L-ZISSEN
100
AcDbLine
 10
-155.456138988271
 20
-2983.577058589456
 30
0.0
 11
-155.4561389882687
 21
-2897.173374545465
 31
0.0
  0
LINE
  5
E4B5
330
2
100
AcDbEntity
  8
L-ZISSEN
100
AcDbLine
 10
-160.1761389882685
 20
-2907.512113457098
 30
0.0
 11
-160.1761389882685
 21
-2975.512113457098
 31
0.0
  0
LINE
  5
E4B6
330
2
100
AcDbEntity
  8
L-ZISSEN
100
AcDbLine
 10
-168.6061389882693
 20
-2907.512113457098
 30
0.0
 11
-168.6061389882693
 21
-2975.512113457098
 31
0.0
  0
LINE
  5
E4B7
330
2
100
AcDbEntity
  8
L-ZISSEN
100
AcDbLine
 10
-181.7061389882665
 20
-2910.923374545466
 30
0.0
 11
-185.4561389882665
 21
-2917.173374545466
 31
0.0
  0
LINE
  5
E4B8
330
2
100
AcDbEntity
  8
L-ZISSEN
100
AcDbLine
 10
-164.3911389882678
 20
-2977.512113457098
 30
0.0
 11
-160.1761389882685
 21
-2975.512113457098
 31
0.0
  0
ARC
  5
E4B9
330
2
100
AcDbEntity
  8
L-ZISSEN
100
AcDbCircle
 10
-185.4561389882674
 20
-2894.720663463984
 30
0.0
 40
99.53938471878553
100
AcDbArc
 50
275.3320776948651
 51
283.9062370650529
  0
LINE
  5
E4BA
330
2
100
AcDbEntity
  8
L-ZISSEN
100
AcDbLine
 10
-185.4561389882687
 20
-2924.254546802694
 30
0.0
 11
-173.5417058534344
 21
-2922.552484926289
 31
0.0
  0
LINE
  5
E4BB
330
2
100
AcDbEntity
  8
L-ZISSEN
100
AcDbLine
 10
-173.5417058534344
 20
-2927.115400056511
 30
0.0
 11
-185.4561389882687
 21
-2929.609758030942
 31
0.0
  0
LINE
  5
E4BC
330
2
100
AcDbEntity
  8
L-ZISSEN
100
AcDbLine
 10
-185.4561389882687
 20
-2932.173374545467
 30
0.0
 11
-171.393638988271
 21
-2928.423374545467
 31
0.0
  0
LINE
  5
E4BD
330
2
100
AcDbEntity
  8
L-ZISSEN
100
AcDbLine
 10
-185.4561389882687
 20
-2923.423374545467
 30
0.0
 11
-172.331138988271
 21
-2921.548374545467
 31
0.0
  0
LINE
  5
E4BE
330
2
100
AcDbEntity
  8
L-ZISSEN
100
AcDbLine
 10
-182.4561389882692
 20
-3000.114539955958
 30
0.0
 11
-179.9561389882692
 21
-3000.114539955958
 31
0.0
  0
LINE
  5
E4BF
330
2
100
AcDbEntity
  8
L-ZISSEN
100
AcDbLine
 10
-180.4561389882692
 20
-3000.114539955958
 30
0.0
 11
-179.9561389882696
 21
-2999.614539955958
 31
0.0
  0
ARC
  5
E4C0
330
2
100
AcDbEntity
  8
L-ZISSEN
100
AcDbCircle
 10
-178.7434209282751
 20
-2992.903462259686
 30
0.0
 40
5.271330170371532
100
AcDbArc
 50
244.7408933165791
 51
295.7116451148635
  0
ARC
  5
E4C1
330
2
100
AcDbEntity
  8
L-ZISSEN
100
AcDbCircle
 10
-178.7434209282737
 20
-3000.443286831247
 30
0.0
 40
5.271330170371789
100
AcDbArc
 50
64.28835488513648
 51
115.2591066834208
  0
LINE
  5
E4C2
330
2
100
AcDbEntity
  8
L-ZISSEN
100
AcDbLine
 10
-180.456138988265
 20
-2998.174720807889
 30
0.0
 11
-180.4561389882692
 21
-3000.114539955958
 31
0.0
  0
LINE
  5
E4C3
330
2
100
AcDbEntity
  8
L-ZISSEN
100
AcDbLine
 10
-180.9927633512502
 20
-2995.675962589153
 30
0.0
 11
-180.9927633512502
 21
-2997.670786501781
 31
0.0
  0
LINE
  5
E4C4
330
2
100
AcDbEntity
  8
L-ZISSEN
100
AcDbLine
 10
-182.4561389882678
 20
-2995.173374545466
 30
0.0
 11
-182.4561389882678
 21
-2995.032925746031
 31
0.0
  0
LINE
  5
E4C5
330
2
100
AcDbEntity
  8
L-ZISSEN
100
AcDbLine
 10
-182.4561389882692
 20
-3000.114539955958
 30
0.0
 11
-182.4561389882692
 21
-3010.173374545466
 31
0.0
  0
LINE
  5
E4C6
330
2
100
AcDbEntity
  8
L-ZISSEN
100
AcDbLine
 10
-181.4561389882656
 20
-3000.114539955958
 30
0.0
 11
-181.4561389882655
 21
-3010.173374545466
 31
0.0
  0
LINE
  5
E4C7
330
2
100
AcDbEntity
  8
L-ZISSEN
100
AcDbLine
 10
-180.4561389882665
 20
-3000.114539955958
 30
0.0
 11
-180.4561389882644
 21
-3010.173374545466
 31
0.0
  0
LINE
  5
E4C8
330
2
100
AcDbEntity
  8
L-ZISSEN
100
AcDbLine
 10
-185.4561389882665
 20
-3000.114539955958
 30
0.0
 11
-185.4561389882663
 21
-3010.173374545466
 31
0.0
  0
LINE
  5
E4C9
330
2
100
AcDbEntity
  8
L-ZISSEN
100
AcDbLine
 10
-184.4561389882674
 20
-3000.114539955958
 30
0.0
 11
-184.4561389882672
 21
-3010.173374545466
 31
0.0
  0
LINE
  5
E4CA
330
2
100
AcDbEntity
  8
L-ZISSEN
100
AcDbLine
 10
-183.4561389882683
 20
-3000.114539955958
 30
0.0
 11
-183.4561389882681
 21
-3010.173374545466
 31
0.0
  0
LINE
  5
E4CB
330
2
100
AcDbEntity
  8
L-ZISSEN
100
AcDbLine
 10
-176.4561389882665
 20
-2995.032925746031
 30
0.0
 11
-176.4561389882665
 21
-2993.829324085517
 31
0.0
  0
LINE
  5
E4CC
330
2
100
AcDbEntity
  8
L-ZISSEN
100
AcDbLine
 10
-176.456495368181
 20
-2995.693877052372
 30
0.0
 11
-176.456495368181
 21
-2997.65287203856
 31
0.0
  0
LINE
  5
E4CD
330
2
100
AcDbEntity
  8
L-ZISSEN
100
AcDbLine
 10
-176.4561389882665
 20
-2995.032925746031
 30
0.0
 11
-176.4561389882665
 21
-2993.829324085517
 31
0.0
  0
LINE
  5
E4CE
330
2
100
AcDbEntity
  8
L-ZISSEN
100
AcDbLine
 10
-176.2061389882633
 20
-2993.829324085517
 30
0.0
 11
-176.4561389882665
 21
-2993.829324085517
 31
0.0
  0
LINE
  5
E4CF
330
2
100
AcDbEntity
  8
L-ZISSEN
100
AcDbLine
 10
-179.9561389882695
 20
-2999.614539955958
 30
0.0
 11
-179.9561389882696
 21
-2998.173374545467
 31
0.0
  0
LINE
  5
E4D0
330
2
100
AcDbEntity
  8
L-ZISSEN
100
AcDbLine
 10
-179.9561389882692
 20
-3000.114539955958
 30
0.0
 11
-179.4561389882696
 21
-3000.614539955958
 31
0.0
  0
LINE
  5
E4D1
330
2
100
AcDbEntity
  8
L-ZISSEN
100
AcDbLine
 10
-179.4561389882683
 20
-2995.173374545466
 30
0.0
 11
-178.6211660091721
 21
-2995.173374545466
 31
0.0
  0
LINE
  5
E4D2
330
2
100
AcDbEntity
  8
L-ZISSEN
100
AcDbLine
 10
-179.7561389882694
 20
-3010.173374545466
 30
0.0
 11
-179.4561389882696
 21
-3009.873374545467
 31
0.0
  0
LINE
  5
E4D3
330
2
100
AcDbEntity
  8
L-ZISSEN
100
AcDbLine
 10
-179.4561389882696
 20
-3000.614539955958
 30
0.0
 11
-179.4561389882696
 21
-3009.873374545467
 31
0.0
  0
LINE
  5
E4D4
330
2
100
AcDbEntity
  8
L-ZISSEN
100
AcDbLine
 10
-176.4561389882665
 20
-2995.032925746031
 30
0.0
 11
-179.4561389882683
 21
-2995.032925746031
 31
0.0
  0
LINE
  5
E4D5
330
2
100
AcDbEntity
  8
L-ZISSEN
100
AcDbLine
 10
-176.4561389882665
 20
-2995.032925746031
 30
0.0
 11
-179.4561389882683
 21
-2995.032925746031
 31
0.0
  0
LINE
  5
E4D6
330
2
100
AcDbEntity
  8
L-ZISSEN
100
AcDbLine
 10
-185.4561389882687
 20
-2923.423374545467
 30
0.0
 11
-185.4561389882687
 21
-2924.254546802694
 31
0.0
  0
LINE
  5
E4D7
330
2
100
AcDbEntity
  8
L-ZISSEN
100
AcDbLine
 10
-185.4561389882687
 20
-2932.173374545467
 30
0.0
 11
-185.4561389882687
 21
-2929.609758030942
 31
0.0
  0
LINE
  5
E4D8
330
2
100
AcDbEntity
  8
L-ZISSEN
100
AcDbLine
 10
-184.2061389882687
 20
-2931.840041212133
 30
0.0
 11
-184.2061389882687
 21
-2933.423374545467
 31
0.0
  0
LINE
  5
E4D9
330
2
100
AcDbEntity
  8
L-ZISSEN
100
AcDbLine
 10
-176.081138988271
 20
-2929.673374545467
 30
0.0
 11
-176.081138988271
 21
-2937.173374545467
 31
0.0
  0
LINE
  5
E4DA
330
2
100
AcDbEntity
  8
L-ZISSEN
100
AcDbLine
 10
-168.6061389882693
 20
-2975.512113457098
 30
0.0
 11
-164.3911389882678
 21
-2977.512113457098
 31
0.0
  0
ARC
  5
E4DB
330
2
100
AcDbEntity
  8
L-ZISSEN
100
AcDbCircle
 10
-172.6436389882687
 20
-2935.923374545467
 30
0.0
 40
1.249999999999715
100
AcDbArc
 50
270.0
 51
0.0
  0
LINE
  5
E4DC
330
2
100
AcDbEntity
  8
L-ZISSEN
100
AcDbLine
 10
-173.5417058534344
 20
-2922.552484926289
 30
0.0
 11
-173.5417058534344
 21
-2927.115400056511
 31
0.0
  0
LINE
  5
E4DD
330
2
100
AcDbEntity
  8
L-ZISSEN
100
AcDbLine
 10
-171.393638988271
 20
-2928.423374545467
 30
0.0
 11
-173.5417058534344
 21
-2927.115400056511
 31
0.0
  0
LINE
  5
E4DE
330
2
100
AcDbEntity
  8
L-ZISSEN
100
AcDbLine
 10
-173.5417058534344
 20
-2921.721312669062
 30
0.0
 11
-172.331138988271
 21
-2921.548374545467
 31
0.0
  0
LINE
  5
E4DF
330
2
100
AcDbEntity
  8
L-ZISSEN
100
AcDbLine
 10
-173.5417058534344
 20
-2922.552484926289
 30
0.0
 11
-172.331138988271
 21
-2921.548374545467
 31
0.0
  0
ARC
  5
E4E0
330
2
100
AcDbEntity
  8
L-ZISSEN
100
AcDbCircle
 10
-163.4561389882692
 20
-2983.577058589456
 30
0.0
 40
8.000000000000113
100
AcDbArc
 50
283.9062370652456
 51
0.0
  0
LINE
  5
E4E1
330
2
100
AcDbEntity
  8
L-ZISSEN
100
AcDbLine
 10
-160.1761389882685
 20
-2907.512113457098
 30
0.0
 11
-168.6061389882693
 21
-2907.512113457098
 31
0.0
  0
LINE
  5
E4E2
330
2
100
AcDbEntity
  8
L-ZISSEN
100
AcDbLine
 10
-182.3311389882687
 20
-2903.423374545466
 30
0.0
 11
-177.3311389882687
 21
-2903.423374545466
 31
0.0
  0
LINE
  5
E4E3
330
2
100
AcDbEntity
  8
L-ZISSEN
100
AcDbLine
 10
-182.3311389882687
 20
-2903.423374545466
 30
0.0
 11
-177.3311389882687
 21
-2903.423374545466
 31
0.0
  0
LINE
  5
E4E4
330
2
100
AcDbEntity
  8
L-ZISSEN
100
AcDbLine
 10
-182.3311389882687
 20
-2904.673374545466
 30
0.0
 11
-177.3311389882687
 21
-2904.673374545466
 31
0.0
  0
LINE
  5
E4E5
330
2
100
AcDbEntity
  8
L-ZISSEN
100
AcDbLine
 10
-182.3311389882687
 20
-2904.673374545466
 30
0.0
 11
-177.3311389882687
 21
-2904.673374545466
 31
0.0
  0
SOLID
  5
E4E6
330
2
100
AcDbEntity
  8
L-ZISSEN
100
AcDbTrace
 10
-183.6350103732766
 20
-2898.064778875032
 30
0.0
 11
-184.0225538647569
 21
-2898.607231164783
 31
0.0
 12
-185.4561389882687
 22
-2897.173374545467
 32
0.0
 13
-185.4561389882687
 23
-2897.173374545467
 33
0.0
  0
LINE
  5
E4E7
330
2
100
AcDbEntity
  8
L-ZISSEN
100
AcDbLine
 10
-182.3311389882687
 20
-2903.423374545466
 30
0.0
 11
-182.3311389882687
 21
-2904.673374545466
 31
0.0
  0
LINE
  5
E4E8
330
2
100
AcDbEntity
  8
L-ZISSEN
100
AcDbLine
 10
-184.2061389882664
 20
-2900.923374545465
 30
0.0
 11
-184.2061389882664
 21
-2910.923374545466
 31
0.0
  0
LINE
  5
E4E9
330
2
100
AcDbEntity
  8
L-ZISSEN
100
AcDbLine
 10
-184.2061389882664
 20
-2900.923374545465
 30
0.0
 11
-184.2061389882664
 21
-2910.923374545466
 31
0.0
  0
LINE
  5
E4EA
330
2
100
AcDbEntity
  8
L-ZISSEN
100
AcDbLine
 10
-184.2061389882664
 20
-2910.923374545466
 30
0.0
 11
-181.7061389882665
 21
-2910.923374545466
 31
0.0
  0
LINE
  5
E4EB
330
2
100
AcDbEntity
  8
L-ZISSEN
100
AcDbLine
 10
-177.3311389882687
 20
-2904.673374545466
 30
0.0
 11
-177.3311389882687
 21
-2905.923374545466
 31
0.0
  0
LINE
  5
E4EC
330
2
100
AcDbEntity
  8
L-ZISSEN
100
AcDbLine
 10
-177.3311389882687
 20
-2903.423374545466
 30
0.0
 11
-177.3311389882687
 21
-2902.173374545466
 31
0.0
  0
LINE
  5
E4ED
330
2
100
AcDbEntity
  8
L-ZISSEN
100
AcDbLine
 10
-177.3311389882687
 20
-2905.923374545466
 30
0.0
 11
-174.2061389882687
 21
-2904.048374545466
 31
0.0
  0
LINE
  5
E4EE
330
2
100
AcDbEntity
  8
L-ZISSEN
100
AcDbLine
 10
-177.3311389882687
 20
-2902.173374545466
 30
0.0
 11
-174.2061389882687
 21
-2904.048374545466
 31
0.0
  0
LINE
  5
E4EF
330
2
100
AcDbEntity
  8
L-ZISSEN
100
AcDbLine
 10
-183.8287821190167
 20
-2898.336005019908
 30
0.0
 11
-138.4318929301403
 21
-2930.768846158223
 31
0.0
  0
LINE
  5
E4F0
330
2
100
AcDbEntity
  8
L-ZISSEN
100
AcDbLine
 10
-136.4318929301404
 20
-2930.768846158223
 30
0.0
 11
-138.4318929301403
 21
-2930.768846158223
 31
0.0
  0
TEXT
  5
E4F1
330
2
100
AcDbEntity
  8
L-ZISSEN
100
AcDbText
 10
-134.2737670287571
 20
-2933.015520386173
 30
0.0
 40
4.5
  1
P.P
100
AcDbText
  0
SOLID
  5
E4F2
330
2
100
AcDbEntity
  8
L-ZISSEN
100
AcDbTrace
 10
-387.2772676032609
 20
-2898.064778875032
 30
0.0
 11
-386.8897241117806
 21
-2898.607231164783
 31
0.0
 12
-385.4561389882687
 22
-2897.173374545467
 32
0.0
 13
-385.4561389882687
 23
-2897.173374545467
 33
0.0
  0
LINE
  5
E4F3
330
2
100
AcDbEntity
  8
L-ZISSEN
100
AcDbLine
 10
-387.0834958575207
 20
-2898.336005019908
 30
0.0
 11
-432.4803850463971
 21
-2930.768846158223
 31
0.0
  0
TEXT
  5
E4F4
330
2
100
AcDbEntity
  8
L-ZISSEN
100
AcDbText
 10
-445.3507741143004
 20
-2933.015520386174
 30
0.0
 40
4.5
  1
P.P
100
AcDbText
  0
LINE
  5
E4F5
330
2
100
AcDbEntity
  8
L-ZISSEN
100
AcDbLine
 10
-432.4803850463971
 20
-2930.768846158223
 30
0.0
 11
-434.4803850463971
 21
-2930.768846158223
 31
0.0
  0
LINE
  5
E4F7
330
2
100
AcDbEntity
  8
L-TYUSIN
100
AcDbLine
 10
-441.0684714148579
 20
-2608.673374545471
 30
0.0
 11
-316.9561389882862
 21
-2608.673374545464
 31
0.0
  0
POLYLINE
  5
E4F8
330
2
100
AcDbEntity
  8
L-ZISSEN
100
AcDb2dPolyline
 66
     1
 10
0.0
 20
0.0
 30
0.0
 70
     1
  0
VERTEX
  5
E80D
330
E4F8
100
AcDbEntity
  8
L-ZISSEN
100
AcDbVertex
100
AcDb2dVertex
 10
-397.8825458594616
 20
-2578.673374545469
 30
0.0
  0
VERTEX
  5
E80E
330
E4F8
100
AcDbEntity
  8
L-ZISSEN
100
AcDbVertex
100
AcDb2dVertex
 10
-415.4561389882688
 20
-2596.246967674276
 30
0.0
  0
VERTEX
  5
E80F
330
E4F8
100
AcDbEntity
  8
L-ZISSEN
100
AcDbVertex
100
AcDb2dVertex
 10
-415.4561389882688
 20
-2621.099781416662
 30
0.0
  0
VERTEX
  5
E810
330
E4F8
100
AcDbEntity
  8
L-ZISSEN
100
AcDbVertex
100
AcDb2dVertex
 10
-397.8825458594616
 20
-2638.673374545469
 30
0.0
  0
VERTEX
  5
E811
330
E4F8
100
AcDbEntity
  8
L-ZISSEN
100
AcDbVertex
100
AcDb2dVertex
 10
-373.0297321170759
 20
-2638.673374545469
 30
0.0
  0
VERTEX
  5
E812
330
E4F8
100
AcDbEntity
  8
L-ZISSEN
100
AcDbVertex
100
AcDb2dVertex
 10
-355.4561389882687
 20
-2621.099781416662
 30
0.0
  0
VERTEX
  5
E813
330
E4F8
100
AcDbEntity
  8
L-ZISSEN
100
AcDbVertex
100
AcDb2dVertex
 10
-355.4561389882687
 20
-2596.246967674276
 30
0.0
  0
VERTEX
  5
E814
330
E4F8
100
AcDbEntity
  8
L-ZISSEN
100
AcDbVertex
100
AcDb2dVertex
 10
-373.0297321170759
 20
-2578.673374545469
 30
0.0
  0
SEQEND
  5
E815
330
E4F8
100
AcDbEntity
  8
L-ZISSEN
  0
CIRCLE
  5
E4F9
330
2
100
AcDbEntity
  8
L-ZISSEN
100
AcDbCircle
 10
-385.4561389882687
 20
-2608.673374545469
 30
0.0
 40
30.0
  0
LINE
  5
E4FA
330
2
100
AcDbEntity
  8
L-SOUZOU
100
AcDbLine
 10
-431.4561389882724
 20
-2573.67337454547
 30
0.0
 11
-381.5203825886361
 21
-2580.698880420234
 31
0.0
  0
LINE
  5
E4FB
330
2
100
AcDbEntity
  8
L-SOUZOU
100
AcDbLine
 10
-431.4561389882724
 20
-2643.673374545467
 30
0.0
 11
-381.5203825886361
 21
-2636.647868670703
 31
0.0
  0
LINE
  5
E4FC
330
2
100
AcDbEntity
  8
L-ZISSEN
100
AcDbLine
 10
-403.4561389882687
 20
-2643.673374545471
 30
0.0
 11
-367.4561389882687
 21
-2643.673374545471
 31
0.0
  0
LINE
  5
E4FD
330
2
100
AcDbEntity
  8
L-ZISSEN
100
AcDbLine
 10
-363.7061389882688
 20
-2646.173374545471
 30
0.0
 11
-407.2061389882687
 21
-2646.173374545471
 31
0.0
  0
CIRCLE
  5
E4FE
330
2
100
AcDbEntity
  8
L-ZISSEN
100
AcDbCircle
 10
-385.4561389882687
 20
-2608.673374545469
 30
0.0
 40
23.96246809175248
  0
CIRCLE
  5
E4FF
330
2
100
AcDbEntity
  8
L-ZISSEN
100
AcDbCircle
 10
-385.4561389882687
 20
-2608.673374545469
 30
0.0
 40
24.77565943703641
  0
CIRCLE
  5
E500
330
2
100
AcDbEntity
  8
L-SOUZOU
100
AcDbCircle
 10
-385.4561389882687
 20
-2608.673374545467
 30
0.0
 40
26.0
  0
LINE
  5
E501
330
2
100
AcDbEntity
  8
L-ZISSEN
100
AcDbLine
 10
-367.4561389882687
 20
-2573.67337454547
 30
0.0
 11
-403.4561389882687
 21
-2573.67337454547
 31
0.0
  0
LINE
  5
E502
330
2
100
AcDbEntity
  8
L-ZISSEN
100
AcDbLine
 10
-407.2061389882687
 20
-2571.173374545471
 30
0.0
 11
-363.7061389882688
 21
-2571.173374545471
 31
0.0
  0
LINE
  5
E503
330
2
100
AcDbEntity
  8
L-SOUZOU
100
AcDbLine
 10
-433.4561389882724
 20
-2573.67337454547
 30
0.0
 11
-431.4561389882724
 21
-2573.67337454547
 31
0.0
  0
LINE
  5
E504
330
2
100
AcDbEntity
  8
L-TYUSIN
100
AcDbLine
 10
-426.4561389882723
 20
-2581.67337454547
 30
0.0
 11
-438.4561389882724
 21
-2581.67337454547
 31
0.0
  0
LINE
  5
E505
330
2
100
AcDbEntity
  8
L-SOUZOU
100
AcDbLine
 10
-433.4561389882724
 20
-2643.673374545467
 30
0.0
 11
-431.4561389882724
 21
-2643.673374545467
 31
0.0
  0
LINE
  5
E506
330
2
100
AcDbEntity
  8
L-TYUSIN
100
AcDbLine
 10
-438.4561389882724
 20
-2635.67337454547
 30
0.0
 11
-426.4561389882723
 21
-2635.67337454547
 31
0.0
  0
LINE
  5
E507
330
2
100
AcDbEntity
  8
L-SOUZOU
100
AcDbLine
 10
-433.4561389882724
 20
-2643.673374545467
 30
0.0
 11
-433.4561389882724
 21
-2573.67337454547
 31
0.0
  0
LINE
  5
E508
330
2
100
AcDbEntity
  8
L-TYUSIN
100
AcDbLine
 10
-385.4561389882687
 20
-2648.673374545468
 30
0.0
 11
-385.4561389882687
 21
-2568.673374545468
 31
0.0
  0
LINE
  5
E509
330
2
100
AcDbEntity
  8
L-SOUZOU
100
AcDbLine
 10
-431.4561389882724
 20
-2643.673374545467
 30
0.0
 11
-431.4561389882724
 21
-2573.67337454547
 31
0.0
  0
LINE
  5
E50A
330
2
100
AcDbEntity
  8
L-ZISSEN
100
AcDbLine
 10
-420.4561389882687
 20
-2580.9421838104
 30
0.0
 11
-420.4561389882687
 21
-2636.40456528054
 31
0.0
  0
LINE
  5
E50B
330
2
100
AcDbEntity
  8
L-ZISSEN
100
AcDbLine
 10
-403.4561389882687
 20
-2640.17337454547
 30
0.0
 11
-420.4561389882688
 21
-2636.40456528054
 31
0.0
  0
CIRCLE
  5
E50C
330
2
100
AcDbEntity
  8
L-ZISSEN
100
AcDbCircle
 10
-415.4561389882688
 20
-2632.17337454547
 30
0.0
 40
4.45
  0
LINE
  5
E50D
330
2
100
AcDbEntity
  8
L-ZISSEN
100
AcDbLine
 10
-403.4561389882687
 20
-2643.673374545471
 30
0.0
 11
-403.4561389882687
 21
-2640.17337454547
 31
0.0
  0
LINE
  5
E50E
330
2
100
AcDbEntity
  8
L-ZISSEN
100
AcDbLine
 10
-407.2061389882687
 20
-2646.173374545471
 30
0.0
 11
-407.2061389882687
 21
-2639.342019560559
 31
0.0
  0
LINE
  5
E50F
330
2
100
AcDbEntity
  8
L-ZISSEN
100
AcDbLine
 10
-403.4561389882687
 20
-2577.17337454547
 30
0.0
 11
-420.4561389882688
 21
-2580.9421838104
 31
0.0
  0
CIRCLE
  5
E510
330
2
100
AcDbEntity
  8
L-ZISSEN
100
AcDbCircle
 10
-415.4561389882688
 20
-2585.173374545466
 30
0.0
 40
4.45
  0
LINE
  5
E511
330
2
100
AcDbEntity
  8
L-ZISSEN
100
AcDbLine
 10
-403.4561389882687
 20
-2577.17337454547
 30
0.0
 11
-403.4561389882687
 21
-2573.67337454547
 31
0.0
  0
LINE
  5
E512
330
2
100
AcDbEntity
  8
L-ZISSEN
100
AcDbLine
 10
-407.2061389882687
 20
-2578.004729530381
 30
0.0
 11
-407.2061389882687
 21
-2571.173374545471
 31
0.0
  0
LINE
  5
E513
330
2
100
AcDbEntity
  8
L-SOUZOU
100
AcDbLine
 10
-345.4561389882862
 20
-2588.273374545466
 30
0.0
 11
-330.9561389882862
 21
-2588.273374545466
 31
0.0
  0
LINE
  5
E514
330
2
100
AcDbEntity
  8
L-SOUZOU
100
AcDbLine
 10
-345.4561389882862
 20
-2629.073374545467
 30
0.0
 11
-330.9561389882862
 21
-2629.073374545467
 31
0.0
  0
LINE
  5
E515
330
2
100
AcDbEntity
  8
L-SOUZOU
100
AcDbLine
 10
-346.9561389882863
 20
-2589.773374545466
 30
0.0
 11
-346.9561389882863
 21
-2627.573374545467
 31
0.0
  0
LINE
  5
E516
330
2
100
AcDbEntity
  8
L-ZISSEN
100
AcDbLine
 10
-350.4561389882687
 20
-2636.40456528054
 30
0.0
 11
-350.4561389882687
 21
-2580.9421838104
 31
0.0
  0
ARC
  5
E517
330
2
100
AcDbEntity
  8
L-SOUZOU
100
AcDbCircle
 10
-385.4561389882687
 20
-2608.673374545467
 30
0.0
 40
28.25
100
AcDbArc
 50
278.0084306809344
 51
81.99156931906564
  0
LINE
  5
E518
330
2
100
AcDbEntity
  8
L-ZISSEN
100
AcDbLine
 10
-367.4561389882687
 20
-2640.17337454547
 30
0.0
 11
-350.4561389882687
 21
-2636.40456528054
 31
0.0
  0
LINE
  5
E519
330
2
100
AcDbEntity
  8
L-ZISSEN
100
AcDbLine
 10
-367.4561389882687
 20
-2640.17337454547
 30
0.0
 11
-367.4561389882687
 21
-2643.673374545471
 31
0.0
  0
LINE
  5
E51A
330
2
100
AcDbEntity
  8
L-ZISSEN
100
AcDbLine
 10
-363.7061389882688
 20
-2646.173374545471
 30
0.0
 11
-363.7061389882688
 21
-2639.342019560559
 31
0.0
  0
LINE
  5
E51B
330
2
100
AcDbEntity
  8
L-SOUZOU
100
AcDbLine
 10
-350.4561389882687
 20
-2615.473374545467
 30
0.0
 11
-346.9561389882863
 21
-2615.473374545467
 31
0.0
  0
CIRCLE
  5
E51C
330
2
100
AcDbEntity
  8
L-ZISSEN
100
AcDbCircle
 10
-355.4561389882687
 20
-2632.17337454547
 30
0.0
 40
4.45
  0
ARC
  5
E51D
330
2
100
AcDbEntity
  8
L-SOUZOU
100
AcDbCircle
 10
-345.4561389882862
 20
-2627.573374545467
 30
0.0
 40
1.5
100
AcDbArc
 50
180.0
 51
270.0
  0
LINE
  5
E51E
330
2
100
AcDbEntity
  8
L-ZISSEN
100
AcDbLine
 10
-367.4561389882687
 20
-2577.17337454547
 30
0.0
 11
-350.4561389882687
 21
-2580.9421838104
 31
0.0
  0
LINE
  5
E51F
330
2
100
AcDbEntity
  8
L-ZISSEN
100
AcDbLine
 10
-367.4561389882687
 20
-2573.67337454547
 30
0.0
 11
-367.4561389882688
 21
-2577.17337454547
 31
0.0
  0
LINE
  5
E520
330
2
100
AcDbEntity
  8
L-ZISSEN
100
AcDbLine
 10
-363.7061389882688
 20
-2578.004729530381
 30
0.0
 11
-363.7061389882688
 21
-2571.173374545471
 31
0.0
  0
LINE
  5
E521
330
2
100
AcDbEntity
  8
L-SOUZOU
100
AcDbLine
 10
-350.4561389882687
 20
-2601.873374545466
 30
0.0
 11
-346.9561389882863
 21
-2601.873374545466
 31
0.0
  0
CIRCLE
  5
E522
330
2
100
AcDbEntity
  8
L-ZISSEN
100
AcDbCircle
 10
-355.4561389882687
 20
-2585.173374545466
 30
0.0
 40
4.45
  0
ARC
  5
E523
330
2
100
AcDbEntity
  8
L-SOUZOU
100
AcDbCircle
 10
-345.4561389882862
 20
-2589.773374545466
 30
0.0
 40
1.5
100
AcDbArc
 50
90.0
 51
180.0
  0
LINE
  5
E524
330
2
100
AcDbEntity
  8
L-SOUZOU
100
AcDbLine
 10
-321.9561389882863
 20
-2589.173374545467
 30
0.0
 11
-321.9561389882863
 21
-2628.173374545466
 31
0.0
  0
LINE
  5
E525
330
2
100
AcDbEntity
  8
L-SOUZOU
100
AcDbLine
 10
-330.9561389882862
 20
-2587.673374545467
 30
0.0
 11
-330.9561389882862
 21
-2629.673374545467
 31
0.0
  0
LINE
  5
E526
330
2
100
AcDbEntity
  8
L-SOUZOU
100
AcDbLine
 10
-330.9561389882862
 20
-2629.673374545467
 30
0.0
 11
-323.4561389882863
 21
-2629.673374545467
 31
0.0
  0
ARC
  5
E527
330
2
100
AcDbEntity
  8
L-SOUZOU
100
AcDbCircle
 10
-323.4561389882863
 20
-2628.173374545466
 30
0.0
 40
1.5
100
AcDbArc
 50
270.0
 51
0.0
  0
LINE
  5
E528
330
2
100
AcDbEntity
  8
L-SOUZOU
100
AcDbLine
 10
-330.9561389882862
 20
-2587.673374545467
 30
0.0
 11
-323.4561389882863
 21
-2587.673374545467
 31
0.0
  0
ARC
  5
E529
330
2
100
AcDbEntity
  8
L-SOUZOU
100
AcDbCircle
 10
-323.4561389882863
 20
-2589.173374545467
 30
0.0
 40
1.5
100
AcDbArc
 50
0.0
 51
90.0
  0
TEXT
  5
E597
330
2
100
AcDbEntity
  8
L-ZISSEN
100
AcDbText
 10
-236.0583689091047
 20
-2597.66454307717
 30
0.0
 40
4.5
  1
MODEL NO. B64-600-*0 *
100
AcDbText
  0
TEXT
  5
E59A
330
2
100
AcDbEntity
  8
L-ZISSEN
100
AcDbText
 10
-150.9306758623643
 20
-2600.818961710356
 30
0.0
 40
4.5
  1
M
100
AcDbText
  0
TEXT
  5
E59B
330
2
100
AcDbEntity
  8
L-ZISSEN
100
AcDbText
 10
-150.2950194546256
 20
-2594.308098040156
 30
0.0
 40
4.5
  1
1
100
AcDbText
  0
TEXT
  5
E59C
330
2
100
AcDbEntity
  8
L-ZISSEN
100
AcDbText
 10
-56.05836890910473
 20
-2597.66454307717
 30
0.0
 40
4.5
  1
MODEL NO. B64-600-*0 *
100
AcDbText
  0
TEXT
  5
E59F
330
2
100
AcDbEntity
  8
L-ZISSEN
100
AcDbText
 10
28.98869338203349
 20
-2600.818961710356
 30
0.0
 40
4.5
  1
N
100
AcDbText
  0
TEXT
  5
E5A0
330
2
100
AcDbEntity
  8
L-ZISSEN
100
AcDbText
 10
28.8986709872961
 20
-2594.308098040156
 30
0.0
 40
4.5
  1
2
100
AcDbText
  0
TEXT
  5
E5A1
330
2
100
AcDbEntity
  8
L-ZISSEN
100
AcDbText
 10
-56.05836890910473
 20
-2832.21801965171
 30
0.0
 40
4.5
  1
MODEL NO. B64-600-*0 *
100
AcDbText
  0
LINE
  5
E5A4
330
2
100
AcDbEntity
  8
L-ZISSEN
100
AcDbLine
 10
-224.2067813092628
 20
-2860.112639531135
 30
0.0
 11
-238.7507355594651
 21
-2841.962559157259
 31
0.0
  0
TEXT
  5
E5A5
330
2
100
AcDbEntity
  8
L-ZISSEN
100
AcDbText
 10
-263.7855358778096
 20
-2848.133030800633
 30
0.0
 40
4.5
  1
Rc3/4
100
AcDbText
  0
LINE
  5
E5A6
330
2
100
AcDbEntity
  8
L-ZISSEN
100
AcDbLine
 10
-238.7507355594651
 20
-2841.962559157259
 30
0.0
 11
-264.8300341988295
 21
-2841.962559157259
 31
0.0
  0
TEXT
  5
E5A7
330
2
100
AcDbEntity
  8
L-ZISSEN
100
AcDbText
 10
-263.5027395899709
 20
-2840.100612717535
 30
0.0
 40
4.5
  1
IN
100
AcDbText
  0
SOLID
  5
E5A8
330
2
100
AcDbEntity
  8
L-ZISSEN
100
AcDbTrace
 10
-224.4669038116502
 20
-2860.321079917968
 30
0.0
 11
-223.9466588068755
 21
-2859.904199144303
 31
0.0
 12
-222.9561389882684
 22
-2861.67337454546
 32
0.0
 13
-222.9561389882684
 23
-2861.67337454546
 33
0.0
  0
TEXT
  5
E790
330
2
100
AcDbEntity
  8
L-ZISSEN
100
AcDbText
 10
28.76701127539331
 20
-2829.204894058261
 30
0.0
 40
4.5
  1
4
100
AcDbText
  0
TEXT
  5
E791
330
2
100
AcDbEntity
  8
L-ZISSEN
100
AcDbText
 10
28.76701127539331
 20
-2835.1001395937
 30
0.0
 40
4.5
  1
P
100
AcDbText
  0
VIEWPORT
  5
69B
330
F
100
AcDbEntity
 67
     1
  8
0
100
AcDbViewport
 10
0.0
 20
0.0
 30
0.0
 40
0.0
 41
0.0
 68
     1
 69
     1
1001
ACAD
1000
MVIEW
1002
{
1070
    16
1010
0.0
1020
0.0
1030
0.0
1010
0.0
1020
0.0
1030
1.0
1040
0.0
1040
0.0
1040
0.0
1040
0.0
1040
50.0
1040
0.0
1040
0.0
1070
     0
1070
   100
1070
     1
1070
     1
1070
     0
1070
     0
1070
     0
1070
     0
1040
0.0
1040
0.0
1040
0.0
1040
10.0
1040
10.0
1040
10.0
1040
10.0
1070
     0
1002
{
1002
}
1002
}
  0
VIEWPORT
  5
69D
330
F
100
AcDbEntity
 67
     1
  8
SUNPOU
100
AcDbViewport
 10
0.0
 20
0.0
 30
0.0
 40
0.0
 41
0.0
 68
    -1
 69
     2
1001
ACAD
1000
MVIEW
1002
{
1070
    16
1010
0.0
1020
0.0
1030
0.0
1010
0.0
1020
0.0
1030
1.0
1040
0.0
1040
59.8802181911947
1040
144.5109310282361
1040
-1209.648178221134
1040
50.0
1040
0.0
1040
0.0
1070
    16
1070
   100
1070
     1
1070
     0
1070
     0
1070
     0
1070
     0
1070
     0
1040
0.0
1040
0.0
1040
0.0
1040
1.0
1040
1.0
1040
4.0
1040
4.0
1070
     0
1002
{
1002
}
1002
}
  0
ENDSEC
  0
SECTION
  2
OBJECTS
  0
DICTIONARY
  5
9
330
0
100
AcDbDictionary
  3
ACAD_GROUP
350
23
  3
ACAD_LAYOUT
350
E
  3
ACAD_MLINESTYLE
350
24
  3
ACAD_PLOTSETTINGS
350
25
1001
ACAD
1000
TREAT_AS_HARD
1070
     0
  0
DICTIONARY
  5
8E1
330
15
100
AcDbDictionary
  3
ACAD_LAYERSTATES
350
8E2
1001
ACAD
1000
TREAT_AS_HARD
1070
     1
  0
DICTIONARY
  5
3
330
2
100
AcDbDictionary
  3
ACAD_LAYOUTSELFREF
350
E7FD
1001
ACAD
1000
TREAT_AS_HARD
1070
     1
  0
DICTIONARY
  5
10
330
F
100
AcDbDictionary
  3
ACAD_LAYOUTSELFREF
350
E7FE
1001
ACAD
1000
TREAT_AS_HARD
1070
     1
  0
DICTIONARY
  5
23
102
{ACAD_REACTORS
330
9
102
}
330
9
100
AcDbDictionary
1001
ACAD
1000
TREAT_AS_HARD
1070
     0
  0
DICTIONARY
  5
E
102
{ACAD_REACTORS
330
9
102
}
330
9
100
AcDbDictionary
1001
ACAD
1000
TREAT_AS_HARD
1070
     0
  0
DICTIONARY
  5
24
102
{ACAD_REACTORS
330
9
102
}
330
9
100
AcDbDictionary
  3
STANDARD
350
27
1001
ACAD
1000
TREAT_AS_HARD
1070
     0
  0
DICTIONARY
  5
25
102
{ACAD_REACTORS
330
9
102
}
330
9
100
AcDbDictionary
1001
ACAD
1000
TREAT_AS_HARD
1070
     0
  0
DICTIONARY
  5
8E2
102
{ACAD_REACTORS
330
8E1
102
}
330
8E1
100
AcDbDictionary
1001
ACAD
1000
TREAT_AS_HARD
1070
     0
  0
XRECORD
  5
E7FD
102
{ACAD_REACTORS
330
3
102
}
330
3
100
AcDbXrecord
340
2
  0
XRECORD
  5
E7FE
102
{ACAD_REACTORS
330
10
102
}
330
10
100
AcDbXrecord
340
F
  0
MLINESTYLE
  5
27
102
{ACAD_REACTORS
330
24
102
}
330
24
100
AcDbMlineStyle
  2
STANDARD
 70
     0
  3

 62
   256
 51
90.0
 52
90.0
 71
     2
 49
0.5
 62
   256
  6
BYLAYER
 49
-0.5
 62
   256
  6
BYLAYER
  0
ENDSEC
  0
EOF
