  0
SECTION
  2
HEADER
  9
$ACADVER
  1
AC1012
  9
$DWGCODEPAGE
  3
dos932
  9
$INSBASE
 10
0.0
 20
0.0
 30
0.0
  9
$EXTMIN
 10
0.4470615792188255
 20
-3044.214653761452
 30
-0.0000000000000058
  9
$EXTMAX
 10
610.4047640124115
 20
-2593.85414894869
 30
0.0000000000000104
  9
$LIMMIN
 10
0.0
 20
0.0
  9
$LIMMAX
 10
297.0
 20
210.0
  9
$ORTHOMODE
 70
     1
  9
$REGENMODE
 70
     1
  9
$FILLMODE
 70
     1
  9
$QTEXTMODE
 70
     0
  9
$MIRRTEXT
 70
     1
  9
$DRAGMODE
 70
     2
  9
$LTSCALE
 40
1.0
  9
$OSMODE
 70
    39
  9
$ATTMODE
 70
     1
  9
$TEXTSIZE
 40
5.599999999999999
  9
$TRACEWID
 40
0.05
  9
$TEXTSTYLE
  7
STANDARD
  9
$CLAYER
  8
L-TYUSIN
  9
$CELTYPE
  6
BYLAYER
  9
$CECOLOR
 62
   256
  9
$CELTSCALE
 40
1.0
  9
$DELOBJ
 70
     1
  9
$DISPSILH
 70
     0
  9
$DIMSCALE
 40
2.0
  9
$DIMASZ
 40
2.0
  9
$DIMEXO
 40
1.0
  9
$DIMDLI
 40
8.0
  9
$DIMRND
 40
0.0
  9
$DIMDLE
 40
0.0
  9
$DIMEXE
 40
0.8
  9
$DIMTP
 40
0.0
  9
$DIMTM
 40
0.0
  9
$DIMTXT
 40
2.799999999999999
  9
$DIMCEN
 40
0.0
  9
$DIMTSZ
 40
0.0
  9
$DIMTOL
 70
     0
  9
$DIMLIM
 70
     0
  9
$DIMTIH
 70
     0
  9
$DIMTOH
 70
     0
  9
$DIMSE1
 70
     0
  9
$DIMSE2
 70
     0
  9
$DIMTAD
 70
     0
  9
$DIMZIN
 70
    12
  9
$DIMBLK
  1

  9
$DIMASO
 70
     1
  9
$DIMSHO
 70
     0
  9
$DIMPOST
  1

  9
$DIMAPOST
  1

  9
$DIMALT
 70
     0
  9
$DIMALTD
 70
     2
  9
$DIMALTF
 40
25.4
  9
$DIMLFAC
 40
1.0
  9
$DIMTOFL
 70
     1
  9
$DIMTVP
 40
1.0
  9
$DIMTIX
 70
     1
  9
$DIMSOXD
 70
     0
  9
$DIMSAH
 70
     0
  9
$DIMBLK1
  1

  9
$DIMBLK2
  1

  9
$DIMSTYLE
  2
STANDARD
  9
$DIMCLRD
 70
     0
  9
$DIMCLRE
 70
     0
  9
$DIMCLRT
 70
     0
  9
$DIMTFAC
 40
1.0
  9
$DIMGAP
 40
0.8
  9
$DIMJUST
 70
     0
  9
$DIMSD1
 70
     0
  9
$DIMSD2
 70
     0
  9
$DIMTOLJ
 70
     1
  9
$DIMTZIN
 70
     0
  9
$DIMALTZ
 70
     0
  9
$DIMALTTZ
 70
     0
  9
$DIMFIT
 70
     3
  9
$DIMUPT
 70
     0
  9
$DIMUNIT
 70
     2
  9
$DIMDEC
 70
     8
  9
$DIMTDEC
 70
     8
  9
$DIMALTU
 70
     2
  9
$DIMALTTD
 70
     2
  9
$DIMTXSTY
  7
STANDARD
  9
$DIMAUNIT
 70
     0
  9
$LUNITS
 70
     2
  9
$LUPREC
 70
     4
  9
$SKETCHINC
 40
0.1
  9
$FILLETRAD
 40
1.5
  9
$AUNITS
 70
     0
  9
$AUPREC
 70
     0
  9
$MENU
  1
.
  9
$ELEVATION
 40
0.0
  9
$PELEVATION
 40
0.0
  9
$THICKNESS
 40
0.0
  9
$LIMCHECK
 70
     0
  9
$BLIPMODE
 70
     0
  9
$CHAMFERA
 40
3.0
  9
$CHAMFERB
 40
3.0
  9
$CHAMFERC
 40
0.0
  9
$CHAMFERD
 40
0.0
  9
$SKPOLY
 70
     0
  9
$TDCREATE
 40
2453354.092125822
  9
$TDUPDATE
 40
2455072.642282801
  9
$TDINDWG
 40
10.7395447454
  9
$TDUSRTIMER
 40
10.7395447454
  9
$USRTIMER
 70
     1
  9
$ANGBASE
 50
0.0
  9
$ANGDIR
 70
     0
  9
$PDMODE
 70
     0
  9
$PDSIZE
 40
0.0
  9
$PLINEWID
 40
0.0
  9
$COORDS
 70
     0
  9
$SPLFRAME
 70
     0
  9
$SPLINETYPE
 70
     6
  9
$SPLINESEGS
 70
     8
  9
$ATTDIA
 70
     0
  9
$ATTREQ
 70
     1
  9
$HANDLING
 70
-16383
  9
$HANDSEED
  5
E1D2
  9
$SURFTAB1
 70
     6
  9
$SURFTAB2
 70
     6
  9
$SURFTYPE
 70
     6
  9
$SURFU
 70
     6
  9
$SURFV
 70
     6
  9
$UCSNAME
  2

  9
$UCSORG
 10
0.0
 20
0.0
 30
0.0
  9
$UCSXDIR
 10
1.0
 20
0.0
 30
0.0
  9
$UCSYDIR
 10
0.0
 20
1.0
 30
0.0
  9
$PUCSNAME
  2

  9
$PUCSORG
 10
0.0
 20
0.0
 30
0.0
  9
$PUCSXDIR
 10
1.0
 20
0.0
 30
0.0
  9
$PUCSYDIR
 10
0.0
 20
1.0
 30
0.0
  9
$USERI1
 70
     0
  9
$USERI2
 70
     0
  9
$USERI3
 70
     0
  9
$USERI4
 70
     0
  9
$USERI5
 70
     0
  9
$USERR1
 40
0.0
  9
$USERR2
 40
0.0
  9
$USERR3
 40
0.0
  9
$USERR4
 40
0.0
  9
$USERR5
 40
0.0
  9
$WORLDVIEW
 70
     1
  9
$SHADEDGE
 70
     3
  9
$SHADEDIF
 70
    70
  9
$TILEMODE
 70
     1
  9
$MAXACTVP
 70
    48
  9
$PINSBASE
 10
0.0
 20
0.0
 30
0.0
  9
$PLIMCHECK
 70
     0
  9
$PEXTMIN
 10
0.0
 20
0.0
 30
0.0
  9
$PEXTMAX
 10
0.0
 20
0.0
 30
0.0
  9
$PLIMMIN
 10
0.0
 20
0.0
  9
$PLIMMAX
 10
0.0
 20
0.0
  9
$UNITMODE
 70
     0
  9
$VISRETAIN
 70
     0
  9
$PLINEGEN
 70
     0
  9
$PSLTSCALE
 70
     0
  9
$TREEDEPTH
 70
  3020
  9
$PICKSTYLE
 70
     1
  9
$CMLSTYLE
  2
STANDARD
  9
$CMLJUST
 70
     0
  9
$CMLSCALE
 40
1.0
  9
$SAVEIMAGES
 70
     1
  0
ENDSEC
  0
SECTION
  2
CLASSES
  0
CLASS
  1
ACDBDICTIONARYWDFLT
  2
AcDbDictionaryWithDefault
  3
AutoCAD 2000
 90
    32768
280
     0
281
     0
  0
CLASS
  1
ACDBPLACEHOLDER
  2
AcDbPlaceHolder
  3
AutoCAD 2000
 90
    32768
280
     0
281
     0
  0
CLASS
  1
LAYOUT
  2
AcDbLayout
  3
AutoCAD 2000
 90
    32768
280
     0
281
     0
  0
CLASS
  1
DICTIONARYVAR
  2
AcDbDictionaryVar
  3
AutoCAD 2000
 90
    32768
280
     0
281
     0
  0
CLASS
  1
TABLESTYLE
  2
AcDbTableStyle
  3
ObjectDBX Classes
 90
    34815
280
     1
281
     0
  0
CLASS
  1
ACAD_PROXY_OBJECT_WRAPPER
  2
AcDbProxyObjectWrapper
  3
AutoCAD 2000
 90
    32768
280
     0
281
     0
  0
CLASS
  1
LONG_TRANSACTION
  2
AcDbLongTransaction
  3
AutoCAD 2000
 90
    32768
280
     0
281
     0
  0
CLASS
  1
LWPOLYLINE
  2
AcDbPolyline
  3
AutoCAD 2000
 90
    32768
280
     0
281
     1
  0
CLASS
  1
HATCH
  2
AcDbHatch
  3
AutoCAD 2000
 90
    32768
280
     0
281
     1
  0
CLASS
  1
XRECORD
  2
AcDbXrecord
  3
AutoCAD 2000
 90
    32768
280
     0
281
     0
  0
CLASS
  1
LONG_TRANSACTION
  2
AcDbLongTransaction
  3
AutoCAD 2000
 90
    32768
280
     0
281
     0
  0
CLASS
  1
LWPOLYLINE
  2
AcDbPolyline
  3
AutoCAD 2000
 90
    32768
280
     0
281
     1
  0
CLASS
  1
HATCH
  2
AcDbHatch
  3
AutoCAD 2000
 90
    32768
280
     0
281
     1
  0
CLASS
  1
XRECORD
  2
AcDbXrecord
  3
AutoCAD 2000
 90
    32768
280
     0
281
     0
  0
CLASS
  1
LONG_TRANSACTION
  2
AcDbLongTransaction
  3
AutoCAD 2000
 90
    32768
280
     0
281
     0
  0
CLASS
  1
LWPOLYLINE
  2
AcDbPolyline
  3
AutoCAD 2000
 90
    32768
280
     0
281
     1
  0
CLASS
  1
HATCH
  2
AcDbHatch
  3
AutoCAD 2000
 90
    32768
280
     0
281
     1
  0
CLASS
  1
XRECORD
  2
AcDbXrecord
  3
AutoCAD 2000
 90
    32768
280
     0
281
     0
  0
CLASS
  1
LONG_TRANSACTION
  2
AcDbLongTransaction
  3
AutoCAD 2000
 90
    32768
280
     0
281
     0
  0
CLASS
  1
LWPOLYLINE
  2
AcDbPolyline
  3
AutoCAD 2000
 90
    32768
280
     0
281
     1
  0
CLASS
  1
HATCH
  2
AcDbHatch
  3
AutoCAD 2000
 90
    32768
280
     0
281
     1
  0
CLASS
  1
XRECORD
  2
AcDbXrecord
  3
AutoCAD 2000
 90
    32768
280
     0
281
     0
  0
CLASS
  1
LONG_TRANSACTION
  2
AcDbLongTransaction
  3
AutoCAD 2000
 90
    32768
280
     0
281
     0
  0
CLASS
  1
LWPOLYLINE
  2
AcDbPolyline
  3
AutoCAD 2000
 90
    32768
280
     0
281
     1
  0
CLASS
  1
HATCH
  2
AcDbHatch
  3
AutoCAD 2000
 90
    32768
280
     0
281
     1
  0
CLASS
  1
XRECORD
  2
AcDbXrecord
  3
AutoCAD 2000
 90
    32768
280
     0
281
     0
  0
CLASS
  1
LONG_TRANSACTION
  2
AcDbLongTransaction
  3
AutoCAD 2000
 90
    32768
280
     0
281
     0
  0
CLASS
  1
LWPOLYLINE
  2
AcDbPolyline
  3
AutoCAD 2000
 90
    32768
280
     0
281
     1
  0
CLASS
  1
HATCH
  2
AcDbHatch
  3
AutoCAD 2000
 90
    32768
280
     0
281
     1
  0
CLASS
  1
XRECORD
  2
AcDbXrecord
  3
AutoCAD 2000
 90
    32768
280
     0
281
     0
  0
CLASS
  1
LONG_TRANSACTION
  2
AcDbLongTransaction
  3
AutoCAD 2000
 90
    32768
280
     0
281
     0
  0
CLASS
  1
LWPOLYLINE
  2
AcDbPolyline
  3
AutoCAD 2000
 90
    32768
280
     0
281
     1
  0
CLASS
  1
HATCH
  2
AcDbHatch
  3
AutoCAD 2000
 90
    32768
280
     0
281
     1
  0
CLASS
  1
XRECORD
  2
AcDbXrecord
  3
AutoCAD 2000
 90
    32768
280
     0
281
     0
  0
CLASS
  1
LONG_TRANSACTION
  2
AcDbLongTransaction
  3
AutoCAD 2000
 90
    32768
280
     0
281
     0
  0
CLASS
  1
LWPOLYLINE
  2
AcDbPolyline
  3
AutoCAD 2000
 90
    32768
280
     0
281
     1
  0
CLASS
  1
HATCH
  2
AcDbHatch
  3
AutoCAD 2000
 90
    32768
280
     0
281
     1
  0
CLASS
  1
XRECORD
  2
AcDbXrecord
  3
AutoCAD 2000
 90
    32768
280
     0
281
     0
  0
CLASS
  1
LONG_TRANSACTION
  2
AcDbLongTransaction
  3
AutoCAD 2000
 90
    32768
280
     0
281
     0
  0
CLASS
  1
LWPOLYLINE
  2
AcDbPolyline
  3
AutoCAD 2000
 90
    32768
280
     0
281
     1
  0
CLASS
  1
HATCH
  2
AcDbHatch
  3
AutoCAD 2000
 90
    32768
280
     0
281
     1
  0
CLASS
  1
XRECORD
  2
AcDbXrecord
  3
AutoCAD 2000
 90
    32768
280
     0
281
     0
  0
CLASS
  1
LONG_TRANSACTION
  2
AcDbLongTransaction
  3
AutoCAD 2000
 90
    32768
280
     0
281
     0
  0
CLASS
  1
LWPOLYLINE
  2
AcDbPolyline
  3
AutoCAD 2000
 90
    32768
280
     0
281
     1
  0
CLASS
  1
HATCH
  2
AcDbHatch
  3
AutoCAD 2000
 90
    32768
280
     0
281
     1
  0
CLASS
  1
XRECORD
  2
AcDbXrecord
  3
AutoCAD 2000
 90
    32768
280
     0
281
     0
  0
CLASS
  1
LONG_TRANSACTION
  2
AcDbLongTransaction
  3
AutoCAD 2000
 90
    32768
280
     0
281
     0
  0
CLASS
  1
LWPOLYLINE
  2
AcDbPolyline
  3
AutoCAD 2000
 90
    32768
280
     0
281
     1
  0
CLASS
  1
HATCH
  2
AcDbHatch
  3
AutoCAD 2000
 90
    32768
280
     0
281
     1
  0
CLASS
  1
XRECORD
  2
AcDbXrecord
  3
AutoCAD 2000
 90
    32768
280
     0
281
     0
  0
CLASS
  1
LONG_TRANSACTION
  2
AcDbLongTransaction
  3
AutoCAD 2000
 90
    32768
280
     0
281
     0
  0
CLASS
  1
LWPOLYLINE
  2
AcDbPolyline
  3
AutoCAD 2000
 90
    32768
280
     0
281
     1
  0
CLASS
  1
HATCH
  2
AcDbHatch
  3
AutoCAD 2000
 90
    32768
280
     0
281
     1
  0
CLASS
  1
XRECORD
  2
AcDbXrecord
  3
AutoCAD 2000
 90
    32768
280
     0
281
     0
  0
CLASS
  1
LONG_TRANSACTION
  2
AcDbLongTransaction
  3
AutoCAD 2000
 90
    32768
280
     0
281
     0
  0
CLASS
  1
LWPOLYLINE
  2
AcDbPolyline
  3
AutoCAD 2000
 90
    32768
280
     0
281
     1
  0
CLASS
  1
HATCH
  2
AcDbHatch
  3
AutoCAD 2000
 90
    32768
280
     0
281
     1
  0
CLASS
  1
XRECORD
  2
AcDbXrecord
  3
AutoCAD 2000
 90
    32768
280
     0
281
     0
  0
CLASS
  1
LONG_TRANSACTION
  2
AcDbLongTransaction
  3
AutoCAD 2000
 90
    32768
280
     0
281
     0
  0
CLASS
  1
LWPOLYLINE
  2
AcDbPolyline
  3
AutoCAD 2000
 90
    32768
280
     0
281
     1
  0
CLASS
  1
HATCH
  2
AcDbHatch
  3
AutoCAD 2000
 90
    32768
280
     0
281
     1
  0
CLASS
  1
XRECORD
  2
AcDbXrecord
  3
AutoCAD 2000
 90
    32768
280
     0
281
     0
  0
ENDSEC
  0
SECTION
  2
TABLES
  0
TABLE
  2
VPORT
  5
1E
330
0
100
AcDbSymbolTable
 70
     4
  0
VPORT
  5
E1B7
330
1E
100
AcDbSymbolTableRecord
100
AcDbViewportTableRecord
  2
*ACTIVE
 70
     0
 10
0.0
 20
0.0
 11
1.0
 21
1.0
 12
305.4259127958151
 22
-2819.034401355071
 13
0.0
 23
0.0
 14
1.0
 24
1.0
 15
4.0
 25
4.0
 16
0.0
 26
0.0
 36
1.0
 17
0.0
 27
0.0
 37
0.0
 40
453.2078841898719
 41
1.60759493670886
 42
50.0
 43
0.0
 44
0.0
 50
0.0
 51
0.0
 71
    16
 72
   100
 73
     1
 74
     0
 75
     0
 76
     0
 77
     0
 78
     0
  0
ENDTAB
  0
TABLE
  2
LTYPE
  5
19
330
0
100
AcDbSymbolTable
 70
     3
  0
LTYPE
  5
1A
330
19
100
AcDbSymbolTableRecord
100
AcDbLinetypeTableRecord
  2
BYBLOCK
 70
     0
  3

 72
    65
 73
     0
 40
0.0
  0
LTYPE
  5
1B
330
19
100
AcDbSymbolTableRecord
100
AcDbLinetypeTableRecord
  2
BYLAYER
 70
     0
  3

 72
    65
 73
     0
 40
0.0
  0
LTYPE
  5
B
330
19
100
AcDbSymbolTableRecord
100
AcDbLinetypeTableRecord
  2
CONTINUOUS
 70
     0
  3
Solid line
 72
    65
 73
     0
 40
0.0
  0
LTYPE
  5
32
330
19
100
AcDbSymbolTableRecord
100
AcDbLinetypeTableRecord
  2
CENTER
 70
     0
  3

 72
    65
 73
     4
 40
18.0
 49
15.0
 74
     4
 75
     0
340
0
 46
1.0
 50
0.0
 44
0.0
 45
0.0
 49
-1.0
 74
     4
 75
     0
340
0
 46
1.0
 50
0.0
 44
0.0
 45
0.0
 49
1.0
 74
     4
 75
     0
340
0
 46
1.0
 50
0.0
 44
0.0
 45
0.0
 49
-1.0
 74
     4
 75
     0
340
0
 46
1.0
 50
0.0
 44
0.0
 45
0.0
  0
LTYPE
  5
A348
330
19
100
AcDbSymbolTableRecord
100
AcDbLinetypeTableRecord
  2
PHANTOM
 70
     0
  3
----- - - ----- - - ----- - - ----- - - -----
 72
    65
 73
     6
 40
22.5
 49
15.0
 74
     4
 75
     0
340
0
 46
1.0
 50
0.0
 44
0.0
 45
0.0
 49
-1.5
 74
     4
 75
     0
340
0
 46
1.0
 50
0.0
 44
0.0
 45
0.0
 49
1.5
 74
     4
 75
     0
340
0
 46
1.0
 50
0.0
 44
0.0
 45
0.0
 49
-1.5
 74
     4
 75
     0
340
0
 46
1.0
 50
0.0
 44
0.0
 45
0.0
 49
1.5
 74
     4
 75
     0
340
0
 46
1.0
 50
0.0
 44
0.0
 45
0.0
 49
-1.5
 74
     4
 75
     0
340
0
 46
1.0
 50
0.0
 44
0.0
 45
0.0
  0
ENDTAB
  0
TABLE
  2
LAYER
  5
15
102
{ACAD_XDICTIONARY
360
8E1
102
}
330
0
100
AcDbSymbolTable
 70
     6
  0
LAYER
  5
6
330
15
100
AcDbSymbolTableRecord
100
AcDbLayerTableRecord
  2
0
 70
     0
 62
     7
  6
CONTINUOUS
  0
LAYER
  5
34
330
15
100
AcDbSymbolTableRecord
100
AcDbLayerTableRecord
  2
L-ZISSEN
 70
     0
 62
     7
  6
CONTINUOUS
  0
LAYER
  5
31
330
15
100
AcDbSymbolTableRecord
100
AcDbLayerTableRecord
  2
L-TYUSIN
 70
     0
 62
     1
  6
CENTER
  0
LAYER
  5
26
330
15
100
AcDbSymbolTableRecord
100
AcDbLayerTableRecord
  2
SUNPOU
 70
     0
 62
     3
  6
CONTINUOUS
  0
LAYER
  5
9E
330
15
100
AcDbSymbolTableRecord
100
AcDbLayerTableRecord
  2
L-SAISEN
 70
     0
 62
     6
  6
CONTINUOUS
  0
LAYER
  5
A349
330
15
100
AcDbSymbolTableRecord
100
AcDbLayerTableRecord
  2
L-SOUZOU
 70
     0
 62
     2
  6
PHANTOM
  0
ENDTAB
  0
TABLE
  2
STYLE
  5
16
330
0
100
AcDbSymbolTable
 70
     1
  0
STYLE
  5
17
330
16
100
AcDbSymbolTableRecord
100
AcDbTextStyleTableRecord
  2
STANDARD
 70
     0
 40
0.0
 41
1.0
 50
0.0
 71
     0
 42
5.599999999999999
  3
txt.shx
  4

  0
ENDTAB
  0
TABLE
  2
VIEW
  5
1C
330
0
100
AcDbSymbolTable
 70
     0
  0
ENDTAB
  0
TABLE
  2
UCS
  5
1D
330
0
100
AcDbSymbolTable
 70
     0
  0
ENDTAB
  0
TABLE
  2
APPID
  5
20
330
0
100
AcDbSymbolTable
 70
     2
  0
APPID
  5
A
330
20
100
AcDbSymbolTableRecord
100
AcDbRegAppTableRecord
  2
ACAD
 70
     0
  0
APPID
  5
DF0B
330
20
100
AcDbSymbolTableRecord
100
AcDbRegAppTableRecord
  2
CONTENTBLOCKICON
 70
     0
  0
ENDTAB
  0
TABLE
  2
DIMSTYLE
  5
21
330
0
100
AcDbSymbolTable
 70
     1
  0
DIMSTYLE
105
28
330
21
100
AcDbSymbolTableRecord
100
AcDbDimStyleTableRecord
  2
STANDARD
 70
     0
  3

  4

  5

  6

  7

 40
1.0
 41
0.18
 42
0.0625
 43
0.38
 44
0.18
 45
0.0
 46
0.0
 47
0.0
 48
0.0
140
0.18
141
0.09
142
0.0
143
25.4
144
1.0
145
0.0
146
1.0
147
0.09
 71
     0
 72
     0
 73
     1
 74
     1
 75
     0
 76
     0
 77
     0
 78
     0
170
     0
171
     2
172
     0
173
     0
174
     0
175
     0
176
     0
177
     0
178
     0
270
     2
271
     4
272
     4
273
     2
274
     2
340
17
275
     0
280
     0
281
     0
282
     0
283
     1
284
     0
285
     0
286
     0
287
     3
288
     0
  0
ENDTAB
  0
TABLE
  2
BLOCK_RECORD
  5
1
330
0
100
AcDbSymbolTable
 70
     1
  0
BLOCK_RECORD
  5
2
102
{ACAD_XDICTIONARY
360
3
102
}
330
1
100
AcDbSymbolTableRecord
100
AcDbBlockTableRecord
  2
*MODEL_SPACE
  0
BLOCK_RECORD
  5
F
102
{ACAD_XDICTIONARY
360
10
102
}
330
1
100
AcDbSymbolTableRecord
100
AcDbBlockTableRecord
  2
*PAPER_SPACE
  0
BLOCK_RECORD
  5
C710
330
1
100
AcDbSymbolTableRecord
100
AcDbBlockTableRecord
  2
12
1001
CONTENTBLOCKICON
1071
        0
1004
2800000020000000200000000100080000000000000400000000000000000000000000000000000000000000000080000080000000808000800000008000800080800000C0C0C000C0DCC000F0CAA6000020400000206000002080000020A0000020C0000020E00000400000004020000040400000406000004080000040A0
1004
000040C0000040E00000600000006020000060400000606000006080000060A0000060C0000060E00000800000008020000080400000806000008080000080A0000080C0000080E00000A0000000A0200000A0400000A0600000A0800000A0A00000A0C00000A0E00000C0000000C0200000C0400000C0600000C0800000C0
1004
A00000C0C00000C0E00000E0000000E0200000E0400000E0600000E0800000E0A00000E0C00000E0E00040000000400020004000400040006000400080004000A0004000C0004000E00040200000402020004020400040206000402080004020A0004020C0004020E000404000004040200040404000404060004040800040
1004
40A0004040C0004040E00040600000406020004060400040606000406080004060A0004060C0004060E00040800000408020004080400040806000408080004080A0004080C0004080E00040A0000040A0200040A0400040A0600040A0800040A0A00040A0C00040A0E00040C0000040C0200040C0400040C0600040C08000
1004
40C0A00040C0C00040C0E00040E0000040E0200040E0400040E0600040E0800040E0A00040E0C00040E0E00080000000800020008000400080006000800080008000A0008000C0008000E00080200000802020008020400080206000802080008020A0008020C0008020E00080400000804020008040400080406000804080
1004
008040A0008040C0008040E00080600000806020008060400080606000806080008060A0008060C0008060E00080800000808020008080400080806000808080008080A0008080C0008080E00080A0000080A0200080A0400080A0600080A0800080A0A00080A0C00080A0E00080C0000080C0200080C0400080C0600080C0
1004
800080C0A00080C0C00080C0E00080E0000080E0200080E0400080E0600080E0800080E0A00080E0C00080E0E000C0000000C0002000C0004000C0006000C0008000C000A000C000C000C000E000C0200000C0202000C0204000C0206000C0208000C020A000C020C000C020E000C0400000C0402000C0404000C0406000C0
1004
408000C040A000C040C000C040E000C0600000C0602000C0604000C0606000C0608000C060A000C060C000C060E000C0800000C0802000C0804000C0806000C0808000C080A000C080C000C080E000C0A00000C0A02000C0A04000C0A06000C0A08000C0A0A000C0A0C000C0A0E000C0C00000C0C02000C0C04000C0C06000
1004
C0C08000C0C0A000F0FBFF00A4A0A000808080000000FF0000FF000000FFFF00FF000000FF00FF00FFFF0000FFFFFF0000000000000000000000000000000000000000000000000000000000000000000000000000000000FFFFFFFFFFFFFFFFFFFFFFFFFFFFFFFF00000000000000000000000000000000FF000000000000
1004
0000000000000000FF00000000000000000000000000FFFFFFFF0000000000000000000000000000FFFFFFFF000000000000FFFFFFFF00000000000000000000000000000000000000000000FFFFFFFF0000FF00000000000000000000000000000000000000000000000000000000FF0000FF000000000000000000000000
1004
00000000000000000000000000000000FF0000FF00000000000000000000000000000000000000000000000000000000FF0000FF00000000000000000000000000000000000000000000000000000000FF0000FF00000000000000000000000000000000000000000000000000000000FF0000FF0000000000000000000000
1004
0000000000000000000000000000000000FF0000FF00000000000000000000000000000000000000000000000000000000FF0000FF00000000000000000000000000000000000000000000000000000000FF0000FF00000000000000000000000000000000000000000000000000000000FF0000FF00000000000000000000
1004
000000000000000000000000000000000000FF0000FF00000000000000000000000000000000000000000000000000000000FF0000FF00000000000000000000000000000000000000000000000000000000FF0000FF00000000000000000000000000000000000000000000000000000000FF0000FF000000000000000000
1004
00000000000000000000000000000000000000FF0000FF00000000000000000000000000000000000000000000000000000000FF0000FF00000000000000000000000000000000000000000000000000000000FF0000FF00000000000000000000000000000000000000000000000000000000FF0000FF0000000000000000
1004
0000000000000000000000000000000000000000FF0000FF00000000000000000000000000000000000000000000000000000000FF0000FF00000000000000000000000000000000000000000000000000000000FF0000FF00000000000000000000000000000000000000000000000000000000FF0000FF00000000000000
1004
000000000000000000000000000000000000000000FF0000FFFFFFFF00000000000000000000000000000000000000000000FFFFFFFF000000000000FFFFFFFF0000000000000000000000000000FFFFFFFF00000000000000000000000000FF0000000000000000000000000000FF00000000000000000000000000000000
1004
FFFFFFFFFFFFFFFFFFFFFFFFFFFFFFFF00000000000000000000000000000000000000000000000000000000000000000000000000000000
  0
ENDTAB
  0
ENDSEC
  0
SECTION
  2
BLOCKS
  0
BLOCK
  5
5
330
2
100
AcDbEntity
  8
0
100
AcDbBlockBegin
  2
*MODEL_SPACE
 70
     0
 10
0.0
 20
0.0
 30
0.0
  3
*MODEL_SPACE
  1

  0
ENDBLK
  5
C
330
2
100
AcDbEntity
  8
0
100
AcDbBlockEnd
  0
BLOCK
  5
12
330
F
100
AcDbEntity
 67
     1
  8
0
100
AcDbBlockBegin
  2
*PAPER_SPACE
 70
     0
 10
0.0
 20
0.0
 30
0.0
  3
*PAPER_SPACE
  1

  0
ENDBLK
  5
13
330
F
100
AcDbEntity
 67
     1
  8
0
100
AcDbBlockEnd
  0
BLOCK
  5
C711
330
C710
100
AcDbEntity
  8
0
100
AcDbBlockBegin
  2
12
 70
     0
 10
0.0
 20
0.0
 30
0.0
  3
12
  1

  0
LINE
  5
C713
330
C710
100
AcDbEntity
  8
L-ZISSEN
100
AcDbLine
 10
-354.3484617394649
 20
-2518.597672651766
 30
0.0
 11
-371.3484617394649
 21
-2522.366481916697
 31
0.0
  0
LINE
  5
C714
330
C710
100
AcDbEntity
  8
L-ZISSEN
100
AcDbLine
 10
-371.3484617394649
 20
-2522.366481916697
 30
0.0
 11
-371.3484617394649
 21
-2577.828863386837
 31
0.0
  0
LINE
  5
C715
330
C710
100
AcDbEntity
  8
L-ZISSEN
100
AcDbLine
 10
-318.3484617394649
 20
-2515.097672651767
 30
0.0
 11
-354.3484617394649
 21
-2515.097672651767
 31
0.0
  0
LINE
  5
C716
330
C710
100
AcDbEntity
  8
L-ZISSEN
100
AcDbLine
 10
-354.3484617394649
 20
-2518.597672651766
 30
0.0
 11
-354.3484617394649
 21
-2515.097672651767
 31
0.0
  0
LINE
  5
C717
330
C710
100
AcDbEntity
  8
L-ZISSEN
100
AcDbLine
 10
-318.3484617394649
 20
-2518.597672651766
 30
0.0
 11
-301.3484617394648
 21
-2522.366481916697
 31
0.0
  0
LINE
  5
C718
330
C710
100
AcDbEntity
  8
L-ZISSEN
100
AcDbLine
 10
-318.3484617394649
 20
-2515.097672651767
 30
0.0
 11
-318.348461739465
 21
-2518.597672651766
 31
0.0
  0
LINE
  5
C719
330
C710
100
AcDbEntity
  8
L-ZISSEN
100
AcDbLine
 10
-301.3484617394649
 20
-2577.828863386837
 30
0.0
 11
-301.3484617394648
 21
-2522.366481916697
 31
0.0
  0
LINE
  5
C71A
330
C710
100
AcDbEntity
  8
L-ZISSEN
100
AcDbLine
 10
-318.3484617394649
 20
-2581.597672651766
 30
0.0
 11
-301.3484617394648
 21
-2577.828863386837
 31
0.0
  0
LINE
  5
C71B
330
C710
100
AcDbEntity
  8
L-ZISSEN
100
AcDbLine
 10
-354.3484617394649
 20
-2585.097672651767
 30
0.0
 11
-318.3484617394649
 21
-2585.097672651767
 31
0.0
  0
LINE
  5
C71C
330
C710
100
AcDbEntity
  8
L-ZISSEN
100
AcDbLine
 10
-318.3484617394649
 20
-2581.597672651766
 30
0.0
 11
-318.3484617394649
 21
-2585.097672651767
 31
0.0
  0
LINE
  5
C71D
330
C710
100
AcDbEntity
  8
L-ZISSEN
100
AcDbLine
 10
-354.3484617394649
 20
-2585.097672651767
 30
0.0
 11
-354.3484617394649
 21
-2581.597672651766
 31
0.0
  0
LINE
  5
C71E
330
C710
100
AcDbEntity
  8
L-ZISSEN
100
AcDbLine
 10
-354.3484617394649
 20
-2581.597672651766
 30
0.0
 11
-371.3484617394649
 21
-2577.828863386837
 31
0.0
  0
ENDBLK
  5
C712
330
C710
100
AcDbEntity
  8
0
100
AcDbBlockEnd
  0
ENDSEC
  0
SECTION
  2
ENTITIES
  0
LINE
  5
C44B
330
2
100
AcDbEntity
  8
L-TYUSIN
100
AcDbLine
 10
360.3768183469946
 20
-2815.173835400917
 30
0.0
 11
610.3768183469947
 21
-2815.173835400917
 31
0.0
  0
LINE
  5
D801
330
2
100
AcDbEntity
  8
L-TYUSIN
100
AcDbLine
 10
23.37681834699468
 20
-2892.365729306691
 30
0.0
 11
134.3768183469947
 21
-2892.365729306686
 31
0.0
  0
LINE
  5
D802
330
2
100
AcDbEntity
  8
L-SOUZOU
100
AcDbLine
 10
120.3768183469947
 20
-2913.365729306688
 30
0.0
 11
127.8768183469947
 21
-2913.365729306688
 31
0.0
  0
LINE
  5
D803
330
2
100
AcDbEntity
  8
L-SOUZOU
100
AcDbLine
 10
120.3768183469947
 20
-2871.365729306689
 30
0.0
 11
127.8768183469947
 21
-2871.365729306689
 31
0.0
  0
LINE
  5
D804
330
2
100
AcDbEntity
  8
L-TYUSIN
100
AcDbLine
 10
60.3768183469947
 20
-3044.065729306691
 30
0.0
 11
60.37681834699469
 21
-2778.112686079676
 31
0.0
  0
LINE
  5
D805
330
2
100
AcDbEntity
  8
L-ZISSEN
100
AcDbLine
 10
42.37681834699287
 20
-2868.365729306687
 30
0.0
 11
42.37681834699288
 21
-2926.065729306691
 31
0.0
  0
LINE
  5
D806
330
2
100
AcDbEntity
  8
L-ZISSEN
100
AcDbLine
 10
25.37681834699287
 20
-2868.349449507363
 30
0.0
 11
25.37681834699287
 21
-2879.849449507363
 31
0.0
  0
LINE
  5
D807
330
2
100
AcDbEntity
  8
L-ZISSEN
100
AcDbLine
 10
42.37681834699287
 20
-2874.865729306688
 30
0.0
 11
42.37681834699287
 21
-2871.365729306687
 31
0.0
  0
LINE
  5
D808
330
2
100
AcDbEntity
  8
L-SOUZOU
100
AcDbLine
 10
104.3768183469947
 20
-2873.465729306689
 30
0.0
 11
104.3768183469947
 21
-2911.265729306689
 31
0.0
  0
LINE
  5
D809
330
2
100
AcDbEntity
  8
L-ZISSEN
100
AcDbLine
 10
78.376818346991
 20
-2868.365729306687
 30
0.0
 11
78.37681834699686
 21
-2926.065729306691
 31
0.0
  0
LINE
  5
D80A
330
2
100
AcDbEntity
  8
L-ZISSEN
100
AcDbLine
 10
78.37681834699106
 20
-2871.365729306687
 30
0.0
 11
78.37681834699106
 21
-2874.865729306688
 31
0.0
  0
LINE
  5
D80B
330
2
100
AcDbEntity
  8
L-ZISSEN
100
AcDbLine
 10
95.37681834699288
 20
-2867.349449507363
 30
0.0
 11
95.37681834699288
 21
-2879.865729306688
 31
0.0
  0
LINE
  5
D80C
330
2
100
AcDbEntity
  8
L-SOUZOU
100
AcDbLine
 10
120.3768183469947
 20
-2871.365729306689
 30
0.0
 11
120.3768183469947
 21
-2913.365729306688
 31
0.0
  0
LINE
  5
D810
330
2
100
AcDbEntity
  8
L-ZISSEN
100
AcDbLine
 10
25.87681834699287
 20
-2880.365729306687
 30
0.0
 11
42.37681834699287
 21
-2880.365729306687
 31
0.0
  0
ARC
  5
D811
330
2
100
AcDbEntity
  8
L-ZISSEN
100
AcDbCircle
 10
25.87681834699287
 20
-2879.865729306688
 30
0.0
 40
0.5000000000001137
100
AcDbArc
 50
180.0
 51
270.0
  0
ARC
  5
D812
330
2
100
AcDbEntity
  8
L-ZISSEN
100
AcDbCircle
 10
25.87681834699287
 20
-2879.865729306688
 30
0.0
 40
0.5000000000001137
100
AcDbArc
 50
180.0
 51
270.0
  0
LINE
  5
D815
330
2
100
AcDbEntity
  8
L-ZISSEN
100
AcDbLine
 10
28.37681834699468
 20
-2880.365729306687
 30
0.0
 11
28.37681834699468
 21
-2904.365729306688
 31
0.0
  0
LINE
  5
D818
330
2
100
AcDbEntity
  8
L-ZISSEN
100
AcDbLine
 10
94.87681834699287
 20
-2880.365729306687
 30
0.0
 11
78.3768183469947
 21
-2880.365729306687
 31
0.0
  0
LINE
  5
D81B
330
2
100
AcDbEntity
  8
L-ZISSEN
100
AcDbLine
 10
78.37681834699106
 20
-2874.865729306688
 30
0.0
 11
42.37681834699287
 21
-2874.865729306688
 31
0.0
  0
CIRCLE
  5
D81C
330
2
100
AcDbEntity
  8
L-SAISEN
100
AcDbCircle
 10
60.37681834699469
 20
-2892.365729306691
 30
0.0
 40
10.48
  0
CIRCLE
  5
D81E
330
2
100
AcDbEntity
  8
L-ZISSEN
100
AcDbCircle
 10
60.37681834699469
 20
-2892.365729306691
 30
0.0
 40
9.314999999999999
  0
LINE
  5
D828
330
2
100
AcDbEntity
  8
L-SOUZOU
100
AcDbLine
 10
96.87681834699475
 20
-2885.565729306689
 30
0.0
 11
104.3768183469947
 21
-2885.565729306689
 31
0.0
  0
LINE
  5
D829
330
2
100
AcDbEntity
  8
L-SOUZOU
100
AcDbLine
 10
96.87681834699475
 20
-2899.165729306689
 30
0.0
 11
104.3768183469947
 21
-2899.165729306689
 31
0.0
  0
LINE
  5
D82A
330
2
100
AcDbEntity
  8
L-SOUZOU
100
AcDbLine
 10
92.37681834699474
 20
-2885.725038698897
 30
0.0
 11
96.87681834699462
 21
-2885.584406671229
 31
0.0
  0
LINE
  5
D82B
330
2
100
AcDbEntity
  8
L-SOUZOU
100
AcDbLine
 10
92.37681834699474
 20
-2899.00641991448
 30
0.0
 11
96.87681834699462
 21
-2899.147051942149
 31
0.0
  0
LINE
  5
D82C
330
2
100
AcDbEntity
  8
L-SOUZOU
100
AcDbLine
 10
92.37681834699474
 20
-2898.15041991448
 30
0.0
 11
95.37681834699474
 21
-2898.244174599593
 31
0.0
  0
LINE
  5
D82D
330
2
100
AcDbEntity
  8
L-SOUZOU
100
AcDbLine
 10
92.37681834699468
 20
-2886.581038698897
 30
0.0
 11
95.37681834699474
 21
-2886.487284013785
 31
0.0
  0
LINE
  5
D831
330
2
100
AcDbEntity
  8
L-ZISSEN
100
AcDbLine
 10
92.37681834699468
 20
-2880.365729306687
 30
0.0
 11
92.37681834699474
 21
-2904.365729306688
 31
0.0
  0
LINE
  5
D833
330
2
100
AcDbEntity
  8
L-SOUZOU
100
AcDbLine
 10
95.37681834699474
 20
-2886.487284013785
 30
0.0
 11
96.26043267467906
 21
-2885.603669686101
 31
0.0
  0
LINE
  5
D834
330
2
100
AcDbEntity
  8
L-SOUZOU
100
AcDbLine
 10
95.37681834699474
 20
-2898.244174599593
 30
0.0
 11
96.26043267467906
 21
-2899.127788927277
 31
0.0
  0
LINE
  5
D835
330
2
100
AcDbEntity
  8
L-SOUZOU
100
AcDbLine
 10
95.37681834699474
 20
-2885.631284013785
 30
0.0
 11
95.37681834699485
 21
-2899.100174599592
 31
0.0
  0
LINE
  5
D836
330
2
100
AcDbEntity
  8
L-SOUZOU
100
AcDbLine
 10
96.87681834699475
 20
-2885.565729306689
 30
0.0
 11
96.87681834699475
 21
-2899.165729306689
 31
0.0
  0
ARC
  5
D837
330
2
100
AcDbEntity
  8
L-ZISSEN
100
AcDbCircle
 10
94.87681834699651
 20
-2879.865729306688
 30
0.0
 40
0.5000000000001137
100
AcDbArc
 50
270.0
 51
0.0
  0
ARC
  5
D838
330
2
100
AcDbEntity
  8
L-ZISSEN
100
AcDbCircle
 10
94.87681834699651
 20
-2879.865729306688
 30
0.0
 40
0.5000000000001137
100
AcDbArc
 50
270.0
 51
0.0
  0
LINE
  5
D839
330
2
100
AcDbEntity
  8
L-SOUZOU
100
AcDbLine
 10
105.8768183469947
 20
-2912.765729306689
 30
0.0
 11
120.3768183469947
 21
-2912.765729306689
 31
0.0
  0
ARC
  5
D83A
330
2
100
AcDbEntity
  8
L-SOUZOU
100
AcDbCircle
 10
105.8768183469947
 20
-2911.265729306689
 30
0.0
 40
1.5
100
AcDbArc
 50
180.0
 51
270.0
  0
LINE
  5
D83B
330
2
100
AcDbEntity
  8
L-SOUZOU
100
AcDbLine
 10
15.37681834699287
 20
-2854.365729306687
 30
0.0
 11
95.37681834699288
 21
-2854.365729306687
 31
0.0
  0
LINE
  5
D83C
330
2
100
AcDbEntity
  8
L-SOUZOU
100
AcDbLine
 10
95.37681834699288
 20
-2856.365729306688
 30
0.0
 11
13.37681834699128
 21
-2856.365729306688
 31
0.0
  0
LINE
  5
D83D
330
2
100
AcDbEntity
  8
L-ZISSEN
100
AcDbLine
 10
81.59002178259113
 20
-2854.365729306688
 30
0.0
 11
39.16361491139827
 21
-2854.365729306688
 31
0.0
  0
LINE
  5
D83E
330
2
100
AcDbEntity
  8
L-ZISSEN
100
AcDbLine
 10
81.59002178259113
 20
-2848.365729306687
 30
0.0
 11
39.16361491139827
 21
-2848.365729306687
 31
0.0
  0
LINE
  5
D83F
330
2
100
AcDbEntity
  8
L-ZISSEN
100
AcDbLine
 10
38.87681834699469
 20
-2834.365729306687
 30
0.0
 11
81.87681834699469
 21
-2834.365729306687
 31
0.0
  0
LINE
  5
D840
330
2
100
AcDbEntity
  8
L-ZISSEN
100
AcDbLine
 10
36.0654770737965
 20
-2843.365729306687
 30
0.0
 11
84.68815962018743
 21
-2843.365729306687
 31
0.0
  0
LINE
  5
D841
330
2
100
AcDbEntity
  8
L-ZISSEN
100
AcDbLine
 10
82.81622848277526
 20
-2832.365729306687
 30
0.0
 11
37.93740821120684
 21
-2832.365729306687
 31
0.0
  0
LINE
  5
D842
330
2
100
AcDbEntity
  8
L-ZISSEN
100
AcDbLine
 10
25.37681834699287
 20
-2868.365729306687
 30
0.0
 11
95.37681834699288
 21
-2868.365729306687
 31
0.0
  0
LINE
  5
D843
330
2
100
AcDbEntity
  8
L-ZISSEN
100
AcDbLine
 10
95.37681834699288
 20
-2856.365729306688
 30
0.0
 11
25.37681834699287
 21
-2856.365729306688
 31
0.0
  0
ARC
  5
D844
330
2
100
AcDbEntity
  8
L-ZISSEN
100
AcDbCircle
 10
39.16361491139827
 20
-2820.2337746892
 30
0.0
 40
34.1319546174875
100
AcDbArc
 50
255.0820176392774
 51
284.9179823607225
  0
ARC
  5
D845
330
2
100
AcDbEntity
  8
L-ZISSEN
100
AcDbCircle
 10
39.16361491139827
 20
-2882.497683924175
 30
0.0
 40
34.1319546174875
100
AcDbArc
 50
75.08201763927741
 51
104.9179823607225
  0
LINE
  5
D846
330
2
100
AcDbEntity
  8
L-ZISSEN
100
AcDbLine
 10
82.37681834699458
 20
-2780.365729306688
 30
0.0
 11
38.37681834699287
 21
-2780.365729306687
 31
0.0
  0
LINE
  5
D847
330
2
100
AcDbEntity
  8
L-TYUSIN
100
AcDbLine
 10
10.27451938009471
 20
-2838.365729306687
 30
0.0
 11
17.08628138295171
 21
-2838.365729306687
 31
0.0
  0
LINE
  5
D848
330
2
100
AcDbEntity
  8
L-SOUZOU
100
AcDbLine
 10
12.37681834699105
 20
-2829.365729306687
 30
0.0
 11
12.37681834699105
 21
-2855.382009106017
 31
0.0
  0
LINE
  5
D849
330
2
100
AcDbEntity
  8
L-SOUZOU
100
AcDbLine
 10
14.37681834699469
 20
-2829.365729306687
 30
0.0
 11
14.37681834699469
 21
-2853.481809863615
 31
0.0
  0
ARC
  5
D84A
330
2
100
AcDbEntity
  8
L-SOUZOU
100
AcDbCircle
 10
15.37681834699287
 20
-2853.365729306688
 30
0.0
 40
1.000000000000227
100
AcDbArc
 50
180.0
 51
270.0
  0
ARC
  5
D84B
330
2
100
AcDbEntity
  8
L-SOUZOU
100
AcDbCircle
 10
13.37681834699128
 20
-2855.365729306687
 30
0.0
 40
1.000000000000227
100
AcDbArc
 50
180.0
 51
270.0
  0
LINE
  5
D84C
330
2
100
AcDbEntity
  8
L-SOUZOU
100
AcDbLine
 10
12.37681834699105
 20
-2829.365729306687
 30
0.0
 11
14.37681834699469
 21
-2829.365729306687
 31
0.0
  0
LINE
  5
D84D
330
2
100
AcDbEntity
  8
L-ZISSEN
100
AcDbLine
 10
36.37681834699105
 20
-2782.765729306687
 30
0.0
 11
35.63768939934789
 21
-2830.029765625257
 31
0.0
  0
LINE
  5
D84E
330
2
100
AcDbEntity
  8
L-ZISSEN
100
AcDbLine
 10
31.02271033383294
 20
-2859.245787273951
 30
0.0
 11
29.80780077722192
 21
-2859.245787273951
 31
0.0
  0
LINE
  5
D84F
330
2
100
AcDbEntity
  8
L-ZISSEN
100
AcDbLine
 10
27.04412093926293
 20
-2861.216922407066
 30
0.0
 11
33.7863901717883
 21
-2861.216922407066
 31
0.0
  0
LINE
  5
D850
330
2
100
AcDbEntity
  8
L-ZISSEN
100
AcDbLine
 10
33.78639017178648
 20
-2862.360056315169
 30
0.0
 11
27.04412093926293
 21
-2862.360056315169
 31
0.0
  0
LINE
  5
D851
330
2
100
AcDbEntity
  8
L-ZISSEN
100
AcDbLine
 10
35.453692764062
 20
-2862.360056315169
 30
0.0
 11
25.37681834699287
 21
-2862.360056315169
 31
0.0
  0
LINE
  5
D852
330
2
100
AcDbEntity
  8
L-ZISSEN
100
AcDbLine
 10
25.37681834699287
 20
-2856.365729306688
 30
0.0
 11
25.37681834699287
 21
-2868.365729306687
 31
0.0
  0
ARC
  5
D853
330
2
100
AcDbEntity
  8
L-ZISSEN
100
AcDbCircle
 10
29.74888153764186
 20
-2860.975635895474
 30
0.0
 40
2.715501624969813
100
AcDbArc
 50
88.75673479208749
 51
185.0977525317109
  0
LINE
  5
D854
330
2
100
AcDbEntity
  8
L-ZISSEN
100
AcDbLine
 10
25.37681834699287
 20
-2862.360056315169
 30
0.0
 11
25.37681834699287
 21
-2857.349449507363
 31
0.0
  0
LINE
  5
D855
330
2
100
AcDbEntity
  8
L-ZISSEN
100
AcDbLine
 10
27.04412093926293
 20
-2862.360056315169
 30
0.0
 11
27.04412093926293
 21
-2861.216922407066
 31
0.0
  0
LINE
  5
D856
330
2
100
AcDbEntity
  8
L-ZISSEN
100
AcDbLine
 10
29.80780077722192
 20
-2859.245787273951
 30
0.0
 11
29.80780077722192
 21
-2858.260773541982
 31
0.0
  0
LINE
  5
D857
330
2
100
AcDbEntity
  8
L-ZISSEN
100
AcDbLine
 10
30.37681834699469
 20
-2849.516135565342
 30
0.0
 11
30.37681834699469
 21
-2853.215323048033
 31
0.0
  0
LINE
  5
D858
330
2
100
AcDbEntity
  8
L-ZISSEN
100
AcDbLine
 10
35.453692764062
 20
-2856.365729306688
 30
0.0
 11
35.453692764062
 21
-2862.360056315169
 31
0.0
  0
ARC
  5
D859
330
2
100
AcDbEntity
  8
L-ZISSEN
100
AcDbCircle
 10
31.08162957340937
 20
-2860.975635895474
 30
0.0
 40
2.715501624969247
100
AcDbArc
 50
354.9022474682891
 51
91.24326520780831
  0
LINE
  5
D85A
330
2
100
AcDbEntity
  8
L-ZISSEN
100
AcDbLine
 10
33.7863901717883
 20
-2861.216922407066
 30
0.0
 11
33.78639017178648
 21
-2862.360056315169
 31
0.0
  0
LINE
  5
D85B
330
2
100
AcDbEntity
  8
L-ZISSEN
100
AcDbLine
 10
31.02271033383294
 20
-2858.260773541982
 30
0.0
 11
31.02271033383294
 21
-2859.245787273951
 31
0.0
  0
LINE
  5
D85C
330
2
100
AcDbEntity
  8
L-SAISEN
100
AcDbLine
 10
36.0654770737965
 20
-2854.224830394333
 30
0.0
 11
36.0654770737965
 21
-2856.365729306688
 31
0.0
  0
LINE
  5
D85D
330
2
100
AcDbEntity
  8
L-ZISSEN
100
AcDbLine
 10
34.37681834699469
 20
-2854.028403029533
 30
0.0
 11
34.37681834699469
 21
-2856.365729306688
 31
0.0
  0
ARC
  5
D85E
330
2
100
AcDbEntity
  8
L-ZISSEN
100
AcDbCircle
 10
37.93740821120684
 20
-2830.065729306688
 30
0.0
 40
2.299999999999999
100
AcDbArc
 50
179.1040647226661
 51
270.0
  0
LINE
  5
D85F
330
2
100
AcDbEntity
  8
L-ZISSEN
100
AcDbLine
 10
36.0654770737965
 20
-2843.365729306687
 30
0.0
 11
34.37681834699469
 21
-2844.097167165721
 31
0.0
  0
LINE
  5
D860
330
2
100
AcDbEntity
  8
L-ZISSEN
100
AcDbLine
 10
34.37681834699469
 20
-2844.080887366396
 30
0.0
 11
34.37681834699469
 21
-2848.703055583842
 31
0.0
  0
LINE
  5
D861
330
2
100
AcDbEntity
  8
L-SAISEN
100
AcDbLine
 10
36.0654770737965
 20
-2843.349449507362
 30
0.0
 11
36.0654770737965
 21
-2848.506628219042
 31
0.0
  0
LINE
  5
D862
330
2
100
AcDbEntity
  8
L-ZISSEN
100
AcDbLine
 10
38.87681834699469
 20
-2834.365729306687
 30
0.0
 11
38.87681834699469
 21
-2843.349449507362
 31
0.0
  0
LINE
  5
D863
330
2
100
AcDbEntity
  8
L-ZISSEN
100
AcDbLine
 10
36.37681834699105
 20
-2782.765729306687
 30
0.0
 11
38.37681834699287
 21
-2780.365729306687
 31
0.0
  0
ARC
  5
D864
330
2
100
AcDbEntity
  8
L-ZISSEN
100
AcDbCircle
 10
81.59002178259113
 20
-2882.497683924175
 30
0.0
 40
34.1319546174875
100
AcDbArc
 50
75.08201763927741
 51
104.9179823607225
  0
ARC
  5
D865
330
2
100
AcDbEntity
  8
L-ZISSEN
100
AcDbCircle
 10
81.59002178259113
 20
-2820.2337746892
 30
0.0
 40
34.1319546174875
100
AcDbArc
 50
255.0820176392774
 51
284.9179823607225
  0
LINE
  5
D866
330
2
100
AcDbEntity
  8
L-ZISSEN
100
AcDbLine
 10
42.37681834699287
 20
-2871.365729306687
 30
0.0
 11
78.37681834699106
 21
-2871.365729306687
 31
0.0
  0
ARC
  5
D867
330
2
100
AcDbEntity
  8
L-ZISSEN
100
AcDbCircle
 10
60.37681834699469
 20
-2786.67702320104
 30
0.0
 40
67.68870610564736
100
AcDbArc
 50
259.4215471024278
 51
280.5784528975721
  0
ARC
  5
D868
330
2
100
AcDbEntity
  8
L-ZISSEN
100
AcDbCircle
 10
60.37681834699469
 20
-2916.054435412335
 30
0.0
 40
67.68870610564736
100
AcDbArc
 50
79.42154710242788
 51
100.5784528975721
  0
LINE
  5
D869
330
2
100
AcDbEntity
  8
L-ZISSEN
100
AcDbLine
 10
47.95041147580184
 20
-2849.516135565342
 30
0.0
 11
47.95041147580184
 21
-2853.215323048033
 31
0.0
  0
LINE
  5
D86A
330
2
100
AcDbEntity
  8
L-ZISSEN
100
AcDbLine
 10
40.12681834699105
 20
-2832.365729306687
 30
0.0
 11
40.12681834699105
 21
-2834.365729306687
 31
0.0
  0
LINE
  5
D86B
330
2
100
AcDbEntity
  8
L-ZISSEN
100
AcDbLine
 10
72.80322521818755
 20
-2849.516135565342
 30
0.0
 11
72.80322521818755
 21
-2853.215323048033
 31
0.0
  0
LINE
  5
D86C
330
2
100
AcDbEntity
  8
L-ZISSEN
100
AcDbLine
 10
84.37681834699109
 20
-2782.765729306687
 30
0.0
 11
85.11594729463428
 21
-2830.029765625257
 31
0.0
  0
LINE
  5
D86D
330
2
100
AcDbEntity
  8
L-ZISSEN
100
AcDbLine
 10
86.96724652219746
 20
-2861.216922407066
 30
0.0
 11
93.70951575471918
 21
-2861.216922407066
 31
0.0
  0
LINE
  5
D86E
330
2
100
AcDbEntity
  8
L-ZISSEN
100
AcDbLine
 10
93.70951575471918
 20
-2862.360056315169
 30
0.0
 11
86.96724652219746
 21
-2862.360056315169
 31
0.0
  0
LINE
  5
D86F
330
2
100
AcDbEntity
  8
L-ZISSEN
100
AcDbLine
 10
85.29994392992376
 20
-2862.360056315169
 30
0.0
 11
95.37681834699288
 21
-2862.360056315169
 31
0.0
  0
ARC
  5
D870
330
2
100
AcDbEntity
  8
L-ZISSEN
100
AcDbCircle
 10
89.67200712057637
 20
-2860.975635895474
 30
0.0
 40
2.715501624969813
100
AcDbArc
 50
88.7567347921917
 51
185.0977525317109
  0
LINE
  5
D871
330
2
100
AcDbEntity
  8
L-ZISSEN
100
AcDbLine
 10
85.29994392992376
 20
-2856.365729306688
 30
0.0
 11
85.29994392992376
 21
-2862.360056315169
 31
0.0
  0
LINE
  5
D872
330
2
100
AcDbEntity
  8
L-ZISSEN
100
AcDbLine
 10
86.96724652219746
 20
-2862.360056315169
 30
0.0
 11
86.96724652219746
 21
-2861.216922407066
 31
0.0
  0
LINE
  5
D873
330
2
100
AcDbEntity
  8
L-SAISEN
100
AcDbLine
 10
84.6881596201929
 20
-2854.224830394333
 30
0.0
 11
84.6881596201929
 21
-2856.365729306688
 31
0.0
  0
LINE
  5
D874
330
2
100
AcDbEntity
  8
L-ZISSEN
100
AcDbLine
 10
86.37681834699469
 20
-2854.028403029533
 30
0.0
 11
86.37681834699469
 21
-2856.365729306688
 31
0.0
  0
LINE
  5
D875
330
2
100
AcDbEntity
  8
L-ZISSEN
100
AcDbLine
 10
80.62681834699105
 20
-2832.365729306687
 30
0.0
 11
80.62681834699105
 21
-2834.365729306687
 31
0.0
  0
LINE
  5
D876
330
2
100
AcDbEntity
  8
L-ZISSEN
100
AcDbLine
 10
81.87681834699469
 20
-2834.365729306687
 30
0.0
 11
81.87681834699469
 21
-2843.349449507362
 31
0.0
  0
LINE
  5
D877
330
2
100
AcDbEntity
  8
L-ZISSEN
100
AcDbLine
 10
84.68815962018743
 20
-2843.365729306687
 30
0.0
 11
86.37681834699469
 21
-2844.097167165721
 31
0.0
  0
LINE
  5
D878
330
2
100
AcDbEntity
  8
L-ZISSEN
100
AcDbLine
 10
86.37681834699469
 20
-2844.097167165721
 30
0.0
 11
86.37681834699469
 21
-2848.703055583842
 31
0.0
  0
LINE
  5
D879
330
2
100
AcDbEntity
  8
L-SAISEN
100
AcDbLine
 10
84.68815962018743
 20
-2843.365729306687
 30
0.0
 11
84.68815962018743
 21
-2848.506628219042
 31
0.0
  0
ARC
  5
D87A
330
2
100
AcDbEntity
  8
L-ZISSEN
100
AcDbCircle
 10
82.81622848277526
 20
-2830.065729306688
 30
0.0
 40
2.299999999999999
100
AcDbArc
 50
270.0
 51
0.8959352773338501
  0
LINE
  5
D87B
330
2
100
AcDbEntity
  8
L-ZISSEN
100
AcDbLine
 10
90.37681834699469
 20
-2849.516135565342
 30
0.0
 11
90.37681834699469
 21
-2853.215323048033
 31
0.0
  0
LINE
  5
D87C
330
2
100
AcDbEntity
  8
L-ZISSEN
100
AcDbLine
 10
90.94583591676382
 20
-2859.245787273951
 30
0.0
 11
89.73092636015644
 21
-2859.245787273951
 31
0.0
  0
LINE
  5
D87D
330
2
100
AcDbEntity
  8
L-ZISSEN
100
AcDbLine
 10
89.73092636015644
 20
-2859.245787273951
 30
0.0
 11
89.73092636015644
 21
-2858.260773541982
 31
0.0
  0
LINE
  5
D87E
330
2
100
AcDbEntity
  8
L-ZISSEN
100
AcDbLine
 10
95.37681834699288
 20
-2856.365729306688
 30
0.0
 11
95.37681834699288
 21
-2867.349449507363
 31
0.0
  0
LINE
  5
D87F
330
2
100
AcDbEntity
  8
L-ZISSEN
100
AcDbLine
 10
95.37681834699288
 20
-2862.360056315169
 30
0.0
 11
95.37681834699288
 21
-2857.349449507363
 31
0.0
  0
ARC
  5
D880
330
2
100
AcDbEntity
  8
L-ZISSEN
100
AcDbCircle
 10
91.00475515634389
 20
-2860.975635895474
 30
0.0
 40
2.715501624968398
100
AcDbArc
 50
354.9022474682891
 51
91.24326520780831
  0
LINE
  5
D881
330
2
100
AcDbEntity
  8
L-ZISSEN
100
AcDbLine
 10
93.70951575471918
 20
-2861.216922407066
 30
0.0
 11
93.70951575471918
 21
-2862.360056315169
 31
0.0
  0
LINE
  5
D882
330
2
100
AcDbEntity
  8
L-ZISSEN
100
AcDbLine
 10
90.94583591676382
 20
-2858.260773541982
 30
0.0
 11
90.94583591676382
 21
-2859.245787273951
 31
0.0
  0
LINE
  5
D883
330
2
100
AcDbEntity
  8
L-SOUZOU
 48
0.5
100
AcDbLine
 10
95.37681834699288
 20
-2854.365729306688
 30
0.0
 11
95.37681834699288
 21
-2856.365729306688
 31
0.0
  0
LINE
  5
D884
330
2
100
AcDbEntity
  8
L-ZISSEN
100
AcDbLine
 10
84.37681834699105
 20
-2782.765729306687
 30
0.0
 11
82.3768183469947
 21
-2780.365729306687
 31
0.0
  0
LINE
  5
D885
330
2
100
AcDbEntity
  8
L-SOUZOU
100
AcDbLine
 10
105.8768183469947
 20
-2871.965729306689
 30
0.0
 11
120.3768183469947
 21
-2871.965729306689
 31
0.0
  0
ARC
  5
D886
330
2
100
AcDbEntity
  8
L-SOUZOU
100
AcDbCircle
 10
105.8768183469947
 20
-2873.465729306689
 30
0.0
 40
1.5
100
AcDbArc
 50
90.0
 51
180.0
  0
LINE
  5
D887
330
2
100
AcDbEntity
  8
L-SOUZOU
100
AcDbLine
 10
129.3768183469947
 20
-2872.865729306689
 30
0.0
 11
129.3768183469947
 21
-2911.865729306688
 31
0.0
  0
ARC
  5
D888
330
2
100
AcDbEntity
  8
L-SOUZOU
100
AcDbCircle
 10
127.8768183469947
 20
-2911.865729306688
 30
0.0
 40
1.5
100
AcDbArc
 50
270.0
 51
0.0
  0
ARC
  5
D889
330
2
100
AcDbEntity
  8
L-SOUZOU
100
AcDbCircle
 10
127.8768183469947
 20
-2872.865729306689
 30
0.0
 40
1.5
100
AcDbArc
 50
0.0
 51
90.0
  0
LINE
  5
D8B4
330
2
100
AcDbEntity
  8
L-ZISSEN
100
AcDbLine
 10
25.37681834699471
 20
-2926.065729306691
 30
0.0
 11
95.37681834699467
 21
-2926.065729306691
 31
0.0
  0
LINE
  5
D8B7
330
2
100
AcDbEntity
  8
L-ZISSEN
100
AcDbLine
 10
25.87681834699426
 20
-2904.565729306691
 30
0.0
 11
42.37681834699517
 21
-2904.565729306691
 31
0.0
  0
LINE
  5
D8B8
330
2
100
AcDbEntity
  8
L-ZISSEN
100
AcDbLine
 10
25.37681834699471
 20
-2926.065729306691
 30
0.0
 11
25.37681834699471
 21
-2905.065729306691
 31
0.0
  0
ARC
  5
D8B9
330
2
100
AcDbEntity
  8
L-ZISSEN
100
AcDbCircle
 10
25.87681834699426
 20
-2905.065729306691
 30
0.0
 40
0.5000000000001137
100
AcDbArc
 50
90.0
 51
180.0
  0
ARC
  5
D8BA
330
2
100
AcDbEntity
  8
L-ZISSEN
100
AcDbCircle
 10
25.87681834699426
 20
-2905.065729306691
 30
0.0
 40
0.5000000000001137
100
AcDbArc
 50
90.0
 51
180.0
  0
LINE
  5
D8BC
330
2
100
AcDbEntity
  8
L-ZISSEN
100
AcDbLine
 10
94.87681834699285
 20
-2904.565729306691
 30
0.0
 11
78.37681834699421
 21
-2904.565729306691
 31
0.0
  0
LINE
  5
D8BD
330
2
100
AcDbEntity
  8
L-ZISSEN
100
AcDbLine
 10
95.37681834699467
 20
-2926.065729306691
 30
0.0
 11
95.37681834699467
 21
-2905.065729306691
 31
0.0
  0
ARC
  5
D8BE
330
2
100
AcDbEntity
  8
L-ZISSEN
100
AcDbCircle
 10
94.87681834699285
 20
-2905.065729306691
 30
0.0
 40
0.500000000001819
100
AcDbArc
 50
0.0
 51
90.0
  0
ARC
  5
D8BF
330
2
100
AcDbEntity
  8
L-ZISSEN
100
AcDbCircle
 10
94.87681834699285
 20
-2905.065729306691
 30
0.0
 40
0.500000000001819
100
AcDbArc
 50
0.0
 51
90.0
  0
LINE
  5
D8F8
330
2
100
AcDbEntity
  8
L-ZISSEN
100
AcDbLine
 10
66.07681834699405
 20
-3039.065729306691
 30
0.0
 11
54.67681834699533
 21
-3039.065729306691
 31
0.0
  0
LINE
  5
D8F9
330
2
100
AcDbEntity
  8
L-ZISSEN
100
AcDbLine
 10
54.87681834699287
 20
-3029.006894717182
 30
0.0
 11
63.37681834699424
 21
-3029.006894717182
 31
0.0
  0
LINE
  5
D8FA
330
2
100
AcDbEntity
  8
L-ZISSEN
100
AcDbLine
 10
53.59850273049005
 20
-3027.06635042151
 30
0.0
 11
67.08953640698837
 21
-3027.067147191282
 31
0.0
  0
LINE
  5
D8FB
330
2
100
AcDbEntity
  8
L-ZISSEN
100
AcDbLine
 10
53.51758414920272
 20
-3024.065729306691
 30
0.0
 11
66.3768183469951
 21
-3024.065729306691
 31
0.0
  0
LINE
  5
D8FC
330
2
100
AcDbEntity
  8
L-ZISSEN
100
AcDbLine
 10
69.37681834699692
 20
-3022.721678846741
 30
0.0
 11
51.12681834699646
 21
-3022.721678846741
 31
0.0
  0
LINE
  5
D8FD
330
2
100
AcDbEntity
  8
L-ZISSEN
100
AcDbLine
 10
66.3768183469951
 20
-3023.925280507255
 30
0.0
 11
51.3768183469951
 21
-3023.925280507255
 31
0.0
  0
LINE
  5
D8FE
330
2
100
AcDbEntity
  8
L-ZISSEN
100
AcDbLine
 10
66.3768183469951
 20
-3023.925280507255
 30
0.0
 11
51.3768183469951
 21
-3023.925280507255
 31
0.0
  0
ARC
  5
D8FF
330
2
100
AcDbEntity
  8
L-ZISSEN
100
AcDbCircle
 10
53.59850273049005
 20
-3021.79502025114
 30
0.0
 40
5.271330170370607
100
AcDbArc
 50
245.0771192748277
 51
295.2523389966478
  0
ARC
  5
D900
330
2
100
AcDbEntity
  8
L-ZISSEN
100
AcDbCircle
 10
53.59850273049136
 20
-3029.336438362242
 30
0.0
 40
5.271330170370607
100
AcDbArc
 50
64.74766100341231
 51
114.9228807251722
  0
LINE
  5
D901
330
2
100
AcDbEntity
  8
L-ZISSEN
100
AcDbLine
 10
35.09681834699222
 20
-2936.404468218323
 30
0.0
 11
35.09681834699449
 21
-3004.404468218322
 31
0.0
  0
LINE
  5
D902
330
2
100
AcDbEntity
  8
L-ZISSEN
100
AcDbLine
 10
43.52681834699524
 20
-2936.404468218323
 30
0.0
 11
43.52681834699524
 21
-3004.404468218322
 31
0.0
  0
LINE
  5
D903
330
2
100
AcDbEntity
  8
L-ZISSEN
100
AcDbLine
 10
39.31181834699373
 20
-3006.404468218323
 30
0.0
 11
35.09681834699449
 21
-3004.404468218322
 31
0.0
  0
ARC
  5
D904
330
2
100
AcDbEntity
  8
L-ZISSEN
100
AcDbCircle
 10
60.37681834699828
 20
-2923.613018225207
 30
0.0
 40
99.53938471878538
100
AcDbArc
 50
256.0937629349466
 51
264.6679223051348
  0
ARC
  5
D905
330
2
100
AcDbEntity
  8
L-ZISSEN
100
AcDbCircle
 10
38.37681834700379
 20
-3012.469413350679
 30
0.0
 40
8.000000000000113
100
AcDbArc
 50
180.0
 51
256.0937629347646
  0
LINE
  5
D906
330
2
100
AcDbEntity
  8
L-ZISSEN
100
AcDbLine
 10
54.37681834699549
 20
-3038.765729306691
 30
0.0
 11
54.3768183469956
 21
-3029.506894717183
 31
0.0
  0
LINE
  5
D907
330
2
100
AcDbEntity
  8
L-ZISSEN
100
AcDbLine
 10
55.37681834699469
 20
-3029.006894717182
 30
0.0
 11
55.37681834699481
 21
-3039.065729306691
 31
0.0
  0
LINE
  5
D908
330
2
100
AcDbEntity
  8
L-ZISSEN
100
AcDbLine
 10
54.67681834699533
 20
-3039.065729306691
 30
0.0
 11
54.3768183469956
 21
-3038.765729306691
 31
0.0
  0
LINE
  5
D909
330
2
100
AcDbEntity
  8
L-ZISSEN
100
AcDbLine
 10
43.52681834699524
 20
-3004.404468218322
 30
0.0
 11
39.31181834699373
 21
-3006.404468218323
 31
0.0
  0
LINE
  5
D90A
330
2
100
AcDbEntity
  8
L-ZISSEN
100
AcDbLine
 10
55.37681834699288
 20
-3029.006894717182
 30
0.0
 11
54.87681834699561
 21
-3028.506894717182
 31
0.0
  0
LINE
  5
D90B
330
2
100
AcDbEntity
  8
L-ZISSEN
100
AcDbLine
 10
54.87681834699287
 20
-3029.006894717182
 30
0.0
 11
54.3768183469956
 21
-3029.506894717183
 31
0.0
  0
LINE
  5
D90C
330
2
100
AcDbEntity
  8
L-ZISSEN
100
AcDbLine
 10
54.87681834699561
 20
-3028.506894717182
 30
0.0
 11
54.87681834699561
 21
-3027.065729306691
 31
0.0
  0
LINE
  5
D90D
330
2
100
AcDbEntity
  8
L-ZISSEN
100
AcDbLine
 10
55.37681834699708
 20
-3027.066425917819
 30
0.0
 11
55.37681834699288
 21
-3029.006894717182
 31
0.0
  0
LINE
  5
D90E
330
2
100
AcDbEntity
  8
L-ZISSEN
100
AcDbLine
 10
51.37717472691196
 20
-3024.555996576634
 30
0.0
 11
51.37717472691196
 21
-3026.575462036747
 31
0.0
  0
LINE
  5
D90F
330
2
100
AcDbEntity
  8
L-ZISSEN
100
AcDbLine
 10
51.3768183469951
 20
-3023.925280507255
 30
0.0
 11
51.3768183469951
 21
-3022.721678846741
 31
0.0
  0
LINE
  5
D910
330
2
100
AcDbEntity
  8
L-ZISSEN
100
AcDbLine
 10
35.09681834699222
 20
-2936.404468218323
 30
0.0
 11
43.52681834699524
 21
-2936.404468218323
 31
0.0
  0
LINE
  5
D911
330
2
100
AcDbEntity
  8
L-ZISSEN
100
AcDbLine
 10
99.37681834699333
 20
-2952.014836095072
 30
0.0
 11
93.87681834699606
 21
-2953.955215208702
 31
0.0
  0
LINE
  5
D912
330
2
100
AcDbEntity
  8
L-ZISSEN
100
AcDbLine
 10
77.22681834699187
 20
-2936.404468218323
 30
0.0
 11
77.22681834699187
 21
-3004.404468218322
 31
0.0
  0
LINE
  5
D913
330
2
100
AcDbEntity
  8
L-ZISSEN
100
AcDbLine
 10
85.65681834699489
 20
-2936.404468218323
 30
0.0
 11
85.65681834699262
 21
-3004.404468218322
 31
0.0
  0
ARC
  5
D914
330
2
100
AcDbEntity
  8
L-ZISSEN
100
AcDbCircle
 10
60.37681834699828
 20
-2923.613018225207
 30
0.0
 40
99.53938471878515
100
AcDbArc
 50
275.3320776948651
 51
283.9062370650426
  0
LINE
  5
D915
330
2
100
AcDbEntity
  8
L-ZISSEN
100
AcDbLine
 10
66.37681834699378
 20
-3029.506894717183
 30
0.0
 11
66.37681834699378
 21
-3038.765729306691
 31
0.0
  0
LINE
  5
D916
330
2
100
AcDbEntity
  8
L-ZISSEN
100
AcDbLine
 10
65.37681834699696
 20
-3029.006894717182
 30
0.0
 11
65.37681834699902
 21
-3039.065729306691
 31
0.0
  0
LINE
  5
D917
330
2
100
AcDbEntity
  8
L-ZISSEN
100
AcDbLine
 10
64.37681834699787
 20
-3029.006894717182
 30
0.0
 11
64.37681834699799
 21
-3039.065729306691
 31
0.0
  0
LINE
  5
D918
330
2
100
AcDbEntity
  8
L-ZISSEN
100
AcDbLine
 10
63.37681834699424
 20
-3029.006894717182
 30
0.0
 11
63.37681834699424
 21
-3039.065729306691
 31
0.0
  0
LINE
  5
D919
330
2
100
AcDbEntity
  8
L-ZISSEN
100
AcDbLine
 10
56.37681834699378
 20
-3029.006894717182
 30
0.0
 11
56.37681834699378
 21
-3039.065729306691
 31
0.0
  0
LINE
  5
D91A
330
2
100
AcDbEntity
  8
L-ZISSEN
100
AcDbLine
 10
57.37681834699515
 20
-3029.006894717182
 30
0.0
 11
57.37681834699526
 21
-3039.065729306691
 31
0.0
  0
LINE
  5
D91B
330
2
100
AcDbEntity
  8
L-ZISSEN
100
AcDbLine
 10
62.37681834699515
 20
-3029.006894717182
 30
0.0
 11
62.37681834699526
 21
-3039.065729306691
 31
0.0
  0
LINE
  5
D91C
330
2
100
AcDbEntity
  8
L-ZISSEN
100
AcDbLine
 10
61.37681834699606
 20
-3029.006894717182
 30
0.0
 11
61.37681834699617
 21
-3039.065729306691
 31
0.0
  0
LINE
  5
D91D
330
2
100
AcDbEntity
  8
L-ZISSEN
100
AcDbLine
 10
60.37681834699696
 20
-3029.006894717182
 30
0.0
 11
60.37681834699708
 21
-3039.065729306691
 31
0.0
  0
LINE
  5
D91E
330
2
100
AcDbEntity
  8
L-ZISSEN
100
AcDbLine
 10
59.3768183469956
 20
-3029.006894717182
 30
0.0
 11
59.37681834699572
 21
-3039.065729306691
 31
0.0
  0
LINE
  5
D91F
330
2
100
AcDbEntity
  8
L-ZISSEN
100
AcDbLine
 10
58.37681834699651
 20
-3029.006894717182
 30
0.0
 11
58.37681834699663
 21
-3039.065729306691
 31
0.0
  0
LINE
  5
D920
330
2
100
AcDbEntity
  8
L-ZISSEN
100
AcDbLine
 10
66.07681834699405
 20
-3039.065729306691
 30
0.0
 11
66.37681834699378
 21
-3038.765729306691
 31
0.0
  0
ARC
  5
D921
330
2
100
AcDbEntity
  8
L-ZISSEN
100
AcDbCircle
 10
67.08953640698837
 20
-3021.79581702091
 30
0.0
 40
5.271330170371532
100
AcDbArc
 50
244.7408933165791
 51
295.7116451148635
  0
ARC
  5
D922
330
2
100
AcDbEntity
  8
L-ZISSEN
100
AcDbCircle
 10
67.08953640698968
 20
-3029.335641592472
 30
0.0
 40
5.271330170371789
100
AcDbArc
 50
64.28835488513648
 51
115.2591066834208
  0
LINE
  5
D923
330
2
100
AcDbEntity
  8
L-ZISSEN
100
AcDbLine
 10
65.37681834699424
 20
-3029.006894717182
 30
0.0
 11
65.87681834699378
 21
-3028.506894717182
 31
0.0
  0
LINE
  5
D924
330
2
100
AcDbEntity
  8
L-ZISSEN
100
AcDbLine
 10
63.37681834699424
 20
-3029.006894717182
 30
0.0
 11
65.87681834699424
 21
-3029.006894717182
 31
0.0
  0
LINE
  5
D925
330
2
100
AcDbEntity
  8
L-ZISSEN
100
AcDbLine
 10
65.37681834699845
 20
-3027.067075569113
 30
0.0
 11
65.37681834699424
 21
-3029.006894717182
 31
0.0
  0
LINE
  5
D926
330
2
100
AcDbEntity
  8
L-ZISSEN
100
AcDbLine
 10
63.37681834699555
 20
-3024.065729306691
 30
0.0
 11
63.37681834699555
 21
-3023.925280507255
 31
0.0
  0
LINE
  5
D927
330
2
100
AcDbEntity
  8
L-ZISSEN
100
AcDbLine
 10
64.84019398401319
 20
-3024.568317350377
 30
0.0
 11
64.84019398401319
 21
-3026.563141263006
 31
0.0
  0
LINE
  5
D928
330
2
100
AcDbEntity
  8
L-ZISSEN
100
AcDbLine
 10
55.84728202897753
 20
-3024.56884846464
 30
0.0
 11
55.84728202898435
 21
-3026.562610148743
 31
0.0
  0
ARC
  5
D929
330
2
100
AcDbEntity
  8
L-ZISSEN
100
AcDbCircle
 10
60.37681834699469
 20
-3006.424666632774
 30
0.0
 40
20.64106267391694
100
AcDbArc
 50
257.3236813122691
 51
282.4944195184277
  0
ARC
  5
D92A
330
2
100
AcDbEntity
  8
L-ZISSEN
100
AcDbCircle
 10
60.37681834699601
 20
-3044.706791980608
 30
0.0
 40
20.64106267391679
100
AcDbArc
 50
77.50558048157066
 51
102.6763186877428
  0
LINE
  5
D92B
330
2
100
AcDbEntity
  8
L-ZISSEN
100
AcDbLine
 10
69.37681834699692
 20
-3023.925280507255
 30
0.0
 11
66.3768183469951
 21
-3023.925280507255
 31
0.0
  0
LINE
  5
D92C
330
2
100
AcDbEntity
  8
L-ZISSEN
100
AcDbLine
 10
69.37681834699692
 20
-3023.925280507255
 30
0.0
 11
66.3768183469951
 21
-3023.925280507255
 31
0.0
  0
LINE
  5
D92D
330
2
100
AcDbEntity
  8
L-ZISSEN
100
AcDbLine
 10
65.87681834699424
 20
-3029.006894717182
 30
0.0
 11
66.37681834699378
 21
-3029.506894717183
 31
0.0
  0
LINE
  5
D92E
330
2
100
AcDbEntity
  8
L-ZISSEN
100
AcDbLine
 10
65.8768183469939
 20
-3028.506894717182
 30
0.0
 11
65.87681834699378
 21
-3027.065729306691
 31
0.0
  0
LINE
  5
D92F
330
2
100
AcDbEntity
  8
L-ZISSEN
100
AcDbLine
 10
66.3768183469951
 20
-3024.065729306691
 30
0.0
 11
67.21179132609126
 21
-3024.065729306691
 31
0.0
  0
LINE
  5
D930
330
2
100
AcDbEntity
  8
L-ZISSEN
100
AcDbLine
 10
69.37646196708232
 20
-3024.586231813596
 30
0.0
 11
69.37646196708232
 21
-3026.545226799784
 31
0.0
  0
LINE
  5
D931
330
2
100
AcDbEntity
  8
L-ZISSEN
100
AcDbLine
 10
69.25181834699646
 20
-3023.925280507254
 30
0.0
 11
69.25181834699646
 21
-3022.721678846741
 31
0.0
  0
LINE
  5
D932
330
2
100
AcDbEntity
  8
L-ZISSEN
100
AcDbLine
 10
69.62681834699782
 20
-3022.721678846741
 30
0.0
 11
69.37681834699692
 21
-3022.721678846741
 31
0.0
  0
LINE
  5
D933
330
2
100
AcDbEntity
  8
L-ZISSEN
100
AcDbLine
 10
81.44181834699566
 20
-3006.404468218323
 30
0.0
 11
85.65681834699262
 21
-3004.404468218322
 31
0.0
  0
ARC
  5
D934
330
2
100
AcDbEntity
  8
L-ZISSEN
100
AcDbCircle
 10
82.37681834700243
 20
-3012.469413350679
 30
0.0
 40
8.000000000000113
100
AcDbArc
 50
283.9062370650529
 51
0.0
  0
LINE
  5
D935
330
2
100
AcDbEntity
  8
L-ZISSEN
100
AcDbLine
 10
77.22681834699187
 20
-3004.404468218322
 30
0.0
 11
81.44181834699566
 21
-3006.404468218323
 31
0.0
  0
LINE
  5
D936
330
2
100
AcDbEntity
  8
L-ZISSEN
100
AcDbLine
 10
85.65681834699489
 20
-2936.404468218323
 30
0.0
 11
77.22681834699187
 21
-2936.404468218323
 31
0.0
  0
LINE
  5
D937
330
2
100
AcDbEntity
  8
L-ZISSEN
100
AcDbLine
 10
93.87681834699606
 20
-2953.955215208702
 30
0.0
 11
93.69091367154624
 21
-2953.955215208702
 31
0.0
  0
LINE
  5
D938
330
2
100
AcDbEntity
  8
L-ZISSEN
100
AcDbLine
 10
91.92723952777441
 20
-2959.53921159215
 30
0.0
 11
93.69091367154624
 21
-2952.059235844706
 31
0.0
  0
LINE
  5
D939
330
2
100
AcDbEntity
  8
L-ZISSEN
100
AcDbLine
 10
90.44065569701842
 20
-2959.188695821327
 30
0.0
 11
92.20432984079025
 21
-2951.708720073883
 31
0.0
  0
LINE
  5
D93A
330
2
100
AcDbEntity
  8
L-ZISSEN
100
AcDbLine
 10
91.92723952777441
 20
-2959.53921159215
 30
0.0
 11
90.37681834699469
 21
-2959.53921159215
 31
0.0
  0
LINE
  5
D93B
330
2
100
AcDbEntity
  8
L-ZISSEN
100
AcDbLine
 10
92.20432984079025
 20
-2949.872751603772
 30
0.0
 11
92.20432984079025
 21
-2951.708720073883
 31
0.0
  0
LINE
  5
D93C
330
2
100
AcDbEntity
  8
L-ZISSEN
100
AcDbLine
 10
93.69091367154624
 20
-2952.059235844706
 30
0.0
 11
93.69091367154624
 21
-2949.872751603772
 31
0.0
  0
LINE
  5
D93D
330
2
100
AcDbEntity
  8
L-ZISSEN
100
AcDbLine
 10
93.69091367154624
 20
-2949.872751603772
 30
0.0
 11
90.37681834699469
 21
-2949.872751603772
 31
0.0
  0
LINE
  5
D93E
330
2
100
AcDbEntity
  8
L-ZISSEN
100
AcDbLine
 10
95.37681834699469
 20
-2947.06572930669
 30
0.0
 11
99.37681834699333
 21
-2947.730667112473
 31
0.0
  0
LINE
  5
D93F
330
2
100
AcDbEntity
  8
L-ZISSEN
100
AcDbLine
 10
99.37681834699333
 20
-2947.730667112473
 30
0.0
 11
99.37681834699333
 21
-2952.014836095072
 31
0.0
  0
LINE
  5
D940
330
2
100
AcDbEntity
  8
L-ZISSEN
100
AcDbLine
 10
90.37681834699245
 20
-3012.469413350679
 30
0.0
 11
90.37681834699469
 21
-2926.06572930669
 31
0.0
  0
LINE
  5
D941
330
2
100
AcDbEntity
  8
L-ZISSEN
100
AcDbLine
 10
93.69091367154624
 20
-2953.955215208702
 30
0.0
 11
93.69091367154624
 21
-2926.065729306691
 31
0.0
  0
LINE
  5
D942
330
2
100
AcDbEntity
  8
L-ZISSEN
100
AcDbLine
 10
90.37681834699469
 20
-2926.06572930669
 30
0.0
 11
90.37681834699469
 21
-2967.38972376089
 31
0.0
  0
LINE
  5
D943
330
2
100
AcDbEntity
  8
L-ZISSEN
100
AcDbLine
 10
95.37681834699469
 20
-2926.065729306691
 30
0.0
 11
95.37681834699469
 21
-2947.06572930669
 31
0.0
  0
LINE
  5
D944
330
2
100
AcDbEntity
  8
L-ZISSEN
100
AcDbLine
 10
30.37681834699242
 20
-3012.469413350679
 30
0.0
 11
30.37681834699469
 21
-2926.06572930669
 31
0.0
  0
LINE
  5
D955
330
2
100
AcDbEntity
  8
L-TYUSIN
100
AcDbLine
 10
4.764485920405604
 20
-2642.365729306691
 30
0.0
 11
128.8768183469771
 21
-2642.365729306685
 31
0.0
  0
CIRCLE
  5
D956
330
2
100
AcDbEntity
  8
L-SOUZOU
100
AcDbCircle
 10
60.37681834699469
 20
-2642.365729306689
 30
0.0
 40
26.0
  0
CIRCLE
  5
D957
330
2
100
AcDbEntity
  8
L-ZISSEN
100
AcDbCircle
 10
60.37681834699469
 20
-2642.36572930669
 30
0.0
 40
24.77565943703641
  0
CIRCLE
  5
D958
330
2
100
AcDbEntity
  8
L-ZISSEN
100
AcDbCircle
 10
60.37681834699469
 20
-2642.36572930669
 30
0.0
 40
23.96246809175248
  0
CIRCLE
  5
D959
330
2
100
AcDbEntity
  8
L-ZISSEN
100
AcDbCircle
 10
60.37681834699469
 20
-2642.36572930669
 30
0.0
 40
30.0
  0
LINE
  5
D95A
330
2
100
AcDbEntity
  8
L-SOUZOU
100
AcDbLine
 10
14.37681834699105
 20
-2677.365729306687
 30
0.0
 11
64.31257474662732
 21
-2670.340223431924
 31
0.0
  0
LINE
  5
D95B
330
2
100
AcDbEntity
  8
L-SOUZOU
100
AcDbLine
 10
14.37681834699105
 20
-2607.365729306692
 30
0.0
 11
64.31257474662732
 21
-2614.391235181455
 31
0.0
  0
INSERT
  5
D95C
330
2
100
AcDbEntity
  8
L-ZISSEN
100
AcDbBlockReference
  2
12
 10
396.7252800864596
 20
-92.26805665492429
 30
0.0
  0
POLYLINE
  5
D95D
330
2
100
AcDbEntity
  8
L-ZISSEN
100
AcDb2dPolyline
 66
     1
 10
0.0
 20
0.0
 30
0.0
 70
     1
  0
VERTEX
  5
E1BB
330
D95D
100
AcDbEntity
  8
L-ZISSEN
100
AcDbVertex
100
AcDb2dVertex
 10
47.95041147580184
 20
-2612.36572930669
 30
0.0
  0
VERTEX
  5
E1BC
330
D95D
100
AcDbEntity
  8
L-ZISSEN
100
AcDbVertex
100
AcDb2dVertex
 10
30.37681834699469
 20
-2629.939322435497
 30
0.0
  0
VERTEX
  5
E1BD
330
D95D
100
AcDbEntity
  8
L-ZISSEN
100
AcDbVertex
100
AcDb2dVertex
 10
30.37681834699469
 20
-2654.792136177883
 30
0.0
  0
VERTEX
  5
E1BE
330
D95D
100
AcDbEntity
  8
L-ZISSEN
100
AcDbVertex
100
AcDb2dVertex
 10
47.95041147580184
 20
-2672.36572930669
 30
0.0
  0
VERTEX
  5
E1BF
330
D95D
100
AcDbEntity
  8
L-ZISSEN
100
AcDbVertex
100
AcDb2dVertex
 10
72.80322521818755
 20
-2672.36572930669
 30
0.0
  0
VERTEX
  5
E1C0
330
D95D
100
AcDbEntity
  8
L-ZISSEN
100
AcDbVertex
100
AcDb2dVertex
 10
90.37681834699469
 20
-2654.792136177883
 30
0.0
  0
VERTEX
  5
E1C1
330
D95D
100
AcDbEntity
  8
L-ZISSEN
100
AcDbVertex
100
AcDb2dVertex
 10
90.37681834699469
 20
-2629.939322435497
 30
0.0
  0
VERTEX
  5
E1C2
330
D95D
100
AcDbEntity
  8
L-ZISSEN
100
AcDbVertex
100
AcDb2dVertex
 10
72.80322521818755
 20
-2612.36572930669
 30
0.0
  0
SEQEND
  5
E1C3
330
D95D
100
AcDbEntity
  8
L-ZISSEN
  0
LINE
  5
D95E
330
2
100
AcDbEntity
  8
L-SOUZOU
100
AcDbLine
 10
14.37681834699105
 20
-2677.365729306687
 30
0.0
 11
14.37681834699105
 21
-2607.365729306692
 31
0.0
  0
LINE
  5
D95F
330
2
100
AcDbEntity
  8
L-SOUZOU
100
AcDbLine
 10
12.37681834699105
 20
-2677.365729306687
 30
0.0
 11
12.37681834699105
 21
-2607.365729306692
 31
0.0
  0
LINE
  5
D960
330
2
100
AcDbEntity
  8
L-SOUZOU
100
AcDbLine
 10
12.37681834699105
 20
-2677.365729306687
 30
0.0
 11
14.37681834699105
 21
-2677.365729306687
 31
0.0
  0
LINE
  5
D961
330
2
100
AcDbEntity
  8
L-TYUSIN
100
AcDbLine
 10
19.37681834699105
 20
-2615.365729306691
 30
0.0
 11
7.376818346991058
 21
-2615.365729306691
 31
0.0
  0
LINE
  5
D962
330
2
100
AcDbEntity
  8
L-TYUSIN
100
AcDbLine
 10
7.376818346991058
 20
-2669.365729306691
 30
0.0
 11
19.37681834699105
 21
-2669.365729306691
 31
0.0
  0
CIRCLE
  5
D963
330
2
100
AcDbEntity
  8
L-ZISSEN
100
AcDbCircle
 10
30.37681834699469
 20
-2618.865729306687
 30
0.0
 40
4.45
  0
CIRCLE
  5
D964
330
2
100
AcDbEntity
  8
L-ZISSEN
100
AcDbCircle
 10
30.37681834699469
 20
-2665.86572930669
 30
0.0
 40
4.45
  0
LINE
  5
D965
330
2
100
AcDbEntity
  8
L-SOUZOU
100
AcDbLine
 10
12.37681834699105
 20
-2607.365729306692
 30
0.0
 11
14.37681834699105
 21
-2607.365729306692
 31
0.0
  0
LINE
  5
D966
330
2
100
AcDbEntity
  8
L-TYUSIN
100
AcDbLine
 10
60.37681834699469
 20
-2682.365729306689
 30
0.0
 11
60.37681834699469
 21
-2602.365729306689
 31
0.0
  0
ARC
  5
D967
330
2
100
AcDbEntity
  8
L-SOUZOU
100
AcDbCircle
 10
60.37681834699469
 20
-2642.365729306689
 30
0.0
 40
28.25
100
AcDbArc
 50
278.0084306809344
 51
81.99156931906564
  0
CIRCLE
  5
D96A
330
2
100
AcDbEntity
  8
L-ZISSEN
100
AcDbCircle
 10
90.37681834699469
 20
-2618.865729306687
 30
0.0
 40
4.45
  0
CIRCLE
  5
D96B
330
2
100
AcDbEntity
  8
L-ZISSEN
100
AcDbCircle
 10
90.37681834699469
 20
-2665.86572930669
 30
0.0
 40
4.45
  0
LINE
  5
D976
330
2
100
AcDbEntity
  8
L-ZISSEN
100
AcDbLine
 10
78.37681834699106
 20
-2909.865729306695
 30
0.0
 11
42.37681834699287
 21
-2909.865729306695
 31
0.0
  0
LINE
  5
D977
330
2
100
AcDbEntity
  8
L-ZISSEN
100
AcDbLine
 10
42.37681834699287
 20
-2913.365729306696
 30
0.0
 11
78.37681834699106
 21
-2913.365729306696
 31
0.0
  0
LINE
  5
D979
330
2
100
AcDbEntity
  8
L-TYUSIN
100
AcDbLine
 10
260.3768183469946
 20
-3044.065729306691
 30
0.0
 11
260.3768183469946
 21
-2778.112686079676
 31
0.0
  0
LINE
  5
D97A
330
2
100
AcDbEntity
  8
L-TYUSIN
100
AcDbLine
 10
220.3768183469928
 20
-2892.365729306691
 30
0.0
 11
300.3768183469965
 21
-2892.365729306691
 31
0.0
  0
LINE
  5
D97B
330
2
100
AcDbEntity
  8
L-ZISSEN
100
AcDbLine
 10
282.3768183469947
 20
-2780.365729306687
 30
0.0
 11
238.3768183469928
 21
-2780.365729306687
 31
0.0
  0
ARC
  5
D97C
330
2
100
AcDbEntity
  8
L-ZISSEN
100
AcDbCircle
 10
260.3768183469946
 20
-2916.054435412335
 30
0.0
 40
67.68870610564736
100
AcDbArc
 50
79.42154710242788
 51
100.5784528975721
  0
LINE
  5
D97D
330
2
100
AcDbEntity
  8
L-ZISSEN
100
AcDbLine
 10
237.9374082112068
 20
-2832.365729306687
 30
0.0
 11
282.8162284827752
 21
-2832.365729306687
 31
0.0
  0
LINE
  5
D97E
330
2
100
AcDbEntity
  8
L-ZISSEN
100
AcDbLine
 10
238.8768183469947
 20
-2834.365729306687
 30
0.0
 11
281.8768183469965
 21
-2834.365729306687
 31
0.0
  0
LINE
  5
D97F
330
2
100
AcDbEntity
  8
L-ZISSEN
100
AcDbLine
 10
281.5900217825911
 20
-2848.365729306687
 30
0.0
 11
239.1636149113982
 21
-2848.365729306687
 31
0.0
  0
ARC
  5
D980
330
2
100
AcDbEntity
  8
L-ZISSEN
100
AcDbCircle
 10
260.3768183469946
 20
-2786.67702320104
 30
0.0
 40
67.68870610564736
100
AcDbArc
 50
259.4215471024278
 51
280.5784528975721
  0
LINE
  5
D981
330
2
100
AcDbEntity
  8
L-ZISSEN
100
AcDbLine
 10
281.5900217825911
 20
-2854.365729306688
 30
0.0
 11
239.1636149113982
 21
-2854.365729306688
 31
0.0
  0
LINE
  5
D982
330
2
100
AcDbEntity
  8
L-ZISSEN
100
AcDbLine
 10
277.5366684534456
 20
-2869.006246788525
 30
0.0
 11
242.6924439251525
 21
-2869.006246788525
 31
0.0
  0
LINE
  5
D983
330
2
100
AcDbEntity
  8
L-ZISSEN
100
AcDbLine
 10
242.6924439251506
 20
-2878.032583322367
 30
0.0
 11
277.5366684534456
 21
-2878.032583322367
 31
0.0
  0
CIRCLE
  5
D985
330
2
100
AcDbEntity
  8
L-SOUZOU
100
AcDbCircle
 10
260.3768183469946
 20
-2892.365729306691
 30
0.0
 40
18.0
  0
CIRCLE
  5
D986
330
2
100
AcDbEntity
  8
L-SOUZOU
100
AcDbCircle
 10
260.3768183469946
 20
-2892.365729306691
 30
0.0
 40
21.0
  0
LINE
  5
D988
330
2
100
AcDbEntity
  8
L-ZISSEN
100
AcDbLine
 10
236.0654770738001
 20
-2844.365729306691
 30
0.0
 11
284.6881596201892
 21
-2844.365729306691
 31
0.0
  0
LINE
  5
D989
330
2
100
AcDbEntity
  8
L-ZISSEN
100
AcDbLine
 10
295.3768183469946
 20
-2856.365729306688
 30
0.0
 11
225.3768183469945
 21
-2856.365729306688
 31
0.0
  0
LINE
  5
D98A
330
2
100
AcDbEntity
  8
L-ZISSEN
100
AcDbLine
 10
292.3768183469965
 20
-2880.365729306687
 30
0.0
 11
228.3768183469983
 21
-2880.365729306687
 31
0.0
  0
LINE
  5
D98B
330
2
100
AcDbEntity
  8
L-SOUZOU
100
AcDbLine
 10
295.3768183469946
 20
-2854.365729306688
 30
0.0
 11
225.3768183469947
 21
-2854.365729306688
 31
0.0
  0
LINE
  5
D98C
330
2
100
AcDbEntity
  8
L-ZISSEN
100
AcDbLine
 10
295.3768183469946
 20
-2868.365729306687
 30
0.0
 11
225.3768183469947
 21
-2868.365729306687
 31
0.0
  0
LINE
  5
D98D
330
2
100
AcDbEntity
  8
L-SOUZOU
100
AcDbLine
 10
295.3768183469946
 20
-2856.365729306688
 30
0.0
 11
225.3768183469947
 21
-2856.365729306688
 31
0.0
  0
LINE
  5
D98F
330
2
100
AcDbEntity
  8
L-TYUSIN
100
AcDbLine
 10
220.3768183469946
 20
-2892.365729306691
 30
0.0
 11
300.3768183469983
 21
-2892.365729306691
 31
0.0
  0
LINE
  5
D990
330
2
100
AcDbEntity
  8
L-ZISSEN
100
AcDbLine
 10
247.9504114758018
 20
-2849.516135565342
 30
0.0
 11
247.9504114758018
 21
-2853.215323048033
 31
0.0
  0
LINE
  5
D991
330
2
100
AcDbEntity
  8
L-ZISSEN
100
AcDbLine
 10
230.3768183469947
 20
-2849.516135565342
 30
0.0
 11
230.3768183469947
 21
-2853.215323048033
 31
0.0
  0
LINE
  5
D992
330
2
100
AcDbEntity
  8
L-SOUZOU
100
AcDbLine
 10
225.3768183469947
 20
-2856.365729306688
 30
0.0
 11
225.3768183469947
 21
-2830.365729306687
 31
0.0
  0
LINE
  5
D993
330
2
100
AcDbEntity
  8
L-TYUSIN
100
AcDbLine
 10
260.3768183469946
 20
-2934.365729306692
 30
0.0
 11
260.3768183469946
 21
-2779.112686079676
 31
0.0
  0
ARC
  5
D994
330
2
100
AcDbEntity
  8
L-ZISSEN
100
AcDbCircle
 10
231.081629573413
 20
-2860.991915694803
 30
0.0
 40
2.715501624969247
100
AcDbArc
 50
354.9022474682891
 51
91.24326520780831
  0
LINE
  5
D995
330
2
100
AcDbEntity
  8
L-ZISSEN
100
AcDbLine
 10
227.0441209392684
 20
-2861.233202206395
 30
0.0
 11
233.7863901717883
 21
-2861.233202206395
 31
0.0
  0
LINE
  5
D996
330
2
100
AcDbEntity
  8
L-ZISSEN
100
AcDbLine
 10
233.7863901717883
 20
-2862.376336114498
 30
0.0
 11
227.0441209392684
 21
-2862.376336114498
 31
0.0
  0
LINE
  5
D997
330
2
100
AcDbEntity
  8
L-ZISSEN
100
AcDbLine
 10
235.4536927640619
 20
-2862.376336114498
 30
0.0
 11
225.3768183469947
 21
-2862.376336114498
 31
0.0
  0
ARC
  5
D998
330
2
100
AcDbEntity
  8
L-ZISSEN
100
AcDbCircle
 10
239.1636149113982
 20
-2820.2337746892
 30
0.0
 40
34.1319546174875
100
AcDbArc
 50
255.0820176392774
 51
284.9179823607225
  0
LINE
  5
D99B
330
2
100
AcDbEntity
  8
L-ZISSEN
100
AcDbLine
 10
231.0227103338329
 20
-2858.27705334131
 30
0.0
 11
231.0227103338329
 21
-2859.26206707328
 31
0.0
  0
LINE
  5
D99C
330
2
100
AcDbEntity
  8
L-ZISSEN
100
AcDbLine
 10
229.8078007772237
 20
-2859.26206707328
 30
0.0
 11
229.8078007772237
 21
-2858.27705334131
 31
0.0
  0
LINE
  5
D99D
330
2
100
AcDbEntity
  8
L-ZISSEN
100
AcDbLine
 10
227.0441209392684
 20
-2862.376336114498
 30
0.0
 11
227.0441209392684
 21
-2861.233202206395
 31
0.0
  0
ARC
  5
D99E
330
2
100
AcDbEntity
  8
L-ZISSEN
100
AcDbCircle
 10
229.7488815376455
 20
-2860.991915694803
 30
0.0
 40
2.715501624969762
100
AcDbArc
 50
88.7567347921917
 51
185.0977525317109
  0
LINE
  5
D99F
330
2
100
AcDbEntity
  8
L-ZISSEN
100
AcDbLine
 10
231.0227103338329
 20
-2859.26206707328
 30
0.0
 11
229.8078007772237
 21
-2859.26206707328
 31
0.0
  0
LINE
  5
D9A0
330
2
100
AcDbEntity
  8
L-ZISSEN
100
AcDbLine
 10
225.3768183469947
 20
-2871.365729306687
 30
0.0
 11
227.7662074879408
 21
-2871.365729306687
 31
0.0
  0
LINE
  5
D9A1
330
2
100
AcDbEntity
  8
L-ZISSEN
100
AcDbLine
 10
225.3768183469945
 20
-2856.365729306688
 30
0.0
 11
225.3768183469947
 21
-2871.365729306687
 31
0.0
  0
LINE
  5
D9A2
330
2
100
AcDbEntity
  8
L-ZISSEN
100
AcDbLine
 10
225.3768183469947
 20
-2874.865729306687
 30
0.0
 11
227.7662074879408
 21
-2874.865729306687
 31
0.0
  0
LINE
  5
D9A9
330
2
100
AcDbEntity
  8
L-ZISSEN
100
AcDbLine
 10
230.3768183469947
 20
-2904.565729306691
 30
0.0
 11
230.3768183469947
 21
-2880.365729306687
 31
0.0
  0
LINE
  5
D9AA
330
2
100
AcDbEntity
  8
L-ZISSEN
100
AcDbLine
 10
228.3768183469983
 20
-2904.565729306691
 30
0.0
 11
228.3768183469983
 21
-2880.365729306687
 31
0.0
  0
LINE
  5
D9AB
330
2
100
AcDbEntity
  8
L-ZISSEN
100
AcDbLine
 10
225.3768183469947
 20
-2874.865729306687
 30
0.0
 11
225.3768183469947
 21
-2909.865729306696
 31
0.0
  0
LINE
  5
D9AC
330
2
100
AcDbEntity
  8
L-ZISSEN
100
AcDbLine
 10
232.8768183469946
 20
-2868.365729306687
 30
0.0
 11
232.8768183469946
 21
-2879.365729306693
 31
0.0
  0
LINE
  5
D9AD
330
2
100
AcDbEntity
  8
L-ZISSEN
100
AcDbLine
 10
232.8768183469946
 20
-2880.365729306687
 30
0.0
 11
232.8768183469946
 21
-2868.365729306687
 31
0.0
  0
LINE
  5
D9AE
330
2
100
AcDbEntity
  8
L-ZISSEN
100
AcDbLine
 10
228.8768183469946
 20
-2868.365729306687
 30
0.0
 11
228.8768183469946
 21
-2880.365729306687
 31
0.0
  0
LINE
  5
D9AF
330
2
100
AcDbEntity
  8
L-ZISSEN
100
AcDbLine
 10
227.7662074879408
 20
-2871.365729306687
 30
0.0
 11
227.7662074879408
 21
-2874.865729306687
 31
0.0
  0
LINE
  5
D9B0
330
2
100
AcDbEntity
  8
L-SOUZOU
100
AcDbLine
 10
259.6912183469918
 20
-2894.244129306692
 30
0.0
 11
249.6288183469907
 21
-2903.696929306692
 31
0.0
  0
LINE
  5
D9B1
330
2
100
AcDbEntity
  8
L-SOUZOU
100
AcDbLine
 10
258.4984183469903
 20
-2893.051329306691
 30
0.0
 11
249.0456183469912
 21
-2903.113729306691
 31
0.0
  0
LINE
  5
D9BA
330
2
100
AcDbEntity
  8
L-SAISEN
100
AcDbLine
 10
236.0654770737965
 20
-2854.224830394333
 30
0.0
 11
236.0654770737965
 21
-2856.365729306688
 31
0.0
  0
LINE
  5
D9BB
330
2
100
AcDbEntity
  8
L-ZISSEN
100
AcDbLine
 10
234.3768183469947
 20
-2854.028403029533
 30
0.0
 11
234.3768183469947
 21
-2856.365729306688
 31
0.0
  0
LINE
  5
D9BC
330
2
100
AcDbEntity
  8
L-ZISSEN
100
AcDbLine
 10
233.7863901717883
 20
-2861.233202206395
 30
0.0
 11
233.7863901717883
 21
-2862.376336114498
 31
0.0
  0
LINE
  5
D9BD
330
2
100
AcDbEntity
  8
L-ZISSEN
100
AcDbLine
 10
235.4536927640619
 20
-2856.365729306688
 30
0.0
 11
235.4536927640619
 21
-2862.376336114498
 31
0.0
  0
LINE
  5
D9C2
330
2
100
AcDbEntity
  8
L-ZISSEN
100
AcDbLine
 10
242.6924439251525
 20
-2869.006246788525
 30
0.0
 11
242.6924439251506
 21
-2878.032583322367
 31
0.0
  0
LINE
  5
D9C3
330
2
100
AcDbEntity
  8
L-SOUZOU
100
AcDbLine
 10
249.063218346989
 20
-2903.679329306692
 30
0.0
 11
249.0544183469901
 21
-2903.670529306691
 31
0.0
  0
LINE
  5
D9C4
330
2
100
AcDbEntity
  8
L-SOUZOU
100
AcDbLine
 10
249.063218346989
 20
-2903.679329306692
 30
0.0
 11
249.0720183469878
 21
-2903.688129306692
 31
0.0
  0
ARC
  5
D9C5
330
2
100
AcDbEntity
  8
L-SOUZOU
100
AcDbCircle
 10
249.3544183469901
 20
-2903.404929306692
 30
0.0
 40
0.4
100
AcDbArc
 50
225.0000000000921
 51
313.209999999828
  0
ARC
  5
D9C6
330
2
100
AcDbEntity
  8
L-SOUZOU
100
AcDbCircle
 10
249.3376183469896
 20
-2903.388129306692
 30
0.0
 40
0.4
100
AcDbArc
 50
136.7899999998952
 51
225.0000000000921
  0
ARC
  5
D9CB
330
2
100
AcDbEntity
  8
L-SOUZOU
100
AcDbCircle
 10
260.3768183469946
 20
-2892.365729306691
 30
0.0
 40
2.0
100
AcDbArc
 50
249.93999999978
 51
16.48050000005471
  0
LINE
  5
D9CC
330
2
100
AcDbEntity
  8
L-SOUZOU
100
AcDbLine
 10
266.3168183469912
 20
-2884.728929306691
 30
0.0
 11
260.9440183469909
 21
-2890.448129306692
 31
0.0
  0
LINE
  5
D9CD
330
2
100
AcDbEntity
  8
L-SOUZOU
100
AcDbLine
 10
268.0136183469906
 20
-2886.425729306692
 30
0.0
 11
262.2944183469924
 21
-2891.798529306692
 31
0.0
  0
CIRCLE
  5
D9CE
330
2
100
AcDbEntity
  8
L-ZISSEN
100
AcDbCircle
 10
260.3768183469946
 20
-2892.365729306691
 30
0.0
 40
5.724999999999999
  0
CIRCLE
  5
D9CF
330
2
100
AcDbEntity
  8
L-SAISEN
100
AcDbCircle
 10
260.3768183469946
 20
-2892.365729306691
 30
0.0
 40
6.58
  0
ARC
  5
D9D0
330
2
100
AcDbEntity
  8
L-SOUZOU
100
AcDbCircle
 10
260.3768183469946
 20
-2892.365729306691
 30
0.0
 40
2.0
100
AcDbArc
 50
73.51949999986849
 51
200.0599999999725
  0
CIRCLE
  5
D9D1
330
2
100
AcDbEntity
  8
L-SOUZOU
100
AcDbCircle
 10
260.3768183469946
 20
-2892.365729306691
 30
0.0
 40
1.2
  0
LINE
  5
D9D2
330
2
100
AcDbEntity
  8
L-SOUZOU
100
AcDbLine
 10
266.3168183469912
 20
-2884.728929306691
 30
0.0
 11
268.0136183469906
 21
-2886.425729306692
 31
0.0
  0
LINE
  5
D9D3
330
2
100
AcDbEntity
  8
L-SOUZOU
100
AcDbLine
 10
235.6317682809148
 20
-2829.365729306687
 30
0.0
 11
226.3768183469965
 21
-2829.365729306687
 31
0.0
  0
LINE
  5
D9D4
330
2
100
AcDbEntity
  8
L-SOUZOU
100
AcDbLine
 10
234.4268183469983
 20
-2835.165729306694
 30
0.0
 11
232.3268183469983
 21
-2835.165729306694
 31
0.0
  0
LINE
  5
D9D5
330
2
100
AcDbEntity
  8
L-SOUZOU
100
AcDbLine
 10
234.4268183469983
 20
-2843.565729306694
 30
0.0
 11
232.3268183469983
 21
-2843.565729306694
 31
0.0
  0
LINE
  5
D9D6
330
2
100
AcDbEntity
  8
L-TYUSIN
 48
0.5
100
AcDbLine
 10
240.8768183469965
 20
-2839.365729306694
 30
0.0
 11
225.8768183469965
 21
-2839.365729306694
 31
0.0
  0
ARC
  5
D9D7
330
2
100
AcDbEntity
  8
L-ZISSEN
100
AcDbCircle
 10
239.1636149113982
 20
-2882.497683924175
 30
0.0
 40
34.1319546174875
100
AcDbArc
 50
75.08201763927741
 51
104.9179823607225
  0
LINE
  5
D9D8
330
2
100
AcDbEntity
  8
L-SOUZOU
100
AcDbLine
 10
226.3768183469965
 20
-2829.365729306687
 30
0.0
 11
225.3768183469947
 21
-2830.365729306687
 31
0.0
  0
ARC
  5
D9D9
330
2
100
AcDbEntity
  8
L-SOUZOU
100
AcDbCircle
 10
232.3268183469983
 20
-2839.365729306694
 30
0.0
 40
4.199999999999988
100
AcDbArc
 50
90.0
 51
270.0
  0
LINE
  5
D9DA
330
2
100
AcDbEntity
  8
L-TYUSIN
100
AcDbLine
 10
233.3768183469983
 20
-2832.865729306695
 30
0.0
 11
233.3768183469983
 21
-2845.865729306694
 31
0.0
  0
LINE
  5
D9DB
330
2
100
AcDbEntity
  8
L-ZISSEN
100
AcDbLine
 10
236.376818346991
 20
-2782.765729306687
 30
0.0
 11
235.6376893993478
 21
-2830.029765625257
 31
0.0
  0
LINE
  5
D9DC
330
2
100
AcDbEntity
  8
L-ZISSEN
100
AcDbLine
 10
238.8768183469947
 20
-2834.365729306692
 30
0.0
 11
238.8768183469947
 21
-2844.365729306691
 31
0.0
  0
LINE
  5
D9DD
330
2
100
AcDbEntity
  8
L-ZISSEN
100
AcDbLine
 10
240.1268183469965
 20
-2832.365729306687
 30
0.0
 11
240.1268183469965
 21
-2834.365729306692
 31
0.0
  0
LINE
  5
D9DE
330
2
100
AcDbEntity
  8
L-ZISSEN
100
AcDbLine
 10
236.0654770738001
 20
-2844.365729306691
 30
0.0
 11
234.3768183469965
 21
-2845.097167165726
 31
0.0
  0
LINE
  5
D9DF
330
2
100
AcDbEntity
  8
L-ZISSEN
100
AcDbLine
 10
234.3768183469965
 20
-2845.097167165726
 30
0.0
 11
234.3768183469965
 21
-2848.703055583841
 31
0.0
  0
LINE
  5
D9E0
330
2
100
AcDbEntity
  8
L-SAISEN
100
AcDbLine
 10
236.0654770738001
 20
-2844.365729306691
 30
0.0
 11
236.0654770738001
 21
-2848.506628219042
 31
0.0
  0
ARC
  5
D9E1
330
2
100
AcDbEntity
  8
L-SOUZOU
100
AcDbCircle
 10
234.4268183469983
 20
-2839.365729306694
 30
0.0
 40
4.199999999999988
100
AcDbArc
 50
270.0
 51
90.0
  0
ARC
  5
D9E2
330
2
100
AcDbEntity
  8
L-ZISSEN
100
AcDbCircle
 10
237.9374082112068
 20
-2830.065729306688
 30
0.0
 40
2.299999999999999
100
AcDbArc
 50
179.1040647226661
 51
270.0
  0
LINE
  5
D9E3
330
2
100
AcDbEntity
  8
L-ZISSEN
100
AcDbLine
 10
236.376818346991
 20
-2782.765729306687
 30
0.0
 11
238.3768183469928
 21
-2780.365729306687
 31
0.0
  0
LINE
  5
D9E4
330
2
100
AcDbEntity
  8
L-SOUZOU
100
AcDbLine
 10
295.3768183469946
 20
-2857.365729306692
 30
0.0
 11
295.3768183469946
 21
-2830.365729306687
 31
0.0
  0
LINE
  5
D9E5
330
2
100
AcDbEntity
  8
L-ZISSEN
100
AcDbLine
 10
290.3768183469947
 20
-2849.516135565342
 30
0.0
 11
290.3768183469947
 21
-2853.215323048033
 31
0.0
  0
LINE
  5
D9E6
330
2
100
AcDbEntity
  8
L-ZISSEN
100
AcDbLine
 10
272.8032252181875
 20
-2849.516135565342
 30
0.0
 11
272.8032252181875
 21
-2853.215323048033
 31
0.0
  0
LINE
  5
D9E7
330
2
100
AcDbEntity
  8
L-ZISSEN
100
AcDbLine
 10
224.3222055709121
 20
-2890.666378874167
 30
0.0
 11
208.2895894937814
 21
-2864.832220894033
 31
0.0
  0
ARC
  5
D9E8
330
2
100
AcDbEntity
  8
L-ZISSEN
100
AcDbCircle
 10
291.0047551563438
 20
-2860.991915694803
 30
0.0
 40
2.715501624969247
100
AcDbArc
 50
354.9022474682891
 51
91.24326520780831
  0
LINE
  5
D9E9
330
2
100
AcDbEntity
  8
L-ZISSEN
100
AcDbLine
 10
286.9672465221992
 20
-2861.233202206395
 30
0.0
 11
293.7095157547228
 21
-2861.233202206395
 31
0.0
  0
LINE
  5
D9EA
330
2
100
AcDbEntity
  8
L-ZISSEN
100
AcDbLine
 10
293.7095157547228
 20
-2862.376336114498
 30
0.0
 11
286.9672465221992
 21
-2862.376336114498
 31
0.0
  0
LINE
  5
D9EB
330
2
100
AcDbEntity
  8
L-ZISSEN
100
AcDbLine
 10
285.2999439299292
 20
-2862.376336114498
 30
0.0
 11
295.3768183469946
 21
-2862.376336114498
 31
0.0
  0
ARC
  5
D9F1
330
2
100
AcDbEntity
  8
L-ZISSEN
100
AcDbCircle
 10
281.5900217825911
 20
-2820.2337746892
 30
0.0
 40
34.1319546174875
100
AcDbArc
 50
255.0820176392774
 51
284.9179823607225
  0
LINE
  5
D9F4
330
2
100
AcDbEntity
  8
L-ZISSEN
100
AcDbLine
 10
281.1268183469946
 20
-2880.365729306687
 30
0.0
 11
281.1268183469946
 21
-2904.565729306691
 31
0.0
  0
LINE
  5
D9F5
330
2
100
AcDbEntity
  8
L-ZISSEN
100
AcDbLine
 10
276.6268183469946
 20
-2880.365729306687
 30
0.0
 11
276.6268183469946
 21
-2904.565729306691
 31
0.0
  0
LINE
  5
D9F6
330
2
100
AcDbEntity
  8
L-ZISSEN
100
AcDbLine
 10
277.5366684534456
 20
-2878.032583322367
 30
0.0
 11
277.5366684534456
 21
-2869.006246788525
 31
0.0
  0
LINE
  5
D9F7
330
2
100
AcDbEntity
  8
L-ZISSEN
100
AcDbLine
 10
290.9458359167656
 20
-2858.27705334131
 30
0.0
 11
290.9458359167656
 21
-2859.26206707328
 31
0.0
  0
LINE
  5
D9F8
330
2
100
AcDbEntity
  8
L-ZISSEN
100
AcDbLine
 10
286.3768183469947
 20
-2854.028403029533
 30
0.0
 11
286.3768183469947
 21
-2856.365729306688
 31
0.0
  0
LINE
  5
D9F9
330
2
100
AcDbEntity
  8
L-SAISEN
100
AcDbLine
 10
284.6881596201928
 20
-2854.224830394333
 30
0.0
 11
284.6881596201928
 21
-2856.365729306688
 31
0.0
  0
LINE
  5
D9FA
330
2
100
AcDbEntity
  8
L-ZISSEN
100
AcDbLine
 10
286.9672465221992
 20
-2862.376336114498
 30
0.0
 11
286.9672465221992
 21
-2861.233202206395
 31
0.0
  0
LINE
  5
D9FB
330
2
100
AcDbEntity
  8
L-ZISSEN
100
AcDbLine
 10
289.7309263601582
 20
-2859.26206707328
 30
0.0
 11
289.7309263601582
 21
-2858.27705334131
 31
0.0
  0
LINE
  5
D9FC
330
2
100
AcDbEntity
  8
L-ZISSEN
100
AcDbLine
 10
285.2999439299292
 20
-2856.365729306688
 30
0.0
 11
285.2999439299292
 21
-2862.376336114498
 31
0.0
  0
ARC
  5
D9FD
330
2
100
AcDbEntity
  8
L-ZISSEN
100
AcDbCircle
 10
289.6720071205781
 20
-2860.991915694803
 30
0.0
 40
2.715501624970328
100
AcDbArc
 50
88.7567347921917
 51
185.0977525317109
  0
LINE
  5
D9FE
330
2
100
AcDbEntity
  8
L-ZISSEN
100
AcDbLine
 10
290.9458359167656
 20
-2859.26206707328
 30
0.0
 11
289.7309263601582
 21
-2859.26206707328
 31
0.0
  0
LINE
  5
D9FF
330
2
100
AcDbEntity
  8
L-ZISSEN
100
AcDbLine
 10
290.3768183469946
 20
-2904.565729306691
 30
0.0
 11
290.3768183469947
 21
-2880.365729306687
 31
0.0
  0
LINE
  5
DA00
330
2
100
AcDbEntity
  8
L-ZISSEN
100
AcDbLine
 10
291.8768183469964
 20
-2868.365729306687
 30
0.0
 11
291.8768183469964
 21
-2880.365729306687
 31
0.0
  0
LINE
  5
DA01
330
2
100
AcDbEntity
  8
L-ZISSEN
100
AcDbLine
 10
287.8768183469947
 20
-2868.365729306687
 30
0.0
 11
287.8768183469947
 21
-2880.365729306687
 31
0.0
  0
LINE
  5
DA02
330
2
100
AcDbEntity
  8
L-ZISSEN
100
AcDbLine
 10
293.7095157547228
 20
-2861.233202206395
 30
0.0
 11
293.7095157547228
 21
-2862.376336114498
 31
0.0
  0
LINE
  5
DA03
330
2
100
AcDbEntity
  8
L-ZISSEN
100
AcDbLine
 10
295.3768183469946
 20
-2862.376336114498
 30
0.0
 11
295.3768183469946
 21
-2857.365729306692
 31
0.0
  0
LINE
  5
DA04
330
2
100
AcDbEntity
  8
L-ZISSEN
100
AcDbLine
 10
295.3768183469946
 20
-2871.365729306687
 30
0.0
 11
295.3768183469946
 21
-2867.365729306692
 31
0.0
  0
LINE
  5
DA05
330
2
100
AcDbEntity
  8
L-ZISSEN
100
AcDbLine
 10
295.3768183469946
 20
-2871.365729306687
 30
0.0
 11
292.9874292060485
 21
-2871.365729306687
 31
0.0
  0
LINE
  5
DA06
330
2
100
AcDbEntity
  8
L-ZISSEN
100
AcDbLine
 10
295.3768183469946
 20
-2857.365729306692
 30
0.0
 11
295.3768183469946
 21
-2867.365729306692
 31
0.0
  0
LINE
  5
DA07
330
2
100
AcDbEntity
  8
L-ZISSEN
100
AcDbLine
 10
295.3768183469946
 20
-2874.865729306687
 30
0.0
 11
292.9874292060485
 21
-2874.865729306687
 31
0.0
  0
SOLID
  5
DA08
330
2
100
AcDbEntity
  8
L-ZISSEN
100
AcDbTrace
 10
224.0389804988246
 20
-2890.842147670181
 30
0.0
 11
224.6054306429996
 21
-2890.490610078153
 31
0.0
 12
225.3768183469947
 22
-2892.365729306691
 32
0.0
 13
225.3768183469947
 23
-2892.365729306691
 33
0.0
  0
LINE
  5
DA0B
330
2
100
AcDbEntity
  8
L-ZISSEN
100
AcDbLine
 10
292.3768183469965
 20
-2904.565729306691
 30
0.0
 11
292.3768183469965
 21
-2880.365729306687
 31
0.0
  0
LINE
  5
DA0C
330
2
100
AcDbEntity
  8
L-ZISSEN
100
AcDbLine
 10
295.3768183469946
 20
-2926.065729306691
 30
0.0
 11
295.3768183469946
 21
-2913.365729306696
 31
0.0
  0
LINE
  5
DA0D
330
2
100
AcDbEntity
  8
L-ZISSEN
100
AcDbLine
 10
292.9874292060485
 20
-2871.365729306687
 30
0.0
 11
292.9874292060485
 21
-2874.865729306687
 31
0.0
  0
TEXT
  5
DA0E
330
2
100
AcDbEntity
  8
L-ZISSEN
100
AcDbText
 10
184.7411288875278
 20
-2871.321695091215
 30
0.0
 40
4.5
  1
Rc3/8
100
AcDbText
  0
LINE
  5
DA0F
330
2
100
AcDbEntity
  8
L-ZISSEN
100
AcDbLine
 10
184.1943058254289
 20
-2864.832220894033
 30
0.0
 11
208.2895894937814
 21
-2864.832220894033
 31
0.0
  0
TEXT
  5
DA10
330
2
100
AcDbEntity
  8
L-ZISSEN
100
AcDbText
 10
184.7411288875278
 20
-2878.821695091215
 30
0.0
 40
4.5
  1
Rc1/2
100
AcDbText
  0
TEXT
  5
DA11
330
2
100
AcDbEntity
  8
L-ZISSEN
100
AcDbText
 10
184.7411288875278
 20
-2863.821695091215
 30
0.0
 40
4.5
  1
IN
100
AcDbText
  0
ARC
  5
DA12
330
2
100
AcDbEntity
  8
L-SOUZOU
100
AcDbCircle
 10
288.426818346991
 20
-2839.365729306694
 30
0.0
 40
4.199999999999988
100
AcDbArc
 50
270.0
 51
90.0
  0
LINE
  5
DA13
330
2
100
AcDbEntity
  8
L-SOUZOU
100
AcDbLine
 10
294.3768183469965
 20
-2829.365729306687
 30
0.0
 11
285.1218684130762
 21
-2829.365729306687
 31
0.0
  0
LINE
  5
DA14
330
2
100
AcDbEntity
  8
L-TYUSIN
 48
0.5
100
AcDbLine
 10
294.8768183469947
 20
-2839.365729306694
 30
0.0
 11
279.8768183469947
 21
-2839.365729306694
 31
0.0
  0
LINE
  5
DA15
330
2
100
AcDbEntity
  8
L-ZISSEN
100
AcDbLine
 10
284.376818346991
 20
-2782.765729306687
 30
0.0
 11
285.1159472946342
 21
-2830.029765625257
 31
0.0
  0
ARC
  5
DA16
330
2
100
AcDbEntity
  8
L-SOUZOU
100
AcDbCircle
 10
286.326818346991
 20
-2839.365729306694
 30
0.0
 40
4.199999999999988
100
AcDbArc
 50
90.0
 51
270.0
  0
ARC
  5
DA17
330
2
100
AcDbEntity
  8
L-ZISSEN
100
AcDbCircle
 10
281.5900217825911
 20
-2882.497683924175
 30
0.0
 40
34.1319546174875
100
AcDbArc
 50
75.08201763927741
 51
104.9179823607225
  0
LINE
  5
DA18
330
2
100
AcDbEntity
  8
L-ZISSEN
100
AcDbLine
 10
281.8768183469965
 20
-2834.365729306692
 30
0.0
 11
281.8768183469965
 21
-2844.365729306691
 31
0.0
  0
LINE
  5
DA19
330
2
100
AcDbEntity
  8
L-ZISSEN
100
AcDbLine
 10
280.6268183469964
 20
-2832.365729306687
 30
0.0
 11
280.6268183469965
 21
-2834.365729306692
 31
0.0
  0
ARC
  5
DA1A
330
2
100
AcDbEntity
  8
L-ZISSEN
100
AcDbCircle
 10
282.8162284827752
 20
-2830.065729306688
 30
0.0
 40
2.299999999999999
100
AcDbArc
 50
270.0
 51
0.8959352773338501
  0
LINE
  5
DA1B
330
2
100
AcDbEntity
  8
L-SOUZOU
100
AcDbLine
 10
286.326818346991
 20
-2835.165729306694
 30
0.0
 11
288.426818346991
 21
-2835.165729306694
 31
0.0
  0
LINE
  5
DA1C
330
2
100
AcDbEntity
  8
L-ZISSEN
100
AcDbLine
 10
284.6881596201892
 20
-2844.365729306691
 30
0.0
 11
286.3768183469947
 21
-2845.097167165726
 31
0.0
  0
LINE
  5
DA1D
330
2
100
AcDbEntity
  8
L-ZISSEN
100
AcDbLine
 10
286.3768183469947
 20
-2845.097167165726
 30
0.0
 11
286.3768183469947
 21
-2848.703055583842
 31
0.0
  0
LINE
  5
DA1E
330
2
100
AcDbEntity
  8
L-SAISEN
100
AcDbLine
 10
284.6881596201892
 20
-2844.365729306691
 30
0.0
 11
284.6881596201892
 21
-2848.506628219042
 31
0.0
  0
LINE
  5
DA1F
330
2
100
AcDbEntity
  8
L-SOUZOU
100
AcDbLine
 10
286.326818346991
 20
-2843.565729306694
 30
0.0
 11
288.426818346991
 21
-2843.565729306694
 31
0.0
  0
LINE
  5
DA20
330
2
100
AcDbEntity
  8
L-TYUSIN
100
AcDbLine
 10
287.3768183469965
 20
-2832.865729306695
 30
0.0
 11
287.3768183469965
 21
-2845.865729306694
 31
0.0
  0
LINE
  5
DA21
330
2
100
AcDbEntity
  8
L-ZISSEN
100
AcDbLine
 10
284.376818346991
 20
-2782.765729306687
 30
0.0
 11
282.3768183469947
 21
-2780.365729306687
 31
0.0
  0
LINE
  5
DA22
330
2
100
AcDbEntity
  8
L-SOUZOU
100
AcDbLine
 10
294.3768183469965
 20
-2829.365729306687
 30
0.0
 11
295.3768183469946
 21
-2830.365729306687
 31
0.0
  0
LINE
  5
DA26
330
2
100
AcDbEntity
  8
L-ZISSEN
100
AcDbLine
 10
292.3768183469965
 20
-2904.565729306691
 30
0.0
 11
228.3768183469983
 21
-2904.565729306691
 31
0.0
  0
LINE
  5
DA28
330
2
100
AcDbEntity
  8
L-ZISSEN
100
AcDbLine
 10
295.3768183469946
 20
-2926.065729306691
 30
0.0
 11
225.3768183469947
 21
-2926.065729306691
 31
0.0
  0
LINE
  5
DA29
330
2
100
AcDbEntity
  8
L-ZISSEN
100
AcDbLine
 10
228.8768183469949
 20
-2904.565729306691
 30
0.0
 11
228.876818346995
 21
-2926.065729306691
 31
0.0
  0
LINE
  5
DA2A
330
2
100
AcDbEntity
  8
L-ZISSEN
100
AcDbLine
 10
291.8768183469967
 20
-2904.565729306691
 30
0.0
 11
291.8768183469967
 21
-2926.065729306691
 31
0.0
  0
LINE
  5
DA2F
330
2
100
AcDbEntity
  8
L-ZISSEN
100
AcDbLine
 10
225.3768183469947
 20
-2913.365729306696
 30
0.0
 11
227.7662074879408
 21
-2913.365729306696
 31
0.0
  0
LINE
  5
DA30
330
2
100
AcDbEntity
  8
L-ZISSEN
100
AcDbLine
 10
225.3768183469947
 20
-2909.865729306696
 30
0.0
 11
227.7662074879408
 21
-2909.865729306696
 31
0.0
  0
LINE
  5
DA31
330
2
100
AcDbEntity
  8
L-ZISSEN
100
AcDbLine
 10
227.7662074879408
 20
-2913.365729306696
 30
0.0
 11
227.7662074879408
 21
-2909.865729306696
 31
0.0
  0
LINE
  5
DA32
330
2
100
AcDbEntity
  8
L-ZISSEN
100
AcDbLine
 10
292.9874292060485
 20
-2913.365729306696
 30
0.0
 11
292.9874292060485
 21
-2909.865729306696
 31
0.0
  0
LINE
  5
DA33
330
2
100
AcDbEntity
  8
L-ZISSEN
100
AcDbLine
 10
295.3768183469946
 20
-2913.365729306696
 30
0.0
 11
292.9874292060485
 21
-2913.365729306696
 31
0.0
  0
LINE
  5
DA34
330
2
100
AcDbEntity
  8
L-ZISSEN
100
AcDbLine
 10
295.3768183469946
 20
-2909.865729306696
 30
0.0
 11
292.9874292060485
 21
-2909.865729306696
 31
0.0
  0
LINE
  5
DA35
330
2
100
AcDbEntity
  8
L-ZISSEN
100
AcDbLine
 10
295.3768183469946
 20
-2909.865729306696
 30
0.0
 11
295.3768183469946
 21
-2874.865729306687
 31
0.0
  0
LINE
  5
DA36
330
2
100
AcDbEntity
  8
L-ZISSEN
100
AcDbLine
 10
225.3768183469947
 20
-2913.365729306696
 30
0.0
 11
225.3768183469947
 21
-2926.065729306692
 31
0.0
  0
ARC
  5
DA37
330
2
100
AcDbEntity
  8
L-ZISSEN
100
AcDbCircle
 10
238.3768183469955
 20
-3012.469413350679
 30
0.0
 40
8.000000000000113
100
AcDbArc
 50
180.0
 51
256.0937629349466
  0
LINE
  5
DA38
330
2
100
AcDbEntity
  8
L-ZISSEN
100
AcDbLine
 10
230.3768183469947
 20
-3012.469413350679
 30
0.0
 11
230.3768183469947
 21
-2926.065729306691
 31
0.0
  0
LINE
  5
DA39
330
2
100
AcDbEntity
  8
L-ZISSEN
100
AcDbLine
 10
268.5018183469947
 20
-2931.06572930669
 30
0.0
 11
271.6268183469947
 21
-2932.94072930669
 31
0.0
  0
LINE
  5
DA3A
330
2
100
AcDbEntity
  8
L-ZISSEN
100
AcDbLine
 10
268.5018183469947
 20
-2934.81572930669
 30
0.0
 11
271.6268183469947
 21
-2932.94072930669
 31
0.0
  0
LINE
  5
DA3B
330
2
100
AcDbEntity
  8
L-ZISSEN
100
AcDbLine
 10
269.3768183469969
 20
-3023.925280507255
 30
0.0
 11
266.3768183469951
 21
-3023.925280507255
 31
0.0
  0
LINE
  5
DA3C
330
2
100
AcDbEntity
  8
L-ZISSEN
100
AcDbLine
 10
269.3768183469969
 20
-3023.925280507255
 30
0.0
 11
266.3768183469951
 21
-3023.925280507255
 31
0.0
  0
LINE
  5
DA3D
330
2
100
AcDbEntity
  8
L-ZISSEN
100
AcDbLine
 10
260.3768183469946
 20
-2952.315729306691
 30
0.0
 11
273.5018183469924
 21
-2950.440729306691
 31
0.0
  0
LINE
  5
DA3E
330
2
100
AcDbEntity
  8
L-ZISSEN
100
AcDbLine
 10
269.3768183469969
 20
-3022.721678846742
 30
0.0
 11
251.1268183469919
 21
-3022.721678846741
 31
0.0
  0
ARC
  5
DA3F
330
2
100
AcDbEntity
  8
L-ZISSEN
100
AcDbCircle
 10
267.0895364069897
 20
-3029.335641592472
 30
0.0
 40
5.271330170371789
100
AcDbArc
 50
64.28835488513648
 51
115.2591066834208
  0
ARC
  5
DA40
330
2
100
AcDbEntity
  8
L-ZISSEN
100
AcDbCircle
 10
267.0895364069883
 20
-3021.79581702091
 30
0.0
 40
5.271330170371532
100
AcDbArc
 50
244.7408933165791
 51
295.7116451148635
  0
LINE
  5
DA41
330
2
100
AcDbEntity
  8
L-ZISSEN
100
AcDbLine
 10
260.3768183469946
 20
-2961.065729306691
 30
0.0
 11
274.4393183469924
 21
-2957.315729306691
 31
0.0
  0
LINE
  5
DA42
330
2
100
AcDbEntity
  8
L-ZISSEN
100
AcDbLine
 10
272.291251481829
 20
-2956.007754817736
 30
0.0
 11
260.3768183469946
 21
-2958.502112792166
 31
0.0
  0
LINE
  5
DA43
330
2
100
AcDbEntity
  8
L-ZISSEN
100
AcDbLine
 10
260.3768183469946
 20
-2953.146901563918
 30
0.0
 11
272.291251481829
 21
-2951.444839687514
 31
0.0
  0
LINE
  5
DA44
330
2
100
AcDbEntity
  8
L-ZISSEN
100
AcDbLine
 10
247.5643183469947
 20
-2966.065729306691
 30
0.0
 11
273.1893183469947
 21
-2966.065729306691
 31
0.0
  0
LINE
  5
DA45
330
2
100
AcDbEntity
  8
L-ZISSEN
100
AcDbLine
 10
235.0968183469944
 20
-2936.404468218322
 30
0.0
 11
235.0968183469944
 21
-3004.404468218322
 31
0.0
  0
LINE
  5
DA46
330
2
100
AcDbEntity
  8
L-ZISSEN
100
AcDbLine
 10
243.5268183469952
 20
-2936.404468218322
 30
0.0
 11
243.5268183469952
 21
-3004.404468218322
 31
0.0
  0
ARC
  5
DA47
330
2
100
AcDbEntity
  8
L-ZISSEN
100
AcDbCircle
 10
260.376818346996
 20
-2923.613018225209
 30
0.0
 40
99.53938471878538
100
AcDbArc
 50
256.0937629349573
 51
264.6679223051348
  0
LINE
  5
DA48
330
2
100
AcDbEntity
  8
L-ZISSEN
100
AcDbLine
 10
243.5268183469952
 20
-3004.404468218322
 30
0.0
 11
239.3118183469937
 21
-3006.404468218322
 31
0.0
  0
LINE
  5
DA49
330
2
100
AcDbEntity
  8
L-ZISSEN
100
AcDbLine
 10
239.3118183469937
 20
-3006.404468218322
 30
0.0
 11
235.0968183469944
 21
-3004.404468218322
 31
0.0
  0
LINE
  5
DA4A
330
2
100
AcDbEntity
  8
L-ZISSEN
100
AcDbLine
 10
266.3768183469938
 20
-3029.506894717183
 30
0.0
 11
266.3768183469938
 21
-3038.765729306691
 31
0.0
  0
LINE
  5
DA4B
330
2
100
AcDbEntity
  8
L-ZISSEN
100
AcDbLine
 10
262.3768183469951
 20
-3029.006894717182
 30
0.0
 11
262.3768183469952
 21
-3039.065729306691
 31
0.0
  0
LINE
  5
DA4C
330
2
100
AcDbEntity
  8
L-ZISSEN
100
AcDbLine
 10
261.376818346996
 20
-3029.006894717182
 30
0.0
 11
261.3768183469961
 21
-3039.065729306691
 31
0.0
  0
LINE
  5
DA4D
330
2
100
AcDbEntity
  8
L-ZISSEN
100
AcDbLine
 10
260.3768183469969
 20
-3029.006894717182
 30
0.0
 11
260.376818346997
 21
-3039.065729306691
 31
0.0
  0
LINE
  5
DA4E
330
2
100
AcDbEntity
  8
L-ZISSEN
100
AcDbLine
 10
259.3768183469955
 20
-3029.006894717182
 30
0.0
 11
259.3768183469957
 21
-3039.065729306691
 31
0.0
  0
LINE
  5
DA4F
330
2
100
AcDbEntity
  8
L-ZISSEN
100
AcDbLine
 10
258.3768183469965
 20
-3029.006894717182
 30
0.0
 11
258.3768183469966
 21
-3039.065729306691
 31
0.0
  0
LINE
  5
DA50
330
2
100
AcDbEntity
  8
L-ZISSEN
100
AcDbLine
 10
254.3768183469954
 20
-3038.765729306691
 30
0.0
 11
254.3768183469956
 21
-3029.506894717183
 31
0.0
  0
LINE
  5
DA51
330
2
100
AcDbEntity
  8
L-ZISSEN
100
AcDbLine
 10
256.3768183469937
 20
-3029.006894717182
 30
0.0
 11
256.3768183469937
 21
-3039.065729306691
 31
0.0
  0
LINE
  5
DA52
330
2
100
AcDbEntity
  8
L-ZISSEN
100
AcDbLine
 10
255.3768183469947
 20
-3029.006894717182
 30
0.0
 11
255.3768183469947
 21
-3039.065729306691
 31
0.0
  0
LINE
  5
DA53
330
2
100
AcDbEntity
  8
L-ZISSEN
100
AcDbLine
 10
257.3768183469951
 20
-3029.006894717182
 30
0.0
 11
257.3768183469952
 21
-3039.065729306691
 31
0.0
  0
LINE
  5
DA54
330
2
100
AcDbEntity
  8
L-ZISSEN
100
AcDbLine
 10
265.3768183469969
 20
-3029.006894717182
 30
0.0
 11
265.376818346999
 21
-3039.065729306691
 31
0.0
  0
LINE
  5
DA55
330
2
100
AcDbEntity
  8
L-ZISSEN
100
AcDbLine
 10
264.3768183469978
 20
-3029.006894717182
 30
0.0
 11
264.3768183469979
 21
-3039.065729306691
 31
0.0
  0
LINE
  5
DA56
330
2
100
AcDbEntity
  8
L-ZISSEN
100
AcDbLine
 10
263.3768183469942
 20
-3029.006894717182
 30
0.0
 11
263.3768183469942
 21
-3039.065729306691
 31
0.0
  0
LINE
  5
DA57
330
2
100
AcDbEntity
  8
L-ZISSEN
100
AcDbLine
 10
266.076818346994
 20
-3039.065729306691
 30
0.0
 11
254.6768183469953
 21
-3039.065729306691
 31
0.0
  0
LINE
  5
DA58
330
2
100
AcDbEntity
  8
L-ZISSEN
100
AcDbLine
 10
254.6768183469953
 20
-3039.065729306691
 30
0.0
 11
254.3768183469956
 21
-3038.765729306691
 31
0.0
  0
LINE
  5
DA59
330
2
100
AcDbEntity
  8
L-ZISSEN
100
AcDbLine
 10
266.076818346994
 20
-3039.065729306691
 30
0.0
 11
266.3768183469938
 21
-3038.765729306691
 31
0.0
  0
ARC
  5
DA5A
330
2
100
AcDbEntity
  8
L-ZISSEN
100
AcDbCircle
 10
260.376818346996
 20
-3044.706791980608
 30
0.0
 40
20.64106267391679
100
AcDbArc
 50
77.50558048157066
 51
102.6763186877428
  0
LINE
  5
DA5B
330
2
100
AcDbEntity
  8
L-ZISSEN
100
AcDbLine
 10
254.8768183469928
 20
-3029.006894717182
 30
0.0
 11
263.3768183469942
 21
-3029.006894717182
 31
0.0
  0
ARC
  5
DA5C
330
2
100
AcDbEntity
  8
L-ZISSEN
100
AcDbCircle
 10
260.3768183469946
 20
-3006.424666632774
 30
0.0
 40
20.64106267391694
100
AcDbArc
 50
257.3236813122691
 51
282.4944195184277
  0
LINE
  5
DA5D
330
2
100
AcDbEntity
  8
L-ZISSEN
100
AcDbLine
 10
266.3768183469951
 20
-3023.925280507255
 30
0.0
 11
251.3768183469951
 21
-3023.925280507255
 31
0.0
  0
LINE
  5
DA5E
330
2
100
AcDbEntity
  8
L-ZISSEN
100
AcDbLine
 10
253.5175841492027
 20
-3024.065729306691
 30
0.0
 11
266.3768183469951
 21
-3024.065729306691
 31
0.0
  0
LINE
  5
DA5F
330
2
100
AcDbEntity
  8
L-ZISSEN
100
AcDbLine
 10
266.3768183469951
 20
-3023.925280507255
 30
0.0
 11
251.3768183469951
 21
-3023.925280507255
 31
0.0
  0
LINE
  5
DA60
330
2
100
AcDbEntity
  8
L-ZISSEN
100
AcDbLine
 10
253.59850273049
 20
-3027.06635042151
 30
0.0
 11
267.0895364069883
 21
-3027.067147191282
 31
0.0
  0
ARC
  5
DA61
330
2
100
AcDbEntity
  8
L-ZISSEN
100
AcDbCircle
 10
253.5985027304914
 20
-3029.336438362242
 30
0.0
 40
5.271330170370607
100
AcDbArc
 50
64.74766100341231
 51
114.9228807251722
  0
ARC
  5
DA62
330
2
100
AcDbEntity
  8
L-ZISSEN
100
AcDbCircle
 10
253.59850273049
 20
-3021.79502025114
 30
0.0
 40
5.271330170370607
100
AcDbArc
 50
245.0771192748277
 51
295.2523389966478
  0
LINE
  5
DA63
330
2
100
AcDbEntity
  8
L-ZISSEN
100
AcDbLine
 10
251.3768183469951
 20
-3023.925280507255
 30
0.0
 11
251.3768183469951
 21
-3022.721678846741
 31
0.0
  0
LINE
  5
DA64
330
2
100
AcDbEntity
  8
L-ZISSEN
100
AcDbLine
 10
251.377174726912
 20
-3024.555996576634
 30
0.0
 11
251.377174726912
 21
-3026.575462036747
 31
0.0
  0
LINE
  5
DA65
330
2
100
AcDbEntity
  8
L-ZISSEN
100
AcDbLine
 10
251.3768183469951
 20
-3023.925280507255
 30
0.0
 11
251.3768183469951
 21
-3022.721678846741
 31
0.0
  0
LINE
  5
DA66
330
2
100
AcDbEntity
  8
L-ZISSEN
100
AcDbLine
 10
255.8472820289775
 20
-3024.56884846464
 30
0.0
 11
255.8472820289844
 21
-3026.562610148743
 31
0.0
  0
LINE
  5
DA67
330
2
100
AcDbEntity
  8
L-ZISSEN
100
AcDbLine
 10
255.3768183469928
 20
-3029.006894717182
 30
0.0
 11
254.8768183469956
 21
-3028.506894717182
 31
0.0
  0
LINE
  5
DA68
330
2
100
AcDbEntity
  8
L-ZISSEN
100
AcDbLine
 10
254.8768183469928
 20
-3029.006894717182
 30
0.0
 11
254.3768183469956
 21
-3029.506894717183
 31
0.0
  0
LINE
  5
DA69
330
2
100
AcDbEntity
  8
L-ZISSEN
100
AcDbLine
 10
254.8768183469956
 20
-3028.506894717182
 30
0.0
 11
254.8768183469956
 21
-3027.065729306691
 31
0.0
  0
LINE
  5
DA6A
330
2
100
AcDbEntity
  8
L-ZISSEN
100
AcDbLine
 10
255.3768183469971
 20
-3027.066425917819
 30
0.0
 11
255.3768183469928
 21
-3029.006894717182
 31
0.0
  0
LINE
  5
DA6B
330
2
100
AcDbEntity
  8
L-ZISSEN
100
AcDbLine
 10
266.3768183469951
 20
-3024.065729306691
 30
0.0
 11
267.2117913260913
 21
-3024.065729306691
 31
0.0
  0
LINE
  5
DA6C
330
2
100
AcDbEntity
  8
L-ZISSEN
100
AcDbLine
 10
265.8768183469942
 20
-3029.006894717182
 30
0.0
 11
266.3768183469938
 21
-3029.506894717183
 31
0.0
  0
LINE
  5
DA6D
330
2
100
AcDbEntity
  8
L-ZISSEN
100
AcDbLine
 10
265.8768183469939
 20
-3028.506894717182
 30
0.0
 11
265.8768183469937
 21
-3027.065729306691
 31
0.0
  0
LINE
  5
DA6E
330
2
100
AcDbEntity
  8
L-ZISSEN
100
AcDbLine
 10
263.3768183469956
 20
-3024.065729306691
 30
0.0
 11
263.3768183469956
 21
-3023.925280507255
 31
0.0
  0
LINE
  5
DA6F
330
2
100
AcDbEntity
  8
L-ZISSEN
100
AcDbLine
 10
264.8401939840132
 20
-3024.568317350377
 30
0.0
 11
264.8401939840132
 21
-3026.563141263006
 31
0.0
  0
LINE
  5
DA70
330
2
100
AcDbEntity
  8
L-ZISSEN
100
AcDbLine
 10
265.3768183469984
 20
-3027.067075569113
 30
0.0
 11
265.3768183469942
 21
-3029.006894717182
 31
0.0
  0
LINE
  5
DA71
330
2
100
AcDbEntity
  8
L-ZISSEN
100
AcDbLine
 10
265.3768183469942
 20
-3029.006894717182
 30
0.0
 11
265.8768183469937
 21
-3028.506894717182
 31
0.0
  0
LINE
  5
DA72
330
2
100
AcDbEntity
  8
L-ZISSEN
100
AcDbLine
 10
263.3768183469942
 20
-3029.006894717182
 30
0.0
 11
265.8768183469942
 21
-3029.006894717182
 31
0.0
  0
LINE
  5
DA73
330
2
100
AcDbEntity
  8
L-ZISSEN
100
AcDbLine
 10
252.2518183469947
 20
-2931.065729306691
 30
0.0
 11
249.1268183469947
 21
-2932.940729306691
 31
0.0
  0
LINE
  5
DA74
330
2
100
AcDbEntity
  8
L-ZISSEN
100
AcDbLine
 10
252.2518183469947
 20
-2934.815729306691
 30
0.0
 11
249.1268183469947
 21
-2932.940729306691
 31
0.0
  0
LINE
  5
DA75
330
2
100
AcDbEntity
  8
L-ZISSEN
100
AcDbLine
 10
260.3768183469946
 20
-2952.315729306691
 30
0.0
 11
247.2518183469924
 21
-2950.440729306691
 31
0.0
  0
LINE
  5
DA76
330
2
100
AcDbEntity
  8
L-ZISSEN
100
AcDbLine
 10
248.4623852121603
 20
-2956.007754817736
 30
0.0
 11
260.3768183469946
 21
-2958.502112792166
 31
0.0
  0
LINE
  5
DA77
330
2
100
AcDbEntity
  8
L-ZISSEN
100
AcDbLine
 10
260.3768183469946
 20
-2953.146901563918
 30
0.0
 11
248.4623852121603
 21
-2951.444839687514
 31
0.0
  0
LINE
  5
DA78
330
2
100
AcDbEntity
  8
L-ZISSEN
100
AcDbLine
 10
260.3768183469946
 20
-2961.065729306691
 30
0.0
 11
246.3143183469924
 21
-2957.315729306691
 31
0.0
  0
LINE
  5
DA79
330
2
100
AcDbEntity
  8
L-ZISSEN
100
AcDbLine
 10
235.0968183469944
 20
-2936.404468218322
 30
0.0
 11
243.5268183469952
 21
-2936.404468218322
 31
0.0
  0
LINE
  5
DA7A
330
2
100
AcDbEntity
  8
L-ZISSEN
100
AcDbLine
 10
247.2518183469924
 20
-2926.065729306691
 30
0.0
 11
247.2518183469924
 21
-2950.440729306691
 31
0.0
  0
LINE
  5
DA7B
330
2
100
AcDbEntity
  8
L-ZISSEN
100
AcDbLine
 10
248.4623852121603
 20
-2950.613667430286
 30
0.0
 11
247.2518183469924
 21
-2950.440729306691
 31
0.0
  0
LINE
  5
DA7C
330
2
100
AcDbEntity
  8
L-ZISSEN
100
AcDbLine
 10
248.4623852121603
 20
-2951.444839687514
 30
0.0
 11
247.2518183469924
 21
-2950.440729306691
 31
0.0
  0
LINE
  5
DA7D
330
2
100
AcDbEntity
  8
L-ZISSEN
100
AcDbLine
 10
248.4623852121603
 20
-2951.444839687514
 30
0.0
 11
248.4623852121603
 21
-2956.007754817736
 31
0.0
  0
LINE
  5
DA7E
330
2
100
AcDbEntity
  8
L-ZISSEN
100
AcDbLine
 10
246.3143183469924
 20
-2926.065729306691
 30
0.0
 11
246.3143183469924
 21
-2949.855004673824
 31
0.0
  0
LINE
  5
DA7F
330
2
100
AcDbEntity
  8
L-ZISSEN
100
AcDbLine
 10
246.3143183469924
 20
-2926.065729306691
 30
0.0
 11
246.3143183469924
 21
-2964.815729306691
 31
0.0
  0
LINE
  5
DA80
330
2
100
AcDbEntity
  8
L-ZISSEN
100
AcDbLine
 10
246.3143183469924
 20
-2957.315729306691
 30
0.0
 11
248.4623852121603
 21
-2956.007754817736
 31
0.0
  0
ARC
  5
DA81
330
2
100
AcDbEntity
  8
L-ZISSEN
100
AcDbCircle
 10
247.5643183469947
 20
-2964.815729306691
 30
0.0
 40
1.250000000000568
100
AcDbArc
 50
180.0
 51
270.0
  0
LINE
  5
DA82
330
2
100
AcDbEntity
  8
L-ZISSEN
100
AcDbLine
 10
256.6268183469969
 20
-2939.81572930669
 30
0.0
 11
260.3768183469969
 21
-2946.06572930669
 31
0.0
  0
LINE
  5
DA83
330
2
100
AcDbEntity
  8
L-ZISSEN
100
AcDbLine
 10
261.6268183469969
 20
-2929.81572930669
 30
0.0
 11
259.1268183469969
 21
-2929.81572930669
 31
0.0
  0
ARC
  5
DA84
330
2
100
AcDbEntity
  8
L-ZISSEN
100
AcDbCircle
 10
260.3768183469946
 20
-2962.315729306691
 30
0.0
 40
1.250000000000568
100
AcDbArc
 50
180.0
 51
0.0
  0
CIRCLE
  5
DA85
330
2
100
AcDbEntity
  8
L-ZISSEN
100
AcDbCircle
 10
260.3768183469946
 20
-2956.062184007865
 30
0.0
 40
1.25
  0
LINE
  5
DA86
330
2
100
AcDbEntity
  8
L-TYUSIN
100
AcDbLine
 10
258.1900247844396
 20
-2956.062184007865
 30
0.0
 11
262.3848047593515
 21
-2956.062184007865
 31
0.0
  0
LINE
  5
DA87
330
2
100
AcDbEntity
  8
L-ZISSEN
100
AcDbLine
 10
259.1268183469969
 20
-2929.81572930669
 30
0.0
 11
259.1268183469969
 21
-2939.81572930669
 31
0.0
  0
LINE
  5
DA88
330
2
100
AcDbEntity
  8
L-ZISSEN
100
AcDbLine
 10
259.1268183469969
 20
-2929.81572930669
 30
0.0
 11
259.1268183469969
 21
-2939.81572930669
 31
0.0
  0
LINE
  5
DA89
330
2
100
AcDbEntity
  8
L-ZISSEN
100
AcDbLine
 10
257.2518183469946
 20
-2932.315729306692
 30
0.0
 11
257.2518183469946
 21
-2933.565729306691
 31
0.0
  0
LINE
  5
DA8A
330
2
100
AcDbEntity
  8
L-ZISSEN
100
AcDbLine
 10
259.1268183469969
 20
-2939.81572930669
 30
0.0
 11
256.6268183469969
 21
-2939.81572930669
 31
0.0
  0
LINE
  5
DA8B
330
2
100
AcDbEntity
  8
L-ZISSEN
100
AcDbLine
 10
259.1268183469924
 20
-2960.732395973357
 30
0.0
 11
259.1268183469947
 21
-2962.315729306691
 31
0.0
  0
LINE
  5
DA8C
330
2
100
AcDbEntity
  8
L-ZISSEN
100
AcDbLine
 10
252.2518183469947
 20
-2932.315729306692
 30
0.0
 11
252.2518183469947
 21
-2931.065729306691
 31
0.0
  0
LINE
  5
DA8D
330
2
100
AcDbEntity
  8
L-ZISSEN
100
AcDbLine
 10
252.2518183469947
 20
-2933.565729306691
 30
0.0
 11
252.2518183469947
 21
-2934.815729306691
 31
0.0
  0
LINE
  5
DA8E
330
2
100
AcDbEntity
  8
L-ZISSEN
100
AcDbLine
 10
251.0018183469946
 20
-2958.56572930669
 30
0.0
 11
251.0018183469924
 21
-2966.065729306691
 31
0.0
  0
LINE
  5
DA8F
330
2
100
AcDbEntity
  8
L-ZISSEN
100
AcDbLine
 10
257.2518183469946
 20
-2933.565729306691
 30
0.0
 11
252.2518183469947
 21
-2933.565729306691
 31
0.0
  0
LINE
  5
DA90
330
2
100
AcDbEntity
  8
L-ZISSEN
100
AcDbLine
 10
257.2518183469946
 20
-2933.565729306691
 30
0.0
 11
252.2518183469947
 21
-2933.565729306691
 31
0.0
  0
LINE
  5
DA91
330
2
100
AcDbEntity
  8
L-ZISSEN
100
AcDbLine
 10
257.2518183469946
 20
-2932.315729306692
 30
0.0
 11
252.2518183469947
 21
-2932.315729306692
 31
0.0
  0
LINE
  5
DA92
330
2
100
AcDbEntity
  8
L-ZISSEN
100
AcDbLine
 10
257.2518183469946
 20
-2932.315729306692
 30
0.0
 11
252.2518183469947
 21
-2932.315729306692
 31
0.0
  0
LINE
  5
DA93
330
2
100
AcDbEntity
  8
L-ZISSEN
100
AcDbLine
 10
268.5018183469947
 20
-2932.31572930669
 30
0.0
 11
268.5018183469947
 21
-2931.06572930669
 31
0.0
  0
LINE
  5
DA94
330
2
100
AcDbEntity
  8
L-ZISSEN
100
AcDbLine
 10
268.5018183469947
 20
-2933.56572930669
 30
0.0
 11
268.5018183469947
 21
-2934.81572930669
 31
0.0
  0
LINE
  5
DA95
330
2
100
AcDbEntity
  8
L-ZISSEN
100
AcDbLine
 10
261.6268183469969
 20
-2939.81572930669
 30
0.0
 11
264.1268183469969
 21
-2939.81572930669
 31
0.0
  0
LINE
  5
DA96
330
2
100
AcDbEntity
  8
L-ZISSEN
100
AcDbLine
 10
264.1268183469969
 20
-2939.81572930669
 30
0.0
 11
260.3768183469969
 21
-2946.06572930669
 31
0.0
  0
LINE
  5
DA97
330
2
100
AcDbEntity
  8
L-ZISSEN
100
AcDbLine
 10
261.6268183469969
 20
-2929.81572930669
 30
0.0
 11
261.6268183469969
 21
-2939.81572930669
 31
0.0
  0
LINE
  5
DA98
330
2
100
AcDbEntity
  8
L-ZISSEN
100
AcDbLine
 10
261.6268183469969
 20
-2929.81572930669
 30
0.0
 11
261.6268183469969
 21
-2939.81572930669
 31
0.0
  0
LINE
  5
DA99
330
2
100
AcDbEntity
  8
L-ZISSEN
100
AcDbLine
 10
263.5018183469946
 20
-2932.31572930669
 30
0.0
 11
263.5018183469946
 21
-2933.56572930669
 31
0.0
  0
LINE
  5
DA9A
330
2
100
AcDbEntity
  8
L-ZISSEN
100
AcDbLine
 10
261.6268183469947
 20
-2960.732395973357
 30
0.0
 11
261.6268183469947
 21
-2962.315729306691
 31
0.0
  0
LINE
  5
DA9B
330
2
100
AcDbEntity
  8
L-ZISSEN
100
AcDbLine
 10
260.3768183469946
 20
-2961.065729306691
 30
0.0
 11
260.3768183469946
 21
-2958.502112792166
 31
0.0
  0
LINE
  5
DA9C
330
2
100
AcDbEntity
  8
L-ZISSEN
100
AcDbLine
 10
260.3768183469946
 20
-2952.315729306691
 30
0.0
 11
260.3768183469946
 21
-2953.146901563918
 31
0.0
  0
LINE
  5
DA9D
330
2
100
AcDbEntity
  8
L-ZISSEN
100
AcDbLine
 10
263.5018183469946
 20
-2933.56572930669
 30
0.0
 11
268.5018183469947
 21
-2933.56572930669
 31
0.0
  0
LINE
  5
DA9E
330
2
100
AcDbEntity
  8
L-ZISSEN
100
AcDbLine
 10
263.5018183469946
 20
-2933.56572930669
 30
0.0
 11
268.5018183469947
 21
-2933.56572930669
 31
0.0
  0
LINE
  5
DA9F
330
2
100
AcDbEntity
  8
L-ZISSEN
100
AcDbLine
 10
263.5018183469946
 20
-2932.31572930669
 30
0.0
 11
268.5018183469947
 21
-2932.31572930669
 31
0.0
  0
LINE
  5
DAA0
330
2
100
AcDbEntity
  8
L-ZISSEN
100
AcDbLine
 10
263.5018183469946
 20
-2932.31572930669
 30
0.0
 11
268.5018183469947
 21
-2932.31572930669
 31
0.0
  0
LINE
  5
DAA1
330
2
100
AcDbEntity
  8
L-ZISSEN
100
AcDbLine
 10
277.2268183469941
 20
-2936.404468218322
 30
0.0
 11
277.2268183469941
 21
-3004.404468218322
 31
0.0
  0
LINE
  5
DAA2
330
2
100
AcDbEntity
  8
L-ZISSEN
100
AcDbLine
 10
285.6568183469949
 20
-2936.404468218322
 30
0.0
 11
285.6568183469949
 21
-3004.404468218322
 31
0.0
  0
LINE
  5
DAA3
330
2
100
AcDbEntity
  8
L-ZISSEN
100
AcDbLine
 10
290.3768183469924
 20
-3012.469413350681
 30
0.0
 11
290.3768183469947
 21
-2926.06572930669
 31
0.0
  0
ARC
  5
DAA4
330
2
100
AcDbEntity
  8
L-ZISSEN
100
AcDbCircle
 10
282.3768183469942
 20
-3012.469413350681
 30
0.0
 40
8.000000000000113
100
AcDbArc
 50
283.9062370652456
 51
0.0
  0
LINE
  5
DAA5
330
2
100
AcDbEntity
  8
L-ZISSEN
100
AcDbLine
 10
277.2268183469941
 20
-3004.404468218322
 30
0.0
 11
281.4418183469956
 21
-3006.404468218322
 31
0.0
  0
ARC
  5
DAA6
330
2
100
AcDbEntity
  8
L-ZISSEN
100
AcDbCircle
 10
260.376818346996
 20
-2923.613018225209
 30
0.0
 40
99.53938471878553
100
AcDbArc
 50
275.3320776948651
 51
283.9062370650529
  0
LINE
  5
DAA7
330
2
100
AcDbEntity
  8
L-ZISSEN
100
AcDbLine
 10
269.6268183470001
 20
-3022.721678846741
 30
0.0
 11
269.3768183469969
 21
-3022.721678846742
 31
0.0
  0
LINE
  5
DAA8
330
2
100
AcDbEntity
  8
L-ZISSEN
100
AcDbLine
 10
269.3768183469969
 20
-3023.925280507255
 30
0.0
 11
269.3768183469969
 21
-3022.721678846742
 31
0.0
  0
LINE
  5
DAA9
330
2
100
AcDbEntity
  8
L-ZISSEN
100
AcDbLine
 10
269.3764619670823
 20
-3024.586231813596
 30
0.0
 11
269.3764619670823
 21
-3026.545226799784
 31
0.0
  0
LINE
  5
DAAA
330
2
100
AcDbEntity
  8
L-ZISSEN
100
AcDbLine
 10
269.3768183469969
 20
-3023.925280507255
 30
0.0
 11
269.3768183469969
 21
-3022.721678846742
 31
0.0
  0
LINE
  5
DAAB
330
2
100
AcDbEntity
  8
L-ZISSEN
100
AcDbLine
 10
281.4418183469956
 20
-3006.404468218322
 30
0.0
 11
285.6568183469949
 21
-3004.404468218322
 31
0.0
  0
LINE
  5
DAAC
330
2
100
AcDbEntity
  8
L-ZISSEN
100
AcDbLine
 10
285.6568183469949
 20
-2936.404468218322
 30
0.0
 11
277.2268183469941
 21
-2936.404468218322
 31
0.0
  0
LINE
  5
DAAD
330
2
100
AcDbEntity
  8
L-ZISSEN
100
AcDbLine
 10
273.5018183469924
 20
-2926.065729306691
 30
0.0
 11
273.5018183469924
 21
-2950.440729306691
 31
0.0
  0
LINE
  5
DAAE
330
2
100
AcDbEntity
  8
L-ZISSEN
100
AcDbLine
 10
274.4393183469924
 20
-2926.065729306691
 30
0.0
 11
274.4393183469924
 21
-2949.855004673824
 31
0.0
  0
LINE
  5
DAAF
330
2
100
AcDbEntity
  8
L-ZISSEN
100
AcDbLine
 10
272.291251481829
 20
-2951.444839687514
 30
0.0
 11
273.5018183469924
 21
-2950.440729306691
 31
0.0
  0
LINE
  5
DAB0
330
2
100
AcDbEntity
  8
L-ZISSEN
100
AcDbLine
 10
272.291251481829
 20
-2950.613667430286
 30
0.0
 11
273.5018183469924
 21
-2950.440729306691
 31
0.0
  0
LINE
  5
DAB1
330
2
100
AcDbEntity
  8
L-ZISSEN
100
AcDbLine
 10
274.4393183469924
 20
-2926.065729306691
 30
0.0
 11
274.4393183469924
 21
-2964.815729306691
 31
0.0
  0
LINE
  5
DAB2
330
2
100
AcDbEntity
  8
L-ZISSEN
100
AcDbLine
 10
274.4393183469924
 20
-2957.315729306691
 30
0.0
 11
272.291251481829
 21
-2956.007754817736
 31
0.0
  0
LINE
  5
DAB3
330
2
100
AcDbEntity
  8
L-ZISSEN
100
AcDbLine
 10
269.7518183469924
 20
-2958.565729306691
 30
0.0
 11
269.7518183469924
 21
-2966.065729306691
 31
0.0
  0
LINE
  5
DAB4
330
2
100
AcDbEntity
  8
L-ZISSEN
100
AcDbLine
 10
272.291251481829
 20
-2951.444839687514
 30
0.0
 11
272.291251481829
 21
-2956.007754817736
 31
0.0
  0
ARC
  5
DAB5
330
2
100
AcDbEntity
  8
L-ZISSEN
100
AcDbCircle
 10
273.1893183469947
 20
-2964.815729306691
 30
0.0
 40
1.249999999999715
100
AcDbArc
 50
270.0
 51
0.0
  0
LINE
  5
DAB8
330
2
100
AcDbEntity
  8
L-TYUSIN
100
AcDbLine
 10
360.3768183469946
 20
-3044.065729306691
 30
0.0
 11
360.3768183469946
 21
-2594.065686079677
 31
0.0
  0
POLYLINE
  5
DAB9
330
2
100
AcDbEntity
  8
L-ZISSEN
100
AcDb2dPolyline
 66
     1
 10
0.0
 20
0.0
 30
0.0
 70
     1
  0
VERTEX
  5
E1C4
330
DAB9
100
AcDbEntity
  8
L-ZISSEN
100
AcDbVertex
100
AcDb2dVertex
 10
414.1268183469949
 20
-2987.437058104364
 30
0.0
  0
VERTEX
  5
E1C5
330
DAB9
100
AcDbEntity
  8
L-ZISSEN
100
AcDbVertex
100
AcDb2dVertex
 10
415.3768183469948
 20
-2986.715370267877
 30
0.0
  0
VERTEX
  5
E1C6
330
DAB9
100
AcDbEntity
  8
L-ZISSEN
100
AcDbVertex
100
AcDb2dVertex
 10
416.6268183469949
 20
-2987.437058104364
 30
0.0
  0
VERTEX
  5
E1C7
330
DAB9
100
AcDbEntity
  8
L-ZISSEN
100
AcDbVertex
100
AcDb2dVertex
 10
416.6268183469949
 20
-2988.880433777338
 30
0.0
  0
VERTEX
  5
E1C8
330
DAB9
100
AcDbEntity
  8
L-ZISSEN
100
AcDbVertex
100
AcDb2dVertex
 10
415.3768183469948
 20
-2989.602121613825
 30
0.0
  0
VERTEX
  5
E1C9
330
DAB9
100
AcDbEntity
  8
L-ZISSEN
100
AcDbVertex
100
AcDb2dVertex
 10
414.1268183469949
 20
-2988.880433777338
 30
0.0
  0
SEQEND
  5
E1CA
330
DAB9
100
AcDbEntity
  8
L-ZISSEN
  0
POLYLINE
  5
DABA
330
2
100
AcDbEntity
  8
L-ZISSEN
100
AcDb2dPolyline
 66
     1
 10
0.0
 20
0.0
 30
0.0
 70
     1
  0
VERTEX
  5
E1CB
330
DABA
100
AcDbEntity
  8
L-ZISSEN
100
AcDbVertex
100
AcDb2dVertex
 10
414.1268183469949
 20
-2922.380433777337
 30
0.0
  0
VERTEX
  5
E1CC
330
DABA
100
AcDbEntity
  8
L-ZISSEN
100
AcDbVertex
100
AcDb2dVertex
 10
415.3768183469948
 20
-2923.102121613824
 30
0.0
  0
VERTEX
  5
E1CD
330
DABA
100
AcDbEntity
  8
L-ZISSEN
100
AcDbVertex
100
AcDb2dVertex
 10
416.6268183469949
 20
-2922.380433777337
 30
0.0
  0
VERTEX
  5
E1CE
330
DABA
100
AcDbEntity
  8
L-ZISSEN
100
AcDbVertex
100
AcDb2dVertex
 10
416.6268183469949
 20
-2920.937058104363
 30
0.0
  0
VERTEX
  5
E1CF
330
DABA
100
AcDbEntity
  8
L-ZISSEN
100
AcDbVertex
100
AcDb2dVertex
 10
415.3768183469948
 20
-2920.215370267876
 30
0.0
  0
VERTEX
  5
E1D0
330
DABA
100
AcDbEntity
  8
L-ZISSEN
100
AcDbVertex
100
AcDb2dVertex
 10
414.1268183469949
 20
-2920.937058104363
 30
0.0
  0
SEQEND
  5
E1D1
330
DABA
100
AcDbEntity
  8
L-ZISSEN
  0
LINE
  5
DABC
330
2
100
AcDbEntity
  8
L-ZISSEN
100
AcDbLine
 10
538.8768183469953
 20
-2902.408745940851
 30
0.0
 11
546.8768183469953
 21
-2902.408745940851
 31
0.0
  0
ARC
  5
DABD
330
2
100
AcDbEntity
  8
L-ZISSEN
100
AcDbCircle
 10
547.8334726957353
 20
-2991.395919686174
 30
0.0
 40
10.0
100
AcDbArc
 50
191.6119735011013
 51
265.131555937119
  0
LINE
  5
DABF
330
2
100
AcDbEntity
  8
L-ZISSEN
100
AcDbLine
 10
444.6326854084762
 20
-2912.408745940851
 30
0.0
 11
442.9168244064994
 21
-2991.654339271789
 31
0.0
  0
LINE
  5
DAC0
330
2
100
AcDbEntity
  8
L-ZISSEN
100
AcDbLine
 10
424.1268183469946
 20
-2916.40874594085
 30
0.0
 11
424.1268183469965
 21
-2993.40874594085
 31
0.0
  0
LINE
  5
DAC1
330
2
100
AcDbEntity
  8
L-ZISSEN
100
AcDbLine
 10
417.8768183469946
 20
-2927.90874594085
 30
0.0
 11
417.8768183469946
 21
-2981.908745940851
 31
0.0
  0
LINE
  5
DAC2
330
2
100
AcDbEntity
  8
L-ZISSEN
100
AcDbLine
 10
523.6322274666279
 20
-2916.40874594085
 30
0.0
 11
523.6322274666297
 21
-2993.40874594085
 31
0.0
  0
LINE
  5
DAC3
330
2
100
AcDbEntity
  8
L-ZISSEN
 48
0.3
100
AcDbLine
 10
538.2300106621449
 20
-2993.40874594085
 30
0.0
 11
538.2300106621449
 21
-2916.40874594085
 31
0.0
  0
LINE
  5
DAC4
330
2
100
AcDbEntity
  8
L-ZISSEN
100
AcDbLine
 10
533.1322274666279
 20
-2916.40874594085
 30
0.0
 11
533.1322274666297
 21
-2993.40874594085
 31
0.0
  0
LINE
  5
DAC5
330
2
100
AcDbEntity
  8
L-ZISSEN
100
AcDbLine
 10
386.1209512855137
 20
-2912.408745940851
 30
0.0
 11
387.8368122874903
 21
-2991.654339271789
 31
0.0
  0
LINE
  5
DAC6
330
2
100
AcDbEntity
  8
L-ZISSEN
100
AcDbLine
 10
406.6268183469946
 20
-2916.40874594085
 30
0.0
 11
406.6268183469965
 21
-2993.40874594085
 31
0.0
  0
LINE
  5
DAC7
330
2
100
AcDbEntity
  8
L-ZISSEN
100
AcDbLine
 10
412.8768183469946
 20
-2981.908745940851
 30
0.0
 11
412.8768183469946
 21
-2927.90874594085
 31
0.0
  0
LINE
  5
DAC8
330
2
100
AcDbEntity
  8
L-ZISSEN
100
AcDbLine
 10
406.6268183469946
 20
-2993.40874594085
 30
0.0
 11
424.1268183469946
 21
-2993.408745940851
 31
0.0
  0
LINE
  5
DAC9
330
2
100
AcDbEntity
  8
L-ZISSEN
100
AcDbLine
 10
405.9416510787754
 20
-3002.408745940851
 30
0.0
 11
424.8119856152141
 21
-3002.408745940851
 31
0.0
  0
LINE
  5
DACA
330
2
100
AcDbEntity
  8
L-ZISSEN
100
AcDbLine
 10
405.941651078776
 20
-3005.908745940852
 30
0.0
 11
424.8119856152141
 21
-3005.908745940852
 31
0.0
  0
LINE
  5
DACB
330
2
100
AcDbEntity
  8
L-ZISSEN
100
AcDbLine
 10
405.9416510787757
 20
-3002.408745940851
 30
0.0
 11
396.9847910151784
 21
-3001.359841574923
 31
0.0
  0
ARC
  5
DACC
330
2
100
AcDbEntity
  8
L-ZISSEN
100
AcDbCircle
 10
397.8334726957355
 20
-2991.395919686175
 30
0.0
 40
10.0
100
AcDbArc
 50
181.0000000000278
 51
265.131555937119
  0
LINE
  5
DACD
330
2
100
AcDbEntity
  8
L-ZISSEN
100
AcDbLine
 10
414.4096171252518
 20
-3010.850930851047
 30
0.0
 11
414.4096171252518
 21
-3020.909765440556
 31
0.0
  0
LINE
  5
DACE
330
2
100
AcDbEntity
  8
L-ZISSEN
100
AcDbLine
 10
415.4096171252531
 20
-3010.850930851047
 30
0.0
 11
415.4096171252531
 21
-3020.909765440556
 31
0.0
  0
LINE
  5
DACF
330
2
100
AcDbEntity
  8
L-ZISSEN
100
AcDbLine
 10
416.4096171252522
 20
-3010.850930851047
 30
0.0
 11
416.4096171252522
 21
-3020.909765440556
 31
0.0
  0
LINE
  5
DAD0
330
2
100
AcDbEntity
  8
L-ZISSEN
100
AcDbLine
 10
417.4096171252513
 20
-3010.850930851047
 30
0.0
 11
417.4096171252513
 21
-3020.909765440556
 31
0.0
  0
LINE
  5
DAD1
330
2
100
AcDbEntity
  8
L-ZISSEN
100
AcDbLine
 10
418.4096171252503
 20
-3010.850930851047
 30
0.0
 11
418.4096171252503
 21
-3020.909765440556
 31
0.0
  0
LINE
  5
DAD2
330
2
100
AcDbEntity
  8
L-ZISSEN
100
AcDbLine
 10
419.409617125254
 20
-3010.850930851047
 30
0.0
 11
419.409617125254
 21
-3020.909765440556
 31
0.0
  0
LINE
  5
DAD3
330
2
100
AcDbEntity
  8
L-ZISSEN
100
AcDbLine
 10
420.4096171252531
 20
-3010.850930851047
 30
0.0
 11
420.4096171252551
 21
-3020.909765440556
 31
0.0
  0
LINE
  5
DAD4
330
2
100
AcDbEntity
  8
L-ZISSEN
100
AcDbLine
 10
421.4096171252499
 20
-3011.350930851047
 30
0.0
 11
421.4096171252499
 21
-3020.609765440555
 31
0.0
  0
LINE
  5
DAD5
330
2
100
AcDbEntity
  8
L-ZISSEN
100
AcDbLine
 10
409.4096171252517
 20
-3020.609765440555
 30
0.0
 11
409.4096171252517
 21
-3011.350930851047
 31
0.0
  0
LINE
  5
DAD6
330
2
100
AcDbEntity
  8
L-ZISSEN
100
AcDbLine
 10
410.4096171252508
 20
-3010.850930851047
 30
0.0
 11
410.4096171252508
 21
-3020.909765440556
 31
0.0
  0
LINE
  5
DAD7
330
2
100
AcDbEntity
  8
L-ZISSEN
100
AcDbLine
 10
411.4096171252499
 20
-3010.850930851047
 30
0.0
 11
411.4096171252499
 21
-3020.909765440556
 31
0.0
  0
LINE
  5
DAD8
330
2
100
AcDbEntity
  8
L-ZISSEN
100
AcDbLine
 10
412.4096171252513
 20
-3010.850930851047
 30
0.0
 11
412.4096171252513
 21
-3020.909765440556
 31
0.0
  0
LINE
  5
DAD9
330
2
100
AcDbEntity
  8
L-ZISSEN
100
AcDbLine
 10
413.4096171252527
 20
-3010.850930851047
 30
0.0
 11
413.4096171252527
 21
-3020.909765440556
 31
0.0
  0
LINE
  5
DADA
330
2
100
AcDbEntity
  8
L-ZISSEN
100
AcDbLine
 10
421.1096171252502
 20
-3020.909765440556
 30
0.0
 11
409.7096171252514
 21
-3020.909765440556
 31
0.0
  0
LINE
  5
DADB
330
2
100
AcDbEntity
  8
L-ZISSEN
100
AcDbLine
 10
409.7096171252514
 20
-3020.909765440556
 30
0.0
 11
409.4096171252517
 21
-3020.609765440555
 31
0.0
  0
LINE
  5
DADC
330
2
100
AcDbEntity
  8
L-ZISSEN
100
AcDbLine
 10
421.1096171252502
 20
-3020.909765440556
 30
0.0
 11
421.4096171252499
 21
-3020.609765440555
 31
0.0
  0
CIRCLE
  5
DADD
330
2
100
AcDbEntity
  8
L-ZISSEN
100
AcDbCircle
 10
415.3768183469948
 20
-2988.158745940851
 30
0.0
 40
3.75
  0
LINE
  5
DADE
330
2
100
AcDbEntity
  8
L-ZISSEN
100
AcDbLine
 10
409.909617125249
 20
-3010.850930851047
 30
0.0
 11
418.4096171252503
 21
-3010.850930851047
 31
0.0
  0
ARC
  5
DADF
330
2
100
AcDbEntity
  8
L-ZISSEN
100
AcDbCircle
 10
411.4551119757006
 20
-3021.413688575538
 30
0.0
 40
15.50496374778473
100
AcDbArc
 50
75.34890043484391
 51
104.4621424617013
  0
ARC
  5
DAE0
330
2
100
AcDbEntity
  8
L-ZISSEN
100
AcDbCircle
 10
411.4557167435127
 20
-2993.772598690332
 30
0.0
 40
15.15026028548078
100
AcDbArc
 50
255.1892479927957
 51
284.9997091106931
  0
LINE
  5
DAE1
330
2
100
AcDbEntity
  8
L-ZISSEN
100
AcDbLine
 10
410.8415539873562
 20
-3008.910405361933
 30
0.0
 11
419.9101778450924
 21
-3008.910482524881
 31
0.0
  0
LINE
  5
DAE2
330
2
100
AcDbEntity
  8
L-TYUSIN
100
AcDbLine
 10
421.6268183469948
 20
-2988.158745940851
 30
0.0
 11
409.1268183469948
 21
-2988.158745940851
 31
0.0
  0
LINE
  5
DAE3
330
2
100
AcDbEntity
  8
L-ZISSEN
100
AcDbLine
 10
417.8768183469946
 20
-2981.908745940851
 30
0.0
 11
412.8768183469946
 21
-2981.908745940851
 31
0.0
  0
LINE
  5
DAE4
330
2
100
AcDbEntity
  8
L-ZISSEN
100
AcDbLine
 10
410.409617125249
 20
-3010.850930851047
 30
0.0
 11
409.9096171252517
 21
-3010.350930851047
 31
0.0
  0
LINE
  5
DAE5
330
2
100
AcDbEntity
  8
L-ZISSEN
100
AcDbLine
 10
410.4096171252531
 20
-3008.910462051684
 30
0.0
 11
410.409617125249
 21
-3010.850930851047
 31
0.0
  0
LINE
  5
DAE6
330
2
100
AcDbEntity
  8
L-ZISSEN
100
AcDbLine
 10
409.9096171252517
 20
-3010.350930851047
 30
0.0
 11
409.9096171252517
 21
-3008.909765440556
 31
0.0
  0
LINE
  5
DAE7
330
2
100
AcDbEntity
  8
L-ZISSEN
100
AcDbLine
 10
409.909617125249
 20
-3010.850930851047
 30
0.0
 11
409.4096171252517
 21
-3011.350930851047
 31
0.0
  0
LINE
  5
DAE8
330
2
100
AcDbEntity
  8
L-ZISSEN
100
AcDbLine
 10
407.5828983469948
 20
-3006.400032710499
 30
0.0
 11
407.5828983469948
 21
-3008.419498170612
 31
0.0
  0
LINE
  5
DAE9
330
2
100
AcDbEntity
  8
L-ZISSEN
100
AcDbLine
 10
405.9416510787757
 20
-3002.408745940851
 30
0.0
 11
405.941651078776
 21
-3005.908745940852
 31
0.0
  0
LINE
  5
DAEA
330
2
100
AcDbEntity
  8
L-ZISSEN
100
AcDbLine
 10
420.4096171252504
 20
-3010.850930851047
 30
0.0
 11
420.9096171252499
 21
-3010.350930851047
 31
0.0
  0
LINE
  5
DAEB
330
2
100
AcDbEntity
  8
L-ZISSEN
100
AcDbLine
 10
418.4096171252503
 20
-3010.850930851047
 30
0.0
 11
420.9096171252504
 21
-3010.850930851047
 31
0.0
  0
ARC
  5
DAEC
330
2
100
AcDbEntity
  8
L-ZISSEN
100
AcDbCircle
 10
419.29852471829
 20
-3021.413688575538
 30
0.0
 40
15.50496374778473
100
AcDbArc
 50
75.53785753829865
 51
104.651099565156
  0
ARC
  5
DAED
330
2
100
AcDbEntity
  8
L-ZISSEN
100
AcDbCircle
 10
419.297919950478
 20
-2993.772598690332
 30
0.0
 40
15.15026028548078
100
AcDbArc
 50
255.0002908893069
 51
284.8107520072042
  0
LINE
  5
DAEE
330
2
100
AcDbEntity
  8
L-ZISSEN
100
AcDbLine
 10
420.4096171252545
 20
-3008.911111702978
 30
0.0
 11
420.4096171252504
 21
-3010.850930851047
 31
0.0
  0
LINE
  5
DAEF
330
2
100
AcDbEntity
  8
L-ZISSEN
100
AcDbLine
 10
415.3768183469954
 20
-3006.412884598502
 30
0.0
 11
415.3768183469954
 21
-3008.40770851113
 31
0.0
  0
LINE
  5
DAF0
330
2
100
AcDbEntity
  8
L-ZISSEN
100
AcDbLine
 10
415.3768183469954
 20
-3006.412884598502
 30
0.0
 11
415.3768183469954
 21
-3008.40770851113
 31
0.0
  0
LINE
  5
DAF1
330
2
100
AcDbEntity
  8
L-ZISSEN
100
AcDbLine
 10
415.3768183469954
 20
-3006.412884598502
 30
0.0
 11
415.3768183469954
 21
-3008.40770851113
 31
0.0
  0
LINE
  5
DAF2
330
2
100
AcDbEntity
  8
L-ZISSEN
100
AcDbLine
 10
415.3768183469954
 20
-3006.412884598502
 30
0.0
 11
415.3768183469954
 21
-3008.40770851113
 31
0.0
  0
LINE
  5
DAF3
330
2
100
AcDbEntity
  8
L-ZISSEN
100
AcDbLine
 10
420.9096171252499
 20
-3010.350930851047
 30
0.0
 11
420.9096171252499
 21
-3008.909765440556
 31
0.0
  0
LINE
  5
DAF4
330
2
100
AcDbEntity
  8
L-ZISSEN
100
AcDbLine
 10
420.9096171252504
 20
-3010.850930851047
 30
0.0
 11
421.4096171252499
 21
-3011.350930851047
 31
0.0
  0
LINE
  5
DAF5
330
2
100
AcDbEntity
  8
L-ZISSEN
100
AcDbLine
 10
423.1707383469959
 20
-3006.400032710499
 30
0.0
 11
423.1707383469959
 21
-3008.419498170612
 31
0.0
  0
ARC
  5
DAF6
330
2
100
AcDbEntity
  8
L-ZISSEN
100
AcDbCircle
 10
432.9201639982543
 20
-2991.395919686175
 30
0.0
 40
10.0
100
AcDbArc
 50
274.8684440628809
 51
358.9999999999721
  0
LINE
  5
DAF7
330
2
100
AcDbEntity
  8
L-ZISSEN
100
AcDbLine
 10
424.8119856152141
 20
-3002.408745940851
 30
0.0
 11
433.7688456788113
 21
-3001.359841574923
 31
0.0
  0
LINE
  5
DAF8
330
2
100
AcDbEntity
  8
L-ZISSEN
100
AcDbLine
 10
424.8119856152141
 20
-3002.408745940851
 30
0.0
 11
424.8119856152138
 21
-3005.908745940852
 31
0.0
  0
LINE
  5
DAF9
330
2
100
AcDbEntity
  8
L-ZISSEN
100
AcDbLine
 10
523.6322274666279
 20
-2993.40874594085
 30
0.0
 11
533.1322274666279
 21
-2993.40874594085
 31
0.0
  0
LINE
  5
DAFA
330
2
100
AcDbEntity
  8
L-TYUSIN
100
AcDbLine
 10
539.7731031758446
 20
-2988.40874594085
 30
0.0
 11
516.7322274666283
 21
-2988.40874594085
 31
0.0
  0
LINE
  5
DAFB
330
2
100
AcDbEntity
  8
L-ZISSEN
100
AcDbLine
 10
521.7322274666282
 20
-2989.602121613824
 30
0.0
 11
521.732227466628
 21
-2986.715370267877
 31
0.0
  0
ARC
  5
DAFC
330
2
100
AcDbEntity
  8
L-ZISSEN
100
AcDbCircle
 10
524.0442300344055
 20
-2989.633532456668
 30
0.0
 40
2.312215931624567
100
AcDbArc
 50
179.2216280233825
 51
259.7359316277872
  0
ARC
  5
DAFD
330
2
100
AcDbEntity
  8
L-ZISSEN
100
AcDbCircle
 10
524.0442300344055
 20
-2986.683959425033
 30
0.0
 40
2.312215931624567
100
AcDbArc
 50
100.2640683722127
 51
180.7783719766174
  0
LINE
  5
DAFE
330
2
100
AcDbEntity
  8
L-ZISSEN
100
AcDbLine
 10
533.1322274666297
 20
-2993.40874594085
 30
0.0
 11
536.9300106621446
 21
-2993.40874594085
 31
0.0
  0
LINE
  5
DAFF
330
2
100
AcDbEntity
  8
L-ZISSEN
 48
0.3
100
AcDbLine
 10
536.9300106621446
 20
-2993.40874594085
 30
0.0
 11
538.2300106621449
 21
-2993.40874594085
 31
0.0
  0
LINE
  5
DB00
330
2
100
AcDbEntity
  8
L-ZISSEN
100
AcDbLine
 10
433.8768183469953
 20
-2912.408745940849
 30
0.0
 11
419.1268183469942
 21
-2912.408745940851
 31
0.0
  0
LINE
  5
DB01
330
2
100
AcDbEntity
  8
L-ZISSEN
100
AcDbLine
 10
406.6268183469946
 20
-2916.40874594085
 30
0.0
 11
424.1268183469946
 21
-2916.40874594085
 31
0.0
  0
LINE
  5
DB02
330
2
100
AcDbEntity
  8
L-ZISSEN
100
AcDbLine
 10
396.8768183469953
 20
-2912.408745940849
 30
0.0
 11
411.6268183469946
 21
-2912.408745940849
 31
0.0
  0
LINE
  5
DB03
330
2
100
AcDbEntity
  8
L-ZISSEN
100
AcDbLine
 10
388.8768183469953
 20
-2902.408745940851
 30
0.0
 11
396.8768183469953
 21
-2902.408745940851
 31
0.0
  0
LINE
  5
DB04
330
2
100
AcDbEntity
  8
L-ZISSEN
100
AcDbLine
 10
388.8768183469953
 20
-2902.408745940851
 30
0.0
 11
388.8768183469953
 21
-2912.408745940851
 31
0.0
  0
LINE
  5
DB05
330
2
100
AcDbEntity
  8
L-ZISSEN
100
AcDbLine
 10
385.4208337467678
 20
-2912.408745940851
 30
0.0
 11
388.8768183469953
 21
-2912.408745940851
 31
0.0
  0
LINE
  5
DB06
330
2
100
AcDbEntity
  8
L-ZISSEN
100
AcDbLine
 10
385.1734474119607
 20
-2898.909765440556
 30
0.0
 11
385.4208337467678
 21
-2912.408745940851
 31
0.0
  0
LINE
  5
DB07
330
2
100
AcDbEntity
  8
L-ZISSEN
100
AcDbLine
 10
396.8768183469953
 20
-2902.408745940851
 30
0.0
 11
396.8768183469953
 21
-2912.408745940851
 31
0.0
  0
LINE
  5
DB08
330
2
100
AcDbEntity
  8
L-TYUSIN
100
AcDbLine
 10
421.6268183469948
 20
-2921.65874594085
 30
0.0
 11
409.1268183469948
 21
-2921.65874594085
 31
0.0
  0
LINE
  5
DB09
330
2
100
AcDbEntity
  8
L-ZISSEN
100
AcDbLine
 10
412.8768183469946
 20
-2927.90874594085
 30
0.0
 11
417.8768183469946
 21
-2927.90874594085
 31
0.0
  0
CIRCLE
  5
DB0A
330
2
100
AcDbEntity
  8
L-ZISSEN
100
AcDbCircle
 10
415.3768183469948
 20
-2921.65874594085
 30
0.0
 40
3.75
  0
LINE
  5
DB0B
330
2
100
AcDbEntity
  8
L-ZISSEN
100
AcDbLine
 10
419.1268183469946
 20
-2902.408745940851
 30
0.0
 11
411.6268183469946
 21
-2902.408745940851
 31
0.0
  0
LINE
  5
DB0C
330
2
100
AcDbEntity
  8
L-ZISSEN
100
AcDbLine
 10
411.6268183469946
 20
-2902.408745940851
 30
0.0
 11
411.6268183469946
 21
-2912.408745940849
 31
0.0
  0
LINE
  5
DB0D
330
2
100
AcDbEntity
  8
L-ZISSEN
100
AcDbLine
 10
419.1268183469945
 20
-2902.408745940851
 30
0.0
 11
419.1268183469942
 21
-2912.408745940849
 31
0.0
  0
LINE
  5
DB0E
330
2
100
AcDbEntity
  8
L-ZISSEN
100
AcDbLine
 10
439.3881727852528
 20
-2912.408745940849
 30
0.0
 11
444.6326854084762
 21
-2912.408745940849
 31
0.0
  0
LINE
  5
DB0F
330
2
100
AcDbEntity
  8
L-ZISSEN
100
AcDbLine
 10
439.3881727852528
 20
-2902.408745940851
 30
0.0
 11
439.3881727852528
 21
-2912.408745940849
 31
0.0
  0
LINE
  5
DB10
330
2
100
AcDbEntity
  8
L-ZISSEN
100
AcDbLine
 10
433.8768183469953
 20
-2902.408745940849
 30
0.0
 11
433.8768183469953
 21
-2912.408745940849
 31
0.0
  0
LINE
  5
DB11
330
2
100
AcDbEntity
  8
L-ZISSEN
100
AcDbLine
 10
433.8768183469944
 20
-2902.408745940849
 30
0.0
 11
439.3881727852528
 21
-2902.408745940851
 31
0.0
  0
LINE
  5
DB12
330
2
100
AcDbEntity
  8
L-ZISSEN
100
AcDbLine
 10
449.1809467566654
 20
-2918.673399452246
 30
0.0
 11
454.9809467566651
 21
-2919.284197844621
 31
0.0
  0
LINE
  5
DB13
330
2
100
AcDbEntity
  8
L-ZISSEN
100
AcDbLine
 10
454.9809467566651
 20
-2923.568366827219
 30
0.0
 11
446.9809467566651
 21
-2925.50874594085
 31
0.0
  0
LINE
  5
DB14
330
2
100
AcDbEntity
  8
L-ZISSEN
100
AcDbLine
 10
447.4688344423591
 20
-2903.908745940851
 30
0.0
 11
447.4688344423591
 21
-2912.408745940849
 31
0.0
  0
LINE
  5
DB15
330
2
100
AcDbEntity
  8
L-ZISSEN
100
AcDbLine
 10
445.4463328081735
 20
-2903.908745940851
 30
0.0
 11
445.4463328081735
 21
-2912.408745940849
 31
0.0
  0
LINE
  5
DB16
330
2
100
AcDbEntity
  8
L-ZISSEN
100
AcDbLine
 10
449.1809467566654
 20
-2899.20874594085
 30
0.0
 11
449.1809467566654
 21
-2918.673399452246
 31
0.0
  0
LINE
  5
DB17
330
2
100
AcDbEntity
  8
L-ZISSEN
100
AcDbLine
 10
444.6326854084762
 20
-2912.408745940851
 30
0.0
 11
445.332802947222
 21
-2912.408745940851
 31
0.0
  0
LINE
  5
DB18
330
2
100
AcDbEntity
  8
L-ZISSEN
100
AcDbLine
 10
444.2840810133211
 20
-2928.508745940851
 30
0.0
 11
446.9809467566656
 21
-2928.508745940851
 31
0.0
  0
LINE
  5
DB19
330
2
100
AcDbEntity
  8
L-ZISSEN
100
AcDbLine
 10
447.4688344423591
 20
-2912.408745940849
 30
0.0
 11
444.8060948407908
 21
-2912.408745940849
 31
0.0
  0
LINE
  5
DB1A
330
2
100
AcDbEntity
  8
L-ZISSEN
100
AcDbLine
 10
446.9809467566651
 20
-2922.70874594085
 30
0.0
 11
444.8514057751981
 21
-2922.70874594085
 31
0.0
  0
LINE
  5
DB1B
330
2
100
AcDbEntity
  8
L-ZISSEN
100
AcDbLine
 10
444.8514057751975
 20
-2921.42628233592
 30
0.0
 11
444.8514057751981
 21
-2912.408745940851
 31
0.0
  0
LINE
  5
DB1C
330
2
100
AcDbEntity
  8
L-ZISSEN
100
AcDbLine
 10
444.8514057751981
 20
-2922.70874594085
 30
0.0
 11
444.8514057751981
 21
-2912.408745940851
 31
0.0
  0
LINE
  5
DB1D
330
2
100
AcDbEntity
  8
L-ZISSEN
100
AcDbLine
 10
446.9809467566651
 20
-2925.50874594085
 30
0.0
 11
446.9809467566651
 21
-2912.408745940849
 31
0.0
  0
LINE
  5
DB1E
330
2
100
AcDbEntity
  8
L-ZISSEN
100
AcDbLine
 10
445.7809467566653
 20
-2928.508745940851
 30
0.0
 11
445.7809467566653
 21
-2922.70874594085
 31
0.0
  0
LINE
  5
DB1F
330
2
100
AcDbEntity
  8
L-ZISSEN
100
AcDbLine
 10
446.9809467566651
 20
-2931.00874594085
 30
0.0
 11
447.4809467566651
 21
-2931.00874594085
 31
0.0
  0
LINE
  5
DB20
330
2
100
AcDbEntity
  8
L-ZISSEN
100
AcDbLine
 10
446.9809467566651
 20
-2935.00874594085
 30
0.0
 11
447.4809467566651
 21
-2935.00874594085
 31
0.0
  0
ARC
  5
DB21
330
2
100
AcDbEntity
  8
L-ZISSEN
100
AcDbCircle
 10
446.2127649384829
 20
-2933.00874594085
 30
0.0
 40
2.368181818181991
100
AcDbArc
 50
302.3784125140605
 51
57.62158748593945
  0
LINE
  5
DB22
330
2
100
AcDbEntity
  8
L-ZISSEN
100
AcDbLine
 10
443.9809467566647
 20
-2942.50874594085
 30
0.0
 11
446.9809467566647
 21
-2939.508745940851
 31
0.0
  0
LINE
  5
DB23
330
2
100
AcDbEntity
  8
L-ZISSEN
100
AcDbLine
 10
446.9809467566647
 20
-2939.508745940851
 30
0.0
 11
446.9809467566656
 21
-2916.189790524591
 31
0.0
  0
LINE
  5
DB24
330
2
100
AcDbEntity
  8
L-ZISSEN
100
AcDbLine
 10
449.1809467566654
 20
-2899.20874594085
 30
0.0
 11
446.9809467566651
 21
-2899.20874594085
 31
0.0
  0
LINE
  5
DB25
330
2
100
AcDbEntity
  8
L-ZISSEN
100
AcDbLine
 10
446.9809467566651
 20
-2898.909765440556
 30
0.0
 11
446.9809467566651
 21
-2899.20874594085
 31
0.0
  0
LINE
  5
DB26
330
2
100
AcDbEntity
  8
L-ZISSEN
100
AcDbLine
 10
447.4688344423591
 20
-2903.908745940851
 30
0.0
 11
445.4463328081735
 21
-2903.908745940851
 31
0.0
  0
LINE
  5
DB27
330
2
100
AcDbEntity
  8
L-ZISSEN
100
AcDbLine
 10
446.9809467566651
 20
-2903.908745940851
 30
0.0
 11
446.9809467566651
 21
-2899.20874594085
 31
0.0
  0
LINE
  5
DB2A
330
2
100
AcDbEntity
  8
L-ZISSEN
100
AcDbLine
 10
454.9809467566651
 20
-2919.284197844621
 30
0.0
 11
454.9809467566651
 21
-2923.568366827219
 31
0.0
  0
LINE
  5
DB2B
330
2
100
AcDbEntity
  8
L-ZISSEN
100
AcDbLine
 10
523.6322274666279
 20
-2916.40874594085
 30
0.0
 11
533.1322274666279
 21
-2916.40874594085
 31
0.0
  0
LINE
  5
DB2C
330
2
100
AcDbEntity
  8
L-TYUSIN
100
AcDbLine
 10
516.7322274666283
 20
-2921.40874594085
 30
0.0
 11
541.2539021762784
 21
-2921.40874594085
 31
0.0
  0
ARC
  5
DB2D
330
2
100
AcDbEntity
  8
L-ZISSEN
100
AcDbCircle
 10
524.0442300344055
 20
-2923.133532456668
 30
0.0
 40
2.312215931624567
100
AcDbArc
 50
179.2216280233825
 51
259.7359316277872
  0
ARC
  5
DB2E
330
2
100
AcDbEntity
  8
L-ZISSEN
100
AcDbCircle
 10
524.0442300344055
 20
-2920.183959425032
 30
0.0
 40
2.312215931624567
100
AcDbArc
 50
100.2640683722127
 51
180.7783719766174
  0
LINE
  5
DB2F
330
2
100
AcDbEntity
  8
L-ZISSEN
100
AcDbLine
 10
521.7322274666282
 20
-2920.215370267876
 30
0.0
 11
521.732227466628
 21
-2923.102121613824
 31
0.0
  0
LINE
  5
DB30
330
2
100
AcDbEntity
  8
L-ZISSEN
100
AcDbLine
 10
533.1322274666279
 20
-2916.40874594085
 30
0.0
 11
536.2323450053743
 21
-2916.40874594085
 31
0.0
  0
LINE
  5
DB31
330
2
100
AcDbEntity
  8
L-ZISSEN
100
AcDbLine
 10
531.4208337467678
 20
-2916.40874594085
 30
0.0
 11
534.8768183469953
 21
-2916.40874594085
 31
0.0
  0
LINE
  5
DB32
330
2
100
AcDbEntity
  8
L-ZISSEN
100
AcDbLine
 10
538.8768183469953
 20
-2902.408745940851
 30
0.0
 11
538.8768183469953
 21
-2912.40874594085
 31
0.0
  0
LINE
  5
DB33
330
2
100
AcDbEntity
  8
L-ZISSEN
100
AcDbLine
 10
536.1209512855146
 20
-2912.40874594085
 30
0.0
 11
536.1588050842028
 21
-2916.40874594085
 31
0.0
  0
LINE
  5
DB34
330
2
100
AcDbEntity
  8
L-ZISSEN
 48
0.3
100
AcDbLine
 10
538.2300106621449
 20
-2916.40874594085
 30
0.0
 11
536.2323450053743
 21
-2916.40874594085
 31
0.0
  0
LINE
  5
DB35
330
2
100
AcDbEntity
  8
L-ZISSEN
100
AcDbLine
 10
535.1734474119609
 20
-2898.909765440556
 30
0.0
 11
535.4208337467678
 21
-2912.40874594085
 31
0.0
  0
LINE
  5
DB36
330
2
100
AcDbEntity
  8
L-ZISSEN
100
AcDbLine
 10
535.4208337467678
 20
-2912.40874594085
 30
0.0
 11
538.8768183469953
 21
-2912.40874594085
 31
0.0
  0
LINE
  5
DB37
330
2
100
AcDbEntity
  8
L-ZISSEN
100
AcDbLine
 10
594.6326854084762
 20
-2912.40874594085
 30
0.0
 11
592.9168244064992
 21
-2991.654339271789
 31
0.0
  0
LINE
  5
DB38
330
2
100
AcDbEntity
  8
L-ZISSEN
100
AcDbLine
 10
574.8119856152141
 20
-3002.408745940851
 30
0.0
 11
583.7688456788116
 21
-3001.359841574922
 31
0.0
  0
LINE
  5
DB39
330
2
100
AcDbEntity
  8
L-ZISSEN
100
AcDbLine
 10
558.6313015087462
 20
-3008.910386555375
 30
0.0
 11
572.1223351852445
 21
-3008.911183325146
 31
0.0
  0
LINE
  5
DB3A
330
2
100
AcDbEntity
  8
L-ZISSEN
100
AcDbLine
 10
558.6313015087462
 20
-3005.909144325737
 30
0.0
 11
572.1223351852445
 21
-3005.908347555966
 31
0.0
  0
LINE
  5
DB3B
330
2
100
AcDbEntity
  8
L-ZISSEN
100
AcDbLine
 10
559.909617125249
 20
-3010.850930851047
 30
0.0
 11
568.4096171252503
 21
-3010.850930851047
 31
0.0
  0
ARC
  5
DB3C
330
2
100
AcDbEntity
  8
L-ZISSEN
100
AcDbCircle
 10
565.4096171252509
 20
-2988.268702766638
 30
0.0
 40
20.64106267391694
100
AcDbArc
 50
257.3236813122661
 51
282.4944195184307
  0
ARC
  5
DB3D
330
2
100
AcDbEntity
  8
L-ZISSEN
100
AcDbCircle
 10
565.4096171252509
 20
-3026.550828114472
 30
0.0
 40
20.64106267391679
100
AcDbArc
 50
77.50558048156925
 51
102.676318687748
  0
LINE
  5
DB3E
330
2
100
AcDbEntity
  8
L-ZISSEN
100
AcDbLine
 10
571.1096171252502
 20
-3020.909765440555
 30
0.0
 11
559.7096171252514
 21
-3020.909765440555
 31
0.0
  0
LINE
  5
DB3F
330
2
100
AcDbEntity
  8
L-ZISSEN
100
AcDbLine
 10
555.9416510787766
 20
-3002.408745940851
 30
0.0
 11
574.8119856152141
 21
-3002.408745940851
 31
0.0
  0
LINE
  5
DB40
330
2
100
AcDbEntity
  8
L-ZISSEN
100
AcDbLine
 10
555.941651078777
 20
-3005.908745940851
 30
0.0
 11
574.8119856152141
 21
-3005.908745940851
 31
0.0
  0
LINE
  5
DB41
330
2
100
AcDbEntity
  8
L-ZISSEN
100
AcDbLine
 10
559.4096171252515
 20
-3020.609765440555
 30
0.0
 11
559.4096171252517
 21
-3011.350930851047
 31
0.0
  0
LINE
  5
DB42
330
2
100
AcDbEntity
  8
L-ZISSEN
100
AcDbLine
 10
562.4096171252513
 20
-3010.850930851047
 30
0.0
 11
562.4096171252515
 21
-3020.909765440555
 31
0.0
  0
LINE
  5
DB43
330
2
100
AcDbEntity
  8
L-ZISSEN
100
AcDbLine
 10
563.4096171252527
 20
-3010.850930851047
 30
0.0
 11
563.4096171252529
 21
-3020.909765440555
 31
0.0
  0
LINE
  5
DB44
330
2
100
AcDbEntity
  8
L-ZISSEN
100
AcDbLine
 10
560.4096171252508
 20
-3010.850930851047
 30
0.0
 11
560.4096171252511
 21
-3020.909765440555
 31
0.0
  0
LINE
  5
DB45
330
2
100
AcDbEntity
  8
L-ZISSEN
100
AcDbLine
 10
561.4096171252499
 20
-3010.850930851047
 30
0.0
 11
561.4096171252499
 21
-3020.909765440555
 31
0.0
  0
LINE
  5
DB46
330
2
100
AcDbEntity
  8
L-ZISSEN
100
AcDbLine
 10
559.7096171252514
 20
-3020.909765440555
 30
0.0
 11
559.4096171252517
 21
-3020.609765440555
 31
0.0
  0
LINE
  5
DB47
330
2
100
AcDbEntity
  8
L-ZISSEN
100
AcDbLine
 10
555.9416510787757
 20
-3002.408745940851
 30
0.0
 11
546.9847910151782
 21
-3001.359841574922
 31
0.0
  0
ARC
  5
DB48
330
2
100
AcDbEntity
  8
L-ZISSEN
100
AcDbCircle
 10
558.6313015087462
 20
-3003.639056385004
 30
0.0
 40
5.271330170370607
100
AcDbArc
 50
245.0771192748252
 51
295.2523389966427
  0
ARC
  5
DB49
330
2
100
AcDbEntity
  8
L-ZISSEN
100
AcDbCircle
 10
558.6313015087462
 20
-3011.180474496107
 30
0.0
 40
5.271330170370607
100
AcDbArc
 50
64.74766100341544
 51
114.9228807251748
  0
LINE
  5
DB4A
330
2
100
AcDbEntity
  8
L-ZISSEN
100
AcDbLine
 10
560.409617125249
 20
-3010.850930851047
 30
0.0
 11
559.9096171252518
 21
-3010.350930851047
 31
0.0
  0
LINE
  5
DB4B
330
2
100
AcDbEntity
  8
L-ZISSEN
100
AcDbLine
 10
559.9096171252518
 20
-3010.350930851047
 30
0.0
 11
559.9096171252518
 21
-3008.909765440555
 31
0.0
  0
LINE
  5
DB4C
330
2
100
AcDbEntity
  8
L-ZISSEN
100
AcDbLine
 10
556.4099735051668
 20
-3006.400032710499
 30
0.0
 11
556.4099735051668
 21
-3008.419498170612
 31
0.0
  0
LINE
  5
DB4D
330
2
100
AcDbEntity
  8
L-ZISSEN
100
AcDbLine
 10
559.909617125249
 20
-3010.850930851047
 30
0.0
 11
559.4096171252517
 21
-3011.350930851047
 31
0.0
  0
LINE
  5
DB4E
330
2
100
AcDbEntity
  8
L-ZISSEN
100
AcDbLine
 10
560.8800808072324
 20
-3006.412884598504
 30
0.0
 11
560.8800808072392
 21
-3008.406646282607
 31
0.0
  0
LINE
  5
DB4F
330
2
100
AcDbEntity
  8
L-ZISSEN
100
AcDbLine
 10
560.4096171252534
 20
-3008.910462051684
 30
0.0
 11
560.409617125249
 21
-3010.850930851047
 31
0.0
  0
LINE
  5
DB50
330
2
100
AcDbEntity
  8
L-ZISSEN
100
AcDbLine
 10
555.9416510787766
 20
-3002.408745940851
 30
0.0
 11
555.941651078777
 21
-3005.908745940851
 31
0.0
  0
LINE
  5
DB51
330
2
100
AcDbEntity
  8
L-ZISSEN
100
AcDbLine
 10
564.4096171252518
 20
-3010.850930851047
 30
0.0
 11
564.4096171252519
 21
-3020.909765440555
 31
0.0
  0
LINE
  5
DB52
330
2
100
AcDbEntity
  8
L-ZISSEN
100
AcDbLine
 10
565.4096171252531
 20
-3010.850930851047
 30
0.0
 11
565.4096171252533
 21
-3020.909765440555
 31
0.0
  0
LINE
  5
DB53
330
2
100
AcDbEntity
  8
L-ZISSEN
100
AcDbLine
 10
566.4096171252522
 20
-3010.850930851047
 30
0.0
 11
566.4096171252524
 21
-3020.909765440555
 31
0.0
  0
LINE
  5
DB54
330
2
100
AcDbEntity
  8
L-ZISSEN
100
AcDbLine
 10
567.4096171252513
 20
-3010.850930851047
 30
0.0
 11
567.4096171252515
 21
-3020.909765440555
 31
0.0
  0
LINE
  5
DB55
330
2
100
AcDbEntity
  8
L-ZISSEN
100
AcDbLine
 10
568.4096171252503
 20
-3010.850930851047
 30
0.0
 11
568.4096171252503
 21
-3020.909765440555
 31
0.0
  0
LINE
  5
DB56
330
2
100
AcDbEntity
  8
L-ZISSEN
100
AcDbLine
 10
569.409617125254
 20
-3010.850930851047
 30
0.0
 11
569.4096171252542
 21
-3020.909765440555
 31
0.0
  0
LINE
  5
DB57
330
2
100
AcDbEntity
  8
L-ZISSEN
100
AcDbLine
 10
570.4096171252531
 20
-3010.850930851047
 30
0.0
 11
570.4096171252551
 21
-3020.909765440555
 31
0.0
  0
LINE
  5
DB58
330
2
100
AcDbEntity
  8
L-ZISSEN
100
AcDbLine
 10
571.4096171252499
 20
-3011.350930851047
 30
0.0
 11
571.4096171252499
 21
-3020.609765440555
 31
0.0
  0
LINE
  5
DB59
330
2
100
AcDbEntity
  8
L-ZISSEN
100
AcDbLine
 10
571.1096171252502
 20
-3020.909765440555
 30
0.0
 11
571.4096171252499
 21
-3020.609765440555
 31
0.0
  0
ARC
  5
DB5A
330
2
100
AcDbEntity
  8
L-ZISSEN
100
AcDbCircle
 10
572.1223351852445
 20
-3003.639853154775
 30
0.0
 40
5.271330170371532
100
AcDbArc
 50
244.7408933165819
 51
295.711645114861
  0
ARC
  5
DB5B
330
2
100
AcDbEntity
  8
L-ZISSEN
100
AcDbCircle
 10
572.1223351852445
 20
-3011.179677726336
 30
0.0
 40
5.271330170371789
100
AcDbArc
 50
64.28835488513896
 51
115.259106683418
  0
LINE
  5
DB5C
330
2
100
AcDbEntity
  8
L-ZISSEN
100
AcDbLine
 10
570.9096171252501
 20
-3010.350930851046
 30
0.0
 11
570.9096171252499
 21
-3008.909765440555
 31
0.0
  0
LINE
  5
DB5D
330
2
100
AcDbEntity
  8
L-ZISSEN
100
AcDbLine
 10
569.872992762268
 20
-3006.412353484241
 30
0.0
 11
569.872992762268
 21
-3008.40717739687
 31
0.0
  0
LINE
  5
DB5E
330
2
100
AcDbEntity
  8
L-ZISSEN
100
AcDbLine
 10
570.9096171252504
 20
-3010.850930851047
 30
0.0
 11
571.4096171252499
 21
-3011.350930851047
 31
0.0
  0
LINE
  5
DB5F
330
2
100
AcDbEntity
  8
L-ZISSEN
100
AcDbLine
 10
568.4096171252503
 20
-3010.850930851047
 30
0.0
 11
570.9096171252504
 21
-3010.850930851047
 31
0.0
  0
LINE
  5
DB60
330
2
100
AcDbEntity
  8
L-ZISSEN
100
AcDbLine
 10
570.4096171252504
 20
-3010.850930851047
 30
0.0
 11
570.9096171252499
 21
-3010.350930851047
 31
0.0
  0
LINE
  5
DB61
330
2
100
AcDbEntity
  8
L-ZISSEN
100
AcDbLine
 10
570.4096171252547
 20
-3008.911111702978
 30
0.0
 11
570.4096171252504
 21
-3010.850930851047
 31
0.0
  0
LINE
  5
DB62
330
2
100
AcDbEntity
  8
L-ZISSEN
100
AcDbLine
 10
574.8119856152141
 20
-3002.408745940851
 30
0.0
 11
574.8119856152136
 21
-3005.908745940851
 31
0.0
  0
LINE
  5
DB63
330
2
100
AcDbEntity
  8
L-ZISSEN
100
AcDbLine
 10
574.4092607453372
 20
-3006.430267947461
 30
0.0
 11
574.4092607453372
 21
-3008.389262933649
 31
0.0
  0
ARC
  5
DB64
330
2
100
AcDbEntity
  8
L-ZISSEN
100
AcDbCircle
 10
582.9201639982545
 20
-2991.395919686174
 30
0.0
 40
10.0
100
AcDbArc
 50
274.8684440628809
 51
358.9999999999721
  0
LINE
  5
DB65
330
2
100
AcDbEntity
  8
L-ZISSEN
100
AcDbLine
 10
583.8768183469953
 20
-2912.408745940848
 30
0.0
 11
576.8768183469953
 21
-2912.408745940849
 31
0.0
  0
LINE
  5
DB66
330
2
100
AcDbEntity
  8
L-ZISSEN
100
AcDbLine
 10
564.4170683469963
 20
-2909.192995940848
 30
0.0
 11
562.4975683469963
 21
-2909.192995940848
 31
0.0
  0
LINE
  5
DB67
330
2
100
AcDbEntity
  8
L-ZISSEN
100
AcDbLine
 10
565.3768183469947
 20
-2919.428669999948
 30
0.0
 11
556.2289165860688
 21
-2918.121826891245
 31
0.0
  0
LINE
  5
DB68
330
2
100
AcDbEntity
  8
L-ZISSEN
100
AcDbLine
 10
565.3768183469947
 20
-2918.79049594085
 30
0.0
 11
555.2994433469928
 21
-2917.350870940849
 31
0.0
  0
LINE
  5
DB69
330
2
100
AcDbEntity
  8
L-ZISSEN
100
AcDbLine
 10
556.2289165860688
 20
-2921.62523312823
 30
0.0
 11
565.3768183469947
 21
-2923.540401180998
 31
0.0
  0
LINE
  5
DB6A
330
2
100
AcDbEntity
  8
L-TYUSIN
100
AcDbLine
 10
557.776818346995
 20
-2933.008745940849
 30
0.0
 11
572.9768183469948
 21
-2933.008745940849
 31
0.0
  0
LINE
  5
DB6B
330
2
100
AcDbEntity
  8
L-ZISSEN
100
AcDbLine
 10
557.776818346995
 20
-2936.508745940849
 30
0.0
 11
572.9768183469948
 21
-2936.508745940849
 31
0.0
  0
LINE
  5
DB6C
330
2
100
AcDbEntity
  8
L-ZISSEN
100
AcDbLine
 10
557.776818346995
 20
-2937.508745940849
 30
0.0
 11
572.9768183469948
 21
-2937.508745940849
 31
0.0
  0
LINE
  5
DB6D
330
2
100
AcDbEntity
  8
L-ZISSEN
100
AcDbLine
 10
562.4975683469963
 20
-2909.192995940848
 30
0.0
 11
565.3768183469963
 21
-2913.991745940849
 31
0.0
  0
LINE
  5
DB6E
330
2
100
AcDbEntity
  8
L-ZISSEN
100
AcDbLine
 10
565.3768183469947
 20
-2925.508745940849
 30
0.0
 11
554.5796308469927
 21
-2922.629495940849
 31
0.0
  0
LINE
  5
DB6F
330
2
100
AcDbEntity
  8
L-ZISSEN
100
AcDbLine
 10
555.3768183469944
 20
-2942.50874594085
 30
0.0
 11
575.3768183469945
 21
-2942.50874594085
 31
0.0
  0
LINE
  5
DB70
330
2
100
AcDbEntity
  8
L-ZISSEN
100
AcDbLine
 10
555.776818346995
 20
-2939.50874594085
 30
0.0
 11
574.9768183469948
 21
-2939.50874594085
 31
0.0
  0
LINE
  5
DB71
330
2
100
AcDbEntity
  8
L-ZISSEN
100
AcDbLine
 10
577.3768183469947
 20
-2899.20874594085
 30
0.0
 11
553.3768183469947
 21
-2899.20874594085
 31
0.0
  0
LINE
  5
DB72
330
2
100
AcDbEntity
  8
L-ZISSEN
100
AcDbLine
 10
553.0768183469952
 20
-2912.408745940849
 30
0.0
 11
554.3768183469945
 21
-2912.408745940849
 31
0.0
  0
ARC
  5
DB73
330
2
100
AcDbEntity
  8
L-ZISSEN
100
AcDbCircle
 10
554.8768183469944
 20
-2928.00874594085
 30
0.0
 40
0.5
100
AcDbArc
 50
180.0
 51
270.0
  0
LINE
  5
DB74
330
2
100
AcDbEntity
  8
L-ZISSEN
100
AcDbLine
 10
553.0768183469952
 20
-2903.908745940851
 30
0.0
 11
554.3768183469945
 21
-2903.908745940851
 31
0.0
  0
LINE
  5
DB75
330
2
100
AcDbEntity
  8
L-ZISSEN
100
AcDbLine
 10
546.8768183469953
 20
-2902.408745940851
 30
0.0
 11
546.8768183469953
 21
-2912.40874594085
 31
0.0
  0
LINE
  5
DB76
330
2
100
AcDbEntity
  8
L-ZISSEN
100
AcDbLine
 10
553.0768183469952
 20
-2903.908745940851
 30
0.0
 11
553.0768183469952
 21
-2912.408745940849
 31
0.0
  0
LINE
  5
DB77
330
2
100
AcDbEntity
  8
L-ZISSEN
100
AcDbLine
 10
546.8768183469953
 20
-2912.408745940849
 30
0.0
 11
553.8768183469954
 21
-2912.408745940849
 31
0.0
  0
LINE
  5
DB78
330
2
100
AcDbEntity
  8
L-ZISSEN
100
AcDbLine
 10
553.3768183469949
 20
-2898.909765440556
 30
0.0
 11
553.3768183469947
 21
-2899.20874594085
 31
0.0
  0
LINE
  5
DB79
330
2
100
AcDbEntity
  8
L-ZISSEN
100
AcDbLine
 10
555.2994433469928
 20
-2899.20874594085
 30
0.0
 11
555.2994433469928
 21
-2917.350870940849
 31
0.0
  0
CIRCLE
  5
DB7A
330
2
100
AcDbEntity
  8
L-ZISSEN
100
AcDbCircle
 10
561.1268183469944
 20
-2933.008745940849
 30
0.0
 40
2.0
  0
LINE
  5
DB7B
330
2
100
AcDbEntity
  8
L-ZISSEN
100
AcDbLine
 10
556.2289165860688
 20
-2918.121826891245
 30
0.0
 11
555.2994433469928
 21
-2917.350870940849
 31
0.0
  0
LINE
  5
DB7C
330
2
100
AcDbEntity
  8
L-ZISSEN
100
AcDbLine
 10
556.2289165860688
 20
-2917.483652832146
 30
0.0
 11
555.2994433469928
 21
-2917.350870940849
 31
0.0
  0
LINE
  5
DB7D
330
2
100
AcDbEntity
  8
L-ZISSEN
100
AcDbLine
 10
556.2289165860688
 20
-2918.121826891245
 30
0.0
 11
556.2289165860688
 21
-2921.62523312823
 31
0.0
  0
LINE
  5
DB7E
330
2
100
AcDbEntity
  8
L-ZISSEN
100
AcDbLine
 10
555.776818346995
 20
-2939.50874594085
 30
0.0
 11
555.3768183469944
 21
-2942.50874594085
 31
0.0
  0
LINE
  5
DB7F
330
2
100
AcDbEntity
  8
L-ZISSEN
100
AcDbLine
 10
557.7768183469945
 20
-2923.482079274183
 30
0.0
 11
557.776818346995
 21
-2937.508745940849
 31
0.0
  0
LINE
  5
DB80
330
2
100
AcDbEntity
  8
L-ZISSEN
100
AcDbLine
 10
555.3768183469944
 20
-2928.508745940849
 30
0.0
 11
555.3768183469944
 21
-2942.50874594085
 31
0.0
  0
LINE
  5
DB81
330
2
100
AcDbEntity
  8
L-ZISSEN
100
AcDbLine
 10
555.776818346994
 20
-2928.508745940849
 30
0.0
 11
555.776818346995
 21
-2939.50874594085
 31
0.0
  0
LINE
  5
DB82
330
2
100
AcDbEntity
  8
L-TYUSIN
100
AcDbLine
 10
561.1268183469944
 20
-2929.75874594085
 30
0.0
 11
561.1268183469944
 21
-2936.25874594085
 31
0.0
  0
LINE
  5
DB83
330
2
100
AcDbEntity
  8
L-ZISSEN
100
AcDbLine
 10
562.9774433469947
 20
-2903.43449594085
 30
0.0
 11
559.1384433469945
 21
-2903.43449594085
 31
0.0
  0
LINE
  5
DB84
330
2
100
AcDbEntity
  8
L-ZISSEN
100
AcDbLine
 10
562.9774433469947
 20
-2903.43449594085
 30
0.0
 11
559.1384433469945
 21
-2903.43449594085
 31
0.0
  0
LINE
  5
DB85
330
2
100
AcDbEntity
  8
L-ZISSEN
100
AcDbLine
 10
562.9774433469947
 20
-2904.394245940849
 30
0.0
 11
559.1384433469945
 21
-2904.394245940849
 31
0.0
  0
LINE
  5
DB86
330
2
100
AcDbEntity
  8
L-ZISSEN
100
AcDbLine
 10
562.9774433469947
 20
-2904.394245940849
 30
0.0
 11
559.1384433469945
 21
-2904.394245940849
 31
0.0
  0
LINE
  5
DB87
330
2
100
AcDbEntity
  8
L-ZISSEN
100
AcDbLine
 10
559.1384433469945
 20
-2904.394245940849
 30
0.0
 11
559.1384433469945
 21
-2905.353995940849
 31
0.0
  0
LINE
  5
DB88
330
2
100
AcDbEntity
  8
L-ZISSEN
100
AcDbLine
 10
559.1384433469945
 20
-2905.353995940849
 30
0.0
 11
556.7390683469946
 21
-2903.914370940849
 31
0.0
  0
LINE
  5
DB89
330
2
100
AcDbEntity
  8
L-ZISSEN
100
AcDbLine
 10
559.1384433469945
 20
-2903.43449594085
 30
0.0
 11
559.1384433469945
 21
-2902.47474594085
 31
0.0
  0
LINE
  5
DB8A
330
2
100
AcDbEntity
  8
L-ZISSEN
100
AcDbLine
 10
559.1384433469945
 20
-2902.47474594085
 30
0.0
 11
556.7390683469946
 21
-2903.914370940849
 31
0.0
  0
LINE
  5
DB8B
330
2
100
AcDbEntity
  8
L-ZISSEN
100
AcDbLine
 10
562.9774433469947
 20
-2903.43449594085
 30
0.0
 11
562.9774433469947
 21
-2904.394245940849
 31
0.0
  0
LINE
  5
DB8C
330
2
100
AcDbEntity
  8
L-ZISSEN
100
AcDbLine
 10
554.579630846993
 20
-2899.20874594085
 30
0.0
 11
554.5796308469927
 21
-2922.629495940849
 31
0.0
  0
LINE
  5
DB8D
330
2
100
AcDbEntity
  8
L-ZISSEN
100
AcDbLine
 10
554.3768183469945
 20
-2899.20874594085
 30
0.0
 11
554.3768183469945
 21
-2928.00874594085
 31
0.0
  0
LINE
  5
DB8E
330
2
100
AcDbEntity
  8
L-ZISSEN
100
AcDbLine
 10
554.5796308469927
 20
-2922.629495940849
 30
0.0
 11
556.2289165860688
 21
-2921.62523312823
 31
0.0
  0
LINE
  5
DB8F
330
2
100
AcDbEntity
  8
L-ZISSEN
100
AcDbLine
 10
554.8768183469944
 20
-2928.50874594085
 30
0.0
 11
557.7768183469945
 21
-2928.508745940851
 31
0.0
  0
LINE
  5
DB90
330
2
100
AcDbEntity
  8
L-ZISSEN
100
AcDbLine
 10
571.6151933469948
 20
-2905.353995940849
 30
0.0
 11
574.0145683469948
 21
-2903.914370940849
 31
0.0
  0
LINE
  5
DB91
330
2
100
AcDbEntity
  8
L-ZISSEN
100
AcDbLine
 10
571.6151933469948
 20
-2902.474745940849
 30
0.0
 11
574.0145683469948
 21
-2903.914370940849
 31
0.0
  0
LINE
  5
DB92
330
2
100
AcDbEntity
  8
L-ZISSEN
100
AcDbLine
 10
572.9768183469948
 20
-2928.508745940851
 30
0.0
 11
575.8768183469944
 21
-2928.50874594085
 31
0.0
  0
LINE
  5
DB93
330
2
100
AcDbEntity
  8
L-ZISSEN
100
AcDbLine
 10
565.3768183469947
 20
-2918.79049594085
 30
0.0
 11
575.4541933469929
 21
-2917.350870940849
 31
0.0
  0
LINE
  5
DB94
330
2
100
AcDbEntity
  8
L-ZISSEN
100
AcDbLine
 10
565.3768183469947
 20
-2919.428669999948
 30
0.0
 11
574.5247201079205
 21
-2918.121826891245
 31
0.0
  0
LINE
  5
DB95
330
2
100
AcDbEntity
  8
L-ZISSEN
100
AcDbLine
 10
574.5247201079205
 20
-2921.62523312823
 30
0.0
 11
565.3768183469947
 21
-2923.540401180998
 31
0.0
  0
LINE
  5
DB96
330
2
100
AcDbEntity
  8
L-ZISSEN
100
AcDbLine
 10
565.3768183469947
 20
-2925.508745940849
 30
0.0
 11
576.1740058469929
 21
-2922.629495940849
 31
0.0
  0
LINE
  5
DB98
330
2
100
AcDbEntity
  8
L-ZISSEN
100
AcDbLine
 10
566.3365683469963
 20
-2901.514995940848
 30
0.0
 11
566.3365683469963
 21
-2909.192995940848
 31
0.0
  0
LINE
  5
DB99
330
2
100
AcDbEntity
  8
L-ZISSEN
100
AcDbLine
 10
566.3365683469963
 20
-2901.514995940848
 30
0.0
 11
566.3365683469963
 21
-2909.192995940848
 31
0.0
  0
LINE
  5
DB9A
330
2
100
AcDbEntity
  8
L-ZISSEN
100
AcDbLine
 10
566.6268183469949
 20
-2927.25874594085
 30
0.0
 11
566.6268183469949
 21
-2925.175412607516
 31
0.0
  0
LINE
  5
DB9B
330
2
100
AcDbEntity
  8
L-ZISSEN
100
AcDbLine
 10
566.3365683469963
 20
-2909.192995940848
 30
0.0
 11
568.2560683469964
 21
-2909.192995940848
 31
0.0
  0
LINE
  5
DB9C
330
2
100
AcDbEntity
  8
L-ZISSEN
100
AcDbLine
 10
565.3768183469947
 20
-2918.79049594085
 30
0.0
 11
565.3768183469947
 21
-2919.428669999948
 31
0.0
  0
LINE
  5
DB9D
330
2
100
AcDbEntity
  8
L-ZISSEN
100
AcDbLine
 10
568.2560683469964
 20
-2909.192995940848
 30
0.0
 11
565.3768183469963
 21
-2913.991745940849
 31
0.0
  0
CIRCLE
  5
DB9E
330
2
100
AcDbEntity
  8
L-ZISSEN
100
AcDbCircle
 10
569.6268183469953
 20
-2933.008745940849
 30
0.0
 40
2.0
  0
LINE
  5
DB9F
330
2
100
AcDbEntity
  8
L-TYUSIN
100
AcDbLine
 10
569.6268183469953
 20
-2929.75874594085
 30
0.0
 11
569.6268183469953
 21
-2936.25874594085
 31
0.0
  0
LINE
  5
DBA0
330
2
100
AcDbEntity
  8
L-ZISSEN
100
AcDbLine
 10
572.9768183469948
 20
-2923.482079274183
 30
0.0
 11
572.9768183469948
 21
-2937.508745940849
 31
0.0
  0
LINE
  5
DBA1
330
2
100
AcDbEntity
  8
L-ZISSEN
100
AcDbLine
 10
567.7761933469946
 20
-2903.434495940849
 30
0.0
 11
571.6151933469948
 21
-2903.434495940849
 31
0.0
  0
LINE
  5
DBA2
330
2
100
AcDbEntity
  8
L-ZISSEN
100
AcDbLine
 10
567.7761933469946
 20
-2903.434495940849
 30
0.0
 11
571.6151933469948
 21
-2903.434495940849
 31
0.0
  0
LINE
  5
DBA3
330
2
100
AcDbEntity
  8
L-ZISSEN
100
AcDbLine
 10
567.7761933469946
 20
-2904.394245940849
 30
0.0
 11
571.6151933469948
 21
-2904.394245940849
 31
0.0
  0
LINE
  5
DBA4
330
2
100
AcDbEntity
  8
L-ZISSEN
100
AcDbLine
 10
567.7761933469946
 20
-2904.394245940849
 30
0.0
 11
571.6151933469948
 21
-2904.394245940849
 31
0.0
  0
LINE
  5
DBA5
330
2
100
AcDbEntity
  8
L-ZISSEN
100
AcDbLine
 10
567.7761933469946
 20
-2903.434495940849
 30
0.0
 11
567.7761933469946
 21
-2904.394245940849
 31
0.0
  0
LINE
  5
DBA6
330
2
100
AcDbEntity
  8
L-ZISSEN
100
AcDbLine
 10
571.6151933469948
 20
-2904.394245940849
 30
0.0
 11
571.6151933469948
 21
-2905.353995940849
 31
0.0
  0
LINE
  5
DBA7
330
2
100
AcDbEntity
  8
L-ZISSEN
100
AcDbLine
 10
571.6151933469948
 20
-2903.434495940849
 30
0.0
 11
571.6151933469948
 21
-2902.474745940849
 31
0.0
  0
LINE
  5
DBA8
330
2
100
AcDbEntity
  8
L-ZISSEN
100
AcDbLine
 10
564.4170683469963
 20
-2901.514995940848
 30
0.0
 11
564.4170683469963
 21
-2909.192995940848
 31
0.0
  0
LINE
  5
DBA9
330
2
100
AcDbEntity
  8
L-ZISSEN
100
AcDbLine
 10
564.4170683469963
 20
-2901.514995940848
 30
0.0
 11
564.4170683469963
 21
-2909.192995940848
 31
0.0
  0
LINE
  5
DBAA
330
2
100
AcDbEntity
  8
L-ZISSEN
100
AcDbLine
 10
564.1268183469949
 20
-2927.25874594085
 30
0.0
 11
564.1268183469949
 21
-2925.175412607516
 31
0.0
  0
ARC
  5
DBAB
330
2
100
AcDbEntity
  8
L-ZISSEN
100
AcDbCircle
 10
565.3768183469948
 20
-2927.25874594085
 30
0.0
 40
1.25
100
AcDbArc
 50
180.0
 51
0.0
  0
LINE
  5
DBAC
330
2
100
AcDbEntity
  8
L-ZISSEN
100
AcDbLine
 10
566.3365683469963
 20
-2901.514995940848
 30
0.0
 11
564.4170683469963
 21
-2901.514995940848
 31
0.0
  0
LINE
  5
DBAD
330
2
100
AcDbEntity
  8
L-ZISSEN
100
AcDbLine
 10
577.6768183469955
 20
-2903.908745940851
 30
0.0
 11
577.6768183469946
 21
-2912.408745940849
 31
0.0
  0
LINE
  5
DBAE
330
2
100
AcDbEntity
  8
L-ZISSEN
100
AcDbLine
 10
575.4541933469929
 20
-2899.20874594085
 30
0.0
 11
575.4541933469929
 21
-2917.350870940849
 31
0.0
  0
LINE
  5
DBAF
330
2
100
AcDbEntity
  8
L-ZISSEN
100
AcDbLine
 10
576.1740058469929
 20
-2899.20874594085
 30
0.0
 11
576.1740058469929
 21
-2922.629495940849
 31
0.0
  0
LINE
  5
DBB0
330
2
100
AcDbEntity
  8
L-ZISSEN
100
AcDbLine
 10
576.3768183469944
 20
-2899.20874594085
 30
0.0
 11
576.3768183469944
 21
-2928.00874594085
 31
0.0
  0
LINE
  5
DBB1
330
2
100
AcDbEntity
  8
L-ZISSEN
100
AcDbLine
 10
574.5247201079205
 20
-2917.483652832146
 30
0.0
 11
575.4541933469929
 21
-2917.350870940849
 31
0.0
  0
LINE
  5
DBB2
330
2
100
AcDbEntity
  8
L-ZISSEN
100
AcDbLine
 10
574.5247201079205
 20
-2918.121826891245
 30
0.0
 11
575.4541933469929
 21
-2917.350870940849
 31
0.0
  0
LINE
  5
DBB3
330
2
100
AcDbEntity
  8
L-ZISSEN
100
AcDbLine
 10
576.1740058469929
 20
-2922.629495940849
 30
0.0
 11
574.5247201079205
 21
-2921.62523312823
 31
0.0
  0
LINE
  5
DBB4
330
2
100
AcDbEntity
  8
L-ZISSEN
100
AcDbLine
 10
574.5247201079205
 20
-2918.121826891245
 30
0.0
 11
574.5247201079205
 21
-2921.62523312823
 31
0.0
  0
LINE
  5
DBB5
330
2
100
AcDbEntity
  8
L-ZISSEN
100
AcDbLine
 10
577.6768183469946
 20
-2912.408745940849
 30
0.0
 11
576.3768183469944
 21
-2912.40874594085
 31
0.0
  0
LINE
  5
DBB6
330
2
100
AcDbEntity
  8
L-ZISSEN
100
AcDbLine
 10
577.6768183469946
 20
-2912.408745940849
 30
0.0
 11
576.3768183469944
 21
-2912.408745940849
 31
0.0
  0
ARC
  5
DBB7
330
2
100
AcDbEntity
  8
L-ZISSEN
100
AcDbCircle
 10
575.8768183469944
 20
-2928.00874594085
 30
0.0
 40
0.5
100
AcDbArc
 50
270.0
 51
0.0
  0
LINE
  5
DBB8
330
2
100
AcDbEntity
  8
L-ZISSEN
100
AcDbLine
 10
574.9768183469948
 20
-2939.50874594085
 30
0.0
 11
575.3768183469953
 21
-2942.50874594085
 31
0.0
  0
LINE
  5
DBB9
330
2
100
AcDbEntity
  8
L-ZISSEN
100
AcDbLine
 10
575.3768183469953
 20
-2928.508745940849
 30
0.0
 11
575.3768183469953
 21
-2942.50874594085
 31
0.0
  0
LINE
  5
DBBA
330
2
100
AcDbEntity
  8
L-ZISSEN
100
AcDbLine
 10
574.9768183469948
 20
-2928.508745940849
 30
0.0
 11
574.9768183469948
 21
-2939.50874594085
 31
0.0
  0
LINE
  5
DBBB
330
2
100
AcDbEntity
  8
L-ZISSEN
100
AcDbLine
 10
577.6768183469955
 20
-2903.908745940851
 30
0.0
 11
576.3768183469944
 21
-2903.908745940851
 31
0.0
  0
LINE
  5
DBBC
330
2
100
AcDbEntity
  8
L-ZISSEN
100
AcDbLine
 10
577.3768183469944
 20
-2898.909765440555
 30
0.0
 11
577.3768183469944
 21
-2899.20874594085
 31
0.0
  0
LINE
  5
DBBD
330
2
100
AcDbEntity
  8
L-ZISSEN
100
AcDbLine
 10
589.3881727852528
 20
-2912.408745940848
 30
0.0
 11
594.6326854084762
 21
-2912.408745940848
 31
0.0
  0
LINE
  5
DBBE
330
2
100
AcDbEntity
  8
L-ZISSEN
100
AcDbLine
 10
589.3881727852528
 20
-2902.408745940851
 30
0.0
 11
589.3881727852528
 21
-2912.408745940848
 31
0.0
  0
LINE
  5
DBBF
330
2
100
AcDbEntity
  8
L-ZISSEN
100
AcDbLine
 10
583.8768183469953
 20
-2902.408745940849
 30
0.0
 11
583.8768183469953
 21
-2912.408745940848
 31
0.0
  0
LINE
  5
DBC0
330
2
100
AcDbEntity
  8
L-ZISSEN
100
AcDbLine
 10
583.8768183469944
 20
-2902.408745940849
 30
0.0
 11
589.3881727852528
 21
-2902.408745940851
 31
0.0
  0
LINE
  5
DBC1
330
2
100
AcDbEntity
  8
L-ZISSEN
100
AcDbLine
 10
595.5131014624205
 20
-2898.909765440556
 30
0.0
 11
595.332802947222
 21
-2912.40874594085
 31
0.0
  0
LINE
  5
DBC2
330
2
100
AcDbEntity
  8
L-ZISSEN
100
AcDbLine
 10
594.6326854084762
 20
-2912.40874594085
 30
0.0
 11
595.332802947222
 21
-2912.40874594085
 31
0.0
  0
LINE
  5
DBCC
330
2
100
AcDbEntity
  8
L-ZISSEN
100
AcDbLine
 10
99.37681834699336
 20
-2654.280162441521
 30
0.0
 11
99.37681834699336
 21
-2630.451296171853
 31
0.0
  0
LINE
  5
DBCE
330
2
100
AcDbEntity
  8
L-TYUSIN
100
AcDbLine
 10
95.37681834699473
 20
-2642.365729306687
 30
0.0
 11
99.37681834699336
 21
-2642.365729306687
 31
0.0
  0
LINE
  5
DBCF
330
2
100
AcDbEntity
  8
L-ZISSEN
100
AcDbLine
 10
95.37681834699473
 20
-2628.303229306687
 30
0.0
 11
99.37681834699336
 21
-2630.451296171853
 31
0.0
  0
LINE
  5
DBD0
330
2
100
AcDbEntity
  8
L-ZISSEN
100
AcDbLine
 10
95.37681834699473
 20
-2656.428229306687
 30
0.0
 11
99.37681834699336
 21
-2654.280162441521
 31
0.0
  0
LINE
  5
DBD1
330
2
100
AcDbEntity
  8
L-SOUZOU
100
AcDbLine
 10
105.8768183469819
 20
-2621.965729306687
 30
0.0
 11
120.3768183469819
 21
-2621.965729306687
 31
0.0
  0
LINE
  5
DBD2
330
2
100
AcDbEntity
  8
L-SOUZOU
100
AcDbLine
 10
96.87681834698192
 20
-2635.565729306687
 30
0.0
 11
104.3768183469819
 21
-2635.565729306687
 31
0.0
  0
LINE
  5
DBD3
330
2
100
AcDbEntity
  8
L-SOUZOU
100
AcDbLine
 10
104.3768183469819
 20
-2623.465729306687
 30
0.0
 11
104.3768183469819
 21
-2661.265729306688
 31
0.0
  0
ARC
  5
DBD4
330
2
100
AcDbEntity
  8
L-SOUZOU
100
AcDbCircle
 10
105.8768183469819
 20
-2623.465729306687
 30
0.0
 40
1.5
100
AcDbArc
 50
90.0
 51
180.0
  0
ARC
  5
DBD5
330
2
100
AcDbEntity
  8
L-SOUZOU
100
AcDbCircle
 10
127.8768183469819
 20
-2622.865729306687
 30
0.0
 40
1.5
100
AcDbArc
 50
0.0
 51
90.0
  0
LINE
  5
DBD6
330
2
100
AcDbEntity
  8
L-SOUZOU
100
AcDbLine
 10
120.3768183469819
 20
-2621.365729306687
 30
0.0
 11
120.3768183469819
 21
-2663.365729306687
 31
0.0
  0
LINE
  5
DBD7
330
2
100
AcDbEntity
  8
L-SOUZOU
100
AcDbLine
 10
120.3768183469819
 20
-2621.365729306687
 30
0.0
 11
127.8768183469819
 21
-2621.365729306687
 31
0.0
  0
LINE
  5
DBD8
330
2
100
AcDbEntity
  8
L-SOUZOU
100
AcDbLine
 10
129.3768183469819
 20
-2622.865729306687
 30
0.0
 11
129.3768183469819
 21
-2661.865729306688
 31
0.0
  0
LINE
  5
DBD9
330
2
100
AcDbEntity
  8
L-SOUZOU
100
AcDbLine
 10
105.8768183469819
 20
-2662.765729306688
 30
0.0
 11
120.3768183469819
 21
-2662.765729306688
 31
0.0
  0
ARC
  5
DBDA
330
2
100
AcDbEntity
  8
L-SOUZOU
100
AcDbCircle
 10
105.8768183469819
 20
-2661.265729306688
 30
0.0
 40
1.5
100
AcDbArc
 50
180.0
 51
270.0
  0
LINE
  5
DBDB
330
2
100
AcDbEntity
  8
L-SOUZOU
100
AcDbLine
 10
96.87681834698192
 20
-2649.165729306687
 30
0.0
 11
104.3768183469819
 21
-2649.165729306687
 31
0.0
  0
ARC
  5
DBDC
330
2
100
AcDbEntity
  8
L-SOUZOU
100
AcDbCircle
 10
127.8768183469819
 20
-2661.865729306688
 30
0.0
 40
1.5
100
AcDbArc
 50
270.0
 51
0.0
  0
LINE
  5
DBDD
330
2
100
AcDbEntity
  8
L-SOUZOU
100
AcDbLine
 10
120.3768183469819
 20
-2663.365729306687
 30
0.0
 11
127.8768183469819
 21
-2663.365729306687
 31
0.0
  0
LINE
  5
DBDE
330
2
100
AcDbEntity
  8
L-SOUZOU
100
AcDbLine
 10
95.37681834698192
 20
-2636.487284013784
 30
0.0
 11
96.26043267466624
 21
-2635.6036696861
 31
0.0
  0
LINE
  5
DBDF
330
2
100
AcDbEntity
  8
L-SOUZOU
100
AcDbLine
 10
95.37681834699471
 20
-2635.631284013783
 30
0.0
 11
96.87681834698182
 21
-2635.584406671227
 31
0.0
  0
LINE
  5
DBE1
330
2
100
AcDbEntity
  8
L-SOUZOU
100
AcDbLine
 10
95.37681834698192
 20
-2648.244174599591
 30
0.0
 11
96.26043267466624
 21
-2649.127788927275
 31
0.0
  0
LINE
  5
DBE3
330
2
100
AcDbEntity
  8
L-SOUZOU
100
AcDbLine
 10
96.87681834698192
 20
-2635.565729306687
 30
0.0
 11
96.87681834698192
 21
-2649.165729306687
 31
0.0
  0
LINE
  5
DBE4
330
2
100
AcDbEntity
  8
L-SOUZOU
100
AcDbLine
 10
95.37681834699471
 20
-2649.100174599592
 30
0.0
 11
96.87681834698182
 21
-2649.147051942148
 31
0.0
  0
LINE
  5
DBE8
330
2
100
AcDbEntity
  8
L-ZISSEN
100
AcDbLine
 10
244.1268183469947
 20
-2880.365729306687
 30
0.0
 11
244.1268183469947
 21
-2904.565729306691
 31
0.0
  0
LINE
  5
DBE9
330
2
100
AcDbEntity
  8
L-ZISSEN
100
AcDbLine
 10
239.6268183469946
 20
-2880.365729306687
 30
0.0
 11
239.6268183469946
 21
-2904.565729306691
 31
0.0
  0
LINE
  5
DBEB
330
2
100
AcDbEntity
  8
L-ZISSEN
100
AcDbLine
 10
595.3768183469919
 20
-2754.516825007732
 30
0.0
 11
595.3768183469946
 21
-2649.173835400917
 31
0.0
  0
LINE
  5
DBEC
330
2
100
AcDbEntity
  8
L-ZISSEN
100
AcDbLine
 10
582.2268183469941
 20
-2659.512574312549
 30
0.0
 11
582.2268183469941
 21
-2742.01257431255
 31
0.0
  0
LINE
  5
DBED
330
2
100
AcDbEntity
  8
L-ZISSEN
100
AcDbLine
 10
590.6568183469949
 20
-2659.512574312549
 30
0.0
 11
590.6568183469949
 21
-2742.01257431255
 31
0.0
  0
LINE
  5
DBEE
330
2
100
AcDbEntity
  8
L-ZISSEN
100
AcDbLine
 10
548.5268183469952
 20
-2659.512574312549
 30
0.0
 11
548.5268183469952
 21
-2742.01257431255
 31
0.0
  0
LINE
  5
DBEF
330
2
100
AcDbEntity
  8
L-ZISSEN
100
AcDbLine
 10
535.3768183469947
 20
-2754.516825007732
 30
0.0
 11
535.3768183469947
 21
-2649.173835400918
 31
0.0
  0
LINE
  5
DBF0
330
2
100
AcDbEntity
  8
L-ZISSEN
100
AcDbLine
 10
540.0968183469944
 20
-2659.512574312549
 30
0.0
 11
540.0968183469944
 21
-2742.01257431255
 31
0.0
  0
LINE
  5
DBF1
330
2
100
AcDbEntity
  8
L-ZISSEN
100
AcDbLine
 10
555.3768183469947
 20
-2795.173835400917
 30
0.0
 11
575.3768183469946
 21
-2795.173835400917
 31
0.0
  0
LINE
  5
DBF2
330
2
100
AcDbEntity
  8
L-ZISSEN
100
AcDbLine
 10
555.3768183469947
 20
-2781.673835400917
 30
0.0
 11
575.3768183469946
 21
-2781.673835400917
 31
0.0
  0
LINE
  5
DBF3
330
2
100
AcDbEntity
  8
L-ZISSEN
100
AcDbLine
 10
555.3768183469947
 20
-2780.973835400917
 30
0.0
 11
575.3768183469946
 21
-2780.973835400917
 31
0.0
  0
LINE
  5
DBF4
330
2
100
AcDbEntity
  8
L-ZISSEN
100
AcDbLine
 10
576.3768183469947
 20
-2777.473835400917
 30
0.0
 11
554.3768183469946
 21
-2777.473835400917
 31
0.0
  0
LINE
  5
DBF5
330
2
100
AcDbEntity
  8
L-ZISSEN
100
AcDbLine
 10
553.3768183469947
 20
-2768.473835400917
 30
0.0
 11
577.3768183469947
 21
-2768.473835400917
 31
0.0
  0
LINE
  5
DBF6
330
2
100
AcDbEntity
  8
L-ZISSEN
100
AcDbLine
 10
553.3768183469947
 20
-2764.473835400917
 30
0.0
 11
577.3768183469947
 21
-2764.473835400917
 31
0.0
  0
LINE
  5
DBF7
330
2
100
AcDbEntity
  8
L-ZISSEN
100
AcDbLine
 10
553.3768183469947
 20
-2765.973835400917
 30
0.0
 11
577.3768183469947
 21
-2765.973835400917
 31
0.0
  0
LINE
  5
DBF8
330
2
100
AcDbEntity
  8
L-ZISSEN
100
AcDbLine
 10
544.3118183469937
 20
-2744.01257431255
 30
0.0
 11
540.0968183469944
 21
-2742.01257431255
 31
0.0
  0
ARC
  5
DBF9
330
2
100
AcDbEntity
  8
L-ZISSEN
100
AcDbCircle
 10
565.3768183469924
 20
-2665.66042988226
 30
0.0
 40
99.53938471878538
100
AcDbArc
 50
256.0937629349411
 51
263.0758486315317
  0
ARC
  5
DBFA
330
2
100
AcDbEntity
  8
L-ZISSEN
100
AcDbCircle
 10
543.3768183469919
 20
-2754.516825007732
 30
0.0
 40
8.000000000000113
100
AcDbArc
 50
180.0
 51
256.0937629347642
  0
LINE
  5
DBFB
330
2
100
AcDbEntity
  8
L-ZISSEN
100
AcDbLine
 10
554.3768183469946
 20
-2768.473835400917
 30
0.0
 11
554.3768183469946
 21
-2777.473835400917
 31
0.0
  0
LINE
  5
DBFC
330
2
100
AcDbEntity
  8
L-ZISSEN
100
AcDbLine
 10
555.3768183469947
 20
-2795.173835400917
 30
0.0
 11
555.3768183469947
 21
-2781.673835400917
 31
0.0
  0
LINE
  5
DBFD
330
2
100
AcDbEntity
  8
L-ZISSEN
100
AcDbLine
 10
555.3768183469947
 20
-2780.973835400917
 30
0.0
 11
555.3768183469947
 21
-2777.473835400917
 31
0.0
  0
LINE
  5
DBFE
330
2
100
AcDbEntity
  8
L-ZISSEN
100
AcDbLine
 10
556.3768183469947
 20
-2781.673835400917
 30
0.0
 11
556.3768183469951
 21
-2780.973835400917
 31
0.0
  0
LINE
  5
DBFF
330
2
100
AcDbEntity
  8
L-ZISSEN
100
AcDbLine
 10
553.3768183469947
 20
-2768.473835400917
 30
0.0
 11
553.3768183469947
 21
-2764.473835400917
 31
0.0
  0
LINE
  5
DC00
330
2
100
AcDbEntity
  8
L-ZISSEN
100
AcDbLine
 10
548.5268183469952
 20
-2742.01257431255
 30
0.0
 11
544.3118183469937
 21
-2744.01257431255
 31
0.0
  0
ARC
  5
DC01
330
2
100
AcDbEntity
  8
L-ZISSEN
100
AcDbCircle
 10
565.3768183469924
 20
-2665.66042988226
 30
0.0
 40
99.53938471878515
100
AcDbArc
 50
276.9241513684709
 51
283.9062370650462
  0
LINE
  5
DC02
330
2
100
AcDbEntity
  8
L-ZISSEN
100
AcDbLine
 10
576.3768183469947
 20
-2768.473835400917
 30
0.0
 11
576.3768183469947
 21
-2777.473835400917
 31
0.0
  0
LINE
  5
DC03
330
2
100
AcDbEntity
  8
L-ZISSEN
100
AcDbLine
 10
575.3768183469946
 20
-2795.173835400917
 30
0.0
 11
575.3768183469946
 21
-2781.673835400917
 31
0.0
  0
LINE
  5
DC04
330
2
100
AcDbEntity
  8
L-ZISSEN
100
AcDbLine
 10
575.3768183469946
 20
-2780.973835400917
 30
0.0
 11
575.3768183469949
 21
-2777.473835400917
 31
0.0
  0
LINE
  5
DC05
330
2
100
AcDbEntity
  8
L-ZISSEN
100
AcDbLine
 10
574.3768183469951
 20
-2781.673835400917
 30
0.0
 11
574.3768183469946
 21
-2780.973835400917
 31
0.0
  0
LINE
  5
DC06
330
2
100
AcDbEntity
  8
L-ZISSEN
100
AcDbLine
 10
577.3768183469947
 20
-2768.473835400917
 30
0.0
 11
577.3768183469947
 21
-2764.473835400917
 31
0.0
  0
LINE
  5
DC07
330
2
100
AcDbEntity
  8
L-ZISSEN
100
AcDbLine
 10
586.4418183469957
 20
-2744.01257431255
 30
0.0
 11
590.6568183469949
 21
-2742.01257431255
 31
0.0
  0
ARC
  5
DC08
330
2
100
AcDbEntity
  8
L-ZISSEN
100
AcDbCircle
 10
587.3768183469906
 20
-2754.516825007732
 30
0.0
 40
8.000000000000113
100
AcDbArc
 50
283.9062370650588
 51
0.0
  0
LINE
  5
DC09
330
2
100
AcDbEntity
  8
L-ZISSEN
100
AcDbLine
 10
582.2268183469941
 20
-2742.01257431255
 30
0.0
 11
586.4418183469957
 21
-2744.01257431255
 31
0.0
  0
LINE
  5
DC0B
330
2
100
AcDbEntity
  8
L-ZISSEN
100
AcDbLine
 10
565.3768183469947
 20
-2675.423835400918
 30
0.0
 11
552.2518183469924
 21
-2673.548835400918
 31
0.0
  0
LINE
  5
DC0C
330
2
100
AcDbEntity
  8
L-ZISSEN
100
AcDbLine
 10
553.4623852121604
 20
-2679.115860911962
 30
0.0
 11
565.3768183469947
 21
-2681.610218886393
 31
0.0
  0
LINE
  5
DC0D
330
2
100
AcDbEntity
  8
L-ZISSEN
100
AcDbLine
 10
565.3768183469947
 20
-2676.255007658145
 30
0.0
 11
553.4623852121604
 21
-2674.552945781741
 31
0.0
  0
LINE
  5
DC0E
330
2
100
AcDbEntity
  8
L-ZISSEN
100
AcDbLine
 10
562.2518183469947
 20
-2656.673835400918
 30
0.0
 11
557.2518183469947
 21
-2656.673835400918
 31
0.0
  0
LINE
  5
DC0F
330
2
100
AcDbEntity
  8
L-ZISSEN
100
AcDbLine
 10
562.2518183469947
 20
-2656.673835400918
 30
0.0
 11
557.2518183469947
 21
-2656.673835400918
 31
0.0
  0
LINE
  5
DC10
330
2
100
AcDbEntity
  8
L-ZISSEN
100
AcDbLine
 10
562.2518183469947
 20
-2655.423835400918
 30
0.0
 11
557.2518183469947
 21
-2655.423835400918
 31
0.0
  0
LINE
  5
DC11
330
2
100
AcDbEntity
  8
L-ZISSEN
100
AcDbLine
 10
562.2518183469947
 20
-2655.423835400918
 30
0.0
 11
557.2518183469947
 21
-2655.423835400918
 31
0.0
  0
LINE
  5
DC12
330
2
100
AcDbEntity
  8
L-ZISSEN
100
AcDbLine
 10
552.5643183469947
 20
-2689.173835400918
 30
0.0
 11
578.1893183469946
 21
-2689.173835400918
 31
0.0
  0
LINE
  5
DC13
330
2
100
AcDbEntity
  8
L-ZISSEN
100
AcDbLine
 10
565.3768183469947
 20
-2684.173835400918
 30
0.0
 11
551.3143183469924
 21
-2680.423835400918
 31
0.0
  0
LINE
  5
DC14
330
2
100
AcDbEntity
  8
L-ZISSEN
100
AcDbLine
 10
540.0968183469944
 20
-2659.512574312549
 30
0.0
 11
548.5268183469952
 21
-2659.512574312549
 31
0.0
  0
ARC
  5
DC15
330
2
100
AcDbEntity
  8
L-ZISSEN
100
AcDbCircle
 10
552.5643183469947
 20
-2687.923835400918
 30
0.0
 40
1.250000000000568
100
AcDbArc
 50
180.0
 51
270.0
  0
LINE
  5
DC16
330
2
100
AcDbEntity
  8
L-ZISSEN
100
AcDbLine
 10
551.3143183469924
 20
-2680.423835400918
 30
0.0
 11
553.4623852121604
 21
-2679.115860911962
 31
0.0
  0
LINE
  5
DC17
330
2
100
AcDbEntity
  8
L-ZISSEN
100
AcDbLine
 10
551.3143183469924
 20
-2649.173835400918
 30
0.0
 11
551.3143183469924
 21
-2687.923835400918
 31
0.0
  0
LINE
  5
DC18
330
2
100
AcDbEntity
  8
L-ZISSEN
100
AcDbLine
 10
551.3143183469924
 20
-2649.173835400918
 30
0.0
 11
551.3143183469924
 21
-2672.96311076805
 31
0.0
  0
LINE
  5
DC19
330
2
100
AcDbEntity
  8
L-ZISSEN
100
AcDbLine
 10
556.0018183469947
 20
-2681.673835400917
 30
0.0
 11
556.0018183469924
 21
-2689.173835400918
 31
0.0
  0
LINE
  5
DC1A
330
2
100
AcDbEntity
  8
L-ZISSEN
100
AcDbLine
 10
557.2518183469947
 20
-2654.173835400918
 30
0.0
 11
554.1268183469947
 21
-2656.048835400918
 31
0.0
  0
LINE
  5
DC1B
330
2
100
AcDbEntity
  8
L-ZISSEN
100
AcDbLine
 10
557.2518183469947
 20
-2655.423835400918
 30
0.0
 11
557.2518183469947
 21
-2654.173835400918
 31
0.0
  0
LINE
  5
DC1C
330
2
100
AcDbEntity
  8
L-ZISSEN
100
AcDbLine
 10
557.2518183469947
 20
-2657.923835400918
 30
0.0
 11
554.1268183469947
 21
-2656.048835400918
 31
0.0
  0
LINE
  5
DC1D
330
2
100
AcDbEntity
  8
L-ZISSEN
100
AcDbLine
 10
557.2518183469947
 20
-2656.673835400918
 30
0.0
 11
557.2518183469947
 21
-2657.923835400918
 31
0.0
  0
LINE
  5
DC1E
330
2
100
AcDbEntity
  8
L-ZISSEN
100
AcDbLine
 10
553.4623852121604
 20
-2673.721773524513
 30
0.0
 11
552.2518183469924
 21
-2673.548835400918
 31
0.0
  0
LINE
  5
DC1F
330
2
100
AcDbEntity
  8
L-ZISSEN
100
AcDbLine
 10
553.4623852121604
 20
-2674.552945781741
 30
0.0
 11
552.2518183469924
 21
-2673.548835400918
 31
0.0
  0
LINE
  5
DC20
330
2
100
AcDbEntity
  8
L-ZISSEN
100
AcDbLine
 10
553.4623852121604
 20
-2674.552945781741
 30
0.0
 11
553.4623852121604
 21
-2679.115860911962
 31
0.0
  0
LINE
  5
DC21
330
2
100
AcDbEntity
  8
L-ZISSEN
100
AcDbLine
 10
552.2518183469924
 20
-2649.173835400918
 30
0.0
 11
552.2518183469924
 21
-2673.548835400918
 31
0.0
  0
LINE
  5
DC22
330
2
100
AcDbEntity
  8
L-ZISSEN
100
AcDbLine
 10
568.5018183469947
 20
-2656.673835400917
 30
0.0
 11
573.5018183469946
 21
-2656.673835400917
 31
0.0
  0
LINE
  5
DC23
330
2
100
AcDbEntity
  8
L-ZISSEN
100
AcDbLine
 10
568.5018183469947
 20
-2656.673835400917
 30
0.0
 11
573.5018183469946
 21
-2656.673835400917
 31
0.0
  0
LINE
  5
DC24
330
2
100
AcDbEntity
  8
L-ZISSEN
100
AcDbLine
 10
568.5018183469947
 20
-2655.423835400917
 30
0.0
 11
573.5018183469946
 21
-2655.423835400917
 31
0.0
  0
LINE
  5
DC25
330
2
100
AcDbEntity
  8
L-ZISSEN
100
AcDbLine
 10
568.5018183469947
 20
-2655.423835400917
 30
0.0
 11
573.5018183469946
 21
-2655.423835400917
 31
0.0
  0
LINE
  5
DC26
330
2
100
AcDbEntity
  8
L-ZISSEN
100
AcDbLine
 10
565.3768183469947
 20
-2684.173835400918
 30
0.0
 11
579.4393183469924
 21
-2680.423835400918
 31
0.0
  0
LINE
  5
DC27
330
2
100
AcDbEntity
  8
L-ZISSEN
100
AcDbLine
 10
577.291251481829
 20
-2679.115860911962
 30
0.0
 11
565.3768183469947
 21
-2681.610218886393
 31
0.0
  0
LINE
  5
DC28
330
2
100
AcDbEntity
  8
L-ZISSEN
100
AcDbLine
 10
565.3768183469947
 20
-2676.255007658145
 30
0.0
 11
577.291251481829
 21
-2674.552945781741
 31
0.0
  0
LINE
  5
DC29
330
2
100
AcDbEntity
  8
L-ZISSEN
100
AcDbLine
 10
565.3768183469947
 20
-2675.423835400918
 30
0.0
 11
578.5018183469924
 21
-2673.548835400918
 31
0.0
  0
ARC
  5
DC2A
330
2
100
AcDbEntity
  8
L-ZISSEN
100
AcDbCircle
 10
565.3768183469947
 20
-2685.423835400918
 30
0.0
 40
1.250000000000568
100
AcDbArc
 50
180.0
 51
0.0
  0
CIRCLE
  5
DC2B
330
2
100
AcDbEntity
  8
L-ZISSEN
100
AcDbCircle
 10
565.3768183469947
 20
-2679.170290102091
 30
0.0
 40
1.25
  0
LINE
  5
DC2C
330
2
100
AcDbEntity
  8
L-TYUSIN
100
AcDbLine
 10
563.1900247844396
 20
-2679.170290102091
 30
0.0
 11
567.3848047593515
 21
-2679.170290102091
 31
0.0
  0
LINE
  5
DC2D
330
2
100
AcDbEntity
  8
L-ZISSEN
100
AcDbLine
 10
566.6268183469969
 20
-2652.923835400916
 30
0.0
 11
564.126818346997
 21
-2652.923835400916
 31
0.0
  0
LINE
  5
DC2E
330
2
100
AcDbEntity
  8
L-ZISSEN
100
AcDbLine
 10
564.126818346997
 20
-2652.923835400916
 30
0.0
 11
564.126818346997
 21
-2662.923835400917
 31
0.0
  0
LINE
  5
DC2F
330
2
100
AcDbEntity
  8
L-ZISSEN
100
AcDbLine
 10
564.126818346997
 20
-2652.923835400916
 30
0.0
 11
564.126818346997
 21
-2662.923835400917
 31
0.0
  0
LINE
  5
DC30
330
2
100
AcDbEntity
  8
L-ZISSEN
100
AcDbLine
 10
562.2518183469947
 20
-2655.423835400918
 30
0.0
 11
562.2518183469947
 21
-2656.673835400918
 31
0.0
  0
LINE
  5
DC31
330
2
100
AcDbEntity
  8
L-ZISSEN
100
AcDbLine
 10
564.1268183469924
 20
-2683.840502067583
 30
0.0
 11
564.1268183469946
 21
-2685.423835400918
 31
0.0
  0
LINE
  5
DC32
330
2
100
AcDbEntity
  8
L-ZISSEN
100
AcDbLine
 10
566.6268183469969
 20
-2652.923835400916
 30
0.0
 11
566.6268183469969
 21
-2662.923835400917
 31
0.0
  0
LINE
  5
DC33
330
2
100
AcDbEntity
  8
L-ZISSEN
100
AcDbLine
 10
566.6268183469969
 20
-2652.923835400916
 30
0.0
 11
566.6268183469969
 21
-2662.923835400917
 31
0.0
  0
LINE
  5
DC34
330
2
100
AcDbEntity
  8
L-ZISSEN
100
AcDbLine
 10
566.6268183469969
 20
-2662.923835400917
 30
0.0
 11
569.1268183469969
 21
-2662.923835400917
 31
0.0
  0
LINE
  5
DC35
330
2
100
AcDbEntity
  8
L-ZISSEN
100
AcDbLine
 10
569.1268183469969
 20
-2662.923835400917
 30
0.0
 11
565.376818346997
 21
-2669.173835400917
 31
0.0
  0
LINE
  5
DC36
330
2
100
AcDbEntity
  8
L-ZISSEN
100
AcDbLine
 10
568.5018183469947
 20
-2655.423835400917
 30
0.0
 11
568.5018183469947
 21
-2656.673835400917
 31
0.0
  0
LINE
  5
DC37
330
2
100
AcDbEntity
  8
L-ZISSEN
100
AcDbLine
 10
566.6268183469947
 20
-2683.840502067584
 30
0.0
 11
566.6268183469947
 21
-2685.423835400918
 31
0.0
  0
LINE
  5
DC38
330
2
100
AcDbEntity
  8
L-ZISSEN
100
AcDbLine
 10
565.3768183469947
 20
-2684.173835400918
 30
0.0
 11
565.3768183469947
 21
-2681.610218886393
 31
0.0
  0
LINE
  5
DC39
330
2
100
AcDbEntity
  8
L-ZISSEN
100
AcDbLine
 10
565.3768183469947
 20
-2675.423835400918
 30
0.0
 11
565.3768183469947
 21
-2676.255007658145
 31
0.0
  0
LINE
  5
DC3A
330
2
100
AcDbEntity
  8
L-ZISSEN
100
AcDbLine
 10
561.6268183469969
 20
-2662.923835400917
 30
0.0
 11
565.376818346997
 21
-2669.173835400917
 31
0.0
  0
LINE
  5
DC3B
330
2
100
AcDbEntity
  8
L-ZISSEN
100
AcDbLine
 10
564.126818346997
 20
-2662.923835400917
 30
0.0
 11
561.6268183469969
 21
-2662.923835400917
 31
0.0
  0
LINE
  5
DC3C
330
2
100
AcDbEntity
  8
L-ZISSEN
100
AcDbLine
 10
574.7518183469924
 20
-2681.673835400918
 30
0.0
 11
574.7518183469924
 21
-2689.173835400918
 31
0.0
  0
LINE
  5
DC3D
330
2
100
AcDbEntity
  8
L-ZISSEN
100
AcDbLine
 10
579.4393183469924
 20
-2649.173835400918
 30
0.0
 11
579.4393183469924
 21
-2687.923835400918
 31
0.0
  0
ARC
  5
DC3E
330
2
100
AcDbEntity
  8
L-ZISSEN
100
AcDbCircle
 10
578.1893183469946
 20
-2687.923835400918
 30
0.0
 40
1.249999999999715
100
AcDbArc
 50
270.0
 51
0.0
  0
LINE
  5
DC3F
330
2
100
AcDbEntity
  8
L-ZISSEN
100
AcDbLine
 10
573.5018183469946
 20
-2654.173835400917
 30
0.0
 11
576.6268183469946
 21
-2656.048835400917
 31
0.0
  0
LINE
  5
DC40
330
2
100
AcDbEntity
  8
L-ZISSEN
100
AcDbLine
 10
573.5018183469946
 20
-2655.423835400917
 30
0.0
 11
573.5018183469946
 21
-2654.173835400917
 31
0.0
  0
LINE
  5
DC41
330
2
100
AcDbEntity
  8
L-ZISSEN
100
AcDbLine
 10
573.5018183469946
 20
-2657.923835400917
 30
0.0
 11
576.6268183469946
 21
-2656.048835400917
 31
0.0
  0
LINE
  5
DC42
330
2
100
AcDbEntity
  8
L-ZISSEN
100
AcDbLine
 10
573.5018183469946
 20
-2656.673835400917
 30
0.0
 11
573.5018183469946
 21
-2657.923835400917
 31
0.0
  0
LINE
  5
DC43
330
2
100
AcDbEntity
  8
L-ZISSEN
100
AcDbLine
 10
579.4393183469924
 20
-2680.423835400918
 30
0.0
 11
577.291251481829
 21
-2679.115860911962
 31
0.0
  0
LINE
  5
DC44
330
2
100
AcDbEntity
  8
L-ZISSEN
100
AcDbLine
 10
577.291251481829
 20
-2674.552945781741
 30
0.0
 11
578.5018183469924
 21
-2673.548835400918
 31
0.0
  0
LINE
  5
DC45
330
2
100
AcDbEntity
  8
L-ZISSEN
100
AcDbLine
 10
577.291251481829
 20
-2673.721773524513
 30
0.0
 11
578.5018183469924
 21
-2673.548835400918
 31
0.0
  0
LINE
  5
DC46
330
2
100
AcDbEntity
  8
L-ZISSEN
100
AcDbLine
 10
577.291251481829
 20
-2674.552945781741
 30
0.0
 11
577.291251481829
 21
-2679.115860911962
 31
0.0
  0
LINE
  5
DC47
330
2
100
AcDbEntity
  8
L-ZISSEN
100
AcDbLine
 10
578.5018183469924
 20
-2649.173835400918
 30
0.0
 11
578.5018183469924
 21
-2673.548835400918
 31
0.0
  0
LINE
  5
DC48
330
2
100
AcDbEntity
  8
L-ZISSEN
100
AcDbLine
 10
579.4393183469924
 20
-2649.173835400918
 30
0.0
 11
579.4393183469924
 21
-2672.96311076805
 31
0.0
  0
LINE
  5
DC49
330
2
100
AcDbEntity
  8
L-ZISSEN
100
AcDbLine
 10
590.6568183469949
 20
-2659.512574312549
 30
0.0
 11
582.2268183469941
 21
-2659.512574312549
 31
0.0
  0
LINE
  5
DC4A
330
2
100
AcDbEntity
  8
L-ZISSEN
100
AcDbLine
 10
440.6568183469949
 20
-2659.512574312549
 30
0.0
 11
440.6568183469921
 21
-2742.012574312548
 31
0.0
  0
LINE
  5
DC4B
330
2
100
AcDbEntity
  8
L-ZISSEN
100
AcDbLine
 10
432.2268183469918
 20
-2659.512574312549
 30
0.0
 11
432.2268183469918
 21
-2742.01257431255
 31
0.0
  0
LINE
  5
DC4C
330
2
100
AcDbEntity
  8
L-ZISSEN
100
AcDbLine
 10
445.3768183469918
 20
-2754.516825007732
 30
0.0
 11
445.3768183469946
 21
-2649.173835400917
 31
0.0
  0
LINE
  5
DC4D
330
2
100
AcDbEntity
  8
L-ZISSEN
100
AcDbLine
 10
398.5268183469952
 20
-2659.512574312549
 30
0.0
 11
398.5268183469952
 21
-2742.012574312548
 31
0.0
  0
LINE
  5
DC4E
330
2
100
AcDbEntity
  8
L-ZISSEN
100
AcDbLine
 10
390.0968183469922
 20
-2659.512574312549
 30
0.0
 11
390.0968183469949
 21
-2742.01257431255
 31
0.0
  0
LINE
  5
DC4F
330
2
100
AcDbEntity
  8
L-ZISSEN
100
AcDbLine
 10
385.3768183469919
 20
-2754.516825007732
 30
0.0
 11
385.3768183469946
 21
-2649.173835400917
 31
0.0
  0
ARC
  5
DC50
330
2
100
AcDbEntity
  8
L-ZISSEN
100
AcDbCircle
 10
437.3768183469906
 20
-2754.516825007732
 30
0.0
 40
8.000000000000113
100
AcDbArc
 50
283.9062370650588
 51
0.0
  0
LINE
  5
DC51
330
2
100
AcDbEntity
  8
L-ZISSEN
100
AcDbLine
 10
436.4418183469934
 20
-2744.01257431255
 30
0.0
 11
440.6568183469903
 21
-2742.012574312549
 31
0.0
  0
ARC
  5
DC52
330
2
100
AcDbEntity
  8
L-ZISSEN
100
AcDbCircle
 10
415.3768183469924
 20
-2665.66042988226
 30
0.0
 40
99.53938471878538
100
AcDbArc
 50
256.0937629349411
 51
263.0758486315317
  0
LINE
  5
DC53
330
2
100
AcDbEntity
  8
L-ZISSEN
100
AcDbLine
 10
394.3118183469914
 20
-2744.01257431255
 30
0.0
 11
390.0968183469922
 21
-2742.012574312549
 31
0.0
  0
ARC
  5
DC54
330
2
100
AcDbEntity
  8
L-ZISSEN
100
AcDbCircle
 10
393.3768183469919
 20
-2754.516825007732
 30
0.0
 40
8.000000000000113
100
AcDbArc
 50
180.0
 51
256.0937629347642
  0
LINE
  5
DC55
330
2
100
AcDbEntity
  8
L-ZISSEN
100
AcDbLine
 10
398.526818346993
 20
-2742.012574312549
 30
0.0
 11
394.3118183469914
 21
-2744.01257431255
 31
0.0
  0
LINE
  5
DC56
330
2
100
AcDbEntity
  8
L-ZISSEN
100
AcDbLine
 10
403.3768183469947
 20
-2768.473835400917
 30
0.0
 11
427.3768183469947
 21
-2768.473835400917
 31
0.0
  0
LINE
  5
DC57
330
2
100
AcDbEntity
  8
L-ZISSEN
100
AcDbLine
 10
403.3768183469947
 20
-2764.473835400917
 30
0.0
 11
427.3768183469947
 21
-2764.473835400917
 31
0.0
  0
LINE
  5
DC58
330
2
100
AcDbEntity
  8
L-ZISSEN
100
AcDbLine
 10
403.3768183469947
 20
-2765.973835400917
 30
0.0
 11
427.3768183469947
 21
-2765.973835400917
 31
0.0
  0
LINE
  5
DC59
330
2
100
AcDbEntity
  8
L-ZISSEN
100
AcDbLine
 10
405.3768183469946
 20
-2795.173835400917
 30
0.0
 11
425.3768183469946
 21
-2795.173835400917
 31
0.0
  0
LINE
  5
DC5A
330
2
100
AcDbEntity
  8
L-ZISSEN
100
AcDbLine
 10
405.3768183469946
 20
-2781.673835400917
 30
0.0
 11
425.3768183469946
 21
-2781.673835400917
 31
0.0
  0
LINE
  5
DC5B
330
2
100
AcDbEntity
  8
L-ZISSEN
100
AcDbLine
 10
405.3768183469946
 20
-2780.973835400917
 30
0.0
 11
425.3768183469946
 21
-2780.973835400917
 31
0.0
  0
LINE
  5
DC5C
330
2
100
AcDbEntity
  8
L-ZISSEN
100
AcDbLine
 10
426.3768183469947
 20
-2777.473835400917
 30
0.0
 11
404.3768183469946
 21
-2777.473835400917
 31
0.0
  0
LINE
  5
DC5D
330
2
100
AcDbEntity
  8
L-ZISSEN
100
AcDbLine
 10
403.3768183469947
 20
-2768.473835400917
 30
0.0
 11
403.3768183469947
 21
-2764.473835400917
 31
0.0
  0
LINE
  5
DC5E
330
2
100
AcDbEntity
  8
L-ZISSEN
100
AcDbLine
 10
405.3768183469946
 20
-2795.173835400917
 30
0.0
 11
405.3768183469946
 21
-2781.673835400917
 31
0.0
  0
LINE
  5
DC5F
330
2
100
AcDbEntity
  8
L-ZISSEN
100
AcDbLine
 10
405.3768183469946
 20
-2780.973835400917
 30
0.0
 11
405.3768183469946
 21
-2777.473835400917
 31
0.0
  0
LINE
  5
DC60
330
2
100
AcDbEntity
  8
L-ZISSEN
100
AcDbLine
 10
406.3768183469947
 20
-2781.673835400917
 30
0.0
 11
406.3768183469951
 21
-2780.973835400917
 31
0.0
  0
LINE
  5
DC61
330
2
100
AcDbEntity
  8
L-ZISSEN
100
AcDbLine
 10
404.3768183469946
 20
-2768.473835400917
 30
0.0
 11
404.3768183469946
 21
-2777.473835400917
 31
0.0
  0
ARC
  5
DC62
330
2
100
AcDbEntity
  8
L-ZISSEN
100
AcDbCircle
 10
415.3768183469924
 20
-2665.66042988226
 30
0.0
 40
99.53938471878515
100
AcDbArc
 50
276.9241513684709
 51
283.9062370650462
  0
LINE
  5
DC63
330
2
100
AcDbEntity
  8
L-ZISSEN
100
AcDbLine
 10
427.3768183469947
 20
-2768.473835400917
 30
0.0
 11
427.3768183469947
 21
-2764.473835400917
 31
0.0
  0
LINE
  5
DC64
330
2
100
AcDbEntity
  8
L-ZISSEN
100
AcDbLine
 10
425.3768183469946
 20
-2795.173835400917
 30
0.0
 11
425.3768183469946
 21
-2781.673835400917
 31
0.0
  0
LINE
  5
DC65
330
2
100
AcDbEntity
  8
L-ZISSEN
100
AcDbLine
 10
425.3768183469946
 20
-2780.973835400917
 30
0.0
 11
425.3768183469949
 21
-2777.473835400917
 31
0.0
  0
LINE
  5
DC66
330
2
100
AcDbEntity
  8
L-ZISSEN
100
AcDbLine
 10
424.3768183469951
 20
-2781.673835400917
 30
0.0
 11
424.3768183469946
 21
-2780.973835400917
 31
0.0
  0
LINE
  5
DC67
330
2
100
AcDbEntity
  8
L-ZISSEN
100
AcDbLine
 10
426.3768183469947
 20
-2768.473835400917
 30
0.0
 11
426.3768183469947
 21
-2777.473835400917
 31
0.0
  0
LINE
  5
DC68
330
2
100
AcDbEntity
  8
L-ZISSEN
100
AcDbLine
 10
432.2268183469896
 20
-2742.012574312549
 30
0.0
 11
436.4418183469934
 21
-2744.01257431255
 31
0.0
  0
LINE
  5
DC69
330
2
100
AcDbEntity
  8
L-ZISSEN
100
AcDbLine
 10
440.6568183469949
 20
-2659.512574312549
 30
0.0
 11
432.2268183469918
 21
-2659.512574312549
 31
0.0
  0
LINE
  5
DC6B
330
2
100
AcDbEntity
  8
L-ZISSEN
100
AcDbLine
 10
390.0968183469922
 20
-2659.512574312549
 30
0.0
 11
398.5268183469952
 21
-2659.512574312549
 31
0.0
  0
LINE
  5
DC6C
330
2
100
AcDbEntity
  8
L-ZISSEN
100
AcDbLine
 10
454.3768183469933
 20
-2675.122942189298
 30
0.0
 11
448.876818346996
 21
-2677.063321302928
 31
0.0
  0
LINE
  5
DC6D
330
2
100
AcDbEntity
  8
L-ZISSEN
100
AcDbLine
 10
445.3768183469946
 20
-2649.173835400917
 30
0.0
 11
445.3768183469946
 21
-2690.497829855116
 31
0.0
  0
LINE
  5
DC6E
330
2
100
AcDbEntity
  8
L-ZISSEN
100
AcDbLine
 10
446.9272395277744
 20
-2682.647317686377
 30
0.0
 11
445.3768183469946
 21
-2682.647317686377
 31
0.0
  0
LINE
  5
DC6F
330
2
100
AcDbEntity
  8
L-ZISSEN
100
AcDbLine
 10
446.9272395277744
 20
-2682.647317686377
 30
0.0
 11
448.6909136715462
 21
-2675.167341938933
 31
0.0
  0
LINE
  5
DC70
330
2
100
AcDbEntity
  8
L-ZISSEN
100
AcDbLine
 10
445.4406556970184
 20
-2682.296801915553
 30
0.0
 11
447.2043298407903
 21
-2674.816826168109
 31
0.0
  0
LINE
  5
DC71
330
2
100
AcDbEntity
  8
L-ZISSEN
100
AcDbLine
 10
448.876818346996
 20
-2677.063321302928
 30
0.0
 11
448.6909136715462
 21
-2677.063321302928
 31
0.0
  0
LINE
  5
DC72
330
2
100
AcDbEntity
  8
L-ZISSEN
100
AcDbLine
 10
448.6909136715462
 20
-2675.167341938933
 30
0.0
 11
448.6909136715462
 21
-2672.980857697998
 31
0.0
  0
LINE
  5
DC73
330
2
100
AcDbEntity
  8
L-ZISSEN
100
AcDbLine
 10
447.2043298407903
 20
-2672.980857697999
 30
0.0
 11
447.2043298407903
 21
-2674.816826168109
 31
0.0
  0
LINE
  5
DC74
330
2
100
AcDbEntity
  8
L-ZISSEN
100
AcDbLine
 10
448.6909136715462
 20
-2672.980857697998
 30
0.0
 11
445.3768183469946
 21
-2672.980857697998
 31
0.0
  0
LINE
  5
DC75
330
2
100
AcDbEntity
  8
L-ZISSEN
100
AcDbLine
 10
448.6909136715462
 20
-2677.063321302928
 30
0.0
 11
448.6909136715462
 21
-2649.173835400918
 31
0.0
  0
LINE
  5
DC76
330
2
100
AcDbEntity
  8
L-ZISSEN
100
AcDbLine
 10
450.3768183469946
 20
-2649.173835400918
 30
0.0
 11
450.3768183469946
 21
-2670.173835400917
 31
0.0
  0
LINE
  5
DC77
330
2
100
AcDbEntity
  8
L-ZISSEN
100
AcDbLine
 10
454.3768183469933
 20
-2670.8387732067
 30
0.0
 11
454.3768183469933
 21
-2675.122942189298
 31
0.0
  0
LINE
  5
DC78
330
2
100
AcDbEntity
  8
L-ZISSEN
100
AcDbLine
 10
450.3768183469946
 20
-2670.173835400917
 30
0.0
 11
454.3768183469933
 21
-2670.8387732067
 31
0.0
  0
LINE
  5
DD9C
330
2
100
AcDbEntity
  8
L-ZISSEN
100
AcDbLine
 10
262.0041752162467
 20
-2927.228359781132
 30
0.0
 11
307.401064405123
 21
-2959.661200919447
 31
0.0
  0
TEXT
  5
DD9D
330
2
100
AcDbEntity
  8
L-ZISSEN
100
AcDbText
 10
311.5591903065062
 20
-2961.907875147398
 30
0.0
 40
4.5
  1
P.P
100
AcDbText
  0
LINE
  5
DD9E
330
2
100
AcDbEntity
  8
L-ZISSEN
100
AcDbLine
 10
413.8403757877999
 20
-2897.629396641226
 30
0.0
 11
400.3768183469948
 21
-2886.409765440555
 31
0.0
  0
TEXT
  5
DD9F
330
2
100
AcDbEntity
  8
L-ZISSEN
100
AcDbText
 10
387.3768183469948
 20
-2888.659765440555
 30
0.0
 40
4.5
  1
P.P
100
AcDbText
  0
LINE
  5
DDA0
330
2
100
AcDbEntity
  8
L-ZISSEN
100
AcDbLine
 10
400.3768183469948
 20
-2886.409765440555
 30
0.0
 11
398.3768183469948
 21
-2886.409765440555
 31
0.0
  0
SOLID
  5
DDA1
330
2
100
AcDbEntity
  8
L-ZISSEN
100
AcDbTrace
 10
413.6269809879117
 20
-2897.885470401092
 30
0.0
 11
414.0537705876881
 21
-2897.373322881361
 31
0.0
 12
415.3768183469947
 22
-2898.909765440556
 32
0.0
 13
415.3768183469947
 23
-2898.909765440556
 33
0.0
  0
SOLID
  5
DDA2
330
2
100
AcDbEntity
  8
L-ZISSEN
100
AcDbTrace
 10
262.1979469619868
 20
-2926.957133636256
 30
0.0
 11
261.8104034705065
 21
-2927.499585926007
 31
0.0
 12
260.3768183469946
 22
-2926.065729306691
 32
0.0
 13
260.3768183469946
 23
-2926.065729306691
 33
0.0
  0
LINE
  5
DDA3
330
2
100
AcDbEntity
  8
L-ZISSEN
100
AcDbLine
 10
309.401064405123
 20
-2959.661200919447
 30
0.0
 11
307.401064405123
 21
-2959.661200919447
 31
0.0
  0
TEXT
  5
DDA4
330
2
100
AcDbEntity
  8
L-ZISSEN
100
AcDbText
 10
0.4821832209630231
 20
-2961.907875147398
 30
0.0
 40
4.5
  1
P.P
100
AcDbText
  0
LINE
  5
DDA5
330
2
100
AcDbEntity
  8
L-ZISSEN
100
AcDbLine
 10
58.74946147774268
 20
-2927.228359781132
 30
0.0
 11
13.35257228886634
 21
-2959.661200919447
 31
0.0
  0
LINE
  5
DDA6
330
2
100
AcDbEntity
  8
L-ZISSEN
100
AcDbLine
 10
13.35257228886634
 20
-2959.661200919447
 30
0.0
 11
11.35257228886634
 21
-2959.661200919447
 31
0.0
  0
SOLID
  5
DDA7
330
2
100
AcDbEntity
  8
L-ZISSEN
100
AcDbTrace
 10
58.55568973200253
 20
-2926.957133636257
 30
0.0
 11
58.94323322348284
 21
-2927.499585926007
 31
0.0
 12
60.37681834699471
 22
-2926.065729306691
 32
0.0
 13
60.37681834699471
 23
-2926.065729306691
 33
0.0
  0
LINE
  5
DDA8
330
2
100
AcDbEntity
  8
L-ZISSEN
100
AcDbLine
 10
550.3768183469949
 20
-2886.409765440555
 30
0.0
 11
548.3768183469948
 21
-2886.409765440555
 31
0.0
  0
TEXT
  5
DDA9
330
2
100
AcDbEntity
  8
L-ZISSEN
100
AcDbText
 10
537.3768183469949
 20
-2888.659765440555
 30
0.0
 40
4.5
  1
P.P
100
AcDbText
  0
LINE
  5
DDAA
330
2
100
AcDbEntity
  8
L-ZISSEN
100
AcDbLine
 10
563.8403757877999
 20
-2897.629396641226
 30
0.0
 11
550.3768183469949
 21
-2886.409765440555
 31
0.0
  0
SOLID
  5
DDAB
330
2
100
AcDbEntity
  8
L-ZISSEN
100
AcDbTrace
 10
563.6269809879117
 20
-2897.885470401092
 30
0.0
 11
564.0537705876881
 21
-2897.373322881361
 31
0.0
 12
565.3768183469947
 22
-2898.909765440556
 32
0.0
 13
565.3768183469947
 23
-2898.909765440556
 33
0.0
  0
LINE
  5
DDAE
330
2
100
AcDbEntity
  8
L-ZISSEN
100
AcDbLine
 10
563.8403757877999
 20
-2647.893466601589
 30
0.0
 11
550.3768183469949
 21
-2636.673835400918
 31
0.0
  0
TEXT
  5
DDAF
330
2
100
AcDbEntity
  8
L-ZISSEN
100
AcDbText
 10
537.3768183469949
 20
-2638.923835400918
 30
0.0
 40
4.5
  1
P.P
100
AcDbText
  0
LINE
  5
DDB0
330
2
100
AcDbEntity
  8
L-ZISSEN
100
AcDbLine
 10
550.3768183469949
 20
-2636.673835400918
 30
0.0
 11
548.3768183469948
 21
-2636.673835400918
 31
0.0
  0
SOLID
  5
DDB1
330
2
100
AcDbEntity
  8
L-ZISSEN
100
AcDbTrace
 10
563.6269809879117
 20
-2648.149540361455
 30
0.0
 11
564.0537705876881
 21
-2647.637392841723
 31
0.0
 12
565.3768183469947
 22
-2649.173835400918
 32
0.0
 13
565.3768183469947
 23
-2649.173835400918
 33
0.0
  0
LINE
  5
DDB2
330
2
100
AcDbEntity
  8
L-ZISSEN
100
AcDbLine
 10
400.3768183469948
 20
-2636.673835400918
 30
0.0
 11
398.3768183469948
 21
-2636.673835400918
 31
0.0
  0
TEXT
  5
DDB3
330
2
100
AcDbEntity
  8
L-ZISSEN
100
AcDbText
 10
387.3768183469948
 20
-2638.923835400918
 30
0.0
 40
4.5
  1
P.P
100
AcDbText
  0
LINE
  5
DDB4
330
2
100
AcDbEntity
  8
L-ZISSEN
100
AcDbLine
 10
413.8403757877999
 20
-2647.893466601589
 30
0.0
 11
400.3768183469948
 21
-2636.673835400918
 31
0.0
  0
SOLID
  5
DDB5
330
2
100
AcDbEntity
  8
L-ZISSEN
100
AcDbTrace
 10
413.6269809879117
 20
-2648.149540361455
 30
0.0
 11
414.0537705876881
 21
-2647.637392841723
 31
0.0
 12
415.3768183469947
 22
-2649.173835400918
 32
0.0
 13
415.3768183469947
 23
-2649.173835400918
 33
0.0
  0
TEXT
  5
E029
330
2
100
AcDbEntity
  8
L-ZISSEN
100
AcDbText
 10
442.3846673565273
 20
-2602.650164398221
 30
0.0
 40
4.5
  1
3
100
AcDbText
  0
TEXT
  5
E02A
330
2
100
AcDbEntity
  8
L-ZISSEN
100
AcDbText
 10
467.2427745446253
 20
-2602.650164398221
 30
0.0
 40
4.5
  1
2
100
AcDbText
  0
TEXT
  5
E02B
330
2
100
AcDbEntity
  8
L-ZISSEN
100
AcDbText
 10
382.2857346482244
 20
-2606.006609435236
 30
0.0
 40
4.5
  1
MODEL NO. B64- 00-*0 *
100
AcDbText
  0
TEXT
  5
E02C
330
2
100
AcDbEntity
  8
L-ZISSEN
100
AcDbText
 10
467.3327969393626
 20
-2609.161028068422
 30
0.0
 40
4.5
  1
N
100
AcDbText
  0
TEXT
  5
E02D
330
2
100
AcDbEntity
  8
L-ZISSEN
100
AcDbText
 10
442.3846673565273
 20
-2609.161028068422
 30
0.0
 40
4.5
  1
4
100
AcDbText
  0
TEXT
  5
E03A
330
2
100
AcDbEntity
  8
L-ZISSEN
100
AcDbText
 10
382.2857346482244
 20
-2847.785076988325
 30
0.0
 40
4.5
  1
MODEL NO. B64- 00-*0 *
100
AcDbText
  0
TEXT
  5
E03E
330
2
100
AcDbEntity
  8
L-ZISSEN
100
AcDbText
 10
442.3846673565273
 20
-2850.93949562151
 30
0.0
 40
4.5
  1
4
100
AcDbText
  0
TEXT
  5
E03F
330
2
100
AcDbEntity
  8
L-ZISSEN
100
AcDbText
 10
442.3846673565273
 20
-2844.428631951311
 30
0.0
 40
4.5
  1
3
100
AcDbText
  0
TEXT
  5
E041
330
2
100
AcDbEntity
  8
L-ZISSEN
100
AcDbText
 10
233.2248453097643
 20
-2637.805257724108
 30
0.0
 40
4.5
  1
4
100
AcDbText
  0
TEXT
  5
E042
330
2
100
AcDbEntity
  8
L-ZISSEN
100
AcDbText
 10
233.2248453097643
 20
-2631.294394053908
 30
0.0
 40
4.5
  1
3
100
AcDbText
  0
TEXT
  5
E043
330
2
100
AcDbEntity
  8
L-ZISSEN
100
AcDbText
 10
173.1259126014613
 20
-2634.650839090922
 30
0.0
 40
4.5
  1
MODEL NO. B64- 00-*0 *
100
AcDbText
  0
TEXT
  5
E044
330
2
100
AcDbEntity
  8
L-ZISSEN
100
AcDbText
 10
258.2536056482017
 20
-2637.805257724108
 30
0.0
 40
4.5
  1
M
100
AcDbText
  0
TEXT
  5
E045
330
2
100
AcDbEntity
  8
L-ZISSEN
100
AcDbText
 10
258.8892620559404
 20
-2631.294394053908
 30
0.0
 40
4.5
  1
1
100
AcDbText
  0
TEXT
  5
E149
330
2
100
AcDbEntity
  8
L-ZISSEN
100
AcDbText
 10
466.9959946472549
 20
-2844.428631951311
 30
0.0
 40
4.5
  1
4
100
AcDbText
  0
TEXT
  5
E14A
330
2
100
AcDbEntity
  8
L-ZISSEN
100
AcDbText
 10
466.9959946472549
 20
-2850.93949562151
 30
0.0
 40
4.5
  1
P
100
AcDbText
  0
VIEWPORT
  5
69B
330
F
100
AcDbEntity
 67
     1
  8
0
100
AcDbViewport
 10
0.0
 20
0.0
 30
0.0
 40
0.0
 41
0.0
 68
     1
 69
     1
1001
ACAD
1000
MVIEW
1002
{
1070
    16
1010
0.0
1020
0.0
1030
0.0
1010
0.0
1020
0.0
1030
1.0
1040
0.0
1040
0.0
1040
0.0
1040
0.0
1040
50.0
1040
0.0
1040
0.0
1070
     0
1070
   100
1070
     1
1070
     1
1070
     0
1070
     0
1070
     0
1070
     0
1040
0.0
1040
0.0
1040
0.0
1040
10.0
1040
10.0
1040
10.0
1040
10.0
1070
     0
1002
{
1002
}
1002
}
  0
VIEWPORT
  5
69D
330
F
100
AcDbEntity
 67
     1
  8
SUNPOU
100
AcDbViewport
 10
0.0
 20
0.0
 30
0.0
 40
0.0
 41
0.0
 68
    -1
 69
     2
1001
ACAD
1000
MVIEW
1002
{
1070
    16
1010
0.0
1020
0.0
1030
0.0
1010
0.0
1020
0.0
1030
1.0
1040
0.0
1040
59.8802181911947
1040
144.5109310282361
1040
-1209.648178221134
1040
50.0
1040
0.0
1040
0.0
1070
    16
1070
   100
1070
     1
1070
     0
1070
     0
1070
     0
1070
     0
1070
     0
1040
0.0
1040
0.0
1040
0.0
1040
1.0
1040
1.0
1040
4.0
1040
4.0
1070
     0
1002
{
1002
}
1002
}
  0
ENDSEC
  0
SECTION
  2
OBJECTS
  0
DICTIONARY
  5
9
330
0
100
AcDbDictionary
  3
ACAD_GROUP
350
23
  3
ACAD_LAYOUT
350
E
  3
ACAD_MLINESTYLE
350
24
  3
ACAD_PLOTSETTINGS
350
25
1001
ACAD
1000
TREAT_AS_HARD
1070
     0
  0
DICTIONARY
  5
8E1
330
15
100
AcDbDictionary
  3
ACAD_LAYERSTATES
350
8E2
1001
ACAD
1000
TREAT_AS_HARD
1070
     1
  0
DICTIONARY
  5
3
330
2
100
AcDbDictionary
  3
ACAD_LAYOUTSELFREF
350
E1B8
1001
ACAD
1000
TREAT_AS_HARD
1070
     1
  0
DICTIONARY
  5
10
330
F
100
AcDbDictionary
  3
ACAD_LAYOUTSELFREF
350
E1B9
1001
ACAD
1000
TREAT_AS_HARD
1070
     1
  0
DICTIONARY
  5
23
102
{ACAD_REACTORS
330
9
102
}
330
9
100
AcDbDictionary
1001
ACAD
1000
TREAT_AS_HARD
1070
     0
  0
DICTIONARY
  5
E
102
{ACAD_REACTORS
330
9
102
}
330
9
100
AcDbDictionary
1001
ACAD
1000
TREAT_AS_HARD
1070
     0
  0
DICTIONARY
  5
24
102
{ACAD_REACTORS
330
9
102
}
330
9
100
AcDbDictionary
  3
STANDARD
350
27
1001
ACAD
1000
TREAT_AS_HARD
1070
     0
  0
DICTIONARY
  5
25
102
{ACAD_REACTORS
330
9
102
}
330
9
100
AcDbDictionary
1001
ACAD
1000
TREAT_AS_HARD
1070
     0
  0
DICTIONARY
  5
8E2
102
{ACAD_REACTORS
330
8E1
102
}
330
8E1
100
AcDbDictionary
1001
ACAD
1000
TREAT_AS_HARD
1070
     0
  0
XRECORD
  5
E1B8
102
{ACAD_REACTORS
330
3
102
}
330
3
100
AcDbXrecord
340
2
  0
XRECORD
  5
E1B9
102
{ACAD_REACTORS
330
10
102
}
330
10
100
AcDbXrecord
340
F
  0
MLINESTYLE
  5
27
102
{ACAD_REACTORS
330
24
102
}
330
24
100
AcDbMlineStyle
  2
STANDARD
 70
     0
  3

 62
   256
 51
90.0
 52
90.0
 71
     2
 49
0.5
 62
   256
  6
BYLAYER
 49
-0.5
 62
   256
  6
BYLAYER
  0
ENDSEC
  0
EOF
