  0
SECTION
  2
HEADER
  9
$ACADVER
  1
AC1012
  9
$DWGCODEPAGE
  3
dos932
  9
$INSBASE
 10
0.0
 20
0.0
 30
0.0
  9
$EXTMIN
 10
1206.629124113357
 20
-3194.570944943254
 30
-0.0000000000000053
  9
$EXTMAX
 10
1672.887074285285
 20
-2821.815289692668
 30
0.0000000000000099
  9
$LIMMIN
 10
0.0
 20
0.0
  9
$LIMMAX
 10
297.0
 20
210.0
  9
$ORTHOMODE
 70
     1
  9
$REGENMODE
 70
     1
  9
$FILLMODE
 70
     1
  9
$QTEXTMODE
 70
     0
  9
$MIRRTEXT
 70
     1
  9
$DRAGMODE
 70
     2
  9
$LTSCALE
 40
1.0
  9
$OSMODE
 70
    39
  9
$ATTMODE
 70
     1
  9
$TEXTSIZE
 40
5.599999999999999
  9
$TRACEWID
 40
0.05
  9
$TEXTSTYLE
  7
STANDARD
  9
$CLAYER
  8
L-ZISSEN
  9
$CELTYPE
  6
BYLAYER
  9
$CECOLOR
 62
   256
  9
$CELTSCALE
 40
1.0
  9
$DELOBJ
 70
     1
  9
$DISPSILH
 70
     0
  9
$DIMSCALE
 40
2.0
  9
$DIMASZ
 40
2.0
  9
$DIMEXO
 40
1.0
  9
$DIMDLI
 40
8.0
  9
$DIMRND
 40
0.0
  9
$DIMDLE
 40
0.0
  9
$DIMEXE
 40
0.8
  9
$DIMTP
 40
0.0
  9
$DIMTM
 40
0.0
  9
$DIMTXT
 40
2.799999999999999
  9
$DIMCEN
 40
0.0
  9
$DIMTSZ
 40
0.0
  9
$DIMTOL
 70
     0
  9
$DIMLIM
 70
     0
  9
$DIMTIH
 70
     0
  9
$DIMTOH
 70
     0
  9
$DIMSE1
 70
     0
  9
$DIMSE2
 70
     0
  9
$DIMTAD
 70
     0
  9
$DIMZIN
 70
    12
  9
$DIMBLK
  1

  9
$DIMASO
 70
     1
  9
$DIMSHO
 70
     0
  9
$DIMPOST
  1

  9
$DIMAPOST
  1

  9
$DIMALT
 70
     0
  9
$DIMALTD
 70
     2
  9
$DIMALTF
 40
25.4
  9
$DIMLFAC
 40
1.0
  9
$DIMTOFL
 70
     1
  9
$DIMTVP
 40
1.0
  9
$DIMTIX
 70
     1
  9
$DIMSOXD
 70
     0
  9
$DIMSAH
 70
     0
  9
$DIMBLK1
  1

  9
$DIMBLK2
  1

  9
$DIMSTYLE
  2
STANDARD
  9
$DIMCLRD
 70
     0
  9
$DIMCLRE
 70
     0
  9
$DIMCLRT
 70
     0
  9
$DIMTFAC
 40
1.0
  9
$DIMGAP
 40
0.8
  9
$DIMJUST
 70
     0
  9
$DIMSD1
 70
     0
  9
$DIMSD2
 70
     0
  9
$DIMTOLJ
 70
     1
  9
$DIMTZIN
 70
     0
  9
$DIMALTZ
 70
     0
  9
$DIMALTTZ
 70
     0
  9
$DIMFIT
 70
     3
  9
$DIMUPT
 70
     0
  9
$DIMUNIT
 70
     2
  9
$DIMDEC
 70
     8
  9
$DIMTDEC
 70
     8
  9
$DIMALTU
 70
     2
  9
$DIMALTTD
 70
     2
  9
$DIMTXSTY
  7
STANDARD
  9
$DIMAUNIT
 70
     0
  9
$LUNITS
 70
     2
  9
$LUPREC
 70
     4
  9
$SKETCHINC
 40
0.1
  9
$FILLETRAD
 40
1.5
  9
$AUNITS
 70
     0
  9
$AUPREC
 70
     0
  9
$MENU
  1
.
  9
$ELEVATION
 40
0.0
  9
$PELEVATION
 40
0.0
  9
$THICKNESS
 40
0.0
  9
$LIMCHECK
 70
     0
  9
$BLIPMODE
 70
     0
  9
$CHAMFERA
 40
3.0
  9
$CHAMFERB
 40
3.0
  9
$CHAMFERC
 40
0.0
  9
$CHAMFERD
 40
0.0
  9
$SKPOLY
 70
     0
  9
$TDCREATE
 40
2453354.092125822
  9
$TDUPDATE
 40
2455072.639229050
  9
$TDINDWG
 40
10.9464535880
  9
$TDUSRTIMER
 40
10.9464535880
  9
$USRTIMER
 70
     1
  9
$ANGBASE
 50
0.0
  9
$ANGDIR
 70
     0
  9
$PDMODE
 70
     0
  9
$PDSIZE
 40
0.0
  9
$PLINEWID
 40
0.0
  9
$COORDS
 70
     0
  9
$SPLFRAME
 70
     0
  9
$SPLINETYPE
 70
     6
  9
$SPLINESEGS
 70
     8
  9
$ATTDIA
 70
     0
  9
$ATTREQ
 70
     1
  9
$HANDLING
 70
-16383
  9
$HANDSEED
  5
D24B
  9
$SURFTAB1
 70
     6
  9
$SURFTAB2
 70
     6
  9
$SURFTYPE
 70
     6
  9
$SURFU
 70
     6
  9
$SURFV
 70
     6
  9
$UCSNAME
  2

  9
$UCSORG
 10
0.0
 20
0.0
 30
0.0
  9
$UCSXDIR
 10
1.0
 20
0.0
 30
0.0
  9
$UCSYDIR
 10
0.0
 20
1.0
 30
0.0
  9
$PUCSNAME
  2

  9
$PUCSORG
 10
0.0
 20
0.0
 30
0.0
  9
$PUCSXDIR
 10
1.0
 20
0.0
 30
0.0
  9
$PUCSYDIR
 10
0.0
 20
1.0
 30
0.0
  9
$USERI1
 70
     0
  9
$USERI2
 70
     0
  9
$USERI3
 70
     0
  9
$USERI4
 70
     0
  9
$USERI5
 70
     0
  9
$USERR1
 40
0.0
  9
$USERR2
 40
0.0
  9
$USERR3
 40
0.0
  9
$USERR4
 40
0.0
  9
$USERR5
 40
0.0
  9
$WORLDVIEW
 70
     1
  9
$SHADEDGE
 70
     3
  9
$SHADEDIF
 70
    70
  9
$TILEMODE
 70
     1
  9
$MAXACTVP
 70
    48
  9
$PINSBASE
 10
0.0
 20
0.0
 30
0.0
  9
$PLIMCHECK
 70
     0
  9
$PEXTMIN
 10
0.0
 20
0.0
 30
0.0
  9
$PEXTMAX
 10
0.0
 20
0.0
 30
0.0
  9
$PLIMMIN
 10
0.0
 20
0.0
  9
$PLIMMAX
 10
0.0
 20
0.0
  9
$UNITMODE
 70
     0
  9
$VISRETAIN
 70
     0
  9
$PLINEGEN
 70
     0
  9
$PSLTSCALE
 70
     0
  9
$TREEDEPTH
 70
  3020
  9
$PICKSTYLE
 70
     1
  9
$CMLSTYLE
  2
STANDARD
  9
$CMLJUST
 70
     0
  9
$CMLSCALE
 40
1.0
  9
$SAVEIMAGES
 70
     1
  0
ENDSEC
  0
SECTION
  2
CLASSES
  0
CLASS
  1
ACDBDICTIONARYWDFLT
  2
AcDbDictionaryWithDefault
  3
AutoCAD 2000
 90
    32768
280
     0
281
     0
  0
CLASS
  1
ACDBPLACEHOLDER
  2
AcDbPlaceHolder
  3
AutoCAD 2000
 90
    32768
280
     0
281
     0
  0
CLASS
  1
LAYOUT
  2
AcDbLayout
  3
AutoCAD 2000
 90
    32768
280
     0
281
     0
  0
CLASS
  1
DICTIONARYVAR
  2
AcDbDictionaryVar
  3
AutoCAD 2000
 90
    32768
280
     0
281
     0
  0
CLASS
  1
TABLESTYLE
  2
AcDbTableStyle
  3
ObjectDBX Classes
 90
    34815
280
     1
281
     0
  0
CLASS
  1
ACAD_PROXY_OBJECT_WRAPPER
  2
AcDbProxyObjectWrapper
  3
AutoCAD 2000
 90
    32768
280
     0
281
     0
  0
CLASS
  1
LONG_TRANSACTION
  2
AcDbLongTransaction
  3
AutoCAD 2000
 90
    32768
280
     0
281
     0
  0
CLASS
  1
LWPOLYLINE
  2
AcDbPolyline
  3
AutoCAD 2000
 90
    32768
280
     0
281
     1
  0
CLASS
  1
HATCH
  2
AcDbHatch
  3
AutoCAD 2000
 90
    32768
280
     0
281
     1
  0
CLASS
  1
XRECORD
  2
AcDbXrecord
  3
AutoCAD 2000
 90
    32768
280
     0
281
     0
  0
CLASS
  1
LONG_TRANSACTION
  2
AcDbLongTransaction
  3
AutoCAD 2000
 90
    32768
280
     0
281
     0
  0
CLASS
  1
LWPOLYLINE
  2
AcDbPolyline
  3
AutoCAD 2000
 90
    32768
280
     0
281
     1
  0
CLASS
  1
HATCH
  2
AcDbHatch
  3
AutoCAD 2000
 90
    32768
280
     0
281
     1
  0
CLASS
  1
XRECORD
  2
AcDbXrecord
  3
AutoCAD 2000
 90
    32768
280
     0
281
     0
  0
CLASS
  1
LONG_TRANSACTION
  2
AcDbLongTransaction
  3
AutoCAD 2000
 90
    32768
280
     0
281
     0
  0
CLASS
  1
LWPOLYLINE
  2
AcDbPolyline
  3
AutoCAD 2000
 90
    32768
280
     0
281
     1
  0
CLASS
  1
HATCH
  2
AcDbHatch
  3
AutoCAD 2000
 90
    32768
280
     0
281
     1
  0
CLASS
  1
XRECORD
  2
AcDbXrecord
  3
AutoCAD 2000
 90
    32768
280
     0
281
     0
  0
CLASS
  1
LONG_TRANSACTION
  2
AcDbLongTransaction
  3
AutoCAD 2000
 90
    32768
280
     0
281
     0
  0
CLASS
  1
LWPOLYLINE
  2
AcDbPolyline
  3
AutoCAD 2000
 90
    32768
280
     0
281
     1
  0
CLASS
  1
HATCH
  2
AcDbHatch
  3
AutoCAD 2000
 90
    32768
280
     0
281
     1
  0
CLASS
  1
XRECORD
  2
AcDbXrecord
  3
AutoCAD 2000
 90
    32768
280
     0
281
     0
  0
CLASS
  1
LONG_TRANSACTION
  2
AcDbLongTransaction
  3
AutoCAD 2000
 90
    32768
280
     0
281
     0
  0
CLASS
  1
LWPOLYLINE
  2
AcDbPolyline
  3
AutoCAD 2000
 90
    32768
280
     0
281
     1
  0
CLASS
  1
HATCH
  2
AcDbHatch
  3
AutoCAD 2000
 90
    32768
280
     0
281
     1
  0
CLASS
  1
XRECORD
  2
AcDbXrecord
  3
AutoCAD 2000
 90
    32768
280
     0
281
     0
  0
CLASS
  1
LONG_TRANSACTION
  2
AcDbLongTransaction
  3
AutoCAD 2000
 90
    32768
280
     0
281
     0
  0
CLASS
  1
LWPOLYLINE
  2
AcDbPolyline
  3
AutoCAD 2000
 90
    32768
280
     0
281
     1
  0
CLASS
  1
HATCH
  2
AcDbHatch
  3
AutoCAD 2000
 90
    32768
280
     0
281
     1
  0
CLASS
  1
XRECORD
  2
AcDbXrecord
  3
AutoCAD 2000
 90
    32768
280
     0
281
     0
  0
CLASS
  1
LONG_TRANSACTION
  2
AcDbLongTransaction
  3
AutoCAD 2000
 90
    32768
280
     0
281
     0
  0
CLASS
  1
LWPOLYLINE
  2
AcDbPolyline
  3
AutoCAD 2000
 90
    32768
280
     0
281
     1
  0
CLASS
  1
HATCH
  2
AcDbHatch
  3
AutoCAD 2000
 90
    32768
280
     0
281
     1
  0
CLASS
  1
XRECORD
  2
AcDbXrecord
  3
AutoCAD 2000
 90
    32768
280
     0
281
     0
  0
CLASS
  1
LONG_TRANSACTION
  2
AcDbLongTransaction
  3
AutoCAD 2000
 90
    32768
280
     0
281
     0
  0
CLASS
  1
LWPOLYLINE
  2
AcDbPolyline
  3
AutoCAD 2000
 90
    32768
280
     0
281
     1
  0
CLASS
  1
HATCH
  2
AcDbHatch
  3
AutoCAD 2000
 90
    32768
280
     0
281
     1
  0
CLASS
  1
XRECORD
  2
AcDbXrecord
  3
AutoCAD 2000
 90
    32768
280
     0
281
     0
  0
CLASS
  1
LONG_TRANSACTION
  2
AcDbLongTransaction
  3
AutoCAD 2000
 90
    32768
280
     0
281
     0
  0
CLASS
  1
LWPOLYLINE
  2
AcDbPolyline
  3
AutoCAD 2000
 90
    32768
280
     0
281
     1
  0
CLASS
  1
HATCH
  2
AcDbHatch
  3
AutoCAD 2000
 90
    32768
280
     0
281
     1
  0
CLASS
  1
XRECORD
  2
AcDbXrecord
  3
AutoCAD 2000
 90
    32768
280
     0
281
     0
  0
CLASS
  1
LONG_TRANSACTION
  2
AcDbLongTransaction
  3
AutoCAD 2000
 90
    32768
280
     0
281
     0
  0
CLASS
  1
LWPOLYLINE
  2
AcDbPolyline
  3
AutoCAD 2000
 90
    32768
280
     0
281
     1
  0
CLASS
  1
HATCH
  2
AcDbHatch
  3
AutoCAD 2000
 90
    32768
280
     0
281
     1
  0
CLASS
  1
XRECORD
  2
AcDbXrecord
  3
AutoCAD 2000
 90
    32768
280
     0
281
     0
  0
CLASS
  1
LONG_TRANSACTION
  2
AcDbLongTransaction
  3
AutoCAD 2000
 90
    32768
280
     0
281
     0
  0
CLASS
  1
LWPOLYLINE
  2
AcDbPolyline
  3
AutoCAD 2000
 90
    32768
280
     0
281
     1
  0
CLASS
  1
HATCH
  2
AcDbHatch
  3
AutoCAD 2000
 90
    32768
280
     0
281
     1
  0
CLASS
  1
XRECORD
  2
AcDbXrecord
  3
AutoCAD 2000
 90
    32768
280
     0
281
     0
  0
CLASS
  1
LONG_TRANSACTION
  2
AcDbLongTransaction
  3
AutoCAD 2000
 90
    32768
280
     0
281
     0
  0
CLASS
  1
LWPOLYLINE
  2
AcDbPolyline
  3
AutoCAD 2000
 90
    32768
280
     0
281
     1
  0
CLASS
  1
HATCH
  2
AcDbHatch
  3
AutoCAD 2000
 90
    32768
280
     0
281
     1
  0
CLASS
  1
XRECORD
  2
AcDbXrecord
  3
AutoCAD 2000
 90
    32768
280
     0
281
     0
  0
CLASS
  1
LONG_TRANSACTION
  2
AcDbLongTransaction
  3
AutoCAD 2000
 90
    32768
280
     0
281
     0
  0
CLASS
  1
LWPOLYLINE
  2
AcDbPolyline
  3
AutoCAD 2000
 90
    32768
280
     0
281
     1
  0
CLASS
  1
HATCH
  2
AcDbHatch
  3
AutoCAD 2000
 90
    32768
280
     0
281
     1
  0
CLASS
  1
XRECORD
  2
AcDbXrecord
  3
AutoCAD 2000
 90
    32768
280
     0
281
     0
  0
ENDSEC
  0
SECTION
  2
TABLES
  0
TABLE
  2
VPORT
  5
1E
330
0
100
AcDbSymbolTable
 70
     3
  0
VPORT
  5
D23A
330
1E
100
AcDbSymbolTableRecord
100
AcDbViewportTableRecord
  2
*ACTIVE
 70
     0
 10
0.0
 20
0.0
 11
1.0
 21
1.0
 12
1439.758099199321
 22
-3008.193117317961
 13
0.0
 23
0.0
 14
1.0
 24
1.0
 15
4.0
 25
4.0
 16
0.0
 26
0.0
 36
1.0
 17
0.0
 27
0.0
 37
0.0
 40
375.1123822595473
 41
1.60759493670886
 42
50.0
 43
0.0
 44
0.0
 50
0.0
 51
0.0
 71
    16
 72
   100
 73
     1
 74
     0
 75
     0
 76
     0
 77
     0
 78
     0
  0
ENDTAB
  0
TABLE
  2
LTYPE
  5
19
330
0
100
AcDbSymbolTable
 70
     3
  0
LTYPE
  5
1A
330
19
100
AcDbSymbolTableRecord
100
AcDbLinetypeTableRecord
  2
BYBLOCK
 70
     0
  3

 72
    65
 73
     0
 40
0.0
  0
LTYPE
  5
1B
330
19
100
AcDbSymbolTableRecord
100
AcDbLinetypeTableRecord
  2
BYLAYER
 70
     0
  3

 72
    65
 73
     0
 40
0.0
  0
LTYPE
  5
B
330
19
100
AcDbSymbolTableRecord
100
AcDbLinetypeTableRecord
  2
CONTINUOUS
 70
     0
  3
Solid line
 72
    65
 73
     0
 40
0.0
  0
LTYPE
  5
32
330
19
100
AcDbSymbolTableRecord
100
AcDbLinetypeTableRecord
  2
CENTER
 70
     0
  3

 72
    65
 73
     4
 40
18.0
 49
15.0
 74
     4
 75
     0
340
0
 46
1.0
 50
0.0
 44
0.0
 45
0.0
 49
-1.0
 74
     4
 75
     0
340
0
 46
1.0
 50
0.0
 44
0.0
 45
0.0
 49
1.0
 74
     4
 75
     0
340
0
 46
1.0
 50
0.0
 44
0.0
 45
0.0
 49
-1.0
 74
     4
 75
     0
340
0
 46
1.0
 50
0.0
 44
0.0
 45
0.0
  0
LTYPE
  5
A348
330
19
100
AcDbSymbolTableRecord
100
AcDbLinetypeTableRecord
  2
PHANTOM
 70
     0
  3
----- - - ----- - - ----- - - ----- - - -----
 72
    65
 73
     6
 40
22.5
 49
15.0
 74
     4
 75
     0
340
0
 46
1.0
 50
0.0
 44
0.0
 45
0.0
 49
-1.5
 74
     4
 75
     0
340
0
 46
1.0
 50
0.0
 44
0.0
 45
0.0
 49
1.5
 74
     4
 75
     0
340
0
 46
1.0
 50
0.0
 44
0.0
 45
0.0
 49
-1.5
 74
     4
 75
     0
340
0
 46
1.0
 50
0.0
 44
0.0
 45
0.0
 49
1.5
 74
     4
 75
     0
340
0
 46
1.0
 50
0.0
 44
0.0
 45
0.0
 49
-1.5
 74
     4
 75
     0
340
0
 46
1.0
 50
0.0
 44
0.0
 45
0.0
  0
ENDTAB
  0
TABLE
  2
LAYER
  5
15
102
{ACAD_XDICTIONARY
360
8E1
102
}
330
0
100
AcDbSymbolTable
 70
     6
  0
LAYER
  5
6
330
15
100
AcDbSymbolTableRecord
100
AcDbLayerTableRecord
  2
0
 70
     0
 62
     7
  6
CONTINUOUS
  0
LAYER
  5
34
330
15
100
AcDbSymbolTableRecord
100
AcDbLayerTableRecord
  2
L-ZISSEN
 70
     0
 62
     7
  6
CONTINUOUS
  0
LAYER
  5
31
330
15
100
AcDbSymbolTableRecord
100
AcDbLayerTableRecord
  2
L-TYUSIN
 70
     0
 62
     1
  6
CENTER
  0
LAYER
  5
26
330
15
100
AcDbSymbolTableRecord
100
AcDbLayerTableRecord
  2
SUNPOU
 70
     0
 62
     3
  6
CONTINUOUS
  0
LAYER
  5
9E
330
15
100
AcDbSymbolTableRecord
100
AcDbLayerTableRecord
  2
L-SAISEN
 70
     0
 62
     6
  6
CONTINUOUS
  0
LAYER
  5
A349
330
15
100
AcDbSymbolTableRecord
100
AcDbLayerTableRecord
  2
L-SOUZOU
 70
     0
 62
     2
  6
PHANTOM
  0
ENDTAB
  0
TABLE
  2
STYLE
  5
16
330
0
100
AcDbSymbolTable
 70
     1
  0
STYLE
  5
17
330
16
100
AcDbSymbolTableRecord
100
AcDbTextStyleTableRecord
  2
STANDARD
 70
     0
 40
0.0
 41
1.0
 50
0.0
 71
     0
 42
5.599999999999999
  3
txt.shx
  4

  0
ENDTAB
  0
TABLE
  2
VIEW
  5
1C
330
0
100
AcDbSymbolTable
 70
     0
  0
ENDTAB
  0
TABLE
  2
UCS
  5
1D
330
0
100
AcDbSymbolTable
 70
     0
  0
ENDTAB
  0
TABLE
  2
APPID
  5
20
330
0
100
AcDbSymbolTable
 70
     1
  0
APPID
  5
A
330
20
100
AcDbSymbolTableRecord
100
AcDbRegAppTableRecord
  2
ACAD
 70
     0
  0
ENDTAB
  0
TABLE
  2
DIMSTYLE
  5
21
330
0
100
AcDbSymbolTable
 70
     1
  0
DIMSTYLE
105
28
330
21
100
AcDbSymbolTableRecord
100
AcDbDimStyleTableRecord
  2
STANDARD
 70
     0
  3

  4

  5

  6

  7

 40
1.0
 41
0.18
 42
0.0625
 43
0.38
 44
0.18
 45
0.0
 46
0.0
 47
0.0
 48
0.0
140
0.18
141
0.09
142
0.0
143
25.4
144
1.0
145
0.0
146
1.0
147
0.09
 71
     0
 72
     0
 73
     1
 74
     1
 75
     0
 76
     0
 77
     0
 78
     0
170
     0
171
     2
172
     0
173
     0
174
     0
175
     0
176
     0
177
     0
178
     0
270
     2
271
     4
272
     4
273
     2
274
     2
340
17
275
     0
280
     0
281
     0
282
     0
283
     1
284
     0
285
     0
286
     0
287
     3
288
     0
  0
ENDTAB
  0
TABLE
  2
BLOCK_RECORD
  5
1
330
0
100
AcDbSymbolTable
 70
     0
  0
BLOCK_RECORD
  5
2
102
{ACAD_XDICTIONARY
360
3
102
}
330
1
100
AcDbSymbolTableRecord
100
AcDbBlockTableRecord
  2
*MODEL_SPACE
  0
BLOCK_RECORD
  5
F
102
{ACAD_XDICTIONARY
360
10
102
}
330
1
100
AcDbSymbolTableRecord
100
AcDbBlockTableRecord
  2
*PAPER_SPACE
  0
ENDTAB
  0
ENDSEC
  0
SECTION
  2
BLOCKS
  0
BLOCK
  5
5
330
2
100
AcDbEntity
  8
0
100
AcDbBlockBegin
  2
*MODEL_SPACE
 70
     0
 10
0.0
 20
0.0
 30
0.0
  3
*MODEL_SPACE
  1

  0
ENDBLK
  5
C
330
2
100
AcDbEntity
  8
0
100
AcDbBlockEnd
  0
BLOCK
  5
12
330
F
100
AcDbEntity
 67
     1
  8
0
100
AcDbBlockBegin
  2
*PAPER_SPACE
 70
     0
 10
0.0
 20
0.0
 30
0.0
  3
*PAPER_SPACE
  1

  0
ENDBLK
  5
13
330
F
100
AcDbEntity
 67
     1
  8
0
100
AcDbBlockEnd
  0
ENDSEC
  0
SECTION
  2
ENTITIES
  0
LINE
  5
C6A8
330
2
100
AcDbEntity
  8
L-ZISSEN
100
AcDbLine
 10
1283.305532918629
 20
-2981.129505203884
 30
0.0
 11
1249.991247204342
 21
-2981.129505203884
 31
0.0
  0
ARC
  5
C6A9
330
2
100
AcDbEntity
  8
L-ZISSEN
100
AcDbCircle
 10
1248.970720531823
 20
-3069.858403500747
 30
0.0
 40
42.16762058039566
100
AcDbArc
 50
79.9999999999961
 51
100.0000000000039
  0
ARC
  5
C6AA
330
2
100
AcDbEntity
  8
L-ZISSEN
100
AcDbCircle
 10
1248.970720531823
 20
-2992.523162339955
 30
0.0
 40
42.16762058039566
100
AcDbArc
 50
259.9999999999961
 51
280.0000000000039
  0
LINE
  5
C6AC
330
2
100
AcDbEntity
  8
L-ZISSEN
100
AcDbLine
 10
1240.148390061485
 20
-3047.629505203881
 30
0.0
 11
1293.148390061485
 21
-3047.629505203881
 31
0.0
  0
LINE
  5
C6AD
330
2
100
AcDbEntity
  8
L-SOUZOU
100
AcDbLine
 10
1219.919818632916
 20
-3034.690782920351
 30
0.0
 11
1293.148390061485
 21
-3034.690782920351
 31
0.0
  0
LINE
  5
C6AF
330
2
100
AcDbEntity
  8
L-ZISSEN
100
AcDbLine
 10
1280.276961490055
 20
-3054.129505203881
 30
0.0
 11
1253.019818632914
 21
-3054.129505203881
 31
0.0
  0
LINE
  5
C6B0
330
2
100
AcDbEntity
  8
L-ZISSEN
100
AcDbLine
 10
1246.926945954641
 20
-3026.70675454114
 30
0.0
 11
1286.369834168332
 21
-3026.70675454114
 31
0.0
  0
LINE
  5
C6B1
330
2
100
AcDbEntity
  8
L-ZISSEN
100
AcDbLine
 10
1250.369818632915
 20
-3022.015219283619
 30
0.0
 11
1282.926961490058
 21
-3022.015219283619
 31
0.0
  0
LINE
  5
C6B2
330
2
100
AcDbEntity
  8
L-ZISSEN
100
AcDbLine
 10
1248.961718688324
 20
-3020.803790918169
 30
0.0
 11
1266.648390061486
 21
-3020.803790918169
 31
0.0
  0
LINE
  5
C6B3
330
2
100
AcDbEntity
  8
L-ZISSEN
100
AcDbLine
 10
1293.148390061485
 20
-3036.129505203882
 30
0.0
 11
1240.148390061485
 21
-3036.129505203882
 31
0.0
  0
LINE
  5
C6B6
330
2
100
AcDbEntity
  8
L-ZISSEN
100
AcDbLine
 10
1284.32605959115
 20
-3027.690782920351
 30
0.0
 11
1248.970720531823
 21
-3027.690782920351
 31
0.0
  0
LINE
  5
C6B7
330
2
100
AcDbEntity
  8
L-ZISSEN
100
AcDbLine
 10
1284.32605959115
 20
-3034.690782920351
 30
0.0
 11
1248.970720531823
 21
-3034.690782920351
 31
0.0
  0
LINE
  5
C6B8
330
2
100
AcDbEntity
  8
L-SOUZOU
100
AcDbLine
 10
1218.405532918631
 20
-3036.129505203885
 30
0.0
 11
1293.148390061485
 21
-3036.129505203881
 31
0.0
  0
LINE
  5
C6B9
330
2
100
AcDbEntity
  8
L-TYUSIN
100
AcDbLine
 10
1237.648390061486
 20
-3068.129505203882
 30
0.0
 11
1331.148390061486
 21
-3068.129505203882
 31
0.0
  0
LINE
  5
C6BA
330
2
100
AcDbEntity
  8
L-SOUZOU
100
AcDbLine
 10
1219.162675775775
 20
-3014.129505203881
 30
0.0
 11
1219.162675775775
 21
-3033.933640063208
 31
0.0
  0
LINE
  5
C6BB
330
2
100
AcDbEntity
  8
L-SOUZOU
100
AcDbLine
 10
1217.648390061486
 20
-3014.129505203881
 30
0.0
 11
1217.648390061486
 21
-3035.372362346741
 31
0.0
  0
ARC
  5
C6C0
330
2
100
AcDbEntity
  8
L-SOUZOU
100
AcDbCircle
 10
1218.405532918631
 20
-3035.372362346741
 30
0.0
 40
0.7571428571430269
100
AcDbArc
 50
180.0
 51
270.0
  0
ARC
  5
C6C1
330
2
100
AcDbEntity
  8
L-SOUZOU
100
AcDbCircle
 10
1219.919818632916
 20
-3033.933640063208
 30
0.0
 40
0.7571428571430269
100
AcDbArc
 50
180.0
 51
270.0
  0
LINE
  5
C6C2
330
2
100
AcDbEntity
  8
L-ZISSEN
100
AcDbLine
 10
1247.778023548694
 20
-3036.129505203883
 30
0.0
 11
1247.778023548694
 21
-3041.129505203882
 31
0.0
  0
LINE
  5
C6C3
330
2
100
AcDbEntity
  8
L-ZISSEN
100
AcDbLine
 10
1244.423136851521
 20
-3038.025762532754
 30
0.0
 11
1244.423136851521
 21
-3038.771558644103
 31
0.0
  0
LINE
  5
C6C4
330
2
100
AcDbEntity
  8
L-ZISSEN
100
AcDbLine
 10
1246.515637300259
 20
-3040.263989530604
 30
0.0
 11
1246.515637300257
 21
-3041.129505203882
 31
0.0
  0
LINE
  5
C6C5
330
2
100
AcDbEntity
  8
L-ZISSEN
100
AcDbLine
 10
1241.410776309918
 20
-3041.129505203882
 30
0.0
 11
1241.410776309918
 21
-3040.263989530604
 31
0.0
  0
LINE
  5
C6C6
330
2
100
AcDbEntity
  8
L-ZISSEN
100
AcDbLine
 10
1243.503276758658
 20
-3038.771558644103
 30
0.0
 11
1243.503276758658
 21
-3038.025762532754
 31
0.0
  0
LINE
  5
C6C7
330
2
100
AcDbEntity
  8
L-ZISSEN
100
AcDbLine
 10
1246.515637300257
 20
-3041.129505203882
 30
0.0
 11
1241.410776309918
 21
-3041.129505203882
 31
0.0
  0
LINE
  5
C6C8
330
2
100
AcDbEntity
  8
L-ZISSEN
100
AcDbLine
 10
1241.410776309918
 20
-3040.263989530604
 30
0.0
 11
1246.515637300259
 21
-3040.263989530604
 31
0.0
  0
LINE
  5
C6C9
330
2
100
AcDbEntity
  8
L-ZISSEN
100
AcDbLine
 10
1244.423136851521
 20
-3038.771558644103
 30
0.0
 11
1243.503276758658
 21
-3038.771558644103
 31
0.0
  0
ARC
  5
C6CA
330
2
100
AcDbEntity
  8
L-ZISSEN
100
AcDbCircle
 10
1244.467747132914
 20
-3040.081301171827
 30
0.0
 40
2.05602265890528
100
AcDbArc
 50
354.9022474682888
 51
91.24326520780831
  0
LINE
  5
C6CB
330
2
100
AcDbEntity
  8
L-ZISSEN
100
AcDbLine
 10
1241.648390061486
 20
-3028.331403827096
 30
0.0
 11
1241.648390061486
 21
-3034.050162013606
 31
0.0
  0
LINE
  5
C6CC
330
2
100
AcDbEntity
  8
L-ZISSEN
100
AcDbLine
 10
1240.148390061485
 20
-3041.549611683997
 30
0.0
 11
1240.148390061485
 21
-3036.129505203884
 31
0.0
  0
LINE
  5
C6CD
330
2
100
AcDbEntity
  8
L-ZISSEN
100
AcDbLine
 10
1240.148390061485
 20
-3041.549611683997
 30
0.0
 11
1240.148390061485
 21
-3050.708076632455
 31
0.0
  0
LINE
  5
C6CE
330
2
100
AcDbEntity
  8
L-ZISSEN
100
AcDbLine
 10
1247.778023548694
 20
-3041.129505203882
 30
0.0
 11
1240.148390061485
 21
-3041.129505203882
 31
0.0
  0
ARC
  5
C6CF
330
2
100
AcDbEntity
  8
L-ZISSEN
100
AcDbCircle
 10
1243.458666477262
 20
-3040.081301171827
 30
0.0
 40
2.056022658905709
100
AcDbArc
 50
88.75673479208749
 51
185.0977525317111
  0
LINE
  5
C6D1
330
2
100
AcDbEntity
  8
L-ZISSEN
100
AcDbLine
 10
1242.648390061486
 20
-3059.129505203881
 30
0.0
 11
1242.648390061486
 21
-3077.629505203882
 31
0.0
  0
ARC
  5
C6D3
330
2
100
AcDbEntity
  8
L-ZISSEN
100
AcDbCircle
 10
1240.526961490056
 20
-3058.75093377531
 30
0.0
 40
0.3785714285715134
100
AcDbArc
 50
180.0
 51
270.0
  0
ARC
  5
C6D4
330
2
100
AcDbEntity
  8
L-ZISSEN
100
AcDbCircle
 10
1240.526961490056
 20
-3058.75093377531
 30
0.0
 40
0.3785714285715134
100
AcDbArc
 50
180.0
 51
270.0
  0
LINE
  5
C6D5
330
2
100
AcDbEntity
  8
L-ZISSEN
100
AcDbLine
 10
1240.526961490056
 20
-3059.129505203881
 30
0.0
 11
1253.019818632914
 21
-3059.129505203881
 31
0.0
  0
LINE
  5
C6D6
330
2
100
AcDbEntity
  8
L-ZISSEN
100
AcDbLine
 10
1240.148390061485
 20
-3050.708076632455
 30
0.0
 11
1240.148390061485
 21
-3058.75093377531
 31
0.0
  0
LINE
  5
C6D8
330
2
100
AcDbEntity
  8
L-ZISSEN
100
AcDbLine
 10
1253.019818632914
 20
-3047.629505203881
 30
0.0
 11
1253.019818632914
 21
-3095.129505203882
 31
0.0
  0
LINE
  5
C6DA
330
2
100
AcDbEntity
  8
L-TYUSIN
100
AcDbLine
 10
1216.056649415122
 20
-3023.129505203881
 30
0.0
 11
1221.214126360142
 21
-3023.129505203881
 31
0.0
  0
LINE
  5
C6DB
330
2
100
AcDbEntity
  8
L-ZISSEN
100
AcDbLine
 10
1248.476961490055
 20
-2982.946648061027
 30
0.0
 11
1249.991247204342
 21
-2981.129505203884
 31
0.0
  0
LINE
  5
C6DC
330
2
100
AcDbEntity
  8
L-ZISSEN
100
AcDbLine
 10
1251.316247204341
 20
-3020.771486661026
 30
0.0
 11
1251.316247204341
 21
-3022.015219283619
 31
0.0
  0
ARC
  5
C6DD
330
2
100
AcDbEntity
  8
L-ZISSEN
100
AcDbCircle
 10
1249.65450280661
 20
-3019.200726283475
 30
0.0
 40
1.746357940845932
100
AcDbArc
 50
181.899368244253
 51
246.6278188173623
  0
LINE
  5
C6DE
330
2
100
AcDbEntity
  8
L-SAISEN
100
AcDbLine
 10
1246.926945954641
 20
-3026.70675454114
 30
0.0
 11
1246.926945954641
 21
-3027.740340737962
 31
0.0
  0
LINE
  5
C6DF
330
2
100
AcDbEntity
  8
L-ZISSEN
100
AcDbLine
 10
1250.369818632915
 20
-3022.01521928362
 30
0.0
 11
1250.369818632915
 21
-3026.70675454114
 31
0.0
  0
LINE
  5
C6E0
330
2
100
AcDbEntity
  8
L-ZISSEN
100
AcDbLine
 10
1245.648390061486
 20
-3027.260557491551
 30
0.0
 11
1245.648390061486
 21
-3027.821867658006
 31
0.0
  0
LINE
  5
C6E1
330
2
100
AcDbEntity
  8
L-ZISSEN
100
AcDbLine
 10
1246.926945954641
 20
-3026.70675454114
 30
0.0
 11
1245.648390061486
 21
-3027.260557491551
 31
0.0
  0
LINE
  5
C6E2
330
2
100
AcDbEntity
  8
L-ZISSEN
100
AcDbLine
 10
1248.476961490055
 20
-2982.946648061027
 30
0.0
 11
1247.909104347198
 21
-3019.258607847394
 31
0.0
  0
ARC
  5
C6E3
330
2
100
AcDbEntity
  8
L-ZISSEN
100
AcDbCircle
 10
1284.32605959115
 20
-3069.858403500747
 30
0.0
 40
42.16762058039566
100
AcDbArc
 50
79.9999999999961
 51
100.0000000000039
  0
ARC
  5
C6E4
330
2
100
AcDbEntity
  8
L-ZISSEN
100
AcDbCircle
 10
1266.648390061486
 20
-3111.705713627769
 30
0.0
 40
84.01493070741805
100
AcDbArc
 50
82.91995048528574
 51
97.08004951471428
  0
LINE
  5
C6E5
330
2
100
AcDbEntity
  8
L-TYUSIN
100
AcDbLine
 10
1266.648390061486
 20
-3191.129505203882
 30
0.0
 11
1266.648390061486
 21
-2976.129505203884
 31
0.0
  0
LINE
  5
C6E6
330
2
100
AcDbEntity
  8
L-SOUZOU
100
AcDbLine
 10
1302.648390061486
 20
-3047.729505203881
 30
0.0
 11
1317.148390061486
 21
-3047.729505203881
 31
0.0
  0
LINE
  5
C6E7
330
2
100
AcDbEntity
  8
L-SOUZOU
100
AcDbLine
 10
1302.648390061486
 20
-3088.529505203882
 30
0.0
 11
1317.148390061486
 21
-3088.529505203882
 31
0.0
  0
ARC
  5
C6E8
330
2
100
AcDbEntity
  8
L-SOUZOU
100
AcDbCircle
 10
1302.648390061486
 20
-3087.029505203882
 30
0.0
 40
1.5
100
AcDbArc
 50
180.0
 51
270.0
  0
ARC
  5
C6F5
330
2
100
AcDbEntity
  8
L-ZISSEN
100
AcDbCircle
 10
1284.32605959115
 20
-2992.523162339955
 30
0.0
 40
42.16762058039566
100
AcDbArc
 50
259.9999999999961
 51
280.0000000000039
  0
LINE
  5
C6F7
330
2
100
AcDbEntity
  8
L-ZISSEN
100
AcDbLine
 10
1292.769818632914
 20
-3059.129505203881
 30
0.0
 11
1280.276961490058
 21
-3059.129505203881
 31
0.0
  0
LINE
  5
C6F8
330
2
100
AcDbEntity
  8
L-ZISSEN
100
AcDbLine
 10
1277.003729120814
 20
-3028.331403827096
 30
0.0
 11
1277.003729120814
 21
-3034.050162013606
 31
0.0
  0
LINE
  5
C6FB
330
2
100
AcDbEntity
  8
L-ZISSEN
100
AcDbLine
 10
1280.276961490055
 20
-3052.600933775312
 30
0.0
 11
1280.276961490055
 21
-3055.250933775312
 31
0.0
  0
LINE
  5
C6FC
330
2
100
AcDbEntity
  8
L-ZISSEN
100
AcDbLine
 10
1280.276961490055
 20
-3047.629505203881
 30
0.0
 11
1280.276961490059
 21
-3095.129505203882
 31
0.0
  0
LINE
  5
C6FD
330
2
100
AcDbEntity
  8
L-ZISSEN
100
AcDbLine
 10
1256.293051002159
 20
-3028.331403827096
 30
0.0
 11
1256.293051002159
 21
-3034.050162013606
 31
0.0
  0
CIRCLE
  5
C6FE
330
2
100
AcDbEntity
  8
L-SAISEN
100
AcDbCircle
 10
1266.648390061486
 20
-3068.129505203882
 30
0.0
 40
7.934857142857117
  0
CIRCLE
  5
C6FF
330
2
100
AcDbEntity
  8
L-ZISSEN
100
AcDbCircle
 10
1266.648390061486
 20
-3068.129505203882
 30
0.0
 40
7.052785714285691
  0
ARC
  5
C701
330
2
100
AcDbEntity
  8
L-ZISSEN
100
AcDbCircle
 10
1266.648390061486
 20
-2950.675852212933
 30
0.0
 40
84.01493070741805
100
AcDbArc
 50
262.9199504852857
 51
277.0800495147142
  0
ARC
  5
C703
330
2
100
AcDbEntity
  8
L-SOUZOU
100
AcDbCircle
 10
1302.648390061486
 20
-3049.229505203881
 30
0.0
 40
1.5
100
AcDbArc
 50
90.0
 51
180.0
  0
LINE
  5
C704
330
2
100
AcDbEntity
  8
L-ZISSEN
100
AcDbLine
 10
1293.148390061485
 20
-3041.549611683997
 30
0.0
 11
1293.148390061485
 21
-3036.129505203882
 31
0.0
  0
LINE
  5
C705
330
2
100
AcDbEntity
  8
L-ZISSEN
100
AcDbLine
 10
1291.886003813049
 20
-3040.263989530604
 30
0.0
 11
1291.886003813049
 21
-3041.129505203882
 31
0.0
  0
LINE
  5
C706
330
2
100
AcDbEntity
  8
L-SOUZOU
 48
0.5
100
AcDbLine
 10
1293.148390061485
 20
-3034.690782920351
 30
0.0
 11
1293.148390061485
 21
-3036.117179070106
 31
0.0
  0
LINE
  5
C707
330
2
100
AcDbEntity
  8
L-ZISSEN
100
AcDbLine
 10
1289.793503364311
 20
-3038.025762532754
 30
0.0
 11
1289.793503364311
 21
-3038.771558644103
 31
0.0
  0
LINE
  5
C708
330
2
100
AcDbEntity
  8
L-ZISSEN
100
AcDbLine
 10
1288.873643271452
 20
-3038.771558644103
 30
0.0
 11
1288.873643271452
 21
-3038.025762532754
 31
0.0
  0
LINE
  5
C709
330
2
100
AcDbEntity
  8
L-ZISSEN
100
AcDbLine
 10
1289.793503364311
 20
-3038.771558644103
 30
0.0
 11
1288.873643271452
 21
-3038.771558644103
 31
0.0
  0
LINE
  5
C70A
330
2
100
AcDbEntity
  8
L-ZISSEN
100
AcDbLine
 10
1285.518756574275
 20
-3036.129505203882
 30
0.0
 11
1285.518756574275
 21
-3041.129505203882
 31
0.0
  0
LINE
  5
C70B
330
2
100
AcDbEntity
  8
L-ZISSEN
100
AcDbLine
 10
1286.781142822711
 20
-3041.129505203882
 30
0.0
 11
1286.781142822711
 21
-3040.263989530604
 31
0.0
  0
ARC
  5
C70C
330
2
100
AcDbEntity
  8
L-ZISSEN
100
AcDbCircle
 10
1288.829032990055
 20
-3040.081301171827
 30
0.0
 40
2.056022658905709
100
AcDbArc
 50
88.7567347921917
 51
185.0977525317111
  0
LINE
  5
C70D
330
2
100
AcDbEntity
  8
L-ZISSEN
100
AcDbLine
 10
1285.518756574275
 20
-3041.129505203882
 30
0.0
 11
1293.148390061485
 21
-3041.129505203882
 31
0.0
  0
LINE
  5
C70E
330
2
100
AcDbEntity
  8
L-ZISSEN
100
AcDbLine
 10
1291.886003813049
 20
-3041.129505203882
 30
0.0
 11
1286.781142822711
 21
-3041.129505203882
 31
0.0
  0
LINE
  5
C70F
330
2
100
AcDbEntity
  8
L-ZISSEN
100
AcDbLine
 10
1286.781142822711
 20
-3040.263989530604
 30
0.0
 11
1291.886003813049
 21
-3040.263989530604
 31
0.0
  0
ARC
  5
C710
330
2
100
AcDbEntity
  8
L-ZISSEN
100
AcDbCircle
 10
1289.838113645708
 20
-3040.081301171827
 30
0.0
 40
2.056022658904637
100
AcDbArc
 50
354.9022474682888
 51
91.24326520780831
  0
LINE
  5
C711
330
2
100
AcDbEntity
  8
L-ZISSEN
100
AcDbLine
 10
1293.148390061485
 20
-3041.549611683997
 30
0.0
 11
1293.148390061485
 21
-3050.708076632455
 31
0.0
  0
LINE
  5
C712
330
2
100
AcDbEntity
  8
L-ZISSEN
100
AcDbLine
 10
1291.648390061486
 20
-3032.067523162241
 30
0.0
 11
1291.648390061486
 21
-3028.331403827096
 31
0.0
  0
LINE
  5
C713
330
2
100
AcDbEntity
  8
L-ZISSEN
100
AcDbLine
 10
1291.648390061486
 20
-3028.331403827096
 30
0.0
 11
1291.648390061486
 21
-3034.050162013606
 31
0.0
  0
LINE
  5
C714
330
2
100
AcDbEntity
  8
L-SOUZOU
100
AcDbLine
 10
1293.648390061486
 20
-3063.725561410214
 30
0.0
 11
1294.253294262448
 21
-3063.120657209253
 31
0.0
  0
LINE
  5
C715
330
2
100
AcDbEntity
  8
L-SOUZOU
100
AcDbLine
 10
1290.648390061486
 20
-3063.819316095326
 30
0.0
 11
1293.648390061486
 21
-3063.725561410214
 31
0.0
  0
LINE
  5
C716
330
2
100
AcDbEntity
  8
L-SOUZOU
100
AcDbLine
 10
1290.648390061486
 20
-3063.233316095326
 30
0.0
 11
1295.148390061486
 21
-3063.092684067658
 31
0.0
  0
LINE
  5
C717
330
2
100
AcDbEntity
  8
L-SOUZOU
100
AcDbLine
 10
1293.648390061486
 20
-3072.533448997549
 30
0.0
 11
1294.253294262448
 21
-3073.13835319851
 31
0.0
  0
LINE
  5
C719
330
2
100
AcDbEntity
  8
L-SOUZOU
100
AcDbLine
 10
1290.648390061486
 20
-3072.439694312437
 30
0.0
 11
1293.648390061486
 21
-3072.533448997549
 31
0.0
  0
LINE
  5
C71A
330
2
100
AcDbEntity
  8
L-SOUZOU
100
AcDbLine
 10
1290.648390061486
 20
-3073.025694312437
 30
0.0
 11
1295.148390061486
 21
-3073.166326340105
 31
0.0
  0
LINE
  5
C71B
330
2
100
AcDbEntity
  8
L-ZISSEN
100
AcDbLine
 10
1290.648390061486
 20
-3059.129505203881
 30
0.0
 11
1290.648390061486
 21
-3077.629505203882
 31
0.0
  0
LINE
  5
C71C
330
2
100
AcDbEntity
  8
L-SOUZOU
100
AcDbLine
 10
1295.148390061486
 20
-3062.779505203882
 30
0.0
 11
1295.148390061486
 21
-3073.479505203881
 31
0.0
  0
LINE
  5
C71D
330
2
100
AcDbEntity
  8
L-SOUZOU
100
AcDbLine
 10
1293.648390061486
 20
-3063.139561410214
 30
0.0
 11
1293.648390061486
 21
-3073.119448997549
 31
0.0
  0
LINE
  5
C71F
330
2
100
AcDbEntity
  8
L-SOUZOU
100
AcDbLine
 10
1301.148390061486
 20
-3062.779505203882
 30
0.0
 11
1295.148390061486
 21
-3062.779505203882
 31
0.0
  0
LINE
  5
C720
330
2
100
AcDbEntity
  8
L-SOUZOU
100
AcDbLine
 10
1295.148390061486
 20
-3073.479505203881
 30
0.0
 11
1301.148390061486
 21
-3073.479505203881
 31
0.0
  0
LINE
  5
C721
330
2
100
AcDbEntity
  8
L-ZISSEN
100
AcDbLine
 10
1293.148390061488
 20
-3050.708076632455
 30
0.0
 11
1293.148390061488
 21
-3058.75093377531
 31
0.0
  0
LINE
  5
C722
330
2
100
AcDbEntity
  8
L-SOUZOU
100
AcDbLine
 10
1301.148390061486
 20
-3049.229505203881
 30
0.0
 11
1301.148390061486
 21
-3087.029505203882
 31
0.0
  0
ARC
  5
C723
330
2
100
AcDbEntity
  8
L-SOUZOU
100
AcDbCircle
 10
1324.648390061486
 20
-3087.629505203882
 30
0.0
 40
1.5
100
AcDbArc
 50
270.0
 51
0.0
  0
LINE
  5
C724
330
2
100
AcDbEntity
  8
L-SOUZOU
100
AcDbLine
 10
1317.148390061486
 20
-3047.129505203882
 30
0.0
 11
1317.148390061486
 21
-3089.129505203882
 31
0.0
  0
LINE
  5
C725
330
2
100
AcDbEntity
  8
L-SOUZOU
100
AcDbLine
 10
1317.148390061486
 20
-3089.129505203882
 30
0.0
 11
1324.648390061486
 21
-3089.129505203882
 31
0.0
  0
ARC
  5
C726
330
2
100
AcDbEntity
  8
L-SOUZOU
100
AcDbCircle
 10
1324.648390061486
 20
-3048.629505203882
 30
0.0
 40
1.5
100
AcDbArc
 50
0.0
 51
90.0
  0
LINE
  5
C727
330
2
100
AcDbEntity
  8
L-SOUZOU
100
AcDbLine
 10
1317.148390061486
 20
-3047.129505203882
 30
0.0
 11
1324.648390061486
 21
-3047.129505203882
 31
0.0
  0
LINE
  5
C728
330
2
100
AcDbEntity
  8
L-SOUZOU
100
AcDbLine
 10
1326.148390061486
 20
-3048.629505203882
 30
0.0
 11
1326.148390061486
 21
-3087.629505203882
 31
0.0
  0
LINE
  5
C729
330
2
100
AcDbEntity
  8
L-ZISSEN
100
AcDbLine
 10
1284.335061434646
 20
-3020.803790918169
 30
0.0
 11
1266.648390061486
 21
-3020.803790918169
 31
0.0
  0
LINE
  5
C72A
330
2
100
AcDbEntity
  8
L-ZISSEN
100
AcDbLine
 10
1284.819818632912
 20
-2982.946648061027
 30
0.0
 11
1283.305532918629
 21
-2981.129505203884
 31
0.0
  0
LINE
  5
C72B
330
2
100
AcDbEntity
  8
L-ZISSEN
100
AcDbLine
 10
1287.648390061486
 20
-3027.260557491551
 30
0.0
 11
1287.648390061486
 21
-3027.821867658006
 31
0.0
  0
LINE
  5
C72C
330
2
100
AcDbEntity
  8
L-SAISEN
100
AcDbLine
 10
1286.369834168332
 20
-3026.70675454114
 30
0.0
 11
1286.369834168332
 21
-3027.740340737962
 31
0.0
  0
LINE
  5
C72D
330
2
100
AcDbEntity
  8
L-ZISSEN
100
AcDbLine
 10
1286.369834168332
 20
-3026.70675454114
 30
0.0
 11
1287.648390061486
 21
-3027.260557491551
 31
0.0
  0
LINE
  5
C72E
330
2
100
AcDbEntity
  8
L-ZISSEN
100
AcDbLine
 10
1281.980532918626
 20
-3020.771486661026
 30
0.0
 11
1281.980532918626
 21
-3022.015219283619
 31
0.0
  0
LINE
  5
C72F
330
2
100
AcDbEntity
  8
L-ZISSEN
100
AcDbLine
 10
1282.926961490058
 20
-3022.01521928362
 30
0.0
 11
1282.926961490058
 21
-3026.70675454114
 31
0.0
  0
ARC
  5
C730
330
2
100
AcDbEntity
  8
L-ZISSEN
100
AcDbCircle
 10
1283.64227731636
 20
-3019.200726283475
 30
0.0
 40
1.746357940846056
100
AcDbArc
 50
293.3721811826377
 51
358.100631755747
  0
LINE
  5
C731
330
2
100
AcDbEntity
  8
L-ZISSEN
100
AcDbLine
 10
1284.819818632912
 20
-2982.946648061027
 30
0.0
 11
1285.387675775769
 21
-3019.258607847394
 31
0.0
  0
ARC
  5
C732
330
2
100
AcDbEntity
  8
L-ZISSEN
100
AcDbCircle
 10
1292.769818632916
 20
-3058.75093377531
 30
0.0
 40
0.3785714285715134
100
AcDbArc
 50
270.0
 51
0.000000000000007
  0
ARC
  5
C733
330
2
100
AcDbEntity
  8
L-ZISSEN
100
AcDbCircle
 10
1292.769818632916
 20
-3058.75093377531
 30
0.0
 40
0.3785714285715134
100
AcDbArc
 50
270.0
 51
0.000000000000007
  0
LINE
  5
C7A7
330
2
100
AcDbEntity
  8
L-ZISSEN
100
AcDbLine
 10
1293.148390061485
 20
-3095.129505203882
 30
0.0
 11
1240.148390061485
 21
-3095.129505203882
 31
0.0
  0
LINE
  5
C7A8
330
2
100
AcDbEntity
  8
L-ZISSEN
100
AcDbLine
 10
1291.414068980217
 20
-3115.677049670144
 30
0.0
 11
1291.435075423419
 21
-3095.129505203882
 31
0.0
  0
LINE
  5
C7A9
330
2
100
AcDbEntity
  8
L-ZISSEN
100
AcDbLine
 10
1287.824715418452
 20
-3095.736364530866
 30
0.0
 11
1287.824715418452
 21
-3111.389258930866
 31
0.0
  0
LINE
  5
C7AA
330
2
100
AcDbEntity
  8
L-ZISSEN
100
AcDbLine
 10
1293.074409364102
 20
-3095.372343730867
 30
0.0
 11
1293.074409364102
 21
-3110.661217330866
 31
0.0
  0
LINE
  5
C7AB
330
2
100
AcDbEntity
  8
L-ZISSEN
100
AcDbLine
 10
1289.449327628122
 20
-3163.07904802645
 30
0.0
 11
1289.449327628123
 21
-3111.389258930866
 31
0.0
  0
LINE
  5
C7AC
330
2
100
AcDbEntity
  8
L-ZISSEN
100
AcDbLine
 10
1285.875613342409
 20
-3101.475801404261
 30
0.0
 11
1279.492899056694
 21
-3101.475801404261
 31
0.0
  0
LINE
  5
C7AD
330
2
100
AcDbEntity
  8
L-ZISSEN
100
AcDbLine
 10
1287.824715418452
 20
-3111.389258930866
 30
0.0
 11
1291.414068980217
 21
-3111.389258930866
 31
0.0
  0
ARC
  5
C7AE
330
2
100
AcDbEntity
  8
L-ZISSEN
100
AcDbCircle
 10
1279.145867401362
 20
-3111.983430275493
 30
0.0
 40
12.28258155137619
100
AcDbArc
 50
327.020737907156
 51
2.772772323679433
  0
LINE
  5
C7AF
330
2
100
AcDbEntity
  8
L-ZISSEN
100
AcDbLine
 10
1291.414068980217
 20
-3111.389258930866
 30
0.0
 11
1289.434201364102
 21
-3111.389258930866
 31
0.0
  0
LINE
  5
C7B0
330
2
100
AcDbEntity
  8
L-ZISSEN
100
AcDbLine
 10
1289.449327628123
 20
-3111.389258930866
 30
0.0
 11
1289.449327628123
 21
-3124.936066315062
 31
0.0
  0
LINE
  5
C7B1
330
2
100
AcDbEntity
  8
L-ZISSEN
100
AcDbLine
 10
1295.986575764102
 20
-3111.145319714889
 30
0.0
 11
1295.986575764102
 21
-3114.26437295565
 31
0.0
  0
LINE
  5
C7B2
330
2
100
AcDbEntity
  8
L-ZISSEN
100
AcDbLine
 10
1291.982346964102
 20
-3115.677049670144
 30
0.0
 11
1291.414068980217
 21
-3115.677049670144
 31
0.0
  0
LINE
  5
C7B3
330
2
100
AcDbEntity
  8
L-ZISSEN
100
AcDbLine
 10
1293.074409364102
 20
-3110.661217330866
 30
0.0
 11
1295.986575764102
 21
-3111.145319714889
 31
0.0
  0
LINE
  5
C7B4
330
2
100
AcDbEntity
  8
L-ZISSEN
100
AcDbLine
 10
1295.986575764102
 20
-3114.26437295565
 30
0.0
 11
1291.982346964102
 21
-3115.677049670144
 31
0.0
  0
LINE
  5
C7B5
330
2
100
AcDbEntity
  8
L-ZISSEN
100
AcDbLine
 10
1279.492899056694
 20
-3101.475801404261
 30
0.0
 11
1279.492899056694
 21
-3153.932866871838
 31
0.0
  0
LINE
  5
C7B6
330
2
100
AcDbEntity
  8
L-ZISSEN
100
AcDbLine
 10
1285.875613342409
 20
-3101.475801404261
 30
0.0
 11
1285.875613342408
 21
-3153.932866871839
 31
0.0
  0
ARC
  5
C7B7
330
2
100
AcDbEntity
  8
L-ZISSEN
100
AcDbCircle
 10
1250.077899056694
 20
-3163.07904802645
 30
0.0
 40
6.057142857143116
100
AcDbArc
 50
180.0
 51
256.0937629349095
  0
LINE
  5
C7B8
330
2
100
AcDbEntity
  8
L-ZISSEN
100
AcDbLine
 10
1271.18325619955
 20
-3171.859115821716
 30
0.0
 11
1271.815450026581
 21
-3171.859115821716
 31
0.0
  0
ARC
  5
C7B9
330
2
100
AcDbEntity
  8
L-ZISSEN
100
AcDbCircle
 10
1271.722885587835
 20
-3175.849192266665
 30
0.0
 40
3.991149986138392
100
AcDbArc
 50
64.28835488517385
 51
115.2591066833831
  0
ARC
  5
C7BA
330
2
100
AcDbEntity
  8
L-ZISSEN
100
AcDbCircle
 10
1271.722885587835
 20
-3170.140467948197
 30
0.0
 40
3.991149986138198
100
AcDbArc
 50
244.7408933166168
 51
295.7116451148261
  0
LINE
  5
C7BB
330
2
100
AcDbEntity
  8
L-ZISSEN
100
AcDbLine
 10
1273.454684770979
 20
-3171.752776016429
 30
0.0
 11
1271.18325619955
 21
-3171.752776016429
 31
0.0
  0
LINE
  5
C7BC
330
2
100
AcDbEntity
  8
L-ZISSEN
100
AcDbLine
 10
1269.648390061486
 20
-3176.070670614373
 30
0.0
 11
1272.148390061486
 21
-3176.070670614373
 31
0.0
  0
LINE
  5
C7BD
330
2
100
AcDbEntity
  8
L-ZISSEN
100
AcDbLine
 10
1266.640399056695
 20
-3174.130544393146
 30
0.0
 11
1271.815450026574
 21
-3174.130544393146
 31
0.0
  0
LINE
  5
C7BE
330
2
100
AcDbEntity
  8
L-ZISSEN
100
AcDbLine
 10
1261.813613342409
 20
-3171.752776016429
 30
0.0
 11
1272.79218477098
 21
-3171.752776016429
 31
0.0
  0
LINE
  5
C7BF
330
2
100
AcDbEntity
  8
L-ZISSEN
100
AcDbLine
 10
1273.549327628123
 20
-3170.841477616327
 30
0.0
 11
1259.731470485265
 21
-3170.841477616327
 31
0.0
  0
LINE
  5
C7C0
330
2
100
AcDbEntity
  8
L-ZISSEN
100
AcDbLine
 10
1272.348390061486
 20
-3186.129505203882
 30
0.0
 11
1260.948390061487
 21
-3186.129505203882
 31
0.0
  0
ARC
  5
C7C1
330
2
100
AcDbEntity
  8
L-ZISSEN
100
AcDbCircle
 10
1266.735041913837
 20
-3095.802063145737
 30
0.0
 40
75.36553414422357
100
AcDbArc
 50
256.0937629349095
 51
264.6679223051352
  0
LINE
  5
C7C2
330
2
100
AcDbEntity
  8
L-ZISSEN
100
AcDbLine
 10
1269.33899309098
 20
-3171.752776016429
 30
0.0
 11
1270.206976816693
 21
-3171.752776016429
 31
0.0
  0
LINE
  5
C7C3
330
2
100
AcDbEntity
  8
L-ZISSEN
100
AcDbLine
 10
1270.019812039007
 20
-3172.239646769078
 30
0.0
 11
1270.019812039007
 21
-3173.750013445782
 31
0.0
  0
LINE
  5
C7C4
330
2
100
AcDbEntity
  8
L-ZISSEN
100
AcDbLine
 10
1268.91182762812
 20
-3171.859115821716
 30
0.0
 11
1268.91182762812
 21
-3171.752776016429
 31
0.0
  0
LINE
  5
C7C5
330
2
100
AcDbEntity
  8
L-ZISSEN
100
AcDbLine
 10
1264.368970485266
 20
-3171.859115821716
 30
0.0
 11
1264.368970485266
 21
-3171.752776016429
 31
0.0
  0
LINE
  5
C7C6
330
2
100
AcDbEntity
  8
L-ZISSEN
100
AcDbLine
 10
1264.131090736694
 20
-3171.752776016429
 30
0.0
 11
1263.26310701098
 21
-3171.752776016429
 31
0.0
  0
LINE
  5
C7C7
330
2
100
AcDbEntity
  8
L-ZISSEN
100
AcDbLine
 10
1263.21089298734
 20
-3172.240048898449
 30
0.0
 11
1263.210892987343
 21
-3173.749611316413
 31
0.0
  0
LINE
  5
C7C8
330
2
100
AcDbEntity
  8
L-ZISSEN
100
AcDbLine
 10
1260.677899056693
 20
-3171.752776016429
 30
0.0
 11
1261.813613342409
 21
-3171.752776016429
 31
0.0
  0
LINE
  5
C7C9
330
2
100
AcDbEntity
  8
L-ZISSEN
100
AcDbLine
 10
1259.920756199549
 20
-3171.752776016429
 30
0.0
 11
1259.920756199549
 21
-3170.841477616327
 31
0.0
  0
LINE
  5
C7CA
330
2
100
AcDbEntity
  8
L-ZISSEN
100
AcDbLine
 10
1259.826383172914
 20
-3172.230318183244
 30
0.0
 11
1259.826383172914
 21
-3173.759342031616
 31
0.0
  0
ARC
  5
C7CB
330
2
100
AcDbEntity
  8
L-ZISSEN
100
AcDbCircle
 10
1261.508245804196
 20
-3175.849795535205
 30
0.0
 40
3.991149986138121
100
AcDbArc
 50
64.7476610033456
 51
114.9228807252212
  0
ARC
  5
C7CC
330
2
100
AcDbEntity
  8
L-ZISSEN
100
AcDbCircle
 10
1261.508245804196
 20
-3170.139864679656
 30
0.0
 40
3.991149986138101
100
AcDbArc
 50
245.0771192747787
 51
295.2523389966543
  0
LINE
  5
C7CD
330
2
100
AcDbEntity
  8
L-ZISSEN
100
AcDbLine
 10
1261.446978878379
 20
-3174.130544393146
 30
0.0
 11
1266.640399056695
 21
-3174.130544393146
 31
0.0
  0
LINE
  5
C7CE
330
2
100
AcDbEntity
  8
L-ZISSEN
100
AcDbLine
 10
1261.148390061484
 20
-3176.070670614373
 30
0.0
 11
1260.648390061487
 21
-3176.570670614373
 31
0.0
  0
LINE
  5
C7CF
330
2
100
AcDbEntity
  8
L-ZISSEN
100
AcDbLine
 10
1261.648390061484
 20
-3176.070670614373
 30
0.0
 11
1261.148390061487
 21
-3175.570670614373
 31
0.0
  0
LINE
  5
C7D0
330
2
100
AcDbEntity
  8
L-ZISSEN
100
AcDbLine
 10
1261.148390061487
 20
-3175.570670614373
 30
0.0
 11
1261.148390061487
 21
-3174.129505203882
 31
0.0
  0
LINE
  5
C7D1
330
2
100
AcDbEntity
  8
L-ZISSEN
100
AcDbLine
 10
1261.648390061488
 20
-3174.13020181501
 30
0.0
 11
1261.648390061484
 21
-3176.070670614373
 31
0.0
  0
ARC
  5
C7D2
330
2
100
AcDbEntity
  8
L-ZISSEN
100
AcDbCircle
 10
1266.640399056695
 20
-3158.502311225751
 30
0.0
 40
15.62823316739414
100
AcDbArc
 50
257.3236813122204
 51
282.4944195184635
  0
ARC
  5
C7D3
330
2
100
AcDbEntity
  8
L-ZISSEN
100
AcDbCircle
 10
1266.640399056695
 20
-3187.48734898911
 30
0.0
 40
15.62823316739393
100
AcDbArc
 50
77.5055804815364
 51
102.6763186877795
  0
LINE
  5
C7D4
330
2
100
AcDbEntity
  8
L-ZISSEN
100
AcDbLine
 10
1261.446978878366
 20
-3171.859115821716
 30
0.0
 11
1271.18325619955
 21
-3171.859115821716
 31
0.0
  0
LINE
  5
C7D5
330
2
100
AcDbEntity
  8
L-ZISSEN
100
AcDbLine
 10
1271.277899056692
 20
-3171.752776016429
 30
0.0
 11
1259.920756199549
 21
-3171.752776016429
 31
0.0
  0
LINE
  5
C7D6
330
2
100
AcDbEntity
  8
L-ZISSEN
100
AcDbLine
 10
1261.148390061484
 20
-3176.070670614373
 30
0.0
 11
1269.648390061486
 21
-3176.070670614373
 31
0.0
  0
LINE
  5
C7D7
330
2
100
AcDbEntity
  8
L-ZISSEN
100
AcDbLine
 10
1260.948390061487
 20
-3186.129505203882
 30
0.0
 11
1260.648390061487
 21
-3185.829505203882
 31
0.0
  0
LINE
  5
C7D8
330
2
100
AcDbEntity
  8
L-ZISSEN
100
AcDbLine
 10
1260.648390061487
 20
-3185.829505203882
 30
0.0
 11
1260.648390061487
 21
-3176.570670614373
 31
0.0
  0
LINE
  5
C7D9
330
2
100
AcDbEntity
  8
L-ZISSEN
100
AcDbLine
 10
1261.648390061486
 20
-3176.070670614373
 30
0.0
 11
1261.648390061486
 21
-3186.129505203882
 31
0.0
  0
LINE
  5
C7DA
330
2
100
AcDbEntity
  8
L-ZISSEN
100
AcDbLine
 10
1262.648390061485
 20
-3176.070670614373
 30
0.0
 11
1262.648390061485
 21
-3186.129505203882
 31
0.0
  0
LINE
  5
C7DB
330
2
100
AcDbEntity
  8
L-ZISSEN
100
AcDbLine
 10
1268.648390061487
 20
-3176.070670614373
 30
0.0
 11
1268.648390061487
 21
-3186.129505203882
 31
0.0
  0
LINE
  5
C7DC
330
2
100
AcDbEntity
  8
L-ZISSEN
100
AcDbLine
 10
1269.648390061486
 20
-3176.070670614373
 30
0.0
 11
1269.648390061486
 21
-3186.129505203882
 31
0.0
  0
LINE
  5
C7DD
330
2
100
AcDbEntity
  8
L-ZISSEN
100
AcDbLine
 10
1270.648390061489
 20
-3176.070670614373
 30
0.0
 11
1270.648390061489
 21
-3186.129505203882
 31
0.0
  0
LINE
  5
C7DE
330
2
100
AcDbEntity
  8
L-ZISSEN
100
AcDbLine
 10
1263.648390061487
 20
-3176.070670614373
 30
0.0
 11
1263.648390061487
 21
-3186.129505203882
 31
0.0
  0
LINE
  5
C7DF
330
2
100
AcDbEntity
  8
L-ZISSEN
100
AcDbLine
 10
1264.648390061488
 20
-3176.070670614373
 30
0.0
 11
1264.648390061488
 21
-3186.129505203882
 31
0.0
  0
LINE
  5
C7E0
330
2
100
AcDbEntity
  8
L-ZISSEN
100
AcDbLine
 10
1265.648390061487
 20
-3176.070670614373
 30
0.0
 11
1265.648390061487
 21
-3186.129505203882
 31
0.0
  0
LINE
  5
C7E1
330
2
100
AcDbEntity
  8
L-ZISSEN
100
AcDbLine
 10
1266.648390061489
 20
-3176.070670614373
 30
0.0
 11
1266.648390061489
 21
-3186.129505203882
 31
0.0
  0
LINE
  5
C7E2
330
2
100
AcDbEntity
  8
L-ZISSEN
100
AcDbLine
 10
1267.648390061488
 20
-3176.070670614373
 30
0.0
 11
1267.648390061488
 21
-3186.129505203882
 31
0.0
  0
ARC
  5
C7E3
330
2
100
AcDbEntity
  8
L-ZISSEN
100
AcDbCircle
 10
1266.735041913837
 20
-3095.802063145737
 30
0.0
 40
75.36553414422328
100
AcDbArc
 50
275.3320776948647
 51
283.9062370650903
  0
LINE
  5
C7E4
330
2
100
AcDbEntity
  8
L-ZISSEN
100
AcDbLine
 10
1273.738613342409
 20
-3170.841477616327
 30
0.0
 11
1273.549327628123
 21
-3170.841477616327
 31
0.0
  0
LINE
  5
C7E5
330
2
100
AcDbEntity
  8
L-ZISSEN
100
AcDbLine
 10
1273.454684770979
 20
-3171.752776016429
 30
0.0
 11
1273.454684770979
 21
-3170.841477616327
 31
0.0
  0
LINE
  5
C7E6
330
2
100
AcDbEntity
  8
L-ZISSEN
100
AcDbLine
 10
1273.454414940472
 20
-3172.253210576945
 30
0.0
 11
1273.454414940472
 21
-3173.736449637917
 31
0.0
  0
LINE
  5
C7E7
330
2
100
AcDbEntity
  8
L-ZISSEN
100
AcDbLine
 10
1272.148390061486
 20
-3176.070670614373
 30
0.0
 11
1272.648390061485
 21
-3176.570670614373
 31
0.0
  0
LINE
  5
C7E8
330
2
100
AcDbEntity
  8
L-ZISSEN
100
AcDbLine
 10
1271.648390061486
 20
-3176.070670614373
 30
0.0
 11
1272.148390061485
 21
-3175.570670614373
 31
0.0
  0
LINE
  5
C7E9
330
2
100
AcDbEntity
  8
L-ZISSEN
100
AcDbLine
 10
1272.148390061485
 20
-3175.570670614373
 30
0.0
 11
1272.148390061485
 21
-3174.129505203882
 31
0.0
  0
LINE
  5
C7EA
330
2
100
AcDbEntity
  8
L-ZISSEN
100
AcDbLine
 10
1271.64839006149
 20
-3174.130851466304
 30
0.0
 11
1271.648390061486
 21
-3176.070670614373
 31
0.0
  0
LINE
  5
C7EB
330
2
100
AcDbEntity
  8
L-ZISSEN
100
AcDbLine
 10
1272.348390061486
 20
-3186.129505203882
 30
0.0
 11
1272.648390061485
 21
-3185.829505203882
 31
0.0
  0
LINE
  5
C7EC
330
2
100
AcDbEntity
  8
L-ZISSEN
100
AcDbLine
 10
1271.648390061488
 20
-3176.070670614373
 30
0.0
 11
1271.64839006149
 21
-3186.129505203882
 31
0.0
  0
LINE
  5
C7ED
330
2
100
AcDbEntity
  8
L-ZISSEN
100
AcDbLine
 10
1272.648390061485
 20
-3176.570670614373
 30
0.0
 11
1272.648390061485
 21
-3185.829505203882
 31
0.0
  0
ARC
  5
C7EE
330
2
100
AcDbEntity
  8
L-ZISSEN
100
AcDbCircle
 10
1283.392184770979
 20
-3163.07904802645
 30
0.0
 40
6.057142857142703
100
AcDbArc
 50
283.9062370650903
 51
0.0
  0
LINE
  5
C7EF
330
2
100
AcDbEntity
  8
L-ZISSEN
100
AcDbLine
 10
1253.977184770981
 20
-3153.932866871839
 30
0.0
 11
1250.785827628121
 21
-3155.447152586125
 31
0.0
  0
LINE
  5
C7F0
330
2
100
AcDbEntity
  8
L-ZISSEN
100
AcDbLine
 10
1250.785827628121
 20
-3155.447152586125
 30
0.0
 11
1247.594470485264
 21
-3153.932866871839
 31
0.0
  0
LINE
  5
C7F1
330
2
100
AcDbEntity
  8
L-ZISSEN
100
AcDbLine
 10
1279.492899056694
 20
-3153.932866871839
 30
0.0
 11
1282.684256199551
 21
-3155.447152586125
 31
0.0
  0
LINE
  5
C7F2
330
2
100
AcDbEntity
  8
L-ZISSEN
100
AcDbLine
 10
1282.684256199551
 20
-3155.447152586125
 30
0.0
 11
1285.875613342408
 21
-3153.932866871839
 31
0.0
  0
LINE
  5
C7F3
330
2
100
AcDbEntity
  8
L-ZISSEN
100
AcDbLine
 10
1244.020756199552
 20
-3163.07904802645
 30
0.0
 11
1244.020756199552
 21
-3095.129505203882
 31
0.0
  0
LINE
  5
C7F4
330
2
100
AcDbEntity
  8
L-ZISSEN
100
AcDbLine
 10
1247.594470485264
 20
-3101.475801404261
 30
0.0
 11
1253.977184770981
 21
-3101.475801404261
 31
0.0
  0
LINE
  5
C7F5
330
2
100
AcDbEntity
  8
L-ZISSEN
100
AcDbLine
 10
1247.594470485264
 20
-3101.475801404261
 30
0.0
 11
1247.594470485264
 21
-3153.932866871839
 31
0.0
  0
LINE
  5
C7F6
330
2
100
AcDbEntity
  8
L-ZISSEN
100
AcDbLine
 10
1253.977184770981
 20
-3101.475801404261
 30
0.0
 11
1253.977184770981
 21
-3153.932866871839
 31
0.0
  0
LINE
  5
C7F7
330
2
100
AcDbEntity
  8
L-ZISSEN
100
AcDbLine
 10
1290.20050430624
 20
-3095.736364530866
 30
0.0
 11
1287.824715418452
 21
-3095.736364530866
 31
0.0
  0
LINE
  5
C7F8
330
2
100
AcDbEntity
  8
L-ZISSEN
100
AcDbLine
 10
1291.982346964102
 20
-3095.372343730867
 30
0.0
 11
1293.074409364102
 21
-3095.372343730867
 31
0.0
  0
LINE
  5
C7F9
330
2
100
AcDbEntity
  8
L-ZISSEN
100
AcDbLine
 10
1291.982346964102
 20
-3095.129505203882
 30
0.0
 11
1291.982346964102
 21
-3095.372343730867
 31
0.0
  0
LINE
  5
C7FA
330
2
100
AcDbEntity
  8
L-ZISSEN
100
AcDbLine
 10
1290.890284564102
 20
-3095.736364530866
 30
0.0
 11
1289.070180564102
 21
-3095.736364530866
 31
0.0
  0
LINE
  5
C7FB
330
2
100
AcDbEntity
  8
L-ZISSEN
100
AcDbLine
 10
1290.890284564102
 20
-3095.129505203882
 30
0.0
 11
1290.890284564102
 21
-3095.736364530866
 31
0.0
  0
LINE
  5
C7FC
330
2
100
AcDbEntity
  8
L-ZISSEN
100
AcDbLine
 10
1289.41214816171
 20
-3095.129505203882
 30
0.0
 11
1289.41214816171
 21
-3095.736364530866
 31
0.0
  0
LINE
  5
C7FF
330
2
100
AcDbEntity
  8
L-ZISSEN
100
AcDbLine
 10
1240.526961490056
 20
-3077.629505203882
 30
0.0
 11
1253.019818632914
 21
-3077.629505203882
 31
0.0
  0
LINE
  5
C800
330
2
100
AcDbEntity
  8
L-ZISSEN
100
AcDbLine
 10
1292.769818632914
 20
-3077.629505203882
 30
0.0
 11
1280.276961490058
 21
-3077.629505203882
 31
0.0
  0
LINE
  5
C801
330
2
100
AcDbEntity
  8
L-ZISSEN
100
AcDbLine
 10
1292.769818632916
 20
-3077.629505203882
 30
0.0
 11
1280.276961490058
 21
-3077.629505203882
 31
0.0
  0
LINE
  5
C837
330
2
100
AcDbEntity
  8
L-ZISSEN
100
AcDbLine
 10
1253.019818632914
 20
-3077.629505203882
 30
0.0
 11
1240.526961490056
 21
-3077.629505203882
 31
0.0
  0
ARC
  5
C838
330
2
100
AcDbEntity
  8
L-ZISSEN
100
AcDbCircle
 10
1240.526961490056
 20
-3078.008076632453
 30
0.0
 40
0.3785714285715134
100
AcDbArc
 50
90.00000000000003
 51
180.0
  0
ARC
  5
C839
330
2
100
AcDbEntity
  8
L-ZISSEN
100
AcDbCircle
 10
1240.526961490056
 20
-3078.008076632453
 30
0.0
 40
0.3785714285715134
100
AcDbArc
 50
90.00000000000003
 51
180.0
  0
ARC
  5
C83A
330
2
100
AcDbEntity
  8
L-ZISSEN
100
AcDbCircle
 10
1292.769818632916
 20
-3078.008076632453
 30
0.0
 40
0.3785714285715134
100
AcDbArc
 50
0.0
 51
90.00000000000003
  0
ARC
  5
C83B
330
2
100
AcDbEntity
  8
L-ZISSEN
100
AcDbCircle
 10
1292.769818632916
 20
-3078.008076632453
 30
0.0
 40
0.3785714285715134
100
AcDbArc
 50
0.0
 51
90.00000000000003
  0
LINE
  5
C83C
330
2
100
AcDbEntity
  8
L-ZISSEN
100
AcDbLine
 10
1240.148390061485
 20
-3078.008076632453
 30
0.0
 11
1240.148390061485
 21
-3095.129505203882
 31
0.0
  0
LINE
  5
C83D
330
2
100
AcDbEntity
  8
L-ZISSEN
100
AcDbLine
 10
1293.148390061488
 20
-3078.008076632453
 30
0.0
 11
1293.148390061488
 21
-3095.129505203882
 31
0.0
  0
LINE
  5
C8EB
330
2
100
AcDbEntity
  8
L-ZISSEN
100
AcDbLine
 10
1432.502961490065
 20
-3155.447152586124
 30
0.0
 11
1435.694318632925
 21
-3153.932866871838
 31
0.0
  0
LINE
  5
C8EC
330
2
100
AcDbEntity
  8
L-ZISSEN
100
AcDbLine
 10
1429.31160434721
 20
-3153.932866871838
 30
0.0
 11
1432.502961490065
 21
-3155.447152586124
 31
0.0
  0
LINE
  5
C8ED
330
2
100
AcDbEntity
  8
L-ZISSEN
100
AcDbLine
 10
1400.604532918635
 20
-3155.447152586124
 30
0.0
 11
1397.413175775779
 21
-3153.932866871838
 31
0.0
  0
LINE
  5
C8EE
330
2
100
AcDbEntity
  8
L-ZISSEN
100
AcDbLine
 10
1403.795890061495
 20
-3153.932866871838
 30
0.0
 11
1400.604532918635
 21
-3155.447152586124
 31
0.0
  0
LINE
  5
C8EF
330
2
100
AcDbEntity
  8
L-ZISSEN
100
AcDbLine
 10
1394.020081896091
 20
-3095.129505203881
 30
0.0
 11
1394.020081896091
 21
-3163.079048026451
 31
0.0
  0
LINE
  5
C8F0
330
2
100
AcDbEntity
  8
L-ZISSEN
100
AcDbLine
 10
1438.838322792091
 20
-3163.079048026451
 30
0.0
 11
1438.838322792091
 21
-3095.129505203881
 31
0.0
  0
ARC
  5
C8F1
330
2
100
AcDbEntity
  8
L-ZISSEN
100
AcDbCircle
 10
1416.124037077805
 20
-3095.802063145737
 30
0.0
 40
75.36553414422368
100
AcDbArc
 50
275.3320776948647
 51
283.9062370650903
  0
ARC
  5
C8F2
330
2
100
AcDbEntity
  8
L-ZISSEN
100
AcDbCircle
 10
1416.734367610378
 20
-3095.802063145737
 30
0.0
 40
75.36553414422333
100
AcDbArc
 50
256.0937629349095
 51
264.6679223051352
  0
ARC
  5
C8F3
330
2
100
AcDbEntity
  8
L-ZISSEN
100
AcDbCircle
 10
1400.077224753235
 20
-3163.079048026451
 30
0.0
 40
6.057142857143803
100
AcDbArc
 50
180.0
 51
256.0937629349095
  0
LINE
  5
C8F4
330
2
100
AcDbEntity
  8
L-ZISSEN
100
AcDbLine
 10
1411.454969883157
 20
-3171.859115821716
 30
0.0
 11
1421.191247204343
 21
-3171.859115821716
 31
0.0
  0
LINE
  5
C8F5
330
2
100
AcDbEntity
  8
L-ZISSEN
100
AcDbLine
 10
1421.191247204343
 20
-3171.752776016429
 30
0.0
 11
1409.8341043472
 21
-3171.752776016429
 31
0.0
  0
LINE
  5
C8F6
330
2
100
AcDbEntity
  8
L-ZISSEN
100
AcDbLine
 10
1421.191247204343
 20
-3171.752776016429
 30
0.0
 11
1409.8341043472
 21
-3171.752776016429
 31
0.0
  0
ARC
  5
C8F7
330
2
100
AcDbEntity
  8
L-ZISSEN
100
AcDbCircle
 10
1411.516236808988
 20
-3175.849795535205
 30
0.0
 40
3.991149986137005
100
AcDbArc
 50
64.7476610033456
 51
114.9228807251047
  0
LINE
  5
C8F8
330
2
100
AcDbEntity
  8
L-ZISSEN
100
AcDbLine
 10
1423.462675775774
 20
-3170.841477616327
 30
0.0
 11
1409.644818632928
 21
-3170.841477616328
 31
0.0
  0
LINE
  5
C8F9
330
2
100
AcDbEntity
  8
L-ZISSEN
100
AcDbLine
 10
1411.454969883171
 20
-3174.130544393145
 30
0.0
 11
1416.648390061486
 21
-3174.130544393145
 31
0.0
  0
ARC
  5
C8FA
330
2
100
AcDbEntity
  8
L-ZISSEN
100
AcDbCircle
 10
1411.516236808988
 20
-3170.139864679656
 30
0.0
 40
3.991149986138089
100
AcDbArc
 50
245.0771192748952
 51
295.2523389966543
  0
LINE
  5
C8FB
330
2
100
AcDbEntity
  8
L-ZISSEN
100
AcDbLine
 10
1409.8341043472
 20
-3171.752776016429
 30
0.0
 11
1409.8341043472
 21
-3170.841477616327
 31
0.0
  0
LINE
  5
C8FC
330
2
100
AcDbEntity
  8
L-ZISSEN
100
AcDbLine
 10
1409.8341043472
 20
-3171.752776016429
 30
0.0
 11
1409.8341043472
 21
-3170.841477616327
 31
0.0
  0
LINE
  5
C8FD
330
2
100
AcDbEntity
  8
L-ZISSEN
100
AcDbLine
 10
1409.83437417771
 20
-3172.230318183245
 30
0.0
 11
1409.83437417771
 21
-3173.759342031617
 31
0.0
  0
LINE
  5
C8FE
330
2
100
AcDbEntity
  8
L-ZISSEN
100
AcDbLine
 10
1423.462675775774
 20
-3171.752776016429
 30
0.0
 11
1423.462675775774
 21
-3170.841477616327
 31
0.0
  0
LINE
  5
C8FF
330
2
100
AcDbEntity
  8
L-ZISSEN
100
AcDbLine
 10
1423.462675775774
 20
-3171.752776016429
 30
0.0
 11
1423.462675775774
 21
-3170.841477616327
 31
0.0
  0
LINE
  5
C900
330
2
100
AcDbEntity
  8
L-ZISSEN
100
AcDbLine
 10
1423.651961490045
 20
-3170.841477616328
 30
0.0
 11
1423.462675775774
 21
-3170.841477616327
 31
0.0
  0
LINE
  5
C901
330
2
100
AcDbEntity
  8
L-ZISSEN
100
AcDbLine
 10
1421.191247204343
 20
-3171.859115821716
 30
0.0
 11
1421.823441031373
 21
-3171.859115821716
 31
0.0
  0
ARC
  5
C902
330
2
100
AcDbEntity
  8
L-ZISSEN
100
AcDbCircle
 10
1416.648390061486
 20
-3187.487348989111
 30
0.0
 40
15.62823316739414
100
AcDbArc
 50
77.5055804815364
 51
102.6763186877795
  0
LINE
  5
C903
330
2
100
AcDbEntity
  8
L-ZISSEN
100
AcDbLine
 10
1418.919818632916
 20
-3171.859115821716
 30
0.0
 11
1418.919818632916
 21
-3171.752776016429
 31
0.0
  0
ARC
  5
C904
330
2
100
AcDbEntity
  8
L-ZISSEN
100
AcDbCircle
 10
1421.730876592626
 20
-3175.849192266665
 30
0.0
 40
3.991149986138381
100
AcDbArc
 50
64.28835488517385
 51
115.2591066833831
  0
LINE
  5
C905
330
2
100
AcDbEntity
  8
L-ZISSEN
100
AcDbLine
 10
1423.462675775774
 20
-3171.752776016429
 30
0.0
 11
1421.191247204343
 21
-3171.752776016429
 31
0.0
  0
LINE
  5
C906
330
2
100
AcDbEntity
  8
L-ZISSEN
100
AcDbLine
 10
1423.462675775774
 20
-3171.752776016429
 30
0.0
 11
1421.191247204343
 21
-3171.752776016429
 31
0.0
  0
LINE
  5
C907
330
2
100
AcDbEntity
  8
L-ZISSEN
100
AcDbLine
 10
1416.648390061486
 20
-3174.130544393145
 30
0.0
 11
1421.823441031365
 21
-3174.130544393145
 31
0.0
  0
ARC
  5
C908
330
2
100
AcDbEntity
  8
L-ZISSEN
100
AcDbCircle
 10
1416.648390061486
 20
-3158.502311225751
 30
0.0
 40
15.62823316739414
100
AcDbArc
 50
257.3236813122204
 51
282.4944195184635
  0
ARC
  5
C909
330
2
100
AcDbEntity
  8
L-ZISSEN
100
AcDbCircle
 10
1421.730876592626
 20
-3170.140467948197
 30
0.0
 40
3.991149986138576
100
AcDbArc
 50
244.7408933166168
 51
295.7116451148261
  0
LINE
  5
C90A
330
2
100
AcDbEntity
  8
L-ZISSEN
100
AcDbLine
 10
1413.218883992131
 20
-3172.24004889845
 30
0.0
 11
1413.218883992134
 21
-3173.749611316413
 31
0.0
  0
LINE
  5
C90B
330
2
100
AcDbEntity
  8
L-ZISSEN
100
AcDbLine
 10
1420.027803043799
 20
-3172.239646769079
 30
0.0
 11
1420.027803043799
 21
-3173.750013445783
 31
0.0
  0
LINE
  5
C90C
330
2
100
AcDbEntity
  8
L-ZISSEN
100
AcDbLine
 10
1423.462405945264
 20
-3172.253210576945
 30
0.0
 11
1423.462405945264
 21
-3173.736449637916
 31
0.0
  0
LINE
  5
C90D
330
2
100
AcDbEntity
  8
L-ZISSEN
100
AcDbLine
 10
1411.156381066276
 20
-3176.070670614373
 30
0.0
 11
1419.656381066277
 21
-3176.070670614373
 31
0.0
  0
LINE
  5
C90E
330
2
100
AcDbEntity
  8
L-ZISSEN
100
AcDbLine
 10
1422.156381066277
 20
-3175.570670614373
 30
0.0
 11
1422.156381066277
 21
-3174.129505203881
 31
0.0
  0
LINE
  5
C90F
330
2
100
AcDbEntity
  8
L-ZISSEN
100
AcDbLine
 10
1422.156381066278
 20
-3176.070670614373
 30
0.0
 11
1422.656381066277
 21
-3176.570670614372
 31
0.0
  0
LINE
  5
C910
330
2
100
AcDbEntity
  8
L-ZISSEN
100
AcDbLine
 10
1419.656381066277
 20
-3176.070670614373
 30
0.0
 11
1422.156381066278
 21
-3176.070670614373
 31
0.0
  0
LINE
  5
C911
330
2
100
AcDbEntity
  8
L-ZISSEN
100
AcDbLine
 10
1421.656381066277
 20
-3176.070670614373
 30
0.0
 11
1422.156381066277
 21
-3175.570670614373
 31
0.0
  0
LINE
  5
C912
330
2
100
AcDbEntity
  8
L-ZISSEN
100
AcDbLine
 10
1421.656381066282
 20
-3174.130851466304
 30
0.0
 11
1421.656381066277
 21
-3176.070670614373
 31
0.0
  0
LINE
  5
C913
330
2
100
AcDbEntity
  8
L-ZISSEN
100
AcDbLine
 10
1411.156381066276
 20
-3176.070670614373
 30
0.0
 11
1410.656381066279
 21
-3176.570670614372
 31
0.0
  0
LINE
  5
C914
330
2
100
AcDbEntity
  8
L-ZISSEN
100
AcDbLine
 10
1411.656381066276
 20
-3176.070670614373
 30
0.0
 11
1411.156381066279
 21
-3175.570670614373
 31
0.0
  0
LINE
  5
C915
330
2
100
AcDbEntity
  8
L-ZISSEN
100
AcDbLine
 10
1411.156381066279
 20
-3175.570670614373
 30
0.0
 11
1411.156381066279
 21
-3174.129505203881
 31
0.0
  0
LINE
  5
C916
330
2
100
AcDbEntity
  8
L-ZISSEN
100
AcDbLine
 10
1411.65638106628
 20
-3174.13020181501
 30
0.0
 11
1411.656381066276
 21
-3176.070670614373
 31
0.0
  0
LINE
  5
C917
330
2
100
AcDbEntity
  8
L-ZISSEN
100
AcDbLine
 10
1422.356381066277
 20
-3186.129505203881
 30
0.0
 11
1410.956381066279
 21
-3186.129505203881
 31
0.0
  0
LINE
  5
C918
330
2
100
AcDbEntity
  8
L-ZISSEN
100
AcDbLine
 10
1422.356381066277
 20
-3186.129505203881
 30
0.0
 11
1422.656381066277
 21
-3185.829505203882
 31
0.0
  0
LINE
  5
C919
330
2
100
AcDbEntity
  8
L-ZISSEN
100
AcDbLine
 10
1410.956381066279
 20
-3186.129505203881
 30
0.0
 11
1410.656381066279
 21
-3185.829505203882
 31
0.0
  0
LINE
  5
C91A
330
2
100
AcDbEntity
  8
L-ZISSEN
100
AcDbLine
 10
1418.656381066278
 20
-3176.070670614373
 30
0.0
 11
1418.656381066278
 21
-3186.129505203881
 31
0.0
  0
LINE
  5
C91B
330
2
100
AcDbEntity
  8
L-ZISSEN
100
AcDbLine
 10
1419.656381066277
 20
-3176.070670614373
 30
0.0
 11
1419.656381066277
 21
-3186.129505203881
 31
0.0
  0
LINE
  5
C91C
330
2
100
AcDbEntity
  8
L-ZISSEN
100
AcDbLine
 10
1420.656381066281
 20
-3176.070670614373
 30
0.0
 11
1420.656381066281
 21
-3186.129505203881
 31
0.0
  0
LINE
  5
C91D
330
2
100
AcDbEntity
  8
L-ZISSEN
100
AcDbLine
 10
1421.65638106628
 20
-3176.070670614373
 30
0.0
 11
1421.656381066282
 21
-3186.129505203881
 31
0.0
  0
LINE
  5
C91E
330
2
100
AcDbEntity
  8
L-ZISSEN
100
AcDbLine
 10
1422.656381066277
 20
-3176.570670614372
 30
0.0
 11
1422.656381066277
 21
-3185.829505203881
 31
0.0
  0
LINE
  5
C91F
330
2
100
AcDbEntity
  8
L-ZISSEN
100
AcDbLine
 10
1410.656381066279
 20
-3185.829505203881
 30
0.0
 11
1410.656381066279
 21
-3176.570670614372
 31
0.0
  0
LINE
  5
C920
330
2
100
AcDbEntity
  8
L-ZISSEN
100
AcDbLine
 10
1411.656381066278
 20
-3176.070670614373
 30
0.0
 11
1411.656381066278
 21
-3186.129505203881
 31
0.0
  0
LINE
  5
C921
330
2
100
AcDbEntity
  8
L-ZISSEN
100
AcDbLine
 10
1412.656381066277
 20
-3176.070670614373
 30
0.0
 11
1412.656381066277
 21
-3186.129505203881
 31
0.0
  0
LINE
  5
C922
330
2
100
AcDbEntity
  8
L-ZISSEN
100
AcDbLine
 10
1413.656381066278
 20
-3176.070670614373
 30
0.0
 11
1413.656381066278
 21
-3186.129505203881
 31
0.0
  0
LINE
  5
C923
330
2
100
AcDbEntity
  8
L-ZISSEN
100
AcDbLine
 10
1414.65638106628
 20
-3176.070670614373
 30
0.0
 11
1414.65638106628
 21
-3186.129505203881
 31
0.0
  0
LINE
  5
C924
330
2
100
AcDbEntity
  8
L-ZISSEN
100
AcDbLine
 10
1415.656381066279
 20
-3176.070670614373
 30
0.0
 11
1415.656381066279
 21
-3186.129505203881
 31
0.0
  0
LINE
  5
C925
330
2
100
AcDbEntity
  8
L-ZISSEN
100
AcDbLine
 10
1416.65638106628
 20
-3176.070670614373
 30
0.0
 11
1416.65638106628
 21
-3186.129505203881
 31
0.0
  0
LINE
  5
C926
330
2
100
AcDbEntity
  8
L-ZISSEN
100
AcDbLine
 10
1417.656381066279
 20
-3176.070670614373
 30
0.0
 11
1417.656381066279
 21
-3186.129505203881
 31
0.0
  0
ARC
  5
C927
330
2
100
AcDbEntity
  8
L-ZISSEN
100
AcDbCircle
 10
1432.781179934948
 20
-3163.079048026451
 30
0.0
 40
6.057142857142908
100
AcDbArc
 50
283.9062370650903
 51
0.0
  0
LINE
  5
C92E
330
2
100
AcDbEntity
  8
L-TYUSIN
100
AcDbLine
 10
1446.934104347201
 20
-3068.129505203881
 30
0.0
 11
1386.362675775772
 21
-3068.129505203882
 31
0.0
  0
LINE
  5
C92F
330
2
100
AcDbEntity
  8
L-ZISSEN
100
AcDbLine
 10
1390.148390061486
 20
-3095.129505203881
 30
0.0
 11
1443.148390061488
 21
-3095.129505203881
 31
0.0
  0
LINE
  5
C930
330
2
100
AcDbEntity
  8
L-ZISSEN
100
AcDbLine
 10
1392.419818632915
 20
-3077.629505203882
 30
0.0
 11
1440.876961490058
 21
-3077.629505203882
 31
0.0
  0
LINE
  5
C931
330
2
100
AcDbEntity
  8
L-ZISSEN
100
AcDbLine
 10
1390.148390061487
 20
-3095.129505203882
 30
0.0
 11
1390.148390061486
 21
-3085.129505203881
 31
0.0
  0
LINE
  5
C932
330
2
100
AcDbEntity
  8
L-ZISSEN
100
AcDbLine
 10
1392.798390061485
 20
-3095.129505203881
 30
0.0
 11
1392.798390061485
 21
-3077.629505203882
 31
0.0
  0
LINE
  5
C933
330
2
100
AcDbEntity
  8
L-ZISSEN
100
AcDbLine
 10
1395.826961490059
 20
-3095.129505203881
 30
0.0
 11
1395.826961490059
 21
-3077.629505203882
 31
0.0
  0
LINE
  5
C934
330
2
100
AcDbEntity
  8
L-TYUSIN
100
AcDbLine
 10
1416.648390061486
 20
-2976.12950520388
 30
0.0
 11
1416.648390061486
 21
-3191.129505203881
 31
0.0
  0
LINE
  5
C935
330
2
100
AcDbEntity
  8
L-ZISSEN
100
AcDbLine
 10
1397.413175775779
 20
-3101.66370398895
 30
0.0
 11
1403.795890061496
 21
-3101.66370398895
 31
0.0
  0
LINE
  5
C936
330
2
100
AcDbEntity
  8
L-ZISSEN
100
AcDbLine
 10
1397.413175775779
 20
-3101.66370398895
 30
0.0
 11
1397.413175775779
 21
-3153.932866871838
 31
0.0
  0
LINE
  5
C937
330
2
100
AcDbEntity
  8
L-ZISSEN
100
AcDbLine
 10
1407.729880461486
 20
-3095.291884870144
 30
0.0
 11
1407.729880461486
 21
-3095.129505203881
 31
0.0
  0
LINE
  5
C938
330
2
100
AcDbEntity
  8
L-ZISSEN
100
AcDbLine
 10
1425.566899661486
 20
-3095.129505203881
 30
0.0
 11
1425.566899661486
 21
-3095.291884870144
 31
0.0
  0
LINE
  5
C939
330
2
100
AcDbEntity
  8
L-ZISSEN
100
AcDbLine
 10
1421.934571303585
 20
-3114.323851326656
 30
0.0
 11
1421.934571303585
 21
-3118.857177378398
 31
0.0
  0
LINE
  5
C93A
330
2
100
AcDbEntity
  8
L-ZISSEN
100
AcDbLine
 10
1416.648390061486
 20
-3115.677049670143
 30
0.0
 11
1416.648390061486
 21
-3110.580758470143
 31
0.0
  0
LINE
  5
C93B
330
2
100
AcDbEntity
  8
L-ZISSEN
100
AcDbLine
 10
1416.648390061486
 20
-3115.677049670143
 30
0.0
 11
1416.648390061486
 21
-3111.064860854166
 31
0.0
  0
LINE
  5
C93C
330
2
100
AcDbEntity
  8
L-ZISSEN
100
AcDbLine
 10
1417.376431661485
 20
-3103.300342470145
 30
0.0
 11
1418.832514861485
 21
-3103.300342470145
 31
0.0
  0
LINE
  5
C93D
330
2
100
AcDbEntity
  8
L-ZISSEN
100
AcDbLine
 10
1418.832514861485
 20
-3103.300342470145
 30
0.0
 11
1416.648390061485
 21
-3106.940550470144
 31
0.0
  0
LINE
  5
C93E
330
2
100
AcDbEntity
  8
L-ZISSEN
100
AcDbLine
 10
1415.920348461485
 20
-3103.300342470145
 30
0.0
 11
1414.464265261485
 21
-3103.300342470145
 31
0.0
  0
LINE
  5
C93F
330
2
100
AcDbEntity
  8
L-ZISSEN
100
AcDbLine
 10
1414.464265261485
 20
-3103.300342470145
 30
0.0
 11
1416.648390061485
 21
-3106.940550470144
 31
0.0
  0
LINE
  5
C940
330
2
100
AcDbEntity
  8
L-ZISSEN
100
AcDbLine
 10
1424.838858061487
 20
-3113.492924870143
 30
0.0
 11
1423.587752431548
 21
-3112.731116998385
 31
0.0
  0
LINE
  5
C941
330
2
100
AcDbEntity
  8
L-ZISSEN
100
AcDbLine
 10
1423.587752431548
 20
-3109.589420988706
 30
0.0
 11
1424.292826861487
 21
-3109.488696070143
 31
0.0
  0
LINE
  5
C942
330
2
100
AcDbEntity
  8
L-ZISSEN
100
AcDbLine
 10
1423.587752431548
 20
-3110.073523372728
 30
0.0
 11
1424.292826861487
 21
-3109.488696070143
 31
0.0
  0
LINE
  5
C943
330
2
100
AcDbEntity
  8
L-ZISSEN
100
AcDbLine
 10
1423.587752431548
 20
-3110.073523372728
 30
0.0
 11
1423.587752431548
 21
-3112.731116998385
 31
0.0
  0
LINE
  5
C944
330
2
100
AcDbEntity
  8
L-ZISSEN
100
AcDbLine
 10
1421.380660461488
 20
-3098.204051270146
 30
0.0
 11
1423.200764461488
 21
-3099.296113670146
 31
0.0
  0
LINE
  5
C945
330
2
100
AcDbEntity
  8
L-ZISSEN
100
AcDbLine
 10
1421.380660461488
 20
-3100.388176070146
 30
0.0
 11
1423.200764461488
 21
-3099.296113670146
 31
0.0
  0
LINE
  5
C946
330
2
100
AcDbEntity
  8
L-ZISSEN
100
AcDbLine
 10
1421.380660461488
 20
-3098.932092870146
 30
0.0
 11
1421.380660461488
 21
-3098.204051270146
 31
0.0
  0
LINE
  5
C947
330
2
100
AcDbEntity
  8
L-ZISSEN
100
AcDbLine
 10
1421.380660461488
 20
-3099.660134470146
 30
0.0
 11
1421.380660461488
 21
-3100.388176070146
 31
0.0
  0
LINE
  5
C948
330
2
100
AcDbEntity
  8
L-ZISSEN
100
AcDbLine
 10
1418.468494061488
 20
-3098.932092870146
 30
0.0
 11
1418.468494061488
 21
-3099.660134470146
 31
0.0
  0
LINE
  5
C949
330
2
100
AcDbEntity
  8
L-ZISSEN
100
AcDbLine
 10
1418.468494061488
 20
-3098.932092870146
 30
0.0
 11
1421.380660461488
 21
-3098.932092870146
 31
0.0
  0
LINE
  5
C94A
330
2
100
AcDbEntity
  8
L-ZISSEN
100
AcDbLine
 10
1418.468494061488
 20
-3098.932092870146
 30
0.0
 11
1421.380660461488
 21
-3098.932092870146
 31
0.0
  0
LINE
  5
C94B
330
2
100
AcDbEntity
  8
L-ZISSEN
100
AcDbLine
 10
1418.468494061488
 20
-3099.660134470146
 30
0.0
 11
1421.380660461488
 21
-3099.660134470146
 31
0.0
  0
LINE
  5
C94C
330
2
100
AcDbEntity
  8
L-ZISSEN
100
AcDbLine
 10
1418.468494061488
 20
-3099.660134470146
 30
0.0
 11
1421.380660461488
 21
-3099.660134470146
 31
0.0
  0
LINE
  5
C94D
330
2
100
AcDbEntity
  8
L-ZISSEN
100
AcDbLine
 10
1414.828286061484
 20
-3098.932092870146
 30
0.0
 11
1414.828286061484
 21
-3099.660134470146
 31
0.0
  0
LINE
  5
C94E
330
2
100
AcDbEntity
  8
L-ZISSEN
100
AcDbLine
 10
1417.376431661485
 20
-3097.476009670144
 30
0.0
 11
1415.920348461485
 21
-3097.476009670144
 31
0.0
  0
LINE
  5
C94F
330
2
100
AcDbEntity
  8
L-ZISSEN
100
AcDbLine
 10
1409.003953261487
 20
-3095.291884870144
 30
0.0
 11
1409.003953261487
 21
-3109.488696070143
 31
0.0
  0
LINE
  5
C950
330
2
100
AcDbEntity
  8
L-ZISSEN
100
AcDbLine
 10
1407.729880461486
 20
-3118.857177378398
 30
0.0
 11
1407.729880461486
 21
-3095.291884870144
 31
0.0
  0
LINE
  5
C951
330
2
100
AcDbEntity
  8
L-ZISSEN
100
AcDbLine
 10
1408.457922061487
 20
-3095.291884870144
 30
0.0
 11
1408.457922061487
 21
-3113.492924870143
 31
0.0
  0
LINE
  5
C952
330
2
100
AcDbEntity
  8
L-ZISSEN
100
AcDbLine
 10
1408.457922061487
 20
-3095.291884870144
 30
0.0
 11
1408.457922061487
 21
-3109.147550551046
 31
0.0
  0
LINE
  5
C953
330
2
100
AcDbEntity
  8
L-ZISSEN
100
AcDbLine
 10
1411.362208819386
 20
-3114.323851326656
 30
0.0
 11
1411.362208819386
 21
-3118.857177378398
 31
0.0
  0
LINE
  5
C954
330
2
100
AcDbEntity
  8
L-ZISSEN
100
AcDbLine
 10
1409.709027691424
 20
-3110.073523372728
 30
0.0
 11
1409.709027691424
 21
-3112.731116998385
 31
0.0
  0
LINE
  5
C955
330
2
100
AcDbEntity
  8
L-ZISSEN
100
AcDbLine
 10
1409.709027691424
 20
-3110.073523372728
 30
0.0
 11
1409.003953261487
 21
-3109.488696070143
 31
0.0
  0
LINE
  5
C956
330
2
100
AcDbEntity
  8
L-ZISSEN
100
AcDbLine
 10
1409.709027691424
 20
-3109.589420988706
 30
0.0
 11
1409.003953261487
 21
-3109.488696070143
 31
0.0
  0
LINE
  5
C957
330
2
100
AcDbEntity
  8
L-ZISSEN
100
AcDbLine
 10
1411.362208819386
 20
-3118.857177378398
 30
0.0
 11
1407.729880461486
 21
-3118.857177378398
 31
0.0
  0
LINE
  5
C958
330
2
100
AcDbEntity
  8
L-ZISSEN
100
AcDbLine
 10
1408.457922061487
 20
-3113.492924870143
 30
0.0
 11
1409.709027691424
 21
-3112.731116998385
 31
0.0
  0
LINE
  5
C959
330
2
100
AcDbEntity
  8
L-ZISSEN
100
AcDbLine
 10
1411.916119661484
 20
-3098.932092870146
 30
0.0
 11
1411.916119661484
 21
-3098.204051270146
 31
0.0
  0
LINE
  5
C95A
330
2
100
AcDbEntity
  8
L-ZISSEN
100
AcDbLine
 10
1411.916119661484
 20
-3098.204051270146
 30
0.0
 11
1410.096015661484
 21
-3099.296113670146
 31
0.0
  0
LINE
  5
C95B
330
2
100
AcDbEntity
  8
L-ZISSEN
100
AcDbLine
 10
1411.916119661484
 20
-3099.660134470146
 30
0.0
 11
1411.916119661484
 21
-3100.388176070146
 31
0.0
  0
LINE
  5
C95C
330
2
100
AcDbEntity
  8
L-ZISSEN
100
AcDbLine
 10
1411.916119661484
 20
-3100.388176070146
 30
0.0
 11
1410.096015661484
 21
-3099.296113670146
 31
0.0
  0
LINE
  5
C95D
330
2
100
AcDbEntity
  8
L-ZISSEN
100
AcDbLine
 10
1416.648390061486
 20
-3115.677049670143
 30
0.0
 11
1408.457922061487
 21
-3113.492924870143
 31
0.0
  0
LINE
  5
C95E
330
2
100
AcDbEntity
  8
L-ZISSEN
100
AcDbLine
 10
1416.648390061486
 20
-3110.580758470143
 30
0.0
 11
1409.003953261487
 21
-3109.488696070143
 31
0.0
  0
LINE
  5
C95F
330
2
100
AcDbEntity
  8
L-ZISSEN
100
AcDbLine
 10
1416.648390061486
 20
-3111.064860854166
 30
0.0
 11
1409.709027691424
 21
-3110.073523372728
 31
0.0
  0
LINE
  5
C960
330
2
100
AcDbEntity
  8
L-ZISSEN
100
AcDbLine
 10
1409.709027691424
 20
-3112.731116998385
 30
0.0
 11
1416.648390061486
 21
-3114.183914094927
 31
0.0
  0
LINE
  5
C961
330
2
100
AcDbEntity
  8
L-ZISSEN
100
AcDbLine
 10
1408.457922061487
 20
-3095.291884870144
 30
0.0
 11
1424.838858061487
 21
-3095.291884870144
 31
0.0
  0
LINE
  5
C962
330
2
100
AcDbEntity
  8
L-ZISSEN
100
AcDbLine
 10
1424.292826861487
 20
-3095.291884870144
 30
0.0
 11
1409.003953261487
 21
-3095.291884870144
 31
0.0
  0
LINE
  5
C963
330
2
100
AcDbEntity
  8
L-ZISSEN
100
AcDbLine
 10
1425.566899661486
 20
-3095.291884870144
 30
0.0
 11
1407.729880461486
 21
-3095.291884870144
 31
0.0
  0
LINE
  5
C964
330
2
100
AcDbEntity
  8
L-ZISSEN
100
AcDbLine
 10
1414.828286061484
 20
-3098.932092870146
 30
0.0
 11
1411.916119661484
 21
-3098.932092870146
 31
0.0
  0
LINE
  5
C965
330
2
100
AcDbEntity
  8
L-ZISSEN
100
AcDbLine
 10
1414.828286061484
 20
-3098.932092870146
 30
0.0
 11
1411.916119661484
 21
-3098.932092870146
 31
0.0
  0
LINE
  5
C966
330
2
100
AcDbEntity
  8
L-ZISSEN
100
AcDbLine
 10
1414.828286061484
 20
-3099.660134470146
 30
0.0
 11
1411.916119661484
 21
-3099.660134470146
 31
0.0
  0
LINE
  5
C967
330
2
100
AcDbEntity
  8
L-ZISSEN
100
AcDbLine
 10
1414.828286061484
 20
-3099.660134470146
 30
0.0
 11
1411.916119661484
 21
-3099.660134470146
 31
0.0
  0
LINE
  5
C968
330
2
100
AcDbEntity
  8
L-ZISSEN
100
AcDbLine
 10
1425.566899661484
 20
-3118.857177378398
 30
0.0
 11
1425.566899661484
 21
-3095.291884870144
 31
0.0
  0
LINE
  5
C969
330
2
100
AcDbEntity
  8
L-ZISSEN
100
AcDbLine
 10
1424.838858061487
 20
-3095.291884870144
 30
0.0
 11
1424.838858061487
 21
-3109.147550551046
 31
0.0
  0
LINE
  5
C96A
330
2
100
AcDbEntity
  8
L-ZISSEN
100
AcDbLine
 10
1424.292826861487
 20
-3095.291884870144
 30
0.0
 11
1424.292826861487
 21
-3109.488696070143
 31
0.0
  0
LINE
  5
C96B
330
2
100
AcDbEntity
  8
L-ZISSEN
100
AcDbLine
 10
1424.838858061487
 20
-3095.291884870144
 30
0.0
 11
1424.838858061487
 21
-3113.492924870143
 31
0.0
  0
LINE
  5
C96C
330
2
100
AcDbEntity
  8
L-ZISSEN
100
AcDbLine
 10
1417.376431661485
 20
-3097.476009670144
 30
0.0
 11
1417.376431661485
 21
-3103.300342470145
 31
0.0
  0
LINE
  5
C96D
330
2
100
AcDbEntity
  8
L-ZISSEN
100
AcDbLine
 10
1417.376431661485
 20
-3097.476009670144
 30
0.0
 11
1417.376431661485
 21
-3103.300342470145
 31
0.0
  0
LINE
  5
C96E
330
2
100
AcDbEntity
  8
L-ZISSEN
100
AcDbLine
 10
1415.920348461485
 20
-3097.476009670144
 30
0.0
 11
1415.920348461485
 21
-3103.300342470145
 31
0.0
  0
LINE
  5
C96F
330
2
100
AcDbEntity
  8
L-ZISSEN
100
AcDbLine
 10
1415.920348461485
 20
-3097.476009670144
 30
0.0
 11
1415.920348461485
 21
-3103.300342470145
 31
0.0
  0
LINE
  5
C970
330
2
100
AcDbEntity
  8
L-ZISSEN
100
AcDbLine
 10
1421.934571303585
 20
-3118.857177378398
 30
0.0
 11
1425.566899661484
 21
-3118.857177378398
 31
0.0
  0
LINE
  5
C971
330
2
100
AcDbEntity
  8
L-ZISSEN
100
AcDbLine
 10
1416.648390061486
 20
-3115.677049670143
 30
0.0
 11
1424.838858061487
 21
-3113.492924870143
 31
0.0
  0
LINE
  5
C972
330
2
100
AcDbEntity
  8
L-ZISSEN
100
AcDbLine
 10
1416.648390061486
 20
-3110.580758470143
 30
0.0
 11
1424.292826861487
 21
-3109.488696070143
 31
0.0
  0
LINE
  5
C973
330
2
100
AcDbEntity
  8
L-ZISSEN
100
AcDbLine
 10
1416.648390061486
 20
-3111.064860854166
 30
0.0
 11
1423.587752431548
 21
-3110.073523372728
 31
0.0
  0
LINE
  5
C974
330
2
100
AcDbEntity
  8
L-ZISSEN
100
AcDbLine
 10
1423.587752431548
 20
-3112.731116998385
 30
0.0
 11
1416.648390061486
 21
-3114.183914094927
 31
0.0
  0
LINE
  5
C975
330
2
100
AcDbEntity
  8
L-ZISSEN
100
AcDbLine
 10
1403.795890061496
 20
-3101.66370398895
 30
0.0
 11
1403.795890061495
 21
-3153.932866871838
 31
0.0
  0
LINE
  5
C97C
330
2
100
AcDbEntity
  8
L-ZISSEN
100
AcDbLine
 10
1390.148390061487
 20
-3082.129505203882
 30
0.0
 11
1392.148390061487
 21
-3082.129505203881
 31
0.0
  0
LINE
  5
C986
330
2
100
AcDbEntity
  8
L-ZISSEN
100
AcDbLine
 10
1390.148390061486
 20
-3085.129505203881
 30
0.0
 11
1392.148390061486
 21
-3085.129505203881
 31
0.0
  0
LINE
  5
C987
330
2
100
AcDbEntity
  8
L-ZISSEN
100
AcDbLine
 10
1392.148390061486
 20
-3085.129505203881
 30
0.0
 11
1392.148390061486
 21
-3082.129505203882
 31
0.0
  0
LINE
  5
C989
330
2
100
AcDbEntity
  8
L-ZISSEN
100
AcDbLine
 10
1443.148390061488
 20
-3095.129505203881
 30
0.0
 11
1443.148390061486
 21
-3085.129505203881
 31
0.0
  0
LINE
  5
C98A
330
2
100
AcDbEntity
  8
L-ZISSEN
100
AcDbLine
 10
1440.498390061489
 20
-3095.129505203881
 30
0.0
 11
1440.498390061489
 21
-3077.629505203882
 31
0.0
  0
LINE
  5
C98B
330
2
100
AcDbEntity
  8
L-ZISSEN
100
AcDbLine
 10
1437.469818632916
 20
-3095.129505203881
 30
0.0
 11
1437.469818632915
 21
-3077.629505203882
 31
0.0
  0
LINE
  5
C98C
330
2
100
AcDbEntity
  8
L-ZISSEN
100
AcDbLine
 10
1435.694318632925
 20
-3101.66370398895
 30
0.0
 11
1429.31160434721
 21
-3101.66370398895
 31
0.0
  0
LINE
  5
C98D
330
2
100
AcDbEntity
  8
L-ZISSEN
100
AcDbLine
 10
1429.31160434721
 20
-3101.66370398895
 30
0.0
 11
1429.31160434721
 21
-3153.932866871839
 31
0.0
  0
LINE
  5
C98E
330
2
100
AcDbEntity
  8
L-ZISSEN
100
AcDbLine
 10
1435.694318632925
 20
-3101.66370398895
 30
0.0
 11
1435.694318632925
 21
-3153.932866871838
 31
0.0
  0
CIRCLE
  5
C9A1
330
2
100
AcDbEntity
  8
L-SOUZOU
100
AcDbCircle
 10
1416.648390061486
 20
-3068.129505203882
 30
0.0
 40
18.0
  0
CIRCLE
  5
C9A2
330
2
100
AcDbEntity
  8
L-SOUZOU
100
AcDbCircle
 10
1416.648390061486
 20
-3068.129505203882
 30
0.0
 40
21.0
  0
CIRCLE
  5
C9A3
330
2
100
AcDbEntity
  8
L-ZISSEN
100
AcDbCircle
 10
1416.648390061486
 20
-3068.129505203882
 30
0.0
 40
4.283
  0
CIRCLE
  5
C9A4
330
2
100
AcDbEntity
  8
L-SAISEN
100
AcDbCircle
 10
1416.648390061486
 20
-3068.129505203882
 30
0.0
 40
4.863999999999999
  0
CIRCLE
  5
C9A5
330
2
100
AcDbEntity
  8
L-SOUZOU
100
AcDbCircle
 10
1416.648390061486
 20
-3068.129505203882
 30
0.0
 40
1.2
  0
ARC
  5
C9A6
330
2
100
AcDbEntity
  8
L-SOUZOU
100
AcDbCircle
 10
1416.648390061486
 20
-3068.129505203882
 30
0.0
 40
2.0
100
AcDbArc
 50
249.939999999777
 51
16.48050000005656
  0
ARC
  5
C9A7
330
2
100
AcDbEntity
  8
L-SOUZOU
100
AcDbCircle
 10
1416.648390061486
 20
-3068.129505203882
 30
0.0
 40
2.0
100
AcDbArc
 50
73.51949999986849
 51
200.0599999999713
  0
LINE
  5
C9A8
330
2
100
AcDbEntity
  8
L-SOUZOU
100
AcDbLine
 10
1424.285190061482
 20
-3062.189505203881
 30
0.0
 11
1418.565990061484
 21
-3067.562305203882
 31
0.0
  0
LINE
  5
C9A9
330
2
100
AcDbEntity
  8
L-SOUZOU
100
AcDbLine
 10
1422.588390061483
 20
-3060.492705203881
 30
0.0
 11
1417.215590061483
 21
-3066.211905203881
 31
0.0
  0
LINE
  5
C9AA
330
2
100
AcDbEntity
  8
L-SOUZOU
100
AcDbLine
 10
1425.069990061482
 20
-3059.707905203882
 30
0.0
 11
1404.34679006148
 21
-3080.431105203881
 31
0.0
  0
LINE
  5
C9AB
330
2
100
AcDbEntity
  8
L-SOUZOU
100
AcDbLine
 10
1422.588390061483
 20
-3060.492705203881
 30
0.0
 11
1424.285190061482
 21
-3062.189505203881
 31
0.0
  0
LINE
  5
C9AC
330
2
100
AcDbEntity
  8
L-SOUZOU
100
AcDbLine
 10
1414.769990061482
 20
-3068.815105203881
 30
0.0
 11
1405.317190061483
 21
-3078.877505203881
 31
0.0
  0
LINE
  5
C9AD
330
2
100
AcDbEntity
  8
L-SOUZOU
100
AcDbLine
 10
1415.962790061483
 20
-3070.007905203882
 30
0.0
 11
1405.900390061482
 21
-3079.460705203881
 31
0.0
  0
LINE
  5
C9AE
330
2
100
AcDbEntity
  8
L-SOUZOU
100
AcDbLine
 10
1405.33479006148
 20
-3079.443105203881
 30
0.0
 11
1405.34359006148
 21
-3079.451905203882
 31
0.0
  0
LINE
  5
C9AF
330
2
100
AcDbEntity
  8
L-SOUZOU
100
AcDbLine
 10
1405.33479006148
 20
-3079.443105203881
 30
0.0
 11
1405.325990061482
 21
-3079.434305203881
 31
0.0
  0
ARC
  5
C9B0
330
2
100
AcDbEntity
  8
L-SOUZOU
100
AcDbCircle
 10
1405.609190061481
 20
-3079.151905203882
 30
0.0
 40
0.4
100
AcDbArc
 50
136.7899999998975
 51
225.0000000000921
  0
ARC
  5
C9B1
330
2
100
AcDbEntity
  8
L-SOUZOU
100
AcDbCircle
 10
1405.625990061482
 20
-3079.168705203881
 30
0.0
 40
0.4
100
AcDbArc
 50
225.0000000000921
 51
313.2099999998256
  0
LINE
  5
C9B7
330
2
100
AcDbEntity
  8
L-ZISSEN
100
AcDbLine
 10
1390.148390061486
 20
-3047.629505203881
 30
0.0
 11
1443.148390061486
 21
-3047.629505203881
 31
0.0
  0
ARC
  5
C9B8
330
2
100
AcDbEntity
  8
L-ZISSEN
100
AcDbCircle
 10
1434.32605959115
 20
-3069.858403500744
 30
0.0
 40
42.16762058039566
100
AcDbArc
 50
79.9999999999961
 51
100.0000000000039
  0
LINE
  5
C9B9
330
2
100
AcDbEntity
  8
L-ZISSEN
100
AcDbLine
 10
1434.32605959115
 20
-3034.690782920348
 30
0.0
 11
1398.970720531822
 21
-3034.690782920348
 31
0.0
  0
LINE
  5
C9BA
330
2
100
AcDbEntity
  8
L-ZISSEN
100
AcDbLine
 10
1390.148390061486
 20
-3047.629505203879
 30
0.0
 11
1443.148390061486
 21
-3047.629505203879
 31
0.0
  0
LINE
  5
C9BB
330
2
100
AcDbEntity
  8
L-SOUZOU
100
AcDbLine
 10
1443.148390061486
 20
-3036.129505203882
 30
0.0
 11
1390.148390061486
 21
-3036.129505203882
 31
0.0
  0
LINE
  5
C9BC
330
2
100
AcDbEntity
  8
L-SOUZOU
100
AcDbLine
 10
1443.148390061486
 20
-3034.69078292035
 30
0.0
 11
1390.148390061486
 21
-3034.69078292035
 31
0.0
  0
ARC
  5
C9BD
330
2
100
AcDbEntity
  8
L-ZISSEN
100
AcDbCircle
 10
1434.32605959115
 20
-2992.523162339953
 30
0.0
 40
42.16762058039566
100
AcDbArc
 50
259.9999999999961
 51
280.0000000000039
  0
LINE
  5
C9BE
330
2
100
AcDbEntity
  8
L-ZISSEN
100
AcDbLine
 10
1433.332453132917
 20
-2981.12950520388
 30
0.0
 11
1399.96432699006
 21
-2981.12950520388
 31
0.0
  0
LINE
  5
C9BF
330
2
100
AcDbEntity
  8
L-ZISSEN
100
AcDbLine
 10
1400.369818632915
 20
-3022.015219283616
 30
0.0
 11
1432.926961490059
 21
-3022.015219283616
 31
0.0
  0
LINE
  5
C9C0
330
2
100
AcDbEntity
  8
L-ZISSEN
100
AcDbLine
 10
1434.32605959115
 20
-3027.690782920348
 30
0.0
 11
1398.970720531822
 21
-3027.690782920348
 31
0.0
  0
LINE
  5
C9C1
330
2
100
AcDbEntity
  8
L-ZISSEN
100
AcDbLine
 10
1396.92694595464
 20
-3026.706754541137
 30
0.0
 11
1436.369834168332
 21
-3026.706754541137
 31
0.0
  0
LINE
  5
C9C2
330
2
100
AcDbEntity
  8
L-SOUZOU
100
AcDbLine
 10
1442.391247204345
 20
-3014.129505203881
 30
0.0
 11
1390.90553291863
 21
-3014.129505203881
 31
0.0
  0
LINE
  5
C9C3
330
2
100
AcDbEntity
  8
L-ZISSEN
100
AcDbLine
 10
1434.335061434649
 20
-3020.771486661023
 30
0.0
 11
1416.648390061486
 21
-3020.771486661023
 31
0.0
  0
LINE
  5
C9C4
330
2
100
AcDbEntity
  8
L-ZISSEN
100
AcDbLine
 10
1397.778023548694
 20
-3036.129505203882
 30
0.0
 11
1397.778023548694
 21
-3041.549611683994
 31
0.0
  0
ARC
  5
C9C5
330
2
100
AcDbEntity
  8
L-ZISSEN
100
AcDbCircle
 10
1394.467747132918
 20
-3040.50140765194
 30
0.0
 40
2.056022658905287
100
AcDbArc
 50
354.9022474682888
 51
91.24326520780831
  0
ARC
  5
C9C6
330
2
100
AcDbEntity
  8
L-ZISSEN
100
AcDbCircle
 10
1393.458666477265
 20
-3040.50140765194
 30
0.0
 40
2.056022658905677
100
AcDbArc
 50
88.7567347921917
 51
185.0977525317111
  0
LINE
  5
C9C7
330
2
100
AcDbEntity
  8
L-ZISSEN
100
AcDbLine
 10
1390.148390061486
 20
-3040.222362346737
 30
0.0
 11
1390.148390061486
 21
-3051.129505203883
 31
0.0
  0
LINE
  5
C9C9
330
2
100
AcDbEntity
  8
L-ZISSEN
100
AcDbLine
 10
1396.515637300259
 20
-3040.684096010716
 30
0.0
 11
1396.515637300259
 21
-3041.549611683994
 31
0.0
  0
LINE
  5
C9CA
330
2
100
AcDbEntity
  8
L-ZISSEN
100
AcDbLine
 10
1391.410776309922
 20
-3041.549611683994
 30
0.0
 11
1391.410776309922
 21
-3040.684096010716
 31
0.0
  0
LINE
  5
C9CB
330
2
100
AcDbEntity
  8
L-ZISSEN
100
AcDbLine
 10
1396.515637300259
 20
-3041.549611683994
 30
0.0
 11
1391.410776309922
 21
-3041.549611683994
 31
0.0
  0
LINE
  5
C9CC
330
2
100
AcDbEntity
  8
L-ZISSEN
100
AcDbLine
 10
1391.410776309922
 20
-3040.684096010716
 30
0.0
 11
1396.515637300259
 21
-3040.684096010716
 31
0.0
  0
LINE
  5
C9CD
330
2
100
AcDbEntity
  8
L-ZISSEN
100
AcDbLine
 10
1397.778023548695
 20
-3041.549611683994
 30
0.0
 11
1390.148390061487
 21
-3041.549611683994
 31
0.0
  0
ARC
  5
C9CE
330
2
100
AcDbEntity
  8
L-ZISSEN
100
AcDbCircle
 10
1398.970720531822
 20
-3069.858403500744
 30
0.0
 40
42.16762058039566
100
AcDbArc
 50
79.9999999999961
 51
100.0000000000039
  0
ARC
  5
C9CF
330
2
100
AcDbEntity
  8
L-ZISSEN
100
AcDbCircle
 10
1398.970720531822
 20
-2992.523162339953
 30
0.0
 40
42.16762058039566
100
AcDbArc
 50
259.9999999999961
 51
280.0000000000039
  0
LINE
  5
C9D0
330
2
100
AcDbEntity
  8
L-ZISSEN
100
AcDbLine
 10
1398.961718688327
 20
-3020.771486661023
 30
0.0
 11
1416.648390061486
 21
-3020.771486661023
 31
0.0
  0
LINE
  5
C9D1
330
2
100
AcDbEntity
  8
L-ZISSEN
100
AcDbLine
 10
1398.476961490059
 20
-2982.91434380388
 30
0.0
 11
1399.96432699006
 21
-2981.12950520388
 31
0.0
  0
LINE
  5
C9D2
330
2
100
AcDbEntity
  8
L-TYUSIN
100
AcDbLine
 10
1396.205532918632
 20
-3018.208076632453
 30
0.0
 11
1396.205532918632
 21
-3028.05093377531
 31
0.0
  0
LINE
  5
C9D3
330
2
100
AcDbEntity
  8
L-SOUZOU
100
AcDbLine
 10
1390.148390061486
 20
-3036.129505203882
 30
0.0
 11
1390.148390061486
 21
-3014.886648061024
 31
0.0
  0
LINE
  5
C9D4
330
2
100
AcDbEntity
  8
L-ZISSEN
100
AcDbLine
 10
1394.423136851521
 20
-3038.445869012866
 30
0.0
 11
1394.423136851521
 21
-3039.191665124215
 31
0.0
  0
LINE
  5
C9D5
330
2
100
AcDbEntity
  8
L-ZISSEN
100
AcDbLine
 10
1393.50327675866
 20
-3039.191665124215
 30
0.0
 11
1393.50327675866
 21
-3038.445869012866
 31
0.0
  0
LINE
  5
C9D6
330
2
100
AcDbEntity
  8
L-ZISSEN
100
AcDbLine
 10
1390.148390061486
 20
-3040.343356838477
 30
0.0
 11
1390.148390061486
 21
-3036.129505203882
 31
0.0
  0
LINE
  5
C9D7
330
2
100
AcDbEntity
  8
L-ZISSEN
100
AcDbLine
 10
1391.648390061486
 20
-3028.331403827094
 30
0.0
 11
1391.648390061486
 21
-3034.050162013604
 31
0.0
  0
LINE
  5
C9D8
330
2
100
AcDbEntity
  8
L-ZISSEN
100
AcDbLine
 10
1394.423136851521
 20
-3039.191665124215
 30
0.0
 11
1393.50327675866
 21
-3039.191665124215
 31
0.0
  0
LINE
  5
C9D9
330
2
100
AcDbEntity
  8
L-ZISSEN
100
AcDbLine
 10
1401.316247204345
 20
-3020.771486661023
 30
0.0
 11
1401.316247204345
 21
-3022.015219283616
 31
0.0
  0
LINE
  5
C9DA
330
2
100
AcDbEntity
  8
L-ZISSEN
100
AcDbLine
 10
1400.369818632915
 20
-3022.015219283616
 30
0.0
 11
1400.369818632915
 21
-3026.706754541137
 31
0.0
  0
ARC
  5
C9DB
330
2
100
AcDbEntity
  8
L-ZISSEN
100
AcDbCircle
 10
1399.654502806609
 20
-3019.168422026329
 30
0.0
 40
1.746357940845507
100
AcDbArc
 50
181.899368244253
 51
246.6278188173623
  0
LINE
  5
C9DC
330
2
100
AcDbEntity
  8
L-SOUZOU
100
AcDbLine
 10
1395.355532918632
 20
-3019.979505203881
 30
0.0
 11
1397.055532918632
 21
-3019.979505203881
 31
0.0
  0
LINE
  5
C9DD
330
2
100
AcDbEntity
  8
L-SAISEN
100
AcDbLine
 10
1396.92694595464
 20
-3026.706754541137
 30
0.0
 11
1396.92694595464
 21
-3027.74034073796
 31
0.0
  0
LINE
  5
C9DE
330
2
100
AcDbEntity
  8
L-ZISSEN
100
AcDbLine
 10
1395.648390061486
 20
-3027.260557491548
 30
0.0
 11
1395.648390061486
 21
-3027.821867658003
 31
0.0
  0
LINE
  5
C9DF
330
2
100
AcDbEntity
  8
L-ZISSEN
100
AcDbLine
 10
1396.92694595464
 20
-3026.706754541137
 30
0.0
 11
1395.648390061486
 21
-3027.260557491548
 31
0.0
  0
LINE
  5
C9E0
330
2
100
AcDbEntity
  8
L-SOUZOU
100
AcDbLine
 10
1395.355532918632
 20
-3026.279505203881
 30
0.0
 11
1397.055532918632
 21
-3026.279505203881
 31
0.0
  0
LINE
  5
C9E1
330
2
100
AcDbEntity
  8
L-SOUZOU
100
AcDbLine
 10
1390.905532918631
 20
-3014.129505203881
 30
0.0
 11
1390.148390061486
 21
-3014.886648061024
 31
0.0
  0
LINE
  5
C9E2
330
2
100
AcDbEntity
  8
L-TYUSIN
 48
0.5
100
AcDbLine
 10
1401.884104347202
 20
-3023.129505203881
 30
0.0
 11
1390.526961490059
 21
-3023.129505203881
 31
0.0
  0
ARC
  5
C9E3
330
2
100
AcDbEntity
  8
L-SOUZOU
100
AcDbCircle
 10
1395.355532918632
 20
-3023.129505203881
 30
0.0
 40
3.149999999999999
100
AcDbArc
 50
90.0
 51
270.0
  0
ARC
  5
C9E4
330
2
100
AcDbEntity
  8
L-SOUZOU
100
AcDbCircle
 10
1397.055532918632
 20
-3023.129505203881
 30
0.0
 40
3.149999999999999
100
AcDbArc
 50
270.0
 51
90.0
  0
LINE
  5
C9E5
330
2
100
AcDbEntity
  8
L-ZISSEN
100
AcDbLine
 10
1398.476961490056
 20
-2982.91434380388
 30
0.0
 11
1397.9091043472
 21
-3019.226303590249
 31
0.0
  0
ARC
  5
C9E7
330
2
100
AcDbEntity
  8
L-ZISSEN
100
AcDbCircle
 10
1416.648390061486
 20
-3111.705713627767
 30
0.0
 40
84.01493070741805
100
AcDbArc
 50
82.91995048528574
 51
97.08004951471428
  0
ARC
  5
C9E8
330
2
100
AcDbEntity
  8
L-ZISSEN
100
AcDbCircle
 10
1416.648390061486
 20
-2950.67585221293
 30
0.0
 40
84.01493070741805
100
AcDbArc
 50
262.9199504852857
 51
277.0800495147142
  0
LINE
  5
C9E9
330
2
100
AcDbEntity
  8
L-ZISSEN
100
AcDbLine
 10
1406.293051002158
 20
-3028.331403827094
 30
0.0
 11
1406.293051002158
 21
-3034.050162013604
 31
0.0
  0
LINE
  5
C9EA
330
2
100
AcDbEntity
  8
L-ZISSEN
100
AcDbLine
 10
1427.003729120813
 20
-3028.331403827094
 30
0.0
 11
1427.003729120813
 21
-3034.050162013604
 31
0.0
  0
ARC
  5
C9EB
330
2
100
AcDbEntity
  8
L-ZISSEN
100
AcDbCircle
 10
1438.829032990057
 20
-3040.50140765194
 30
0.0
 40
2.056022658906106
100
AcDbArc
 50
88.7567347921917
 51
185.0977525317111
  0
LINE
  5
C9EC
330
2
100
AcDbEntity
  8
L-ZISSEN
100
AcDbLine
 10
1435.518756574279
 20
-3036.129505203882
 30
0.0
 11
1435.518756574279
 21
-3041.549611683993
 31
0.0
  0
ARC
  5
C9ED
330
2
100
AcDbEntity
  8
L-ZISSEN
100
AcDbCircle
 10
1439.838113645708
 20
-3040.50140765194
 30
0.0
 40
2.056022658905287
100
AcDbArc
 50
354.9022474682888
 51
91.24326520780831
  0
LINE
  5
C9EE
330
2
100
AcDbEntity
  8
L-ZISSEN
100
AcDbLine
 10
1443.148390061486
 20
-3040.222362346737
 30
0.0
 11
1443.148390061486
 21
-3051.129505203883
 31
0.0
  0
LINE
  5
C9EF
330
2
100
AcDbEntity
  8
L-ZISSEN
100
AcDbLine
 10
1435.518756574279
 20
-3041.549611683994
 30
0.0
 11
1443.148390061486
 21
-3041.549611683994
 31
0.0
  0
LINE
  5
C9F0
330
2
100
AcDbEntity
  8
L-ZISSEN
100
AcDbLine
 10
1441.886003813052
 20
-3040.684096010716
 30
0.0
 11
1441.886003813052
 21
-3041.549611683994
 31
0.0
  0
LINE
  5
C9F1
330
2
100
AcDbEntity
  8
L-ZISSEN
100
AcDbLine
 10
1436.781142822713
 20
-3041.549611683994
 30
0.0
 11
1436.781142822713
 21
-3040.684096010716
 31
0.0
  0
LINE
  5
C9F2
330
2
100
AcDbEntity
  8
L-ZISSEN
100
AcDbLine
 10
1441.886003813052
 20
-3041.549611683994
 30
0.0
 11
1436.781142822713
 21
-3041.549611683994
 31
0.0
  0
LINE
  5
C9F3
330
2
100
AcDbEntity
  8
L-ZISSEN
100
AcDbLine
 10
1436.781142822713
 20
-3040.684096010716
 30
0.0
 11
1441.886003813052
 21
-3040.684096010716
 31
0.0
  0
LINE
  5
C9F4
330
2
100
AcDbEntity
  8
L-ZISSEN
100
AcDbLine
 10
1434.819818632916
 20
-2982.91434380388
 30
0.0
 11
1433.332453132917
 21
-2981.12950520388
 31
0.0
  0
LINE
  5
C9F5
330
2
100
AcDbEntity
  8
L-SOUZOU
100
AcDbLine
 10
1443.148390061486
 20
-3036.129505203882
 30
0.0
 11
1443.148390061486
 21
-3014.886648061024
 31
0.0
  0
LINE
  5
C9F6
330
2
100
AcDbEntity
  8
L-TYUSIN
100
AcDbLine
 10
1437.091247204345
 20
-3018.208076632453
 30
0.0
 11
1437.091247204345
 21
-3028.05093377531
 31
0.0
  0
LINE
  5
C9F7
330
2
100
AcDbEntity
  8
L-ZISSEN
100
AcDbLine
 10
1443.148390061486
 20
-3040.343356838477
 30
0.0
 11
1443.148390061486
 21
-3036.129505203882
 31
0.0
  0
LINE
  5
C9F8
330
2
100
AcDbEntity
  8
L-ZISSEN
100
AcDbLine
 10
1439.793503364313
 20
-3038.445869012866
 30
0.0
 11
1439.793503364313
 21
-3039.191665124215
 31
0.0
  0
LINE
  5
C9F9
330
2
100
AcDbEntity
  8
L-ZISSEN
100
AcDbLine
 10
1438.873643271453
 20
-3039.191665124215
 30
0.0
 11
1438.873643271453
 21
-3038.445869012866
 31
0.0
  0
LINE
  5
C9FA
330
2
100
AcDbEntity
  8
L-ZISSEN
100
AcDbLine
 10
1439.793503364313
 20
-3039.191665124215
 30
0.0
 11
1438.873643271453
 21
-3039.191665124215
 31
0.0
  0
LINE
  5
C9FB
330
2
100
AcDbEntity
  8
L-ZISSEN
100
AcDbLine
 10
1441.648390061486
 20
-3028.331403827094
 30
0.0
 11
1441.648390061486
 21
-3034.050162013604
 31
0.0
  0
LINE
  5
C9FC
330
2
100
AcDbEntity
  8
L-ZISSEN
100
AcDbLine
 10
1441.648390061486
 20
-3032.067523162238
 30
0.0
 11
1441.648390061486
 21
-3028.331403827094
 31
0.0
  0
LINE
  5
C9FD
330
2
100
AcDbEntity
  8
L-SOUZOU
100
AcDbLine
 10
1437.94124720434
 20
-3019.979505203881
 30
0.0
 11
1436.24124720434
 21
-3019.979505203881
 31
0.0
  0
LINE
  5
C9FE
330
2
100
AcDbEntity
  8
L-ZISSEN
100
AcDbLine
 10
1436.369834168332
 20
-3026.706754541137
 30
0.0
 11
1437.648390061486
 21
-3027.260557491548
 31
0.0
  0
LINE
  5
C9FF
330
2
100
AcDbEntity
  8
L-SOUZOU
100
AcDbLine
 10
1437.94124720434
 20
-3026.279505203881
 30
0.0
 11
1436.24124720434
 21
-3026.279505203881
 31
0.0
  0
LINE
  5
CA00
330
2
100
AcDbEntity
  8
L-TYUSIN
 48
0.5
100
AcDbLine
 10
1442.769818632915
 20
-3023.129505203881
 30
0.0
 11
1431.412675775772
 21
-3023.129505203881
 31
0.0
  0
ARC
  5
CA01
330
2
100
AcDbEntity
  8
L-ZISSEN
100
AcDbCircle
 10
1433.642277316363
 20
-3019.168422026329
 30
0.0
 40
1.746357940845507
100
AcDbArc
 50
293.3721811826377
 51
358.100631755747
  0
LINE
  5
CA02
330
2
100
AcDbEntity
  8
L-SAISEN
100
AcDbLine
 10
1436.369834168332
 20
-3026.706754541137
 30
0.0
 11
1436.369834168332
 21
-3027.74034073796
 31
0.0
  0
LINE
  5
CA03
330
2
100
AcDbEntity
  8
L-ZISSEN
100
AcDbLine
 10
1432.926961490059
 20
-3022.015219283616
 30
0.0
 11
1432.926961490059
 21
-3026.706754541137
 31
0.0
  0
LINE
  5
CA04
330
2
100
AcDbEntity
  8
L-ZISSEN
100
AcDbLine
 10
1431.980532918631
 20
-3020.771486661023
 30
0.0
 11
1431.980532918631
 21
-3022.015219283616
 31
0.0
  0
ARC
  5
CA05
330
2
100
AcDbEntity
  8
L-SOUZOU
100
AcDbCircle
 10
1436.24124720434
 20
-3023.129505203881
 30
0.0
 40
3.149999999999999
100
AcDbArc
 50
90.0
 51
270.0
  0
LINE
  5
CA06
330
2
100
AcDbEntity
  8
L-SOUZOU
100
AcDbLine
 10
1442.391247204345
 20
-3014.129505203881
 30
0.0
 11
1443.148390061486
 21
-3014.886648061024
 31
0.0
  0
LINE
  5
CA07
330
2
100
AcDbEntity
  8
L-ZISSEN
100
AcDbLine
 10
1437.648390061486
 20
-3027.260557491548
 30
0.0
 11
1437.648390061486
 21
-3027.821867658003
 31
0.0
  0
ARC
  5
CA08
330
2
100
AcDbEntity
  8
L-SOUZOU
100
AcDbCircle
 10
1437.94124720434
 20
-3023.129505203881
 30
0.0
 40
3.149999999999999
100
AcDbArc
 50
270.0
 51
90.0
  0
LINE
  5
CA09
330
2
100
AcDbEntity
  8
L-ZISSEN
100
AcDbLine
 10
1434.819818632916
 20
-2982.91434380388
 30
0.0
 11
1435.387675775772
 21
-3019.226303590249
 31
0.0
  0
LINE
  5
CA0C
330
2
100
AcDbEntity
  8
L-ZISSEN
100
AcDbLine
 10
1395.826961490058
 20
-3059.129505203881
 30
0.0
 11
1395.826961490058
 21
-3047.629505203879
 31
0.0
  0
LINE
  5
CA0D
330
2
100
AcDbEntity
  8
L-ZISSEN
100
AcDbLine
 10
1392.798390061487
 20
-3047.629505203879
 30
0.0
 11
1392.798390061487
 21
-3059.129505203881
 31
0.0
  0
LINE
  5
CA0E
330
2
100
AcDbEntity
  8
L-ZISSEN
100
AcDbLine
 10
1440.498390061488
 20
-3047.629505203879
 30
0.0
 11
1440.498390061488
 21
-3059.129505203881
 31
0.0
  0
LINE
  5
CA0F
330
2
100
AcDbEntity
  8
L-ZISSEN
100
AcDbLine
 10
1437.469818632916
 20
-3047.629505203879
 30
0.0
 11
1437.469818632916
 21
-3059.129505203881
 31
0.0
  0
LINE
  5
CA10
330
2
100
AcDbEntity
  8
L-ZISSEN
100
AcDbLine
 10
1440.87696149006
 20
-3059.129505203881
 30
0.0
 11
1392.419818632917
 21
-3059.129505203881
 31
0.0
  0
LINE
  5
CA12
330
2
100
AcDbEntity
  8
L-ZISSEN
100
AcDbLine
 10
1400.648390061486
 20
-3059.129505203881
 30
0.0
 11
1400.648390061486
 21
-3077.629505203882
 31
0.0
  0
LINE
  5
CA13
330
2
100
AcDbEntity
  8
L-ZISSEN
100
AcDbLine
 10
1403.898390061486
 20
-3059.129505203881
 30
0.0
 11
1403.898390061486
 21
-3077.629505203882
 31
0.0
  0
LINE
  5
CA14
330
2
100
AcDbEntity
  8
L-ZISSEN
100
AcDbLine
 10
1392.419818632916
 20
-3077.586648061023
 30
0.0
 11
1392.419818632917
 21
-3059.129505203881
 31
0.0
  0
LINE
  5
CA15
330
2
100
AcDbEntity
  8
L-ZISSEN
100
AcDbLine
 10
1393.934104347199
 20
-3077.629505203881
 30
0.0
 11
1393.934104347199
 21
-3059.129505203881
 31
0.0
  0
LINE
  5
CA16
330
2
100
AcDbEntity
  8
L-ZISSEN
100
AcDbLine
 10
1440.876961490058
 20
-3077.586648061023
 30
0.0
 11
1440.876961490058
 21
-3059.129505203881
 31
0.0
  0
LINE
  5
CA17
330
2
100
AcDbEntity
  8
L-ZISSEN
100
AcDbLine
 10
1439.36267577577
 20
-3077.629505203881
 30
0.0
 11
1439.36267577577
 21
-3059.129505203881
 31
0.0
  0
LINE
  5
CA1A
330
2
100
AcDbEntity
  8
L-ZISSEN
100
AcDbLine
 10
1241.648390061486
 20
-2878.484844263209
 30
0.0
 11
1256.293051002159
 21
-2893.129505203882
 31
0.0
  0
LINE
  5
CA1B
330
2
100
AcDbEntity
  8
L-ZISSEN
100
AcDbLine
 10
1256.293051002159
 20
-2843.129505203881
 30
0.0
 11
1241.648390061486
 21
-2857.774166144554
 31
0.0
  0
CIRCLE
  5
CA1C
330
2
100
AcDbEntity
  8
L-ZISSEN
100
AcDbCircle
 10
1266.648390061486
 20
-2868.129505203881
 30
0.0
 40
16.65714285714284
  0
CIRCLE
  5
CA1D
330
2
100
AcDbEntity
  8
L-ZISSEN
100
AcDbCircle
 10
1266.648390061486
 20
-2868.129505203881
 30
0.0
 40
18.73928571428837
  0
CIRCLE
  5
CA1E
330
2
100
AcDbEntity
  8
L-ZISSEN
100
AcDbCircle
 10
1266.648390061486
 20
-2868.129505203881
 30
0.0
 40
21.0
  0
CIRCLE
  5
CA1F
330
2
100
AcDbEntity
  8
L-ZISSEN
100
AcDbCircle
 10
1266.648390061486
 20
-2868.129505203881
 30
0.0
 40
25.0
  0
LINE
  5
CA20
330
2
100
AcDbEntity
  8
L-ZISSEN
100
AcDbLine
 10
1251.648390061486
 20
-2894.629505203882
 30
0.0
 11
1281.648390061486
 21
-2894.629505203882
 31
0.0
  0
LINE
  5
CA21
330
2
100
AcDbEntity
  8
L-ZISSEN
100
AcDbLine
 10
1251.648390061486
 20
-2841.629505203881
 30
0.0
 11
1281.648390061486
 21
-2841.629505203881
 31
0.0
  0
CIRCLE
  5
CA22
330
2
100
AcDbEntity
  8
L-SOUZOU
100
AcDbCircle
 10
1266.648390061486
 20
-2868.129505203881
 30
0.0
 40
21.25
  0
LINE
  5
CA23
330
2
100
AcDbEntity
  8
L-SOUZOU
100
AcDbLine
 10
1226.683950938934
 20
-2841.629505203881
 30
0.0
 11
1267.716865803303
 21
-2843.402579402457
 31
0.0
  0
LINE
  5
CA24
330
2
100
AcDbEntity
  8
L-SOUZOU
100
AcDbLine
 10
1226.683950938935
 20
-2894.629505203882
 30
0.0
 11
1267.716865803303
 21
-2892.856431005306
 31
0.0
  0
LINE
  5
CA25
330
2
100
AcDbEntity
  8
L-TYUSIN
100
AcDbLine
 10
1212.898390061486
 20
-2868.129505203881
 30
0.0
 11
1327.969818632912
 21
-2868.129505203881
 31
0.0
  0
LINE
  5
CA26
330
2
100
AcDbEntity
  8
L-ZISSEN
100
AcDbLine
 10
1251.648390061486
 20
-2844.129505203881
 30
0.0
 11
1240.148390061486
 21
-2848.129505203882
 31
0.0
  0
LINE
  5
CA27
330
2
100
AcDbEntity
  8
L-SOUZOU
100
AcDbLine
 10
1219.898390061487
 20
-2894.629505203882
 30
0.0
 11
1219.898390061487
 21
-2841.629505203881
 31
0.0
  0
LINE
  5
CA28
330
2
100
AcDbEntity
  8
L-SOUZOU
100
AcDbLine
 10
1217.648390061486
 20
-2894.629505203882
 30
0.0
 11
1217.648390061486
 21
-2841.629505203881
 31
0.0
  0
LINE
  5
CA29
330
2
100
AcDbEntity
  8
L-SOUZOU
100
AcDbLine
 10
1217.648390061486
 20
-2894.629505203882
 30
0.0
 11
1226.683950938935
 21
-2894.629505203882
 31
0.0
  0
LINE
  5
CA2A
330
2
100
AcDbEntity
  8
L-ZISSEN
100
AcDbLine
 10
1251.648390061486
 20
-2892.129505203882
 30
0.0
 11
1251.648390061486
 21
-2894.629505203882
 31
0.0
  0
LINE
  5
CA2B
330
2
100
AcDbEntity
  8
L-ZISSEN
100
AcDbLine
 10
1241.648390061486
 20
-2857.774166144554
 30
0.0
 11
1241.648390061486
 21
-2878.484844263209
 31
0.0
  0
LINE
  5
CA2C
330
2
100
AcDbEntity
  8
L-ZISSEN
100
AcDbLine
 10
1251.648390061486
 20
-2892.129505203882
 30
0.0
 11
1240.148390061486
 21
-2888.129505203881
 31
0.0
  0
CIRCLE
  5
CA2D
330
2
100
AcDbEntity
  8
L-ZISSEN
100
AcDbCircle
 10
1243.648390061486
 20
-2885.629505203882
 30
0.0
 40
3.25
  0
LINE
  5
CA2E
330
2
100
AcDbEntity
  8
L-ZISSEN
100
AcDbLine
 10
1240.148390061486
 20
-2888.129505203881
 30
0.0
 11
1240.148390061486
 21
-2848.129505203882
 31
0.0
  0
CIRCLE
  5
CA2F
330
2
100
AcDbEntity
  8
L-ZISSEN
100
AcDbCircle
 10
1243.648390061486
 20
-2850.629505203881
 30
0.0
 40
3.25
  0
LINE
  5
CA30
330
2
100
AcDbEntity
  8
L-SOUZOU
100
AcDbLine
 10
1217.648390061486
 20
-2841.629505203881
 30
0.0
 11
1226.683950938934
 21
-2841.629505203881
 31
0.0
  0
LINE
  5
CA31
330
2
100
AcDbEntity
  8
L-ZISSEN
100
AcDbLine
 10
1251.648390061486
 20
-2844.129505203881
 30
0.0
 11
1251.648390061486
 21
-2841.629505203881
 31
0.0
  0
LINE
  5
CA32
330
2
100
AcDbEntity
  8
L-SOUZOU
100
AcDbLine
 10
1299.469818632912
 20
-2888.529505203882
 30
0.0
 11
1313.969818632912
 21
-2888.529505203882
 31
0.0
  0
LINE
  5
CA33
330
2
100
AcDbEntity
  8
L-SOUZOU
100
AcDbLine
 10
1299.469818632912
 20
-2847.729505203881
 30
0.0
 11
1313.969818632912
 21
-2847.729505203881
 31
0.0
  0
LINE
  5
CA34
330
2
100
AcDbEntity
  8
L-ZISSEN
100
AcDbLine
 10
1281.648390061486
 20
-2844.129505203881
 30
0.0
 11
1293.148390061486
 21
-2848.129505203882
 31
0.0
  0
LINE
  5
CA35
330
2
100
AcDbEntity
  8
L-TYUSIN
100
AcDbLine
 10
1266.648390061486
 20
-2898.129505203881
 30
0.0
 11
1266.648390061486
 21
-2838.129505203882
 31
0.0
  0
LINE
  5
CA36
330
2
100
AcDbEntity
  8
L-ZISSEN
100
AcDbLine
 10
1291.648390061486
 20
-2857.774166144554
 30
0.0
 11
1277.003729120814
 21
-2843.129505203881
 31
0.0
  0
ARC
  5
CA37
330
2
100
AcDbEntity
  8
L-SOUZOU
100
AcDbCircle
 10
1266.648390061486
 20
-2868.129505203881
 30
0.0
 40
24.75
100
AcDbArc
 50
270.0
 51
87.52573000807112
  0
LINE
  5
CA38
330
2
100
AcDbEntity
  8
L-ZISSEN
100
AcDbLine
 10
1277.003729120814
 20
-2893.129505203882
 30
0.0
 11
1291.648390061486
 21
-2878.484844263209
 31
0.0
  0
LINE
  5
CA39
330
2
100
AcDbEntity
  8
L-ZISSEN
100
AcDbLine
 10
1256.293051002159
 20
-2893.129505203882
 30
0.0
 11
1277.003729120814
 21
-2893.129505203882
 31
0.0
  0
LINE
  5
CA3A
330
2
100
AcDbEntity
  8
L-SOUZOU
100
AcDbLine
 10
1290.469818632912
 20
-2863.725561410214
 30
0.0
 11
1291.074722833873
 21
-2863.120657209253
 31
0.0
  0
LINE
  5
CA3B
330
2
100
AcDbEntity
  8
L-SOUZOU
100
AcDbLine
 10
1290.469818632912
 20
-2872.533448997549
 30
0.0
 11
1291.074722833873
 21
-2873.13835319851
 31
0.0
  0
LINE
  5
CA3C
330
2
100
AcDbEntity
  8
L-SOUZOU
100
AcDbLine
 10
1291.969818632912
 20
-2862.779505203882
 30
0.0
 11
1291.969818632912
 21
-2873.479505203881
 31
0.0
  0
LINE
  5
CA3D
330
2
100
AcDbEntity
  8
L-SOUZOU
100
AcDbLine
 10
1290.469818632912
 20
-2863.139561410214
 30
0.0
 11
1290.469818632912
 21
-2873.119448997549
 31
0.0
  0
LINE
  5
CA3E
330
2
100
AcDbEntity
  8
L-SOUZOU
100
AcDbLine
 10
1287.469818632912
 20
-2873.025694312437
 30
0.0
 11
1291.969818632912
 21
-2873.166326340106
 31
0.0
  0
LINE
  5
CA3F
330
2
100
AcDbEntity
  8
L-SOUZOU
100
AcDbLine
 10
1287.469818632912
 20
-2872.439694312437
 30
0.0
 11
1290.469818632912
 21
-2872.533448997549
 31
0.0
  0
LINE
  5
CA40
330
2
100
AcDbEntity
  8
L-SOUZOU
100
AcDbLine
 10
1287.469818632912
 20
-2863.819316095326
 30
0.0
 11
1290.469818632912
 21
-2863.725561410214
 31
0.0
  0
LINE
  5
CA41
330
2
100
AcDbEntity
  8
L-SOUZOU
100
AcDbLine
 10
1287.469818632912
 20
-2863.233316095326
 30
0.0
 11
1291.969818632912
 21
-2863.092684067657
 31
0.0
  0
LINE
  5
CA42
330
2
100
AcDbEntity
  8
L-SOUZOU
100
AcDbLine
 10
1297.969818632912
 20
-2862.779505203882
 30
0.0
 11
1291.969818632912
 21
-2862.779505203882
 31
0.0
  0
LINE
  5
CA43
330
2
100
AcDbEntity
  8
L-SOUZOU
100
AcDbLine
 10
1291.969818632912
 20
-2873.479505203881
 30
0.0
 11
1297.969818632912
 21
-2873.479505203881
 31
0.0
  0
ARC
  5
CA44
330
2
100
AcDbEntity
  8
L-SOUZOU
100
AcDbCircle
 10
1299.469818632912
 20
-2887.029505203882
 30
0.0
 40
1.5
100
AcDbArc
 50
180.0
 51
270.0
  0
CIRCLE
  5
CA45
330
2
100
AcDbEntity
  8
L-ZISSEN
100
AcDbCircle
 10
1289.648390061486
 20
-2885.629505203882
 30
0.0
 40
3.25
  0
LINE
  5
CA46
330
2
100
AcDbEntity
  8
L-ZISSEN
100
AcDbLine
 10
1291.648390061486
 20
-2878.484844263209
 30
0.0
 11
1291.648390061486
 21
-2857.774166144554
 31
0.0
  0
LINE
  5
CA47
330
2
100
AcDbEntity
  8
L-SOUZOU
100
AcDbLine
 10
1297.969818632912
 20
-2849.229505203881
 30
0.0
 11
1297.969818632912
 21
-2887.029505203882
 31
0.0
  0
LINE
  5
CA48
330
2
100
AcDbEntity
  8
L-ZISSEN
100
AcDbLine
 10
1281.648390061486
 20
-2894.629505203882
 30
0.0
 11
1281.648390061486
 21
-2892.129505203882
 31
0.0
  0
LINE
  5
CA49
330
2
100
AcDbEntity
  8
L-ZISSEN
100
AcDbLine
 10
1281.648390061486
 20
-2892.129505203882
 30
0.0
 11
1293.148390061486
 21
-2888.129505203881
 31
0.0
  0
LINE
  5
CA4A
330
2
100
AcDbEntity
  8
L-ZISSEN
100
AcDbLine
 10
1293.148390061486
 20
-2848.129505203882
 30
0.0
 11
1293.148390061486
 21
-2888.129505203881
 31
0.0
  0
CIRCLE
  5
CA4B
330
2
100
AcDbEntity
  8
L-ZISSEN
100
AcDbCircle
 10
1289.648390061486
 20
-2850.629505203881
 30
0.0
 40
3.25
  0
ARC
  5
CA4C
330
2
100
AcDbEntity
  8
L-SOUZOU
100
AcDbCircle
 10
1299.469818632912
 20
-2849.229505203881
 30
0.0
 40
1.5
100
AcDbArc
 50
90.0
 51
180.0
  0
LINE
  5
CA4D
330
2
100
AcDbEntity
  8
L-ZISSEN
100
AcDbLine
 10
1277.003729120814
 20
-2843.129505203881
 30
0.0
 11
1256.293051002159
 21
-2843.129505203881
 31
0.0
  0
LINE
  5
CA4E
330
2
100
AcDbEntity
  8
L-ZISSEN
100
AcDbLine
 10
1281.648390061486
 20
-2841.629505203881
 30
0.0
 11
1281.648390061486
 21
-2844.129505203881
 31
0.0
  0
ARC
  5
CA4F
330
2
100
AcDbEntity
  8
L-SOUZOU
100
AcDbCircle
 10
1321.469818632912
 20
-2848.629505203882
 30
0.0
 40
1.5
100
AcDbArc
 50
0.0
 51
90.0
  0
LINE
  5
CA50
330
2
100
AcDbEntity
  8
L-SOUZOU
100
AcDbLine
 10
1313.969818632912
 20
-2847.129505203882
 30
0.0
 11
1321.469818632912
 21
-2847.129505203882
 31
0.0
  0
ARC
  5
CA51
330
2
100
AcDbEntity
  8
L-SOUZOU
100
AcDbCircle
 10
1321.469818632912
 20
-2887.629505203881
 30
0.0
 40
1.5
100
AcDbArc
 50
270.0
 51
0.0
  0
LINE
  5
CA52
330
2
100
AcDbEntity
  8
L-SOUZOU
100
AcDbLine
 10
1313.969818632912
 20
-2889.129505203881
 30
0.0
 11
1321.469818632912
 21
-2889.129505203881
 31
0.0
  0
LINE
  5
CA53
330
2
100
AcDbEntity
  8
L-SOUZOU
100
AcDbLine
 10
1322.969818632912
 20
-2848.629505203882
 30
0.0
 11
1322.969818632912
 21
-2887.629505203881
 31
0.0
  0
LINE
  5
CA54
330
2
100
AcDbEntity
  8
L-SOUZOU
100
AcDbLine
 10
1313.969818632912
 20
-2847.129505203882
 30
0.0
 11
1313.969818632912
 21
-2889.129505203881
 31
0.0
  0
LINE
  5
CA58
330
2
100
AcDbEntity
  8
L-ZISSEN
100
AcDbLine
 10
1429.398390061486
 20
-3059.129505203881
 30
0.0
 11
1429.398390061486
 21
-3077.629505203882
 31
0.0
  0
LINE
  5
CA59
330
2
100
AcDbEntity
  8
L-ZISSEN
100
AcDbLine
 10
1432.648390061486
 20
-3059.129505203881
 30
0.0
 11
1432.648390061487
 21
-3077.629505203882
 31
0.0
  0
LINE
  5
CA60
330
2
100
AcDbEntity
  8
L-ZISSEN
100
AcDbLine
 10
1253.019818632914
 20
-3082.129505203881
 30
0.0
 11
1280.276961490055
 21
-3082.129505203881
 31
0.0
  0
LINE
  5
CA63
330
2
100
AcDbEntity
  8
L-ZISSEN
100
AcDbLine
 10
1280.276961490055
 20
-3083.100933775312
 30
0.0
 11
1280.276961490055
 21
-3085.750933775312
 31
0.0
  0
LINE
  5
CA69
330
2
100
AcDbEntity
  8
L-ZISSEN
100
AcDbLine
 10
1280.276961490055
 20
-3051.129505203881
 30
0.0
 11
1253.019818632914
 21
-3051.129505203881
 31
0.0
  0
LINE
  5
CA6A
330
2
100
AcDbEntity
  8
L-ZISSEN
100
AcDbLine
 10
1253.019818632914
 20
-3085.129505203882
 30
0.0
 11
1280.276961490055
 21
-3085.129505203882
 31
0.0
  0
LINE
  5
CA6F
330
2
100
AcDbEntity
  8
L-ZISSEN
100
AcDbLine
 10
1392.148390061486
 20
-3054.129505203881
 30
0.0
 11
1392.148390061486
 21
-3051.129505203883
 31
0.0
  0
LINE
  5
CA70
330
2
100
AcDbEntity
  8
L-ZISSEN
100
AcDbLine
 10
1390.148390061486
 20
-3054.129505203881
 30
0.0
 11
1392.148390061486
 21
-3054.129505203881
 31
0.0
  0
LINE
  5
CA71
330
2
100
AcDbEntity
  8
L-ZISSEN
100
AcDbLine
 10
1390.148390061487
 20
-3051.129505203883
 30
0.0
 11
1392.148390061487
 21
-3051.129505203882
 31
0.0
  0
LINE
  5
CA72
330
2
100
AcDbEntity
  8
L-ZISSEN
100
AcDbLine
 10
1390.148390061486
 20
-3054.129505203881
 30
0.0
 11
1390.148390061487
 21
-3082.129505203882
 31
0.0
  0
LINE
  5
CA73
330
2
100
AcDbEntity
  8
L-ZISSEN
100
AcDbLine
 10
1443.148390061486
 20
-3051.129505203883
 30
0.0
 11
1441.148390061486
 21
-3051.129505203882
 31
0.0
  0
LINE
  5
CA74
330
2
100
AcDbEntity
  8
L-ZISSEN
100
AcDbLine
 10
1443.148390061486
 20
-3054.129505203881
 30
0.0
 11
1441.148390061486
 21
-3054.129505203881
 31
0.0
  0
LINE
  5
CA75
330
2
100
AcDbEntity
  8
L-ZISSEN
100
AcDbLine
 10
1441.148390061486
 20
-3054.129505203881
 30
0.0
 11
1441.148390061487
 21
-3051.129505203883
 31
0.0
  0
LINE
  5
CA76
330
2
100
AcDbEntity
  8
L-ZISSEN
100
AcDbLine
 10
1441.148390061486
 20
-3085.129505203881
 30
0.0
 11
1441.148390061487
 21
-3082.129505203882
 31
0.0
  0
LINE
  5
CA77
330
2
100
AcDbEntity
  8
L-ZISSEN
100
AcDbLine
 10
1443.148390061486
 20
-3085.129505203881
 30
0.0
 11
1441.148390061486
 21
-3085.129505203881
 31
0.0
  0
LINE
  5
CA78
330
2
100
AcDbEntity
  8
L-ZISSEN
100
AcDbLine
 10
1443.148390061486
 20
-3082.129505203882
 30
0.0
 11
1441.148390061486
 21
-3082.129505203881
 31
0.0
  0
LINE
  5
CA79
330
2
100
AcDbEntity
  8
L-ZISSEN
100
AcDbLine
 10
1443.148390061486
 20
-3054.129505203881
 30
0.0
 11
1443.148390061486
 21
-3082.129505203882
 31
0.0
  0
ARC
  5
CA7A
330
2
100
AcDbEntity
  8
L-ZISSEN
100
AcDbCircle
 10
1657.591247204343
 20
-2950.316459947188
 30
0.0
 40
6.057142857142703
100
AcDbArc
 50
283.9062370650903
 51
0.0
  0
LINE
  5
CA90
330
2
100
AcDbEntity
  8
L-ZISSEN
100
AcDbLine
 10
1529.648390061486
 20
-2958.929505203881
 30
0.0
 11
1553.648390061486
 21
-2958.929505203881
 31
0.0
  0
LINE
  5
CA91
330
2
100
AcDbEntity
  8
L-ZISSEN
100
AcDbLine
 10
1529.648390061486
 20
-2957.429505203881
 30
0.0
 11
1553.648390061486
 21
-2957.429505203881
 31
0.0
  0
LINE
  5
CA92
330
2
100
AcDbEntity
  8
L-ZISSEN
100
AcDbLine
 10
1529.648390061486
 20
-2961.429505203881
 30
0.0
 11
1553.648390061486
 21
-2961.429505203881
 31
0.0
  0
LINE
  5
CA93
330
2
100
AcDbEntity
  8
L-ZISSEN
100
AcDbLine
 10
1552.648390061486
 20
-2970.429505203881
 30
0.0
 11
1530.648390061486
 21
-2970.429505203881
 31
0.0
  0
LINE
  5
CA94
330
2
100
AcDbEntity
  8
L-ZISSEN
100
AcDbLine
 10
1531.648390061486
 20
-2973.929505203881
 30
0.0
 11
1551.648390061486
 21
-2973.929505203881
 31
0.0
  0
LINE
  5
CA95
330
2
100
AcDbEntity
  8
L-ZISSEN
100
AcDbLine
 10
1531.648390061486
 20
-2974.629505203881
 30
0.0
 11
1551.648390061486
 21
-2974.629505203881
 31
0.0
  0
LINE
  5
CA96
330
2
100
AcDbEntity
  8
L-ZISSEN
100
AcDbLine
 10
1531.648390061486
 20
-2988.129505203881
 30
0.0
 11
1551.648390061486
 21
-2988.129505203881
 31
0.0
  0
LINE
  5
CA97
330
2
100
AcDbEntity
  8
L-ZISSEN
100
AcDbLine
 10
1531.648390061486
 20
-2988.129505203881
 30
0.0
 11
1531.648390061486
 21
-2974.629505203881
 31
0.0
  0
LINE
  5
CA98
330
2
100
AcDbEntity
  8
L-ZISSEN
100
AcDbLine
 10
1519.648390061486
 20
-2950.316459947188
 30
0.0
 11
1519.648390061485
 21
-2864.129505203881
 31
0.0
  0
LINE
  5
CA99
330
2
100
AcDbEntity
  8
L-ZISSEN
100
AcDbLine
 10
1522.594470485264
 20
-2870.475801404261
 30
0.0
 11
1522.594470485264
 21
-2933.475801404261
 31
0.0
  0
LINE
  5
CA9A
330
2
100
AcDbEntity
  8
L-ZISSEN
100
AcDbLine
 10
1528.977184770981
 20
-2870.475801404261
 30
0.0
 11
1528.977184770981
 21
-2933.475801404261
 31
0.0
  0
ARC
  5
CA9B
330
2
100
AcDbEntity
  8
L-ZISSEN
100
AcDbCircle
 10
1525.705532918629
 20
-2950.316459947188
 30
0.0
 40
6.057142857142703
100
AcDbArc
 50
180.0
 51
256.0937629349095
  0
LINE
  5
CA9C
330
2
100
AcDbEntity
  8
L-ZISSEN
100
AcDbLine
 10
1532.648390061486
 20
-2974.629505203881
 30
0.0
 11
1532.648390061487
 21
-2973.929505203881
 31
0.0
  0
LINE
  5
CA9D
330
2
100
AcDbEntity
  8
L-ZISSEN
100
AcDbLine
 10
1529.648390061486
 20
-2961.429505203881
 30
0.0
 11
1529.648390061486
 21
-2957.429505203881
 31
0.0
  0
LINE
  5
CA9E
330
2
100
AcDbEntity
  8
L-ZISSEN
100
AcDbLine
 10
1530.648390061486
 20
-2961.429505203881
 30
0.0
 11
1530.648390061486
 21
-2970.429505203881
 31
0.0
  0
LINE
  5
CA9F
330
2
100
AcDbEntity
  8
L-ZISSEN
100
AcDbLine
 10
1531.648390061486
 20
-2973.929505203881
 30
0.0
 11
1531.648390061486
 21
-2970.429505203881
 31
0.0
  0
ARC
  5
CAA0
330
2
100
AcDbEntity
  8
L-ZISSEN
100
AcDbCircle
 10
1435.819677471142
 20
-3355.674902219487
 30
0.0
 40
409.1493902604269
100
AcDbArc
 50
76.74258899663671
 51
77.51807467750734
  0
LINE
  5
CAA1
330
2
100
AcDbEntity
  8
L-ZISSEN
100
AcDbLine
 10
1525.785827628121
 20
-2934.990087118547
 30
0.0
 11
1522.594470485264
 21
-2933.475801404261
 31
0.0
  0
LINE
  5
CAA2
330
2
100
AcDbEntity
  8
L-ZISSEN
100
AcDbLine
 10
1528.977184770981
 20
-2933.475801404261
 30
0.0
 11
1525.785827628121
 21
-2934.990087118547
 31
0.0
  0
LINE
  5
CAA3
330
2
100
AcDbEntity
  8
L-ZISSEN
100
AcDbLine
 10
1522.594470485264
 20
-2870.475801404261
 30
0.0
 11
1528.977184770981
 21
-2870.475801404261
 31
0.0
  0
LINE
  5
CAA4
330
2
100
AcDbEntity
  8
L-ZISSEN
100
AcDbLine
 10
1631.648390061486
 20
-2988.129505203881
 30
0.0
 11
1631.648390061486
 21
-2974.629505203881
 31
0.0
  0
LINE
  5
CAA5
330
2
100
AcDbEntity
  8
L-ZISSEN
100
AcDbLine
 10
1651.648390061486
 20
-2988.129505203881
 30
0.0
 11
1651.648390061486
 21
-2974.629505203881
 31
0.0
  0
LINE
  5
CAA6
330
2
100
AcDbEntity
  8
L-ZISSEN
100
AcDbLine
 10
1551.648390061486
 20
-2988.129505203881
 30
0.0
 11
1551.648390061486
 21
-2974.629505203881
 31
0.0
  0
LINE
  5
CAA7
330
2
100
AcDbEntity
  8
L-ZISSEN
100
AcDbLine
 10
1631.648390061486
 20
-2988.129505203881
 30
0.0
 11
1651.648390061486
 21
-2988.129505203881
 31
0.0
  0
LINE
  5
CAA8
330
2
100
AcDbEntity
  8
L-ZISSEN
100
AcDbLine
 10
1563.648390061486
 20
-2950.316459947188
 30
0.0
 11
1563.648390061486
 21
-2880.389258930866
 31
0.0
  0
LINE
  5
CAA9
330
2
100
AcDbEntity
  8
L-ZISSEN
100
AcDbLine
 10
1553.691961490057
 20
-2870.475801404261
 30
0.0
 11
1553.691961490057
 21
-2933.475801404261
 31
0.0
  0
LINE
  5
CAAA
330
2
100
AcDbEntity
  8
L-ZISSEN
100
AcDbLine
 10
1560.074675775773
 20
-2870.475801404261
 30
0.0
 11
1560.074675775772
 21
-2933.475801404261
 31
0.0
  0
ARC
  5
CAAB
330
2
100
AcDbEntity
  8
L-ZISSEN
100
AcDbCircle
 10
1557.591247204343
 20
-2950.316459947188
 30
0.0
 40
6.057142857142703
100
AcDbArc
 50
283.9062370650903
 51
0.0
  0
LINE
  5
CAAC
330
2
100
AcDbEntity
  8
L-ZISSEN
100
AcDbLine
 10
1550.648390061486
 20
-2974.629505203881
 30
0.0
 11
1550.648390061486
 21
-2973.929505203881
 31
0.0
  0
LINE
  5
CAAD
330
2
100
AcDbEntity
  8
L-ZISSEN
100
AcDbLine
 10
1553.648390061486
 20
-2961.429505203881
 30
0.0
 11
1553.648390061486
 21
-2957.429505203881
 31
0.0
  0
LINE
  5
CAAE
330
2
100
AcDbEntity
  8
L-ZISSEN
100
AcDbLine
 10
1552.648390061486
 20
-2961.429505203881
 30
0.0
 11
1552.648390061486
 21
-2970.429505203881
 31
0.0
  0
LINE
  5
CAAF
330
2
100
AcDbEntity
  8
L-ZISSEN
100
AcDbLine
 10
1551.648390061486
 20
-2973.929505203881
 30
0.0
 11
1551.648390061486
 21
-2970.429505203881
 31
0.0
  0
ARC
  5
CAB0
330
2
100
AcDbEntity
  8
L-ZISSEN
100
AcDbCircle
 10
1647.47710265183
 20
-3355.674902219487
 30
0.0
 40
409.1493902604269
100
AcDbArc
 50
102.4819253224926
 51
103.2574110033632
  0
LINE
  5
CAB1
330
2
100
AcDbEntity
  8
L-ZISSEN
100
AcDbLine
 10
1556.883318632915
 20
-2934.990087118547
 30
0.0
 11
1560.074675775772
 21
-2933.475801404261
 31
0.0
  0
LINE
  5
CAB2
330
2
100
AcDbEntity
  8
L-ZISSEN
100
AcDbLine
 10
1553.691961490057
 20
-2933.475801404261
 30
0.0
 11
1556.883318632915
 21
-2934.990087118547
 31
0.0
  0
LINE
  5
CAB3
330
2
100
AcDbEntity
  8
L-ZISSEN
100
AcDbLine
 10
1564.399566739604
 20
-2864.736364530866
 30
0.0
 11
1562.023777851816
 21
-2864.736364530866
 31
0.0
  0
LINE
  5
CAB4
330
2
100
AcDbEntity
  8
L-ZISSEN
100
AcDbLine
 10
1562.023777851816
 20
-2880.389258930866
 30
0.0
 11
1565.613131413581
 21
-2880.389258930866
 31
0.0
  0
LINE
  5
CAB5
330
2
100
AcDbEntity
  8
L-ZISSEN
100
AcDbLine
 10
1562.023777851816
 20
-2864.736364530866
 30
0.0
 11
1562.023777851816
 21
-2880.389258930866
 31
0.0
  0
LINE
  5
CAB6
330
2
100
AcDbEntity
  8
L-ZISSEN
100
AcDbLine
 10
1560.074675775773
 20
-2870.475801404261
 30
0.0
 11
1553.691961490057
 21
-2870.475801404261
 31
0.0
  0
LINE
  5
CAB7
330
2
100
AcDbEntity
  8
L-ZISSEN
100
AcDbLine
 10
1566.181409397466
 20
-2864.372343730866
 30
0.0
 11
1567.273471797466
 21
-2864.372343730866
 31
0.0
  0
LINE
  5
CAB8
330
2
100
AcDbEntity
  8
L-ZISSEN
100
AcDbLine
 10
1566.181409397466
 20
-2864.129505203881
 30
0.0
 11
1566.181409397466
 21
-2864.372343730866
 31
0.0
  0
LINE
  5
CAB9
330
2
100
AcDbEntity
  8
L-ZISSEN
100
AcDbLine
 10
1565.089346997466
 20
-2864.736364530866
 30
0.0
 11
1563.269242997466
 21
-2864.736364530866
 31
0.0
  0
ARC
  5
CABA
330
2
100
AcDbEntity
  8
L-ZISSEN
100
AcDbCircle
 10
1553.344929834726
 20
-2880.983430275493
 30
0.0
 40
12.28258155137619
100
AcDbArc
 50
327.020737907156
 51
2.772772323679433
  0
LINE
  5
CABB
330
2
100
AcDbEntity
  8
L-ZISSEN
100
AcDbLine
 10
1565.613131413581
 20
-2880.389258930866
 30
0.0
 11
1563.633263797465
 21
-2880.389258930866
 31
0.0
  0
LINE
  5
CABC
330
2
100
AcDbEntity
  8
L-ZISSEN
100
AcDbLine
 10
1563.648390061487
 20
-2880.389258930866
 30
0.0
 11
1563.648390061487
 21
-2893.936066315061
 31
0.0
  0
LINE
  5
CABD
330
2
100
AcDbEntity
  8
L-ZISSEN
100
AcDbLine
 10
1570.185638197466
 20
-2880.145319714888
 30
0.0
 11
1570.185638197466
 21
-2883.264372955649
 31
0.0
  0
LINE
  5
CABE
330
2
100
AcDbEntity
  8
L-ZISSEN
100
AcDbLine
 10
1566.181409397466
 20
-2884.677049670143
 30
0.0
 11
1565.613131413581
 21
-2884.677049670143
 31
0.0
  0
LINE
  5
CABF
330
2
100
AcDbEntity
  8
L-ZISSEN
100
AcDbLine
 10
1567.273471797466
 20
-2879.661217330866
 30
0.0
 11
1570.185638197466
 21
-2880.145319714888
 31
0.0
  0
LINE
  5
CAC0
330
2
100
AcDbEntity
  8
L-ZISSEN
100
AcDbLine
 10
1567.273471797466
 20
-2864.372343730866
 30
0.0
 11
1567.273471797466
 21
-2879.661217330866
 31
0.0
  0
LINE
  5
CAC1
330
2
100
AcDbEntity
  8
L-ZISSEN
100
AcDbLine
 10
1570.185638197466
 20
-2883.264372955649
 30
0.0
 11
1566.181409397466
 21
-2884.677049670143
 31
0.0
  0
LINE
  5
CAC2
330
2
100
AcDbEntity
  8
L-ZISSEN
100
AcDbLine
 10
1565.613131413581
 20
-2884.677049670143
 30
0.0
 11
1565.634137856783
 21
-2864.129505203881
 31
0.0
  0
LINE
  5
CAC3
330
2
100
AcDbEntity
  8
L-ZISSEN
100
AcDbLine
 10
1565.089346997466
 20
-2864.129505203881
 30
0.0
 11
1565.089346997466
 21
-2864.736364530866
 31
0.0
  0
LINE
  5
CAC4
330
2
100
AcDbEntity
  8
L-ZISSEN
100
AcDbLine
 10
1563.611210595074
 20
-2864.129505203882
 30
0.0
 11
1563.611210595074
 21
-2864.736364530866
 31
0.0
  0
LINE
  5
CAC5
330
2
100
AcDbEntity
  8
L-ZISSEN
100
AcDbLine
 10
1619.648390061486
 20
-2950.316459947188
 30
0.0
 11
1619.648390061486
 21
-2864.129505203881
 31
0.0
  0
LINE
  5
CAC6
330
2
100
AcDbEntity
  8
L-ZISSEN
100
AcDbLine
 10
1622.413175775778
 20
-2870.663703988951
 30
0.0
 11
1622.413175775779
 21
-2933.475801404261
 31
0.0
  0
LINE
  5
CAC7
330
2
100
AcDbEntity
  8
L-ZISSEN
100
AcDbLine
 10
1628.795890061495
 20
-2870.663703988951
 30
0.0
 11
1628.795890061494
 21
-2933.475801404262
 31
0.0
  0
LINE
  5
CAC8
330
2
100
AcDbEntity
  8
L-ZISSEN
100
AcDbLine
 10
1654.31160434721
 20
-2870.663703988951
 30
0.0
 11
1654.31160434721
 21
-2933.475801404262
 31
0.0
  0
LINE
  5
CAC9
330
2
100
AcDbEntity
  8
L-ZISSEN
100
AcDbLine
 10
1660.694318632924
 20
-2870.663703988951
 30
0.0
 11
1660.694318632925
 21
-2933.475801404261
 31
0.0
  0
LINE
  5
CACA
330
2
100
AcDbEntity
  8
L-ZISSEN
100
AcDbLine
 10
1631.648390061486
 20
-2974.629505203881
 30
0.0
 11
1651.648390061486
 21
-2974.629505203881
 31
0.0
  0
LINE
  5
CACB
330
2
100
AcDbEntity
  8
L-ZISSEN
100
AcDbLine
 10
1631.648390061486
 20
-2973.929505203881
 30
0.0
 11
1651.648390061486
 21
-2973.929505203881
 31
0.0
  0
LINE
  5
CACC
330
2
100
AcDbEntity
  8
L-ZISSEN
100
AcDbLine
 10
1652.648390061486
 20
-2970.429505203881
 30
0.0
 11
1630.648390061486
 21
-2970.429505203881
 31
0.0
  0
LINE
  5
CACD
330
2
100
AcDbEntity
  8
L-ZISSEN
100
AcDbLine
 10
1629.648390061486
 20
-2961.429505203881
 30
0.0
 11
1653.648390061486
 21
-2961.429505203881
 31
0.0
  0
LINE
  5
CACE
330
2
100
AcDbEntity
  8
L-ZISSEN
100
AcDbLine
 10
1629.648390061486
 20
-2957.429505203881
 30
0.0
 11
1653.648390061486
 21
-2957.429505203881
 31
0.0
  0
LINE
  5
CACF
330
2
100
AcDbEntity
  8
L-ZISSEN
100
AcDbLine
 10
1629.648390061486
 20
-2958.929505203881
 30
0.0
 11
1653.648390061486
 21
-2958.929505203881
 31
0.0
  0
ARC
  5
CAD0
330
2
100
AcDbEntity
  8
L-ZISSEN
100
AcDbCircle
 10
1625.70553291863
 20
-2950.316459947188
 30
0.0
 40
6.057142857142703
100
AcDbArc
 50
180.0
 51
256.0937629349095
  0
LINE
  5
CAD1
330
2
100
AcDbEntity
  8
L-ZISSEN
100
AcDbLine
 10
1632.648390061486
 20
-2974.629505203881
 30
0.0
 11
1632.648390061486
 21
-2973.929505203881
 31
0.0
  0
ARC
  5
CAD2
330
2
100
AcDbEntity
  8
L-ZISSEN
100
AcDbCircle
 10
1535.819677471142
 20
-3355.674902219487
 30
0.0
 40
409.1493902604269
100
AcDbArc
 50
76.74258899663671
 51
77.51807467750734
  0
LINE
  5
CAD3
330
2
100
AcDbEntity
  8
L-ZISSEN
100
AcDbLine
 10
1629.648390061486
 20
-2961.429505203881
 30
0.0
 11
1629.648390061486
 21
-2957.429505203881
 31
0.0
  0
LINE
  5
CAD4
330
2
100
AcDbEntity
  8
L-ZISSEN
100
AcDbLine
 10
1631.648390061486
 20
-2973.929505203881
 30
0.0
 11
1631.648390061486
 21
-2970.429505203881
 31
0.0
  0
LINE
  5
CAD5
330
2
100
AcDbEntity
  8
L-ZISSEN
100
AcDbLine
 10
1630.648390061486
 20
-2961.429505203881
 30
0.0
 11
1630.648390061486
 21
-2970.429505203881
 31
0.0
  0
LINE
  5
CAD6
330
2
100
AcDbEntity
  8
L-ZISSEN
100
AcDbLine
 10
1625.604532918634
 20
-2934.990087118547
 30
0.0
 11
1622.413175775778
 21
-2933.475801404261
 31
0.0
  0
LINE
  5
CAD7
330
2
100
AcDbEntity
  8
L-ZISSEN
100
AcDbLine
 10
1628.795890061494
 20
-2933.475801404262
 30
0.0
 11
1625.604532918634
 21
-2934.990087118547
 31
0.0
  0
LINE
  5
CAD8
330
2
100
AcDbEntity
  8
L-ZISSEN
100
AcDbLine
 10
1650.648390061487
 20
-2974.629505203881
 30
0.0
 11
1650.648390061486
 21
-2973.929505203881
 31
0.0
  0
ARC
  5
CAD9
330
2
100
AcDbEntity
  8
L-ZISSEN
100
AcDbCircle
 10
1747.47710265183
 20
-3355.674902219487
 30
0.0
 40
409.1493902604269
100
AcDbArc
 50
102.4819253224926
 51
103.2574110033632
  0
LINE
  5
CADA
330
2
100
AcDbEntity
  8
L-ZISSEN
100
AcDbLine
 10
1653.648390061486
 20
-2961.429505203881
 30
0.0
 11
1653.648390061486
 21
-2957.429505203881
 31
0.0
  0
LINE
  5
CADB
330
2
100
AcDbEntity
  8
L-ZISSEN
100
AcDbLine
 10
1651.648390061486
 20
-2973.929505203881
 30
0.0
 11
1651.648390061486
 21
-2970.429505203881
 31
0.0
  0
LINE
  5
CADC
330
2
100
AcDbEntity
  8
L-ZISSEN
100
AcDbLine
 10
1652.648390061486
 20
-2961.429505203881
 30
0.0
 11
1652.648390061486
 21
-2970.429505203881
 31
0.0
  0
LINE
  5
CADD
330
2
100
AcDbEntity
  8
L-ZISSEN
100
AcDbLine
 10
1657.502961490065
 20
-2934.990087118547
 30
0.0
 11
1660.694318632924
 21
-2933.475801404261
 31
0.0
  0
LINE
  5
CADE
330
2
100
AcDbEntity
  8
L-ZISSEN
100
AcDbLine
 10
1654.311604347209
 20
-2933.475801404262
 30
0.0
 11
1657.502961490065
 21
-2934.990087118547
 31
0.0
  0
LINE
  5
CADF
330
2
100
AcDbEntity
  8
L-ZISSEN
100
AcDbLine
 10
1636.362208819385
 20
-2887.857177378398
 30
0.0
 11
1632.729880461486
 21
-2887.857177378398
 31
0.0
  0
LINE
  5
CAE0
330
2
100
AcDbEntity
  8
L-ZISSEN
100
AcDbLine
 10
1641.648390061486
 20
-2884.677049670143
 30
0.0
 11
1633.457922061486
 21
-2882.492924870144
 31
0.0
  0
LINE
  5
CAE1
330
2
100
AcDbEntity
  8
L-ZISSEN
100
AcDbLine
 10
1641.648390061486
 20
-2879.580758470143
 30
0.0
 11
1634.003953261486
 21
-2878.488696070143
 31
0.0
  0
LINE
  5
CAE2
330
2
100
AcDbEntity
  8
L-ZISSEN
100
AcDbLine
 10
1633.457922061486
 20
-2864.291884870143
 30
0.0
 11
1649.838858061486
 21
-2864.291884870143
 31
0.0
  0
LINE
  5
CAE3
330
2
100
AcDbEntity
  8
L-ZISSEN
100
AcDbLine
 10
1649.292826861486
 20
-2864.291884870143
 30
0.0
 11
1634.003953261486
 21
-2864.291884870143
 31
0.0
  0
LINE
  5
CAE4
330
2
100
AcDbEntity
  8
L-ZISSEN
100
AcDbLine
 10
1650.566899661486
 20
-2864.291884870143
 30
0.0
 11
1632.729880461486
 21
-2864.291884870143
 31
0.0
  0
LINE
  5
CAE5
330
2
100
AcDbEntity
  8
L-ZISSEN
100
AcDbLine
 10
1636.916119661483
 20
-2867.204051270146
 30
0.0
 11
1635.096015661483
 21
-2868.296113670146
 31
0.0
  0
LINE
  5
CAE6
330
2
100
AcDbEntity
  8
L-ZISSEN
100
AcDbLine
 10
1636.916119661483
 20
-2869.388176070146
 30
0.0
 11
1635.096015661483
 21
-2868.296113670146
 31
0.0
  0
LINE
  5
CAE7
330
2
100
AcDbEntity
  8
L-ZISSEN
100
AcDbLine
 10
1641.648390061486
 20
-2880.064860854166
 30
0.0
 11
1634.709027691423
 21
-2879.073523372728
 31
0.0
  0
LINE
  5
CAE8
330
2
100
AcDbEntity
  8
L-ZISSEN
100
AcDbLine
 10
1634.709027691423
 20
-2881.731116998384
 30
0.0
 11
1641.648390061486
 21
-2883.183914094927
 31
0.0
  0
LINE
  5
CAE9
330
2
100
AcDbEntity
  8
L-ZISSEN
100
AcDbLine
 10
1634.709027691423
 20
-2879.073523372728
 30
0.0
 11
1634.003953261486
 21
-2878.488696070143
 31
0.0
  0
LINE
  5
CAEA
330
2
100
AcDbEntity
  8
L-ZISSEN
100
AcDbLine
 10
1634.709027691423
 20
-2878.589420988706
 30
0.0
 11
1634.003953261486
 21
-2878.488696070143
 31
0.0
  0
LINE
  5
CAEB
330
2
100
AcDbEntity
  8
L-ZISSEN
100
AcDbLine
 10
1633.457922061486
 20
-2882.492924870144
 30
0.0
 11
1634.709027691423
 21
-2881.731116998384
 31
0.0
  0
LINE
  5
CAEC
330
2
100
AcDbEntity
  8
L-ZISSEN
100
AcDbLine
 10
1632.729880461486
 20
-2864.291884870143
 30
0.0
 11
1632.729880461486
 21
-2864.129505203881
 31
0.0
  0
LINE
  5
CAED
330
2
100
AcDbEntity
  8
L-ZISSEN
100
AcDbLine
 10
1634.003953261486
 20
-2864.291884870143
 30
0.0
 11
1634.003953261486
 21
-2878.488696070143
 31
0.0
  0
LINE
  5
CAEE
330
2
100
AcDbEntity
  8
L-ZISSEN
100
AcDbLine
 10
1632.729880461486
 20
-2887.857177378398
 30
0.0
 11
1632.729880461486
 21
-2864.291884870143
 31
0.0
  0
LINE
  5
CAEF
330
2
100
AcDbEntity
  8
L-ZISSEN
100
AcDbLine
 10
1633.457922061486
 20
-2864.291884870143
 30
0.0
 11
1633.457922061486
 21
-2882.492924870144
 31
0.0
  0
LINE
  5
CAF0
330
2
100
AcDbEntity
  8
L-ZISSEN
100
AcDbLine
 10
1633.457922061486
 20
-2864.291884870143
 30
0.0
 11
1633.457922061486
 21
-2878.147550551046
 31
0.0
  0
LINE
  5
CAF1
330
2
100
AcDbEntity
  8
L-ZISSEN
100
AcDbLine
 10
1622.413175775778
 20
-2870.663703988951
 30
0.0
 11
1628.795890061495
 21
-2870.663703988951
 31
0.0
  0
LINE
  5
CAF2
330
2
100
AcDbEntity
  8
L-ZISSEN
100
AcDbLine
 10
1634.709027691423
 20
-2879.073523372728
 30
0.0
 11
1634.709027691423
 21
-2881.731116998384
 31
0.0
  0
LINE
  5
CAF3
330
2
100
AcDbEntity
  8
L-ZISSEN
100
AcDbLine
 10
1650.566899661485
 20
-2864.129505203881
 30
0.0
 11
1650.566899661486
 21
-2864.291884870143
 31
0.0
  0
LINE
  5
CAF4
330
2
100
AcDbEntity
  8
L-ZISSEN
100
AcDbLine
 10
1646.934571303584
 20
-2883.323851326656
 30
0.0
 11
1646.934571303584
 21
-2887.857177378398
 31
0.0
  0
LINE
  5
CAF5
330
2
100
AcDbEntity
  8
L-ZISSEN
100
AcDbLine
 10
1641.648390061486
 20
-2884.677049670143
 30
0.0
 11
1641.648390061486
 21
-2879.580758470143
 31
0.0
  0
LINE
  5
CAF6
330
2
100
AcDbEntity
  8
L-ZISSEN
100
AcDbLine
 10
1641.648390061486
 20
-2884.677049670143
 30
0.0
 11
1641.648390061486
 21
-2880.064860854166
 31
0.0
  0
LINE
  5
CAF7
330
2
100
AcDbEntity
  8
L-ZISSEN
100
AcDbLine
 10
1642.376431661485
 20
-2872.300342470144
 30
0.0
 11
1643.832514861485
 21
-2872.300342470144
 31
0.0
  0
LINE
  5
CAF8
330
2
100
AcDbEntity
  8
L-ZISSEN
100
AcDbLine
 10
1643.832514861485
 20
-2872.300342470144
 30
0.0
 11
1641.648390061485
 21
-2875.940550470144
 31
0.0
  0
LINE
  5
CAF9
330
2
100
AcDbEntity
  8
L-ZISSEN
100
AcDbLine
 10
1640.920348461484
 20
-2872.300342470144
 30
0.0
 11
1639.464265261485
 21
-2872.300342470144
 31
0.0
  0
LINE
  5
CAFA
330
2
100
AcDbEntity
  8
L-ZISSEN
100
AcDbLine
 10
1639.464265261485
 20
-2872.300342470144
 30
0.0
 11
1641.648390061485
 21
-2875.940550470144
 31
0.0
  0
LINE
  5
CAFB
330
2
100
AcDbEntity
  8
L-ZISSEN
100
AcDbLine
 10
1649.838858061486
 20
-2882.492924870144
 30
0.0
 11
1648.587752431547
 21
-2881.731116998384
 31
0.0
  0
LINE
  5
CAFC
330
2
100
AcDbEntity
  8
L-ZISSEN
100
AcDbLine
 10
1648.587752431547
 20
-2878.589420988706
 30
0.0
 11
1649.292826861486
 21
-2878.488696070143
 31
0.0
  0
LINE
  5
CAFD
330
2
100
AcDbEntity
  8
L-ZISSEN
100
AcDbLine
 10
1648.587752431547
 20
-2879.073523372728
 30
0.0
 11
1649.292826861486
 21
-2878.488696070143
 31
0.0
  0
LINE
  5
CAFE
330
2
100
AcDbEntity
  8
L-ZISSEN
100
AcDbLine
 10
1648.587752431547
 20
-2879.073523372728
 30
0.0
 11
1648.587752431547
 21
-2881.731116998384
 31
0.0
  0
LINE
  5
CAFF
330
2
100
AcDbEntity
  8
L-ZISSEN
100
AcDbLine
 10
1646.380660461487
 20
-2867.204051270146
 30
0.0
 11
1648.200764461487
 21
-2868.296113670146
 31
0.0
  0
LINE
  5
CB00
330
2
100
AcDbEntity
  8
L-ZISSEN
100
AcDbLine
 10
1646.380660461487
 20
-2869.388176070146
 30
0.0
 11
1648.200764461487
 21
-2868.296113670146
 31
0.0
  0
LINE
  5
CB01
330
2
100
AcDbEntity
  8
L-ZISSEN
100
AcDbLine
 10
1646.380660461487
 20
-2867.932092870146
 30
0.0
 11
1646.380660461487
 21
-2867.204051270146
 31
0.0
  0
LINE
  5
CB02
330
2
100
AcDbEntity
  8
L-ZISSEN
100
AcDbLine
 10
1646.380660461487
 20
-2868.660134470146
 30
0.0
 11
1646.380660461487
 21
-2869.388176070146
 31
0.0
  0
LINE
  5
CB03
330
2
100
AcDbEntity
  8
L-ZISSEN
100
AcDbLine
 10
1643.468494061488
 20
-2867.932092870146
 30
0.0
 11
1643.468494061488
 21
-2868.660134470146
 31
0.0
  0
LINE
  5
CB04
330
2
100
AcDbEntity
  8
L-ZISSEN
100
AcDbLine
 10
1643.468494061488
 20
-2867.932092870146
 30
0.0
 11
1646.380660461487
 21
-2867.932092870146
 31
0.0
  0
LINE
  5
CB05
330
2
100
AcDbEntity
  8
L-ZISSEN
100
AcDbLine
 10
1643.468494061488
 20
-2867.932092870146
 30
0.0
 11
1646.380660461487
 21
-2867.932092870146
 31
0.0
  0
LINE
  5
CB06
330
2
100
AcDbEntity
  8
L-ZISSEN
100
AcDbLine
 10
1643.468494061488
 20
-2868.660134470146
 30
0.0
 11
1646.380660461487
 21
-2868.660134470146
 31
0.0
  0
LINE
  5
CB07
330
2
100
AcDbEntity
  8
L-ZISSEN
100
AcDbLine
 10
1643.468494061488
 20
-2868.660134470146
 30
0.0
 11
1646.380660461487
 21
-2868.660134470146
 31
0.0
  0
LINE
  5
CB08
330
2
100
AcDbEntity
  8
L-ZISSEN
100
AcDbLine
 10
1639.828286061483
 20
-2867.932092870146
 30
0.0
 11
1639.828286061483
 21
-2868.660134470146
 31
0.0
  0
LINE
  5
CB09
330
2
100
AcDbEntity
  8
L-ZISSEN
100
AcDbLine
 10
1642.376431661485
 20
-2866.476009670144
 30
0.0
 11
1640.920348461484
 21
-2866.476009670144
 31
0.0
  0
LINE
  5
CB0A
330
2
100
AcDbEntity
  8
L-ZISSEN
100
AcDbLine
 10
1636.362208819385
 20
-2883.323851326656
 30
0.0
 11
1636.362208819385
 21
-2887.857177378398
 31
0.0
  0
LINE
  5
CB0B
330
2
100
AcDbEntity
  8
L-ZISSEN
100
AcDbLine
 10
1636.916119661483
 20
-2867.932092870146
 30
0.0
 11
1636.916119661483
 21
-2867.204051270146
 31
0.0
  0
LINE
  5
CB0C
330
2
100
AcDbEntity
  8
L-ZISSEN
100
AcDbLine
 10
1636.916119661483
 20
-2868.660134470146
 30
0.0
 11
1636.916119661483
 21
-2869.388176070146
 31
0.0
  0
LINE
  5
CB0D
330
2
100
AcDbEntity
  8
L-ZISSEN
100
AcDbLine
 10
1639.828286061483
 20
-2867.932092870146
 30
0.0
 11
1636.916119661483
 21
-2867.932092870146
 31
0.0
  0
LINE
  5
CB0E
330
2
100
AcDbEntity
  8
L-ZISSEN
100
AcDbLine
 10
1639.828286061483
 20
-2867.932092870146
 30
0.0
 11
1636.916119661483
 21
-2867.932092870146
 31
0.0
  0
LINE
  5
CB0F
330
2
100
AcDbEntity
  8
L-ZISSEN
100
AcDbLine
 10
1639.828286061483
 20
-2868.660134470146
 30
0.0
 11
1636.916119661483
 21
-2868.660134470146
 31
0.0
  0
LINE
  5
CB10
330
2
100
AcDbEntity
  8
L-ZISSEN
100
AcDbLine
 10
1639.828286061483
 20
-2868.660134470146
 30
0.0
 11
1636.916119661483
 21
-2868.660134470146
 31
0.0
  0
LINE
  5
CB11
330
2
100
AcDbEntity
  8
L-ZISSEN
100
AcDbLine
 10
1650.566899661484
 20
-2887.857177378398
 30
0.0
 11
1650.566899661484
 21
-2864.291884870143
 31
0.0
  0
LINE
  5
CB12
330
2
100
AcDbEntity
  8
L-ZISSEN
100
AcDbLine
 10
1649.838858061486
 20
-2864.291884870143
 30
0.0
 11
1649.838858061486
 21
-2878.147550551046
 31
0.0
  0
LINE
  5
CB13
330
2
100
AcDbEntity
  8
L-ZISSEN
100
AcDbLine
 10
1649.292826861486
 20
-2864.291884870143
 30
0.0
 11
1649.292826861486
 21
-2878.488696070143
 31
0.0
  0
LINE
  5
CB14
330
2
100
AcDbEntity
  8
L-ZISSEN
100
AcDbLine
 10
1649.838858061486
 20
-2864.291884870143
 30
0.0
 11
1649.838858061486
 21
-2882.492924870144
 31
0.0
  0
LINE
  5
CB15
330
2
100
AcDbEntity
  8
L-ZISSEN
100
AcDbLine
 10
1642.376431661485
 20
-2866.476009670144
 30
0.0
 11
1642.376431661485
 21
-2872.300342470144
 31
0.0
  0
LINE
  5
CB16
330
2
100
AcDbEntity
  8
L-ZISSEN
100
AcDbLine
 10
1642.376431661485
 20
-2866.476009670144
 30
0.0
 11
1642.376431661485
 21
-2872.300342470144
 31
0.0
  0
LINE
  5
CB17
330
2
100
AcDbEntity
  8
L-ZISSEN
100
AcDbLine
 10
1640.920348461484
 20
-2866.476009670144
 30
0.0
 11
1640.920348461484
 21
-2872.300342470144
 31
0.0
  0
LINE
  5
CB18
330
2
100
AcDbEntity
  8
L-ZISSEN
100
AcDbLine
 10
1640.920348461484
 20
-2866.476009670144
 30
0.0
 11
1640.920348461484
 21
-2872.300342470144
 31
0.0
  0
LINE
  5
CB19
330
2
100
AcDbEntity
  8
L-ZISSEN
100
AcDbLine
 10
1646.934571303584
 20
-2887.857177378398
 30
0.0
 11
1650.566899661484
 21
-2887.857177378398
 31
0.0
  0
LINE
  5
CB1A
330
2
100
AcDbEntity
  8
L-ZISSEN
100
AcDbLine
 10
1641.648390061486
 20
-2884.677049670143
 30
0.0
 11
1649.838858061486
 21
-2882.492924870144
 31
0.0
  0
LINE
  5
CB1B
330
2
100
AcDbEntity
  8
L-ZISSEN
100
AcDbLine
 10
1641.648390061486
 20
-2879.580758470143
 30
0.0
 11
1649.292826861486
 21
-2878.488696070143
 31
0.0
  0
LINE
  5
CB1C
330
2
100
AcDbEntity
  8
L-ZISSEN
100
AcDbLine
 10
1641.648390061486
 20
-2880.064860854166
 30
0.0
 11
1648.587752431547
 21
-2879.073523372728
 31
0.0
  0
LINE
  5
CB1D
330
2
100
AcDbEntity
  8
L-ZISSEN
100
AcDbLine
 10
1648.587752431547
 20
-2881.731116998384
 30
0.0
 11
1641.648390061486
 21
-2883.183914094927
 31
0.0
  0
LINE
  5
CB1E
330
2
100
AcDbEntity
  8
L-ZISSEN
100
AcDbLine
 10
1660.694318632924
 20
-2870.663703988951
 30
0.0
 11
1654.31160434721
 21
-2870.663703988951
 31
0.0
  0
LINE
  5
CB80
330
2
100
AcDbEntity
  8
L-ZISSEN
100
AcDbLine
 10
1659.898390061485
 20
-3101.335801670143
 30
0.0
 11
1663.485485952446
 21
-3101.335801670143
 31
0.0
  0
ARC
  5
CB89
330
2
100
AcDbEntity
  8
L-ZISSEN
100
AcDbCircle
 10
1657.797145469723
 20
-3163.970023266733
 30
0.0
 40
3.95306390827567
100
AcDbArc
 50
295.9886989669003
 51
359.9219265414582
  0
LINE
  5
CB96
330
2
100
AcDbEntity
  8
L-ZISSEN
100
AcDbLine
 10
1532.865591283231
 20
-3089.835801670144
 30
0.0
 11
1550.365591283231
 21
-3089.835801670144
 31
0.0
  0
LINE
  5
CB97
330
2
100
AcDbEntity
  8
L-TYUSIN
100
AcDbLine
 10
1547.865591283231
 20
-3095.085801670144
 30
0.0
 11
1535.36559128323
 21
-3095.085801670144
 31
0.0
  0
LINE
  5
CB99
330
2
100
AcDbEntity
  8
L-ZISSEN
100
AcDbLine
 10
1534.870074444982
 20
-3174.130126318701
 30
0.0
 11
1548.36110812148
 21
-3174.130923088473
 31
0.0
  0
ARC
  5
CB9A
330
2
100
AcDbEntity
  8
L-ZISSEN
100
AcDbCircle
 10
1541.648390061486
 20
-3153.488442529964
 30
0.0
 40
20.64106267391694
100
AcDbArc
 50
257.3236813122661
 51
282.4944195184307
  0
LINE
  5
CB9B
330
2
100
AcDbEntity
  8
L-ZISSEN
100
AcDbLine
 10
1547.348390061486
 20
-3186.129505203881
 30
0.0
 11
1535.948390061487
 21
-3186.129505203881
 31
0.0
  0
LINE
  5
CB9C
330
2
100
AcDbEntity
  8
L-ZISSEN
100
AcDbLine
 10
1536.148390061485
 20
-3176.070670614373
 30
0.0
 11
1544.648390061486
 21
-3176.070670614373
 31
0.0
  0
LINE
  5
CB9D
330
2
100
AcDbEntity
  8
L-ZISSEN
100
AcDbLine
 10
1532.865591283231
 20
-3166.835801670144
 30
0.0
 11
1550.365591283231
 21
-3166.835801670145
 31
0.0
  0
LINE
  5
CB9E
330
2
100
AcDbEntity
  8
L-ZISSEN
100
AcDbLine
 10
1531.265591283231
 20
-3168.835801670144
 30
0.0
 11
1551.965591283231
 21
-3168.835801670144
 31
0.0
  0
LINE
  5
CB9F
330
2
100
AcDbEntity
  8
L-ZISSEN
100
AcDbLine
 10
1531.265591283231
 20
-3171.128485704177
 30
0.0
 11
1551.965591283231
 21
-3171.128485704177
 31
0.0
  0
LINE
  5
CBA0
330
2
100
AcDbEntity
  8
L-TYUSIN
100
AcDbLine
 10
1547.865591283231
 20
-3161.585801670144
 30
0.0
 11
1535.36559128323
 21
-3161.585801670144
 31
0.0
  0
LINE
  5
CBA1
330
2
100
AcDbEntity
  8
L-ZISSEN
100
AcDbLine
 10
1534.870074444982
 20
-3171.128884089063
 30
0.0
 11
1548.36110812148
 21
-3171.128087319292
 31
0.0
  0
ARC
  5
CBA2
330
2
100
AcDbEntity
  8
L-ZISSEN
100
AcDbCircle
 10
1541.648390061486
 20
-3191.770567877798
 30
0.0
 40
20.64106267391679
100
AcDbArc
 50
77.50558048156925
 51
102.676318687748
  0
LINE
  5
CBA3
330
2
100
AcDbEntity
  8
L-ZISSEN
100
AcDbLine
 10
1663.648390061486
 20
-2950.316459947188
 30
0.0
 11
1663.648390061487
 21
-2864.129505203881
 31
0.0
  0
LINE
  5
CBA4
330
2
100
AcDbEntity
  8
L-ZISSEN
100
AcDbLine
 10
1532.865591283231
 20
-3089.835801670144
 30
0.0
 11
1532.865591283233
 21
-3166.835801670144
 31
0.0
  0
LINE
  5
CBA5
330
2
100
AcDbEntity
  8
L-ZISSEN
100
AcDbLine
 10
1519.306334518923
 20
-3084.291884870143
 30
0.0
 11
1521.513775636712
 21
-3163.975409863761
 31
0.0
  0
LINE
  5
CBA6
330
2
100
AcDbEntity
  8
L-ZISSEN
100
AcDbLine
 10
1532.648746441402
 20
-3171.619772473825
 30
0.0
 11
1532.648746441402
 21
-3173.639237933937
 31
0.0
  0
LINE
  5
CBA7
330
2
100
AcDbEntity
  8
L-ZISSEN
100
AcDbLine
 10
1537.118853743468
 20
-3171.63262436183
 30
0.0
 11
1537.118853743475
 21
-3173.626386045933
 31
0.0
  0
ARC
  5
CBA8
330
2
100
AcDbEntity
  8
L-ZISSEN
100
AcDbCircle
 10
1534.870074444982
 20
-3168.858796148331
 30
0.0
 40
5.271330170370607
100
AcDbArc
 50
245.0771192748252
 51
295.2523389966427
  0
LINE
  5
CBA9
330
2
100
AcDbEntity
  8
L-ZISSEN
100
AcDbLine
 10
1536.148390061487
 20
-3175.570670614373
 30
0.0
 11
1536.148390061487
 21
-3174.129505203881
 31
0.0
  0
LINE
  5
CBAA
330
2
100
AcDbEntity
  8
L-ZISSEN
100
AcDbLine
 10
1535.648390061487
 20
-3185.829505203881
 30
0.0
 11
1535.648390061487
 21
-3176.570670614372
 31
0.0
  0
LINE
  5
CBAB
330
2
100
AcDbEntity
  8
L-ZISSEN
100
AcDbLine
 10
1536.648390061486
 20
-3176.070670614373
 30
0.0
 11
1536.648390061486
 21
-3186.129505203881
 31
0.0
  0
LINE
  5
CBAC
330
2
100
AcDbEntity
  8
L-ZISSEN
100
AcDbLine
 10
1535.948390061487
 20
-3186.129505203881
 30
0.0
 11
1535.648390061487
 21
-3185.829505203882
 31
0.0
  0
LINE
  5
CBAD
330
2
100
AcDbEntity
  8
L-ZISSEN
100
AcDbLine
 10
1536.148390061485
 20
-3176.070670614373
 30
0.0
 11
1535.648390061487
 21
-3176.570670614372
 31
0.0
  0
LINE
  5
CBAE
330
2
100
AcDbEntity
  8
L-ZISSEN
100
AcDbLine
 10
1536.648390061484
 20
-3176.070670614373
 30
0.0
 11
1536.148390061487
 21
-3175.570670614373
 31
0.0
  0
LINE
  5
CBAF
330
2
100
AcDbEntity
  8
L-ZISSEN
100
AcDbLine
 10
1536.648390061489
 20
-3174.13020181501
 30
0.0
 11
1536.648390061484
 21
-3176.070670614373
 31
0.0
  0
ARC
  5
CBB0
330
2
100
AcDbEntity
  8
L-ZISSEN
100
AcDbCircle
 10
1531.071238515961
 20
-3147.688041117491
 30
0.0
 40
21.14865360703842
100
AcDbArc
 50
249.7017647719438
 51
270.5265465241188
  0
ARC
  5
CBB1
330
2
100
AcDbEntity
  8
L-ZISSEN
100
AcDbCircle
 10
1534.870074444982
 20
-3176.400214259432
 30
0.0
 40
5.271330170370607
100
AcDbArc
 50
64.74766100341544
 51
114.9228807251748
  0
LINE
  5
CBB2
330
2
100
AcDbEntity
  8
L-ZISSEN
100
AcDbLine
 10
1531.265591283231
 20
-3171.128485704177
 30
0.0
 11
1531.265591283231
 21
-3168.835801670144
 31
0.0
  0
ARC
  5
CBB3
330
2
100
AcDbEntity
  8
L-ZISSEN
100
AcDbCircle
 10
1525.466835874993
 20
-3163.970023266733
 30
0.0
 40
3.95306390827567
100
AcDbArc
 50
180.0780734585417
 51
244.0113010330996
  0
LINE
  5
CBB4
330
2
100
AcDbEntity
  8
L-ZISSEN
100
AcDbLine
 10
1528.365591283232
 20
-3092.304683878626
 30
0.0
 11
1528.365591283232
 21
-3101.335801670143
 31
0.0
  0
LINE
  5
CBB5
330
2
100
AcDbEntity
  8
L-ZISSEN
100
AcDbLine
 10
1523.365591283232
 20
-3092.304683878626
 30
0.0
 11
1523.365591283232
 21
-3101.335801670143
 31
0.0
  0
LINE
  5
CBB6
330
2
100
AcDbEntity
  8
L-ZISSEN
100
AcDbLine
 10
1528.365591283231
 20
-3101.335801670143
 30
0.0
 11
1532.865591283231
 21
-3101.335801670143
 31
0.0
  0
LINE
  5
CBB7
330
2
100
AcDbEntity
  8
L-ZISSEN
100
AcDbLine
 10
1528.365591283232
 20
-3092.304683878626
 30
0.0
 11
1523.365591283232
 21
-3092.304683878626
 31
0.0
  0
LINE
  5
CBB8
330
2
100
AcDbEntity
  8
L-ZISSEN
100
AcDbLine
 10
1523.365591283232
 20
-3101.335801670143
 30
0.0
 11
1519.778495392272
 21
-3101.335801670143
 31
0.0
  0
LINE
  5
CBB9
330
2
100
AcDbEntity
  8
L-TYUSIN
100
AcDbLine
 10
1600.788466655176
 20
-3095.035801670145
 30
0.0
 11
1620.454087187257
 21
-3095.035801670146
 31
0.0
  0
LINE
  5
CBBA
330
2
100
AcDbEntity
  8
L-ZISSEN
100
AcDbLine
 10
1607.688466655176
 20
-3089.835801670144
 30
0.0
 11
1617.188466655175
 21
-3089.835801670144
 31
0.0
  0
LINE
  5
CBBB
330
2
100
AcDbEntity
  8
L-TYUSIN
100
AcDbLine
 10
1622.196528366248
 20
-3161.735801670145
 30
0.0
 11
1600.788466655176
 21
-3161.735801670147
 31
0.0
  0
LINE
  5
CBBC
330
2
100
AcDbEntity
  8
L-ZISSEN
100
AcDbLine
 10
1607.688466655176
 20
-3166.835801670144
 30
0.0
 11
1617.188466655175
 21
-3166.835801670144
 31
0.0
  0
LINE
  5
CBBD
330
2
100
AcDbEntity
  8
L-ZISSEN
100
AcDbLine
 10
1544.11559128323
 20
-3101.335801670144
 30
0.0
 11
1544.11559128323
 21
-3155.335801670144
 31
0.0
  0
LINE
  5
CBBE
330
2
100
AcDbEntity
  8
L-ZISSEN
100
AcDbLine
 10
1539.115591283231
 20
-3155.335801670144
 30
0.0
 11
1539.115591283231
 21
-3101.335801670144
 31
0.0
  0
LINE
  5
CBBF
330
2
100
AcDbEntity
  8
L-ZISSEN
100
AcDbLine
 10
1550.365591283231
 20
-3089.835801670144
 30
0.0
 11
1550.365591283233
 21
-3166.835801670144
 31
0.0
  0
LINE
  5
CBC0
330
2
100
AcDbEntity
  8
L-ZISSEN
100
AcDbLine
 10
1563.924848047539
 20
-3084.291884870143
 30
0.0
 11
1561.71740692975
 21
-3163.975409863761
 31
0.0
  0
LINE
  5
CBC1
330
2
100
AcDbEntity
  8
L-ZISSEN
100
AcDbLine
 10
1607.688466655176
 20
-3089.835801670144
 30
0.0
 11
1607.688466655177
 21
-3166.835801670144
 31
0.0
  0
LINE
  5
CBC2
330
2
100
AcDbEntity
  8
L-ZISSEN
100
AcDbLine
 10
1546.111765698503
 20
-3171.632093247568
 30
0.0
 11
1546.111765698503
 21
-3173.626917160196
 31
0.0
  0
LINE
  5
CBC3
330
2
100
AcDbEntity
  8
L-ZISSEN
100
AcDbLine
 10
1550.648033681573
 20
-3171.650007710788
 30
0.0
 11
1550.648033681573
 21
-3173.609002696975
 31
0.0
  0
LINE
  5
CBC4
330
2
100
AcDbEntity
  8
L-ZISSEN
100
AcDbLine
 10
1539.648390061488
 20
-3176.070670614373
 30
0.0
 11
1539.648390061488
 21
-3186.129505203881
 31
0.0
  0
LINE
  5
CBC5
330
2
100
AcDbEntity
  8
L-ZISSEN
100
AcDbLine
 10
1540.648390061487
 20
-3176.070670614373
 30
0.0
 11
1540.648390061487
 21
-3186.129505203881
 31
0.0
  0
LINE
  5
CBC6
330
2
100
AcDbEntity
  8
L-ZISSEN
100
AcDbLine
 10
1537.648390061485
 20
-3176.070670614373
 30
0.0
 11
1537.648390061485
 21
-3186.129505203881
 31
0.0
  0
LINE
  5
CBC7
330
2
100
AcDbEntity
  8
L-ZISSEN
100
AcDbLine
 10
1538.648390061487
 20
-3176.070670614373
 30
0.0
 11
1538.648390061487
 21
-3186.129505203881
 31
0.0
  0
ARC
  5
CBC8
330
2
100
AcDbEntity
  8
L-ZISSEN
100
AcDbCircle
 10
1548.36110812148
 20
-3168.859592918101
 30
0.0
 40
5.271330170371532
100
AcDbArc
 50
244.7408933165819
 51
295.711645114861
  0
LINE
  5
CBC9
330
2
100
AcDbEntity
  8
L-ZISSEN
100
AcDbLine
 10
1547.148390061486
 20
-3175.570670614373
 30
0.0
 11
1547.148390061486
 21
-3174.129505203881
 31
0.0
  0
LINE
  5
CBCA
330
2
100
AcDbEntity
  8
L-ZISSEN
100
AcDbLine
 10
1541.648390061489
 20
-3176.070670614373
 30
0.0
 11
1541.648390061489
 21
-3186.129505203881
 31
0.0
  0
LINE
  5
CBCB
330
2
100
AcDbEntity
  8
L-ZISSEN
100
AcDbLine
 10
1542.648390061488
 20
-3176.070670614373
 30
0.0
 11
1542.648390061488
 21
-3186.129505203881
 31
0.0
  0
LINE
  5
CBCC
330
2
100
AcDbEntity
  8
L-ZISSEN
100
AcDbLine
 10
1543.648390061487
 20
-3176.070670614373
 30
0.0
 11
1543.648390061487
 21
-3186.129505203881
 31
0.0
  0
LINE
  5
CBCD
330
2
100
AcDbEntity
  8
L-ZISSEN
100
AcDbLine
 10
1544.648390061486
 20
-3176.070670614373
 30
0.0
 11
1544.648390061486
 21
-3186.129505203881
 31
0.0
  0
LINE
  5
CBCE
330
2
100
AcDbEntity
  8
L-ZISSEN
100
AcDbLine
 10
1545.648390061489
 20
-3176.070670614373
 30
0.0
 11
1545.648390061489
 21
-3186.129505203881
 31
0.0
  0
LINE
  5
CBCF
330
2
100
AcDbEntity
  8
L-ZISSEN
100
AcDbLine
 10
1546.648390061489
 20
-3176.070670614373
 30
0.0
 11
1546.64839006149
 21
-3186.129505203881
 31
0.0
  0
LINE
  5
CBD0
330
2
100
AcDbEntity
  8
L-ZISSEN
100
AcDbLine
 10
1547.648390061485
 20
-3176.570670614372
 30
0.0
 11
1547.648390061485
 21
-3185.829505203881
 31
0.0
  0
LINE
  5
CBD1
330
2
100
AcDbEntity
  8
L-ZISSEN
100
AcDbLine
 10
1547.348390061486
 20
-3186.129505203881
 30
0.0
 11
1547.648390061485
 21
-3185.829505203882
 31
0.0
  0
LINE
  5
CBD2
330
2
100
AcDbEntity
  8
L-ZISSEN
100
AcDbLine
 10
1547.148390061486
 20
-3176.070670614373
 30
0.0
 11
1547.648390061485
 21
-3176.570670614372
 31
0.0
  0
LINE
  5
CBD3
330
2
100
AcDbEntity
  8
L-ZISSEN
100
AcDbLine
 10
1544.648390061486
 20
-3176.070670614373
 30
0.0
 11
1547.148390061486
 21
-3176.070670614373
 31
0.0
  0
LINE
  5
CBD4
330
2
100
AcDbEntity
  8
L-ZISSEN
100
AcDbLine
 10
1546.648390061486
 20
-3176.070670614373
 30
0.0
 11
1547.148390061486
 21
-3175.570670614373
 31
0.0
  0
LINE
  5
CBD5
330
2
100
AcDbEntity
  8
L-ZISSEN
100
AcDbLine
 10
1546.64839006149
 20
-3174.130851466304
 30
0.0
 11
1546.648390061486
 21
-3176.070670614373
 31
0.0
  0
LINE
  5
CBD6
330
2
100
AcDbEntity
  8
L-ZISSEN
100
AcDbLine
 10
1544.11559128323
 20
-3155.335801670144
 30
0.0
 11
1539.115591283231
 21
-3155.335801670144
 31
0.0
  0
CIRCLE
  5
CBD7
330
2
100
AcDbEntity
  8
L-ZISSEN
100
AcDbCircle
 10
1541.615591283231
 20
-3161.585801670144
 30
0.0
 40
3.75
  0
ARC
  5
CBD8
330
2
100
AcDbEntity
  8
L-ZISSEN
100
AcDbCircle
 10
1557.764346691468
 20
-3163.970023266733
 30
0.0
 40
3.95306390827567
100
AcDbArc
 50
295.9886989669003
 51
359.9219265414582
  0
ARC
  5
CBD9
330
2
100
AcDbEntity
  8
L-ZISSEN
100
AcDbCircle
 10
1548.36110812148
 20
-3176.399417489662
 30
0.0
 40
5.271330170371789
100
AcDbArc
 50
64.28835488513896
 51
115.259106683418
  0
LINE
  5
CBDA
330
2
100
AcDbEntity
  8
L-ZISSEN
100
AcDbLine
 10
1551.965591283231
 20
-3171.128485704177
 30
0.0
 11
1551.965591283231
 21
-3168.835801670144
 31
0.0
  0
ARC
  5
CBDB
330
2
100
AcDbEntity
  8
L-ZISSEN
100
AcDbCircle
 10
1552.1599440505
 20
-3147.688041117491
 30
0.0
 40
21.14865360703842
100
AcDbArc
 50
269.4734534758811
 51
290.2982352280561
  0
POLYLINE
  5
CBDC
330
2
100
AcDbEntity
  8
L-ZISSEN
100
AcDb2dPolyline
 66
     1
 10
0.0
 20
0.0
 30
0.0
 70
     1
  0
VERTEX
  5
D23D
330
CBDC
100
AcDbEntity
  8
L-ZISSEN
100
AcDbVertex
100
AcDb2dVertex
 10
1540.36559128323
 20
-3160.864113833657
 30
0.0
  0
VERTEX
  5
D23E
330
CBDC
100
AcDbEntity
  8
L-ZISSEN
100
AcDbVertex
100
AcDb2dVertex
 10
1541.615591283231
 20
-3160.14242599717
 30
0.0
  0
VERTEX
  5
D23F
330
CBDC
100
AcDbEntity
  8
L-ZISSEN
100
AcDbVertex
100
AcDb2dVertex
 10
1542.865591283231
 20
-3160.864113833657
 30
0.0
  0
VERTEX
  5
D240
330
CBDC
100
AcDbEntity
  8
L-ZISSEN
100
AcDbVertex
100
AcDb2dVertex
 10
1542.865591283231
 20
-3162.307489506631
 30
0.0
  0
VERTEX
  5
D241
330
CBDC
100
AcDbEntity
  8
L-ZISSEN
100
AcDbVertex
100
AcDb2dVertex
 10
1541.615591283231
 20
-3163.029177343118
 30
0.0
  0
VERTEX
  5
D242
330
CBDC
100
AcDbEntity
  8
L-ZISSEN
100
AcDbVertex
100
AcDb2dVertex
 10
1540.36559128323
 20
-3162.307489506631
 30
0.0
  0
SEQEND
  5
D243
330
CBDC
100
AcDbEntity
  8
L-ZISSEN
  0
LINE
  5
CBDD
330
2
100
AcDbEntity
  8
L-ZISSEN
100
AcDbLine
 10
1605.788466655176
 20
-3163.029177343118
 30
0.0
 11
1605.788466655176
 21
-3160.14242599717
 31
0.0
  0
ARC
  5
CBDE
330
2
100
AcDbEntity
  8
L-ZISSEN
100
AcDbCircle
 10
1608.100469222953
 20
-3163.060588185962
 30
0.0
 40
2.312215931624567
100
AcDbArc
 50
179.2216280233825
 51
259.7359316277872
  0
ARC
  5
CBDF
330
2
100
AcDbEntity
  8
L-ZISSEN
100
AcDbCircle
 10
1608.100469222953
 20
-3160.111015154326
 30
0.0
 40
2.312215931624567
100
AcDbArc
 50
100.2640683722127
 51
180.7783719766174
  0
LINE
  5
CBE0
330
2
100
AcDbEntity
  8
L-ZISSEN
100
AcDbLine
 10
1565.840459631457
 20
-3123.435801670142
 30
0.0
 11
1562.772150607417
 21
-3125.901599638908
 31
0.0
  0
LINE
  5
CBE1
330
2
100
AcDbEntity
  8
L-ZISSEN
100
AcDbLine
 10
1563.118433154212
 20
-3113.401599638908
 30
0.0
 11
1565.840459631457
 21
-3113.401599638908
 31
0.0
  0
LINE
  5
CBE2
330
2
100
AcDbEntity
  8
L-ZISSEN
100
AcDbLine
 10
1559.86559128323
 20
-3101.335801670143
 30
0.0
 11
1563.452687174191
 21
-3101.335801670143
 31
0.0
  0
CIRCLE
  5
CBE3
330
2
100
AcDbEntity
  8
L-ZISSEN
100
AcDbCircle
 10
1541.615591283231
 20
-3095.085801670144
 30
0.0
 40
3.75
  0
LINE
  5
CBE4
330
2
100
AcDbEntity
  8
L-ZISSEN
100
AcDbLine
 10
1539.115591283231
 20
-3101.335801670143
 30
0.0
 11
1544.11559128323
 21
-3101.335801670144
 31
0.0
  0
LINE
  5
CBE5
330
2
100
AcDbEntity
  8
L-ZISSEN
100
AcDbLine
 10
1559.86559128323
 20
-3092.304683878626
 30
0.0
 11
1559.86559128323
 21
-3101.335801670143
 31
0.0
  0
LINE
  5
CBE6
330
2
100
AcDbEntity
  8
L-ZISSEN
100
AcDbLine
 10
1554.86559128323
 20
-3092.304683878626
 30
0.0
 11
1554.86559128323
 21
-3101.335801670143
 31
0.0
  0
LINE
  5
CBE7
330
2
100
AcDbEntity
  8
L-ZISSEN
100
AcDbLine
 10
1554.86559128323
 20
-3101.335801670143
 30
0.0
 11
1550.365591283231
 21
-3101.335801670143
 31
0.0
  0
LINE
  5
CBE8
330
2
100
AcDbEntity
  8
L-ZISSEN
100
AcDbLine
 10
1554.86559128323
 20
-3092.304683878626
 30
0.0
 11
1559.86559128323
 21
-3092.304683878626
 31
0.0
  0
POLYLINE
  5
CBE9
330
2
100
AcDbEntity
  8
L-ZISSEN
100
AcDb2dPolyline
 66
     1
 10
0.0
 20
0.0
 30
0.0
 70
     1
  0
VERTEX
  5
D244
330
CBE9
100
AcDbEntity
  8
L-ZISSEN
100
AcDbVertex
100
AcDb2dVertex
 10
1540.36559128323
 20
-3095.807489506631
 30
0.0
  0
VERTEX
  5
D245
330
CBE9
100
AcDbEntity
  8
L-ZISSEN
100
AcDbVertex
100
AcDb2dVertex
 10
1541.615591283231
 20
-3096.529177343118
 30
0.0
  0
VERTEX
  5
D246
330
CBE9
100
AcDbEntity
  8
L-ZISSEN
100
AcDbVertex
100
AcDb2dVertex
 10
1542.865591283231
 20
-3095.807489506631
 30
0.0
  0
VERTEX
  5
D247
330
CBE9
100
AcDbEntity
  8
L-ZISSEN
100
AcDbVertex
100
AcDb2dVertex
 10
1542.865591283231
 20
-3094.364113833657
 30
0.0
  0
VERTEX
  5
D248
330
CBE9
100
AcDbEntity
  8
L-ZISSEN
100
AcDbVertex
100
AcDb2dVertex
 10
1541.615591283231
 20
-3093.64242599717
 30
0.0
  0
VERTEX
  5
D249
330
CBE9
100
AcDbEntity
  8
L-ZISSEN
100
AcDbVertex
100
AcDb2dVertex
 10
1540.36559128323
 20
-3094.364113833657
 30
0.0
  0
SEQEND
  5
D24A
330
CBE9
100
AcDbEntity
  8
L-ZISSEN
  0
LINE
  5
CBEA
330
2
100
AcDbEntity
  8
L-ZISSEN
100
AcDbLine
 10
1565.840459631457
 20
-3106.291884870143
 30
0.0
 11
1565.840459631457
 21
-3123.435801670142
 31
0.0
  0
LINE
  5
CBEB
330
2
100
AcDbEntity
  8
L-ZISSEN
100
AcDbLine
 10
1564.640459631457
 20
-3113.401599638908
 30
0.0
 11
1564.640459631457
 21
-3102.004094130866
 31
0.0
  0
LINE
  5
CBEC
330
2
100
AcDbEntity
  8
L-ZISSEN
 48
5.0
100
AcDbLine
 10
1570.412966415342
 20
-3101.760154914888
 30
0.0
 11
1570.412966415342
 21
-3104.879208155649
 31
0.0
  0
LINE
  5
CBED
330
2
100
AcDbEntity
  8
L-ZISSEN
 48
5.0
100
AcDbLine
 10
1570.412966415342
 20
-3104.879208155649
 30
0.0
 11
1566.408737615343
 21
-3106.372343730866
 31
0.0
  0
LINE
  5
CBEE
330
2
100
AcDbEntity
  8
L-ZISSEN
 48
5.0
100
AcDbLine
 10
1566.408737615343
 20
-3106.372343730866
 30
0.0
 11
1565.840459631457
 21
-3106.372343730866
 31
0.0
  0
LINE
  5
CBEF
330
2
100
AcDbEntity
  8
L-ZISSEN
 48
5.0
100
AcDbLine
 10
1567.500800015343
 20
-3084.291884870144
 30
0.0
 11
1567.500800015343
 21
-3101.276052530867
 31
0.0
  0
LINE
  5
CBF0
330
2
100
AcDbEntity
  8
L-ZISSEN
 48
5.0
100
AcDbLine
 10
1567.500800015343
 20
-3101.276052530867
 30
0.0
 11
1570.412966415342
 21
-3101.760154914888
 31
0.0
  0
LINE
  5
CBF1
330
2
100
AcDbEntity
  8
L-ZISSEN
 48
5.0
100
AcDbLine
 10
1563.434173732966
 20
-3102.004094130866
 30
0.0
 11
1565.840459631457
 21
-3102.004094130866
 31
0.0
  0
LINE
  5
CBF2
330
2
100
AcDbEntity
  8
L-ZISSEN
 48
5.0
100
AcDbLine
 10
1565.840459631457
 20
-3102.004094130866
 30
0.0
 11
1563.860592015342
 21
-3102.004094130866
 31
0.0
  0
LINE
  5
CBF3
330
2
100
AcDbEntity
  8
L-ZISSEN
100
AcDbLine
 10
1567.500800015343
 20
-3084.291884870143
 30
0.0
 11
1563.924848047539
 21
-3084.291884870143
 31
0.0
  0
LINE
  5
CBF4
330
2
100
AcDbEntity
  8
L-ZISSEN
 48
5.0
100
AcDbLine
 10
1565.840459631457
 20
-3106.291884870143
 30
0.0
 11
1565.861076690523
 21
-3084.291884870144
 31
0.0
  0
ARC
  5
CBF5
330
2
100
AcDbEntity
  8
L-ZISSEN
100
AcDbCircle
 10
1608.100469222953
 20
-3093.611015154325
 30
0.0
 40
2.312215931624567
100
AcDbArc
 50
100.2640683722127
 51
180.7783719766174
  0
LINE
  5
CBF6
330
2
100
AcDbEntity
  8
L-ZISSEN
100
AcDbLine
 10
1605.788466655176
 20
-3093.64242599717
 30
0.0
 11
1605.788466655176
 21
-3096.529177343118
 31
0.0
  0
ARC
  5
CBF7
330
2
100
AcDbEntity
  8
L-ZISSEN
100
AcDbCircle
 10
1608.100469222953
 20
-3096.560588185961
 30
0.0
 40
2.312215931624567
100
AcDbArc
 50
179.2216280233825
 51
259.7359316277872
  0
LINE
  5
CBF8
330
2
100
AcDbEntity
  8
L-ZISSEN
100
AcDbLine
 10
1619.339133297179
 20
-3084.291884870143
 30
0.0
 11
1621.546574414967
 21
-3163.975409863761
 31
0.0
  0
LINE
  5
CBF9
330
2
100
AcDbEntity
  8
L-ZISSEN
100
AcDbLine
 10
1617.188466655177
 20
-3166.835801670145
 30
0.0
 11
1617.188466655177
 21
-3089.835801670143
 31
0.0
  0
ARC
  5
CBFA
330
2
100
AcDbEntity
  8
L-ZISSEN
100
AcDbCircle
 10
1634.902873223237
 20
-3168.858796148331
 30
0.0
 40
5.271330170370607
100
AcDbArc
 50
245.0771192748252
 51
295.2523389966427
  0
LINE
  5
CBFB
330
2
100
AcDbEntity
  8
L-ZISSEN
100
AcDbLine
 10
1634.902873223237
 20
-3174.130126318701
 30
0.0
 11
1648.393906899736
 21
-3174.130923088473
 31
0.0
  0
ARC
  5
CBFC
330
2
100
AcDbEntity
  8
L-ZISSEN
100
AcDbCircle
 10
1634.902873223237
 20
-3176.400214259432
 30
0.0
 40
5.271330170370607
100
AcDbArc
 50
64.74766100341544
 51
114.9228807251748
  0
LINE
  5
CBFD
330
2
100
AcDbEntity
  8
L-ZISSEN
100
AcDbLine
 10
1631.298390061486
 20
-3168.835801670144
 30
0.0
 11
1651.998390061486
 21
-3168.835801670144
 31
0.0
  0
LINE
  5
CBFE
330
2
100
AcDbEntity
  8
L-ZISSEN
100
AcDbLine
 10
1631.298390061486
 20
-3171.128485704177
 30
0.0
 11
1651.998390061486
 21
-3171.128485704177
 31
0.0
  0
LINE
  5
CBFF
330
2
100
AcDbEntity
  8
L-ZISSEN
100
AcDbLine
 10
1634.902873223237
 20
-3171.128884089063
 30
0.0
 11
1648.393906899736
 21
-3171.128087319292
 31
0.0
  0
LINE
  5
CC00
330
2
100
AcDbEntity
  8
L-ZISSEN
100
AcDbLine
 10
1632.681545219658
 20
-3171.619772473825
 30
0.0
 11
1632.681545219658
 21
-3173.639237933937
 31
0.0
  0
ARC
  5
CC01
330
2
100
AcDbEntity
  8
L-ZISSEN
100
AcDbCircle
 10
1631.104037294217
 20
-3147.688041117491
 30
0.0
 40
21.14865360703842
100
AcDbArc
 50
249.7017647719438
 51
270.5265465241188
  0
ARC
  5
CC02
330
2
100
AcDbEntity
  8
L-ZISSEN
100
AcDbCircle
 10
1625.499634653249
 20
-3163.970023266733
 30
0.0
 40
3.95306390827567
100
AcDbArc
 50
180.0780734585417
 51
244.0113010330996
  0
LINE
  5
CC03
330
2
100
AcDbEntity
  8
L-ZISSEN
100
AcDbLine
 10
1622.802259204985
 20
-3166.835801670145
 30
0.0
 11
1617.188466655177
 21
-3166.835801670145
 31
0.0
  0
LINE
  5
CC04
330
2
100
AcDbEntity
  8
L-ZISSEN
100
AcDbLine
 10
1631.298390061486
 20
-3171.128485704177
 30
0.0
 11
1631.298390061486
 21
-3168.835801670144
 31
0.0
  0
LINE
  5
CC05
330
2
100
AcDbEntity
  8
L-ZISSEN
100
AcDbLine
 10
1650.680832459828
 20
-3171.650007710788
 30
0.0
 11
1650.680832459828
 21
-3173.609002696975
 31
0.0
  0
LINE
  5
CC06
330
2
100
AcDbEntity
  8
L-ZISSEN
100
AcDbLine
 10
1637.151652521724
 20
-3171.63262436183
 30
0.0
 11
1637.151652521731
 21
-3173.626386045933
 31
0.0
  0
LINE
  5
CC07
330
2
100
AcDbEntity
  8
L-ZISSEN
100
AcDbLine
 10
1646.144564476759
 20
-3171.632093247568
 30
0.0
 11
1646.144564476759
 21
-3173.626917160196
 31
0.0
  0
LINE
  5
CC08
330
2
100
AcDbEntity
  8
L-ZISSEN
100
AcDbLine
 10
1647.181188839741
 20
-3175.570670614373
 30
0.0
 11
1647.181188839741
 21
-3174.129505203881
 31
0.0
  0
ARC
  5
CC09
330
2
100
AcDbEntity
  8
L-ZISSEN
100
AcDbCircle
 10
1648.393906899736
 20
-3168.859592918101
 30
0.0
 40
5.271330170371532
100
AcDbArc
 50
244.7408933165819
 51
295.711645114861
  0
LINE
  5
CC0A
330
2
100
AcDbEntity
  8
L-ZISSEN
100
AcDbLine
 10
1644.681188839742
 20
-3176.070670614373
 30
0.0
 11
1644.681188839742
 21
-3186.129505203881
 31
0.0
  0
LINE
  5
CC0B
330
2
100
AcDbEntity
  8
L-ZISSEN
100
AcDbLine
 10
1645.681188839745
 20
-3176.070670614373
 30
0.0
 11
1645.681188839745
 21
-3186.129505203881
 31
0.0
  0
LINE
  5
CC0C
330
2
100
AcDbEntity
  8
L-ZISSEN
100
AcDbLine
 10
1646.681188839744
 20
-3176.070670614373
 30
0.0
 11
1646.681188839746
 21
-3186.129505203881
 31
0.0
  0
LINE
  5
CC0D
330
2
100
AcDbEntity
  8
L-ZISSEN
100
AcDbLine
 10
1647.681188839741
 20
-3176.570670614372
 30
0.0
 11
1647.681188839741
 21
-3185.829505203881
 31
0.0
  0
LINE
  5
CC0E
330
2
100
AcDbEntity
  8
L-ZISSEN
100
AcDbLine
 10
1647.381188839741
 20
-3186.129505203881
 30
0.0
 11
1647.681188839741
 21
-3185.829505203882
 31
0.0
  0
LINE
  5
CC0F
330
2
100
AcDbEntity
  8
L-ZISSEN
100
AcDbLine
 10
1647.181188839741
 20
-3176.070670614373
 30
0.0
 11
1647.681188839741
 21
-3176.570670614372
 31
0.0
  0
LINE
  5
CC10
330
2
100
AcDbEntity
  8
L-ZISSEN
100
AcDbLine
 10
1644.681188839742
 20
-3176.070670614373
 30
0.0
 11
1647.181188839741
 21
-3176.070670614373
 31
0.0
  0
LINE
  5
CC11
330
2
100
AcDbEntity
  8
L-ZISSEN
100
AcDbLine
 10
1646.681188839742
 20
-3176.070670614373
 30
0.0
 11
1647.181188839741
 21
-3175.570670614373
 31
0.0
  0
LINE
  5
CC12
330
2
100
AcDbEntity
  8
L-ZISSEN
100
AcDbLine
 10
1646.681188839746
 20
-3174.130851466304
 30
0.0
 11
1646.681188839742
 21
-3176.070670614373
 31
0.0
  0
LINE
  5
CC13
330
2
100
AcDbEntity
  8
L-ZISSEN
100
AcDbLine
 10
1636.181188839743
 20
-3175.570670614373
 30
0.0
 11
1636.181188839743
 21
-3174.129505203881
 31
0.0
  0
LINE
  5
CC14
330
2
100
AcDbEntity
  8
L-ZISSEN
100
AcDbLine
 10
1635.681188839743
 20
-3185.829505203881
 30
0.0
 11
1635.681188839743
 21
-3176.570670614372
 31
0.0
  0
LINE
  5
CC15
330
2
100
AcDbEntity
  8
L-ZISSEN
100
AcDbLine
 10
1636.681188839742
 20
-3176.070670614373
 30
0.0
 11
1636.681188839742
 21
-3186.129505203881
 31
0.0
  0
LINE
  5
CC16
330
2
100
AcDbEntity
  8
L-ZISSEN
100
AcDbLine
 10
1635.981188839743
 20
-3186.129505203881
 30
0.0
 11
1635.681188839743
 21
-3185.829505203882
 31
0.0
  0
LINE
  5
CC17
330
2
100
AcDbEntity
  8
L-ZISSEN
100
AcDbLine
 10
1636.18118883974
 20
-3176.070670614373
 30
0.0
 11
1635.681188839743
 21
-3176.570670614372
 31
0.0
  0
LINE
  5
CC18
330
2
100
AcDbEntity
  8
L-ZISSEN
100
AcDbLine
 10
1636.68118883974
 20
-3176.070670614373
 30
0.0
 11
1636.181188839743
 21
-3175.570670614373
 31
0.0
  0
LINE
  5
CC19
330
2
100
AcDbEntity
  8
L-ZISSEN
100
AcDbLine
 10
1636.681188839744
 20
-3174.13020181501
 30
0.0
 11
1636.68118883974
 21
-3176.070670614373
 31
0.0
  0
LINE
  5
CC1A
330
2
100
AcDbEntity
  8
L-ZISSEN
100
AcDbLine
 10
1637.681188839741
 20
-3176.070670614373
 30
0.0
 11
1637.681188839741
 21
-3186.129505203881
 31
0.0
  0
LINE
  5
CC1B
330
2
100
AcDbEntity
  8
L-ZISSEN
100
AcDbLine
 10
1638.681188839743
 20
-3176.070670614373
 30
0.0
 11
1638.681188839743
 21
-3186.129505203881
 31
0.0
  0
LINE
  5
CC1C
330
2
100
AcDbEntity
  8
L-ZISSEN
100
AcDbLine
 10
1639.681188839744
 20
-3176.070670614373
 30
0.0
 11
1639.681188839744
 21
-3186.129505203881
 31
0.0
  0
LINE
  5
CC1D
330
2
100
AcDbEntity
  8
L-ZISSEN
100
AcDbLine
 10
1640.681188839743
 20
-3176.070670614373
 30
0.0
 11
1640.681188839743
 21
-3186.129505203881
 31
0.0
  0
LINE
  5
CC1E
330
2
100
AcDbEntity
  8
L-ZISSEN
100
AcDbLine
 10
1641.681188839744
 20
-3176.070670614373
 30
0.0
 11
1641.681188839744
 21
-3186.129505203881
 31
0.0
  0
LINE
  5
CC1F
330
2
100
AcDbEntity
  8
L-ZISSEN
100
AcDbLine
 10
1642.681188839743
 20
-3176.070670614373
 30
0.0
 11
1642.681188839743
 21
-3186.129505203881
 31
0.0
  0
LINE
  5
CC20
330
2
100
AcDbEntity
  8
L-ZISSEN
100
AcDbLine
 10
1643.681188839742
 20
-3176.070670614373
 30
0.0
 11
1643.681188839742
 21
-3186.129505203881
 31
0.0
  0
LINE
  5
CC21
330
2
100
AcDbEntity
  8
L-ZISSEN
100
AcDbLine
 10
1647.381188839741
 20
-3186.129505203881
 30
0.0
 11
1635.981188839743
 21
-3186.129505203881
 31
0.0
  0
LINE
  5
CC22
330
2
100
AcDbEntity
  8
L-ZISSEN
100
AcDbLine
 10
1636.18118883974
 20
-3176.070670614373
 30
0.0
 11
1644.681188839742
 21
-3176.070670614373
 31
0.0
  0
ARC
  5
CC23
330
2
100
AcDbEntity
  8
L-ZISSEN
100
AcDbCircle
 10
1641.681188839742
 20
-3153.488442529964
 30
0.0
 40
20.64106267391694
100
AcDbArc
 50
257.3236813122661
 51
282.4944195184307
  0
ARC
  5
CC24
330
2
100
AcDbEntity
  8
L-ZISSEN
100
AcDbCircle
 10
1652.192742828756
 20
-3147.688041117491
 30
0.0
 40
21.14865360703842
100
AcDbArc
 50
269.4734534758811
 51
290.2982352280561
  0
ARC
  5
CC25
330
2
100
AcDbEntity
  8
L-ZISSEN
100
AcDbCircle
 10
1648.393906899736
 20
-3176.399417489662
 30
0.0
 40
5.271330170371789
100
AcDbArc
 50
64.28835488513896
 51
115.259106683418
  0
LINE
  5
CC26
330
2
100
AcDbEntity
  8
L-ZISSEN
100
AcDbLine
 10
1651.998390061486
 20
-3171.128485704177
 30
0.0
 11
1651.998390061486
 21
-3168.835801670144
 31
0.0
  0
ARC
  5
CC27
330
2
100
AcDbEntity
  8
L-ZISSEN
100
AcDbCircle
 10
1641.681188839742
 20
-3191.770567877798
 30
0.0
 40
20.64106267391679
100
AcDbArc
 50
77.50558048156925
 51
102.676318687748
  0
LINE
  5
CC28
330
2
100
AcDbEntity
  8
L-ZISSEN
100
AcDbLine
 10
1633.398390061486
 20
-3125.235801670143
 30
0.0
 11
1649.898390061486
 21
-3125.235801670143
 31
0.0
  0
LINE
  5
CC29
330
2
100
AcDbEntity
  8
L-ZISSEN
100
AcDbLine
 10
1633.748390061487
 20
-3123.435801670142
 30
0.0
 11
1649.548390061486
 21
-3123.435801670142
 31
0.0
  0
LINE
  5
CC2A
330
2
100
AcDbEntity
  8
L-ZISSEN
100
AcDbLine
 10
1636.916119661484
 20
-3087.618886470147
 30
0.0
 11
1635.096015661484
 21
-3088.710948870147
 31
0.0
  0
LINE
  5
CC2B
330
2
100
AcDbEntity
  8
L-ZISSEN
100
AcDbLine
 10
1636.916119661484
 20
-3089.803011270146
 30
0.0
 11
1635.096015661484
 21
-3088.710948870147
 31
0.0
  0
LINE
  5
CC2C
330
2
100
AcDbEntity
  8
L-ZISSEN
100
AcDbLine
 10
1634.709027691424
 20
-3103.345952198386
 30
0.0
 11
1641.648390061486
 21
-3104.798749294928
 31
0.0
  0
LINE
  5
CC2D
330
2
100
AcDbEntity
  8
L-ZISSEN
100
AcDbLine
 10
1641.648390061486
 20
-3106.291884870143
 30
0.0
 11
1633.457922061487
 21
-3104.107760070144
 31
0.0
  0
LINE
  5
CC2E
330
2
100
AcDbEntity
  8
L-ZISSEN
100
AcDbLine
 10
1641.648390061486
 20
-3101.679696054166
 30
0.0
 11
1634.709027691424
 21
-3100.688358572728
 31
0.0
  0
LINE
  5
CC2F
330
2
100
AcDbEntity
  8
L-ZISSEN
100
AcDbLine
 10
1641.648390061486
 20
-3101.195593670144
 30
0.0
 11
1634.003953261487
 21
-3100.103531270144
 31
0.0
  0
LINE
  5
CC30
330
2
100
AcDbEntity
  8
L-ZISSEN
100
AcDbLine
 10
1633.398390061486
 20
-3113.235801670143
 30
0.0
 11
1635.898390061486
 21
-3113.235801670143
 31
0.0
  0
LINE
  5
CC31
330
2
100
AcDbEntity
  8
L-ZISSEN
100
AcDbLine
 10
1633.398390061486
 20
-3084.291884870143
 30
0.0
 11
1633.398390061486
 21
-3125.235801670143
 31
0.0
  0
LINE
  5
CC32
330
2
100
AcDbEntity
  8
L-ZISSEN
100
AcDbLine
 10
1633.748390061487
 20
-3113.235801670143
 30
0.0
 11
1633.748390061487
 21
-3123.435801670142
 31
0.0
  0
LINE
  5
CC33
330
2
100
AcDbEntity
  8
L-ZISSEN
100
AcDbLine
 10
1633.748390061487
 20
-3123.435801670142
 30
0.0
 11
1633.398390061486
 21
-3125.235801670143
 31
0.0
  0
LINE
  5
CC34
330
2
100
AcDbEntity
  8
L-ZISSEN
100
AcDbLine
 10
1628.398390061486
 20
-3101.335801670143
 30
0.0
 11
1633.398390061486
 21
-3101.335801670143
 31
0.0
  0
LINE
  5
CC35
330
2
100
AcDbEntity
  8
L-ZISSEN
100
AcDbLine
 10
1628.398390061487
 20
-3092.304683878626
 30
0.0
 11
1628.398390061487
 21
-3101.335801670143
 31
0.0
  0
LINE
  5
CC36
330
2
100
AcDbEntity
  8
L-ZISSEN
100
AcDbLine
 10
1623.398390061487
 20
-3101.335801670143
 30
0.0
 11
1619.811294170528
 21
-3101.335801670143
 31
0.0
  0
LINE
  5
CC37
330
2
100
AcDbEntity
  8
L-ZISSEN
100
AcDbLine
 10
1623.398390061487
 20
-3092.304683878626
 30
0.0
 11
1623.398390061487
 21
-3101.335801670143
 31
0.0
  0
LINE
  5
CC38
330
2
100
AcDbEntity
  8
L-ZISSEN
100
AcDbLine
 10
1619.492714227477
 20
-3089.835801670143
 30
0.0
 11
1617.188466655177
 21
-3089.835801670145
 31
0.0
  0
LINE
  5
CC39
330
2
100
AcDbEntity
  8
L-ZISSEN
100
AcDbLine
 10
1628.398390061487
 20
-3092.304683878626
 30
0.0
 11
1623.398390061487
 21
-3092.304683878626
 31
0.0
  0
LINE
  5
CC3A
330
2
100
AcDbEntity
  8
L-ZISSEN
100
AcDbLine
 10
1631.148390061484
 20
-3085.135801670139
 30
0.0
 11
1631.148390061481
 21
-3093.735801670137
 31
0.0
  0
LINE
  5
CC3B
330
2
100
AcDbEntity
  8
L-ZISSEN
100
AcDbLine
 10
1633.398390061485
 20
-3085.135801670139
 30
0.0
 11
1631.148390061484
 21
-3085.135801670139
 31
0.0
  0
LINE
  5
CC3C
330
2
100
AcDbEntity
  8
L-ZISSEN
100
AcDbLine
 10
1633.457922061487
 20
-3084.291884870143
 30
0.0
 11
1633.457922061487
 21
-3104.107760070144
 31
0.0
  0
LINE
  5
CC3D
330
2
100
AcDbEntity
  8
L-ZISSEN
100
AcDbLine
 10
1633.457922061487
 20
-3085.906720070143
 30
0.0
 11
1633.457922061487
 21
-3099.762385751046
 31
0.0
  0
LINE
  5
CC3E
330
2
100
AcDbEntity
  8
L-ZISSEN
100
AcDbLine
 10
1634.003953261487
 20
-3084.291884870143
 30
0.0
 11
1634.003953261487
 21
-3100.103531270144
 31
0.0
  0
LINE
  5
CC3F
330
2
100
AcDbEntity
  8
L-ZISSEN
100
AcDbLine
 10
1631.148390061481
 20
-3093.735801670137
 30
0.0
 11
1633.398390061485
 21
-3093.735801670139
 31
0.0
  0
LINE
  5
CC40
330
2
100
AcDbEntity
  8
L-ZISSEN
100
AcDbLine
 10
1634.709027691424
 20
-3100.688358572728
 30
0.0
 11
1634.709027691424
 21
-3103.345952198386
 31
0.0
  0
LINE
  5
CC41
330
2
100
AcDbEntity
  8
L-ZISSEN
100
AcDbLine
 10
1633.457922061487
 20
-3104.107760070144
 30
0.0
 11
1634.709027691424
 21
-3103.345952198386
 31
0.0
  0
LINE
  5
CC42
330
2
100
AcDbEntity
  8
L-ZISSEN
100
AcDbLine
 10
1634.709027691424
 20
-3100.204256188706
 30
0.0
 11
1634.003953261487
 21
-3100.103531270144
 31
0.0
  0
LINE
  5
CC43
330
2
100
AcDbEntity
  8
L-ZISSEN
100
AcDbLine
 10
1634.709027691424
 20
-3100.688358572728
 30
0.0
 11
1634.003953261487
 21
-3100.103531270144
 31
0.0
  0
LINE
  5
CC44
330
2
100
AcDbEntity
  8
L-ZISSEN
100
AcDbLine
 10
1649.898390061485
 20
-3084.291884870143
 30
0.0
 11
1649.898390061486
 21
-3125.235801670143
 31
0.0
  0
LINE
  5
CC45
330
2
100
AcDbEntity
  8
L-ZISSEN
100
AcDbLine
 10
1649.548390061486
 20
-3113.235801670143
 30
0.0
 11
1649.548390061486
 21
-3123.435801670142
 31
0.0
  0
LINE
  5
CC46
330
2
100
AcDbEntity
  8
L-ZISSEN
100
AcDbLine
 10
1649.548390061486
 20
-3123.435801670142
 30
0.0
 11
1649.898390061486
 21
-3125.235801670143
 31
0.0
  0
LINE
  5
CC47
330
2
100
AcDbEntity
  8
L-ZISSEN
100
AcDbLine
 10
1654.898390061485
 20
-3092.304683878626
 30
0.0
 11
1659.898390061485
 21
-3092.304683878626
 31
0.0
  0
LINE
  5
CC48
330
2
100
AcDbEntity
  8
L-ZISSEN
100
AcDbLine
 10
1652.148390061486
 20
-3085.135801670142
 30
0.0
 11
1652.148390061486
 21
-3093.735801670142
 31
0.0
  0
LINE
  5
CC49
330
2
100
AcDbEntity
  8
L-ZISSEN
100
AcDbLine
 10
1649.898390061485
 20
-3085.135801670142
 30
0.0
 11
1652.148390061486
 21
-3085.135801670142
 31
0.0
  0
LINE
  5
CC4A
330
2
100
AcDbEntity
  8
L-ZISSEN
100
AcDbLine
 10
1646.380660461488
 20
-3087.618886470147
 30
0.0
 11
1648.200764461488
 21
-3088.710948870147
 31
0.0
  0
LINE
  5
CC4B
330
2
100
AcDbEntity
  8
L-ZISSEN
100
AcDbLine
 10
1646.380660461488
 20
-3088.346928070146
 30
0.0
 11
1646.380660461488
 21
-3087.618886470147
 31
0.0
  0
LINE
  5
CC4C
330
2
100
AcDbEntity
  8
L-ZISSEN
100
AcDbLine
 10
1649.838858061487
 20
-3084.291884870143
 30
0.0
 11
1649.838858061487
 21
-3104.107760070144
 31
0.0
  0
LINE
  5
CC4D
330
2
100
AcDbEntity
  8
L-ZISSEN
100
AcDbLine
 10
1649.292826861486
 20
-3084.291884870143
 30
0.0
 11
1649.292826861486
 21
-3100.103531270144
 31
0.0
  0
LINE
  5
CC4E
330
2
100
AcDbEntity
  8
L-ZISSEN
100
AcDbLine
 10
1649.838858061487
 20
-3085.906720070143
 30
0.0
 11
1649.838858061487
 21
-3099.762385751046
 31
0.0
  0
LINE
  5
CC4F
330
2
100
AcDbEntity
  8
L-ZISSEN
100
AcDbLine
 10
1654.898390061485
 20
-3092.304683878626
 30
0.0
 11
1654.898390061485
 21
-3101.335801670143
 31
0.0
  0
LINE
  5
CC50
330
2
100
AcDbEntity
  8
L-ZISSEN
100
AcDbLine
 10
1652.148390061486
 20
-3093.735801670141
 30
0.0
 11
1649.898390061485
 21
-3093.735801670142
 31
0.0
  0
LINE
  5
CC51
330
2
100
AcDbEntity
  8
L-ZISSEN
100
AcDbLine
 10
1646.380660461488
 20
-3089.803011270146
 30
0.0
 11
1648.200764461488
 21
-3088.710948870147
 31
0.0
  0
LINE
  5
CC52
330
2
100
AcDbEntity
  8
L-ZISSEN
100
AcDbLine
 10
1646.380660461488
 20
-3089.074969670146
 30
0.0
 11
1646.380660461488
 21
-3089.803011270146
 31
0.0
  0
LINE
  5
CC53
330
2
100
AcDbEntity
  8
L-ZISSEN
100
AcDbLine
 10
1648.587752431548
 20
-3100.688358572728
 30
0.0
 11
1648.587752431548
 21
-3103.345952198386
 31
0.0
  0
LINE
  5
CC54
330
2
100
AcDbEntity
  8
L-ZISSEN
100
AcDbLine
 10
1647.648390061486
 20
-3113.235801670143
 30
0.0
 11
1647.648390061486
 21
-3121.235801670143
 31
0.0
  0
LINE
  5
CC55
330
2
100
AcDbEntity
  8
L-TYUSIN
100
AcDbLine
 10
1644.648390061487
 20
-3115.939381194076
 30
0.0
 11
1644.648390061487
 21
-3118.586479260836
 31
0.0
  0
LINE
  5
CC56
330
2
100
AcDbEntity
  8
L-ZISSEN
100
AcDbLine
 10
1647.398390061487
 20
-3104.758551536811
 30
0.0
 11
1647.398390061487
 21
-3121.235801670143
 31
0.0
  0
LINE
  5
CC57
330
2
100
AcDbEntity
  8
L-ZISSEN
100
AcDbLine
 10
1647.398390061487
 20
-3113.235801670143
 30
0.0
 11
1649.898390061486
 21
-3113.235801670143
 31
0.0
  0
LINE
  5
CC58
330
2
100
AcDbEntity
  8
L-ZISSEN
100
AcDbLine
 10
1649.838858061487
 20
-3104.107760070144
 30
0.0
 11
1648.587752431548
 21
-3103.345952198386
 31
0.0
  0
LINE
  5
CC59
330
2
100
AcDbEntity
  8
L-ZISSEN
100
AcDbLine
 10
1648.587752431548
 20
-3100.688358572728
 30
0.0
 11
1649.292826861486
 21
-3100.103531270144
 31
0.0
  0
LINE
  5
CC5A
330
2
100
AcDbEntity
  8
L-ZISSEN
100
AcDbLine
 10
1648.587752431548
 20
-3100.204256188706
 30
0.0
 11
1649.292826861486
 21
-3100.103531270144
 31
0.0
  0
LINE
  5
CC5B
330
2
100
AcDbEntity
  8
L-ZISSEN
100
AcDbLine
 10
1654.898390061486
 20
-3101.335801670143
 30
0.0
 11
1649.898390061486
 21
-3101.335801670143
 31
0.0
  0
CIRCLE
  5
CC5C
330
2
100
AcDbEntity
  8
L-ZISSEN
100
AcDbCircle
 10
1638.648390061486
 20
-3117.235801670142
 30
0.0
 40
2.0
  0
LINE
  5
CC5D
330
2
100
AcDbEntity
  8
L-ZISSEN
100
AcDbLine
 10
1635.648390061486
 20
-3113.235801670143
 30
0.0
 11
1635.648390061486
 21
-3121.235801670143
 31
0.0
  0
LINE
  5
CC5E
330
2
100
AcDbEntity
  8
L-ZISSEN
100
AcDbLine
 10
1635.898390061486
 20
-3104.75855153681
 30
0.0
 11
1635.898390061486
 21
-3121.235801670143
 31
0.0
  0
LINE
  5
CC5F
330
2
100
AcDbEntity
  8
L-ZISSEN
100
AcDbLine
 10
1636.916119661484
 20
-3088.346928070146
 30
0.0
 11
1636.916119661484
 21
-3087.618886470147
 31
0.0
  0
LINE
  5
CC60
330
2
100
AcDbEntity
  8
L-ZISSEN
100
AcDbLine
 10
1640.920348461485
 20
-3086.890844870144
 30
0.0
 11
1640.920348461486
 21
-3093.915177670144
 31
0.0
  0
LINE
  5
CC61
330
2
100
AcDbEntity
  8
L-ZISSEN
100
AcDbLine
 10
1642.376431661485
 20
-3086.890844870144
 30
0.0
 11
1642.376431661485
 21
-3093.915177670144
 31
0.0
  0
LINE
  5
CC62
330
2
100
AcDbEntity
  8
L-ZISSEN
100
AcDbLine
 10
1642.376431661485
 20
-3086.890844870145
 30
0.0
 11
1640.920348461486
 21
-3086.890844870145
 31
0.0
  0
LINE
  5
CC63
330
2
100
AcDbEntity
  8
L-ZISSEN
100
AcDbLine
 10
1639.828286061484
 20
-3089.074969670146
 30
0.0
 11
1636.916119661484
 21
-3089.074969670146
 31
0.0
  0
LINE
  5
CC64
330
2
100
AcDbEntity
  8
L-ZISSEN
100
AcDbLine
 10
1639.828286061484
 20
-3089.074969670146
 30
0.0
 11
1636.916119661484
 21
-3089.074969670146
 31
0.0
  0
LINE
  5
CC65
330
2
100
AcDbEntity
  8
L-ZISSEN
100
AcDbLine
 10
1639.828286061484
 20
-3088.346928070146
 30
0.0
 11
1636.916119661484
 21
-3088.346928070146
 31
0.0
  0
LINE
  5
CC66
330
2
100
AcDbEntity
  8
L-ZISSEN
100
AcDbLine
 10
1639.828286061484
 20
-3088.346928070146
 30
0.0
 11
1636.916119661484
 21
-3088.346928070146
 31
0.0
  0
LINE
  5
CC67
330
2
100
AcDbEntity
  8
L-ZISSEN
100
AcDbLine
 10
1636.916119661484
 20
-3089.074969670146
 30
0.0
 11
1636.916119661484
 21
-3089.803011270146
 31
0.0
  0
LINE
  5
CC68
330
2
100
AcDbEntity
  8
L-ZISSEN
100
AcDbLine
 10
1640.920348461486
 20
-3088.090844870144
 30
0.0
 11
1640.920348461486
 21
-3093.915177670144
 31
0.0
  0
LINE
  5
CC69
330
2
100
AcDbEntity
  8
L-ZISSEN
100
AcDbLine
 10
1642.376431661485
 20
-3088.090844870144
 30
0.0
 11
1642.376431661485
 21
-3093.915177670144
 31
0.0
  0
LINE
  5
CC6A
330
2
100
AcDbEntity
  8
L-ZISSEN
100
AcDbLine
 10
1643.468494061488
 20
-3088.346928070146
 30
0.0
 11
1643.468494061488
 21
-3089.074969670146
 31
0.0
  0
LINE
  5
CC6B
330
2
100
AcDbEntity
  8
L-ZISSEN
100
AcDbLine
 10
1642.376431661485
 20
-3093.915177670144
 30
0.0
 11
1643.832514861485
 21
-3093.915177670144
 31
0.0
  0
LINE
  5
CC6C
330
2
100
AcDbEntity
  8
L-ZISSEN
100
AcDbLine
 10
1639.828286061484
 20
-3088.346928070146
 30
0.0
 11
1639.828286061484
 21
-3089.074969670146
 31
0.0
  0
LINE
  5
CC6D
330
2
100
AcDbEntity
  8
L-ZISSEN
100
AcDbLine
 10
1640.920348461486
 20
-3093.915177670144
 30
0.0
 11
1639.464265261485
 21
-3093.915177670144
 31
0.0
  0
LINE
  5
CC6E
330
2
100
AcDbEntity
  8
L-ZISSEN
100
AcDbLine
 10
1643.832514861485
 20
-3093.915177670144
 30
0.0
 11
1641.648390061485
 21
-3097.555385670144
 31
0.0
  0
LINE
  5
CC6F
330
2
100
AcDbEntity
  8
L-ZISSEN
100
AcDbLine
 10
1639.464265261485
 20
-3093.915177670144
 30
0.0
 11
1641.648390061485
 21
-3097.555385670144
 31
0.0
  0
LINE
  5
CC70
330
2
100
AcDbEntity
  8
L-TYUSIN
100
AcDbLine
 10
1638.648390061486
 20
-3116.103652033965
 30
0.0
 11
1638.648390061486
 21
-3118.411561624997
 31
0.0
  0
ARC
  5
CC71
330
2
100
AcDbEntity
  8
L-ZISSEN
100
AcDbCircle
 10
1641.648390061486
 20
-3108.485801670143
 30
0.0
 40
1.25
100
AcDbArc
 50
180.0
 51
0.0
  0
LINE
  5
CC72
330
2
100
AcDbEntity
  8
L-ZISSEN
100
AcDbLine
 10
1640.398390061486
 20
-3108.485801670143
 30
0.0
 11
1640.398390061486
 21
-3105.958551536811
 31
0.0
  0
LINE
  5
CC73
330
2
100
AcDbEntity
  8
L-ZISSEN
100
AcDbLine
 10
1642.898390061486
 20
-3108.485801670143
 30
0.0
 11
1642.898390061486
 21
-3105.958551536811
 31
0.0
  0
LINE
  5
CC74
330
2
100
AcDbEntity
  8
L-TYUSIN
100
AcDbLine
 10
1636.648390061486
 20
-3117.235801670142
 30
0.0
 11
1646.648390061486
 21
-3117.235801670142
 31
0.0
  0
LINE
  5
CC75
330
2
100
AcDbEntity
  8
L-ZISSEN
100
AcDbLine
 10
1635.648390061486
 20
-3121.235801670143
 30
0.0
 11
1647.648390061486
 21
-3121.235801670143
 31
0.0
  0
LINE
  5
CC76
330
2
100
AcDbEntity
  8
L-ZISSEN
100
AcDbLine
 10
1643.468494061488
 20
-3089.074969670146
 30
0.0
 11
1646.380660461488
 21
-3089.074969670146
 31
0.0
  0
LINE
  5
CC77
330
2
100
AcDbEntity
  8
L-ZISSEN
100
AcDbLine
 10
1643.468494061488
 20
-3089.074969670146
 30
0.0
 11
1646.380660461488
 21
-3089.074969670146
 31
0.0
  0
LINE
  5
CC78
330
2
100
AcDbEntity
  8
L-ZISSEN
100
AcDbLine
 10
1643.468494061488
 20
-3088.346928070146
 30
0.0
 11
1646.380660461488
 21
-3088.346928070146
 31
0.0
  0
LINE
  5
CC79
330
2
100
AcDbEntity
  8
L-ZISSEN
100
AcDbLine
 10
1643.468494061488
 20
-3088.346928070146
 30
0.0
 11
1646.380660461488
 21
-3088.346928070146
 31
0.0
  0
CIRCLE
  5
CC7A
330
2
100
AcDbEntity
  8
L-ZISSEN
100
AcDbCircle
 10
1644.648390061487
 20
-3117.235801670142
 30
0.0
 40
2.0
  0
LINE
  5
CC7B
330
2
100
AcDbEntity
  8
L-ZISSEN
100
AcDbLine
 10
1648.587752431548
 20
-3103.345952198386
 30
0.0
 11
1641.648390061486
 21
-3104.798749294928
 31
0.0
  0
LINE
  5
CC7C
330
2
100
AcDbEntity
  8
L-ZISSEN
100
AcDbLine
 10
1641.648390061486
 20
-3106.291884870143
 30
0.0
 11
1649.838858061487
 21
-3104.107760070144
 31
0.0
  0
LINE
  5
CC7D
330
2
100
AcDbEntity
  8
L-ZISSEN
100
AcDbLine
 10
1641.648390061486
 20
-3101.679696054166
 30
0.0
 11
1648.587752431548
 21
-3100.688358572728
 31
0.0
  0
LINE
  5
CC7E
330
2
100
AcDbEntity
  8
L-ZISSEN
100
AcDbLine
 10
1641.648390061486
 20
-3101.195593670144
 30
0.0
 11
1649.292826861486
 21
-3100.103531270144
 31
0.0
  0
LINE
  5
CC7F
330
2
100
AcDbEntity
  8
L-ZISSEN
100
AcDbLine
 10
1659.898390061486
 20
-3092.304683878626
 30
0.0
 11
1659.898390061485
 21
-3101.335801670143
 31
0.0
  0
LINE
  5
CCED
330
2
100
AcDbEntity
  8
L-ZISSEN
100
AcDbLine
 10
1663.957646825795
 20
-3084.291884870143
 30
0.0
 11
1661.750205708005
 21
-3163.975409863761
 31
0.0
  0
LINE
  5
CDBA
330
2
100
AcDbEntity
  8
L-TYUSIN
100
AcDbLine
 10
1479.227812046923
 20
-2822.050881766926
 30
0.0
 11
1479.227812046923
 21
-3194.564006753458
 31
0.0
  0
LINE
  5
CDBB
330
2
100
AcDbEntity
  8
L-TYUSIN
100
AcDbLine
 10
1672.877938412789
 20
-3013.12223965847
 30
0.0
 11
1479.227812046923
 21
-3013.12223965847
 31
0.0
  0
TEXT
  5
CFDE
330
2
100
AcDbEntity
  8
L-ZISSEN
100
AcDbText
 10
1613.648390061487
 20
-3073.879505203881
 30
0.0
 40
4.5
  1
P.P
100
AcDbText
  0
LINE
  5
CFDF
330
2
100
AcDbEntity
  8
L-ZISSEN
100
AcDbLine
 10
1640.111947502292
 20
-3082.849136404552
 30
0.0
 11
1626.648390061486
 21
-3071.629505203881
 31
0.0
  0
LINE
  5
CFE0
330
2
100
AcDbEntity
  8
L-ZISSEN
100
AcDbLine
 10
1626.648390061486
 20
-3071.629505203881
 30
0.0
 11
1624.648390061486
 21
-3071.629505203881
 31
0.0
  0
SOLID
  5
CFE1
330
2
100
AcDbEntity
  8
L-ZISSEN
100
AcDbTrace
 10
1639.898552702403
 20
-3083.105210164418
 30
0.0
 11
1640.32534230218
 21
-3082.593062644686
 31
0.0
 12
1641.648390061486
 22
-3084.129505203881
 32
0.0
 13
1641.648390061486
 23
-3084.129505203881
 33
0.0
  0
LINE
  5
CFE2
330
2
100
AcDbEntity
  8
L-ZISSEN
100
AcDbLine
 10
1540.111947502292
 20
-3082.849136404552
 30
0.0
 11
1526.648390061486
 21
-3071.629505203881
 31
0.0
  0
SOLID
  5
CFE3
330
2
100
AcDbEntity
  8
L-ZISSEN
100
AcDbTrace
 10
1539.898552702403
 20
-3083.105210164418
 30
0.0
 11
1540.32534230218
 21
-3082.593062644686
 31
0.0
 12
1541.648390061486
 22
-3084.129505203881
 32
0.0
 13
1541.648390061486
 23
-3084.129505203881
 33
0.0
  0
TEXT
  5
CFE4
330
2
100
AcDbEntity
  8
L-ZISSEN
100
AcDbText
 10
1513.648390061486
 20
-3073.879505203881
 30
0.0
 40
4.5
  1
P.P
100
AcDbText
  0
LINE
  5
CFE5
330
2
100
AcDbEntity
  8
L-ZISSEN
100
AcDbLine
 10
1526.648390061486
 20
-3071.629505203881
 30
0.0
 11
1524.648390061487
 21
-3071.629505203881
 31
0.0
  0
LINE
  5
CFE6
330
2
100
AcDbEntity
  8
L-ZISSEN
100
AcDbLine
 10
1415.021033192234
 20
-3096.292135678322
 30
0.0
 11
1369.624144003358
 21
-3128.724976816637
 31
0.0
  0
LINE
  5
CFE7
330
2
100
AcDbEntity
  8
L-ZISSEN
100
AcDbLine
 10
1367.624144003358
 20
-3128.724976816637
 30
0.0
 11
1369.624144003358
 21
-3128.724976816637
 31
0.0
  0
TEXT
  5
CFE8
330
2
100
AcDbEntity
  8
L-ZISSEN
100
AcDbText
 10
1356.449114443383
 20
-3130.971651044589
 30
0.0
 40
4.5
  1
P.P
100
AcDbText
  0
SOLID
  5
CFE9
330
2
100
AcDbEntity
  8
L-ZISSEN
100
AcDbTrace
 10
1414.827261446494
 20
-3096.020909533446
 30
0.0
 11
1415.214804937974
 21
-3096.563361823198
 31
0.0
 12
1416.648390061486
 22
-3095.129505203881
 32
0.0
 13
1416.648390061486
 23
-3095.129505203881
 33
0.0
  0
LINE
  5
CFEA
330
2
100
AcDbEntity
  8
L-ZISSEN
100
AcDbLine
 10
1265.021033192234
 20
-3096.292135678323
 30
0.0
 11
1219.624144003358
 21
-3128.724976816638
 31
0.0
  0
TEXT
  5
CFEB
330
2
100
AcDbEntity
  8
L-ZISSEN
100
AcDbText
 10
1206.753754935455
 20
-3130.971651044589
 30
0.0
 40
4.5
  1
P.P
100
AcDbText
  0
LINE
  5
CFEC
330
2
100
AcDbEntity
  8
L-ZISSEN
100
AcDbLine
 10
1219.624144003358
 20
-3128.724976816638
 30
0.0
 11
1217.624144003358
 21
-3128.724976816638
 31
0.0
  0
SOLID
  5
CFED
330
2
100
AcDbEntity
  8
L-ZISSEN
100
AcDbTrace
 10
1264.827261446494
 20
-3096.020909533447
 30
0.0
 11
1265.214804937975
 21
-3096.563361823198
 31
0.0
 12
1266.648390061486
 22
-3095.129505203882
 32
0.0
 13
1266.648390061486
 23
-3095.129505203882
 33
0.0
  0
LINE
  5
CFF2
330
2
100
AcDbEntity
  8
L-ZISSEN
100
AcDbLine
 10
1526.648390061486
 20
-2851.629505203881
 30
0.0
 11
1524.648390061486
 21
-2851.629505203881
 31
0.0
  0
TEXT
  5
CFF3
330
2
100
AcDbEntity
  8
L-ZISSEN
100
AcDbText
 10
1513.648390061486
 20
-2853.879505203881
 30
0.0
 40
4.5
  1
P.P
100
AcDbText
  0
LINE
  5
CFF4
330
2
100
AcDbEntity
  8
L-ZISSEN
100
AcDbLine
 10
1540.111947502292
 20
-2862.849136404552
 30
0.0
 11
1526.648390061486
 21
-2851.629505203881
 31
0.0
  0
SOLID
  5
CFF5
330
2
100
AcDbEntity
  8
L-ZISSEN
100
AcDbTrace
 10
1539.898552702403
 20
-2863.105210164418
 30
0.0
 11
1540.32534230218
 21
-2862.593062644686
 31
0.0
 12
1541.648390061486
 22
-2864.129505203881
 32
0.0
 13
1541.648390061486
 23
-2864.129505203881
 33
0.0
  0
TEXT
  5
CFF6
330
2
100
AcDbEntity
  8
L-ZISSEN
100
AcDbText
 10
1613.648390061486
 20
-2853.879505203881
 30
0.0
 40
4.5
  1
P.P
100
AcDbText
  0
LINE
  5
CFF7
330
2
100
AcDbEntity
  8
L-ZISSEN
100
AcDbLine
 10
1626.648390061486
 20
-2851.629505203881
 30
0.0
 11
1624.648390061486
 21
-2851.629505203881
 31
0.0
  0
LINE
  5
CFF8
330
2
100
AcDbEntity
  8
L-ZISSEN
100
AcDbLine
 10
1640.111947502291
 20
-2862.849136404552
 30
0.0
 11
1626.648390061486
 21
-2851.629505203881
 31
0.0
  0
SOLID
  5
CFF9
330
2
100
AcDbEntity
  8
L-ZISSEN
100
AcDbTrace
 10
1639.898552702403
 20
-2863.105210164418
 30
0.0
 11
1640.32534230218
 21
-2862.593062644686
 31
0.0
 12
1641.648390061486
 22
-2864.129505203881
 32
0.0
 13
1641.648390061486
 23
-2864.129505203881
 33
0.0
  0
TEXT
  5
D01B
330
2
100
AcDbEntity
  8
L-ZISSEN
100
AcDbText
 10
1364.467636266676
 20
-2845.785103287338
 30
0.0
 40
4.5
  1
MODEL NO. B63- 00-*0 *
100
AcDbText
  0
TEXT
  5
D01C
330
2
100
AcDbEntity
  8
L-ZISSEN
100
AcDbText
 10
1424.566568974979
 20
-2848.939521920524
 30
0.0
 40
4.5
  1
3
100
AcDbText
  0
TEXT
  5
D01D
330
2
100
AcDbEntity
  8
L-ZISSEN
100
AcDbText
 10
1424.566568974979
 20
-2842.428658250324
 30
0.0
 40
4.5
  1
2
100
AcDbText
  0
TEXT
  5
D01E
330
2
100
AcDbEntity
  8
L-ZISSEN
100
AcDbText
 10
1449.595329313417
 20
-2848.939521920524
 30
0.0
 40
4.5
  1
M
100
AcDbText
  0
TEXT
  5
D01F
330
2
100
AcDbEntity
  8
L-ZISSEN
100
AcDbText
 10
1450.230985721155
 20
-2842.428658250324
 30
0.0
 40
4.5
  1
1
100
AcDbText
  0
TEXT
  5
D020
330
2
100
AcDbEntity
  8
L-ZISSEN
100
AcDbText
 10
1502.117399734576
 20
-2830.04047826458
 30
0.0
 40
4.5
  1
MODEL NO. B63- 00-*0 *
100
AcDbText
  0
TEXT
  5
D021
330
2
100
AcDbEntity
  8
L-ZISSEN
100
AcDbText
 10
1562.216332442879
 20
-2833.194896897765
 30
0.0
 40
4.5
  1
3
100
AcDbText
  0
TEXT
  5
D022
330
2
100
AcDbEntity
  8
L-ZISSEN
100
AcDbText
 10
1562.216332442879
 20
-2826.684033227566
 30
0.0
 40
4.5
  1
2
100
AcDbText
  0
TEXT
  5
D023
330
2
100
AcDbEntity
  8
L-ZISSEN
100
AcDbText
 10
1587.164462025714
 20
-2833.194896897765
 30
0.0
 40
4.5
  1
N
100
AcDbText
  0
TEXT
  5
D024
330
2
100
AcDbEntity
  8
L-ZISSEN
100
AcDbText
 10
1587.074439630977
 20
-2826.684033227566
 30
0.0
 40
4.5
  1
2
100
AcDbText
  0
TEXT
  5
D025
330
2
100
AcDbEntity
  8
L-ZISSEN
100
AcDbText
 10
1502.117399734576
 20
-3042.844889307737
 30
0.0
 40
4.5
  1
MODEL NO. B63- 00-*0 *
100
AcDbText
  0
TEXT
  5
D026
330
2
100
AcDbEntity
  8
L-ZISSEN
100
AcDbText
 10
1587.089378285939
 20
-3039.488444270723
 30
0.0
 40
4.5
  1
4
100
AcDbText
  0
TEXT
  5
D027
330
2
100
AcDbEntity
  8
L-ZISSEN
100
AcDbText
 10
1587.089378285939
 20
-3045.999307940923
 30
0.0
 40
4.5
  1
P
100
AcDbText
  0
LINE
  5
D02D
330
2
100
AcDbEntity
  8
L-SOUZOU
100
AcDbLine
 10
1219.162675775775
 20
-3014.129505203881
 30
0.0
 11
1217.648390061486
 21
-3014.129505203881
 31
0.0
  0
LINE
  5
D083
330
2
100
AcDbEntity
  8
L-ZISSEN
100
AcDbLine
 10
1389.093777285404
 20
-3066.430154771357
 30
0.0
 11
1373.061161208273
 21
-3040.595996791224
 31
0.0
  0
TEXT
  5
D084
330
2
100
AcDbEntity
  8
L-ZISSEN
100
AcDbText
 10
1349.512700602019
 20
-3039.585470988405
 30
0.0
 40
4.5
  1
IN
100
AcDbText
  0
TEXT
  5
D085
330
2
100
AcDbEntity
  8
L-ZISSEN
100
AcDbText
 10
1349.512700602019
 20
-3054.585470988405
 30
0.0
 40
4.5
  1
Rc3/8
100
AcDbText
  0
LINE
  5
D086
330
2
100
AcDbEntity
  8
L-ZISSEN
100
AcDbLine
 10
1348.965877539921
 20
-3040.595996791224
 30
0.0
 11
1373.061161208273
 21
-3040.595996791224
 31
0.0
  0
TEXT
  5
D087
330
2
100
AcDbEntity
  8
L-ZISSEN
100
AcDbText
 10
1349.512700602019
 20
-3047.085470988406
 30
0.0
 40
4.5
  1
Rc1/4
100
AcDbText
  0
SOLID
  5
D088
330
2
100
AcDbEntity
  8
L-ZISSEN
100
AcDbTrace
 10
1388.810552213316
 20
-3066.605923567371
 30
0.0
 11
1389.377002357491
 21
-3066.254385975343
 31
0.0
 12
1390.148390061486
 22
-3068.129505203882
 32
0.0
 13
1390.148390061486
 23
-3068.129505203882
 33
0.0
  0
VIEWPORT
  5
69B
330
F
100
AcDbEntity
 67
     1
  8
0
100
AcDbViewport
 10
0.0
 20
0.0
 30
0.0
 40
0.0
 41
0.0
 68
     1
 69
     1
1001
ACAD
1000
MVIEW
1002
{
1070
    16
1010
0.0
1020
0.0
1030
0.0
1010
0.0
1020
0.0
1030
1.0
1040
0.0
1040
0.0
1040
0.0
1040
0.0
1040
50.0
1040
0.0
1040
0.0
1070
     0
1070
   100
1070
     1
1070
     1
1070
     0
1070
     0
1070
     0
1070
     0
1040
0.0
1040
0.0
1040
0.0
1040
10.0
1040
10.0
1040
10.0
1040
10.0
1070
     0
1002
{
1002
}
1002
}
  0
VIEWPORT
  5
69D
330
F
100
AcDbEntity
 67
     1
  8
SUNPOU
100
AcDbViewport
 10
0.0
 20
0.0
 30
0.0
 40
0.0
 41
0.0
 68
    -1
 69
     2
1001
ACAD
1000
MVIEW
1002
{
1070
    16
1010
0.0
1020
0.0
1030
0.0
1010
0.0
1020
0.0
1030
1.0
1040
0.0
1040
59.8802181911947
1040
144.5109310282361
1040
-1209.648178221134
1040
50.0
1040
0.0
1040
0.0
1070
    16
1070
   100
1070
     1
1070
     0
1070
     0
1070
     0
1070
     0
1070
     0
1040
0.0
1040
0.0
1040
0.0
1040
1.0
1040
1.0
1040
4.0
1040
4.0
1070
     0
1002
{
1002
}
1002
}
  0
ENDSEC
  0
SECTION
  2
OBJECTS
  0
DICTIONARY
  5
9
330
0
100
AcDbDictionary
  3
ACAD_GROUP
350
23
  3
ACAD_LAYOUT
350
E
  3
ACAD_MLINESTYLE
350
24
  3
ACAD_PLOTSETTINGS
350
25
1001
ACAD
1000
TREAT_AS_HARD
1070
     0
  0
DICTIONARY
  5
8E1
330
15
100
AcDbDictionary
  3
ACAD_LAYERSTATES
350
8E2
1001
ACAD
1000
TREAT_AS_HARD
1070
     1
  0
DICTIONARY
  5
3
330
2
100
AcDbDictionary
  3
ACAD_LAYOUTSELFREF
350
D23B
1001
ACAD
1000
TREAT_AS_HARD
1070
     1
  0
DICTIONARY
  5
10
330
F
100
AcDbDictionary
  3
ACAD_LAYOUTSELFREF
350
D23C
1001
ACAD
1000
TREAT_AS_HARD
1070
     1
  0
DICTIONARY
  5
23
102
{ACAD_REACTORS
330
9
102
}
330
9
100
AcDbDictionary
1001
ACAD
1000
TREAT_AS_HARD
1070
     0
  0
DICTIONARY
  5
E
102
{ACAD_REACTORS
330
9
102
}
330
9
100
AcDbDictionary
1001
ACAD
1000
TREAT_AS_HARD
1070
     0
  0
DICTIONARY
  5
24
102
{ACAD_REACTORS
330
9
102
}
330
9
100
AcDbDictionary
  3
STANDARD
350
27
1001
ACAD
1000
TREAT_AS_HARD
1070
     0
  0
DICTIONARY
  5
25
102
{ACAD_REACTORS
330
9
102
}
330
9
100
AcDbDictionary
1001
ACAD
1000
TREAT_AS_HARD
1070
     0
  0
DICTIONARY
  5
8E2
102
{ACAD_REACTORS
330
8E1
102
}
330
8E1
100
AcDbDictionary
1001
ACAD
1000
TREAT_AS_HARD
1070
     0
  0
XRECORD
  5
D23B
102
{ACAD_REACTORS
330
3
102
}
330
3
100
AcDbXrecord
340
2
  0
XRECORD
  5
D23C
102
{ACAD_REACTORS
330
10
102
}
330
10
100
AcDbXrecord
340
F
  0
MLINESTYLE
  5
27
102
{ACAD_REACTORS
330
24
102
}
330
24
100
AcDbMlineStyle
  2
STANDARD
 70
     0
  3

 62
   256
 51
90.0
 52
90.0
 71
     2
 49
0.5
 62
   256
  6
BYLAYER
 49
-0.5
 62
   256
  6
BYLAYER
  0
ENDSEC
  0
EOF
