  0
SECTION
  2
HEADER
  9
$ACADVER
  1
AC1006
  9
$INSBASE
 10
0.0
 20
0.0
 30
0.0
  9
$EXTMIN
 10
0.0
 20
0.0
  9
$EXTMAX
 10
1009.0
 20
707.0
  9
$LIMMIN
 10
0.0
 20
0.0
  9
$LIMMAX
 10
1000.0
 20
707.0
  9
$ORTHOMODE
 70
     0
  9
$REGENMODE
 70
     1
  9
$FILLMODE
 70
     1
  9
$QTEXTMODE
 70
     0
  9
$MIRRTEXT
 70
     1
  9
$DRAGMODE
 70
     2
  9
$LTSCALE
 40
1.0
  9
$OSMODE
 70
     0
  9
$ATTMODE
 70
     1
  9
$TEXTSIZE
 40
4.5
  9
$TRACEWID
 40
0.05
  9
$TEXTSTYLE
  7
STANDARD
  9
$CLAYER
  8
L-ZISSEN
  9
$CELTYPE
  6
BYLAYER
  9
$CECOLOR
 62
   256
  9
$DIMSCALE
 40
1.0
  9
$DIMASZ
 40
2.0
  9
$DIMEXO
 40
2.0
  9
$DIMDLI
 40
0.38
  9
$DIMRND
 40
0.0
  9
$DIMDLE
 40
1.0
  9
$DIMEXE
 40
2.0
  9
$DIMTP
 40
0.0
  9
$DIMTM
 40
0.0
  9
$DIMTXT
 40
4.5
  9
$DIMCEN
 40
0.09
  9
$DIMTSZ
 40
0.0
  9
$DIMTOL
 70
     0
  9
$DIMLIM
 70
     0
  9
$DIMTIH
 70
     0
  9
$DIMTOH
 70
     0
  9
$DIMSE1
 70
     0
  9
$DIMSE2
 70
     0
  9
$DIMTAD
 70
     1
  9
$DIMZIN
 70
     0
  9
$DIMBLK
  1

  9
$DIMASO
 70
     0
  9
$DIMSHO
 70
     0
  9
$DIMPOST
  1

  9
$DIMAPOST
  1

  9
$DIMALT
 70
     0
  9
$DIMALTD
 70
     2
  9
$DIMALTF
 40
25.4
  9
$DIMLFAC
 40
1.0
  9
$DIMTOFL
 70
     1
  9
$DIMTVP
 40
0.0
  9
$DIMTIX
 70
     1
  9
$DIMSOXD
 70
     0
  9
$DIMSAH
 70
     0
  9
$DIMBLK1
  1

  9
$DIMBLK2
  1

  9
$LUNITS
 70
     2
  9
$LUPREC
 70
     4
  9
$AXISMODE
 70
     0
  9
$AXISUNIT
 10
0.0
 20
0.0
  9
$SKETCHINC
 40
0.1
  9
$FILLETRAD
 40
11.0
  9
$AUNITS
 70
     0
  9
$AUPREC
 70
     0
  9
$MENU
  1
acad
  9
$ELEVATION
 40
0.0
  9
$THICKNESS
 40
0.0
  9
$LIMCHECK
 70
     0
  9
$BLIPMODE
 70
     1
  9
$CHAMFERA
 40
0.0
  9
$CHAMFERB
 40
0.0
  9
$SKPOLY
 70
     0
  9
$TDCREATE
 40
2449570.7134318287
  9
$TDUPDATE
 40
2449570.7134318287
  9
$TDINDWG
 40
0.0000000000
  9
$TDUSRTIMER
 40
0.0000000000
  9
$USRTIMER
 70
     1
  9
$ANGBASE
 50
0.0
  9
$ANGDIR
 70
     0
  9
$PDMODE
 70
     0
  9
$PDSIZE
 40
0.0
  9
$PLINEWID
 40
0.0
  9
$COORDS
 70
     2
  9
$SPLFRAME
 70
     0
  9
$SPLINETYPE
 70
     6
  9
$SPLINESEGS
 70
     8
  9
$ATTDIA
 70
     0
  9
$ATTREQ
 70
     1
  9
$HANDLING
 70
     0
  9
$HANDSEED
  5
0
  9
$SURFTAB1
 70
     6
  9
$SURFTAB2
 70
     6
  9
$SURFTYPE
 70
     6
  9
$SURFU
 70
     6
  9
$SURFV
 70
     6
  9
$FLATLAND
 70
     0
  9
$UCSNAME
  2

  9
$UCSORG
 10
0.0
 20
0.0
 30
0.0
  9
$UCSXDIR
 10
1.0
 20
0.0
 30
0.0
  9
$UCSYDIR
 10
0.0
 20
1.0
 30
0.0
  9
$USERI1
 70
     0
  9
$USERI2
 70
     0
  9
$USERI3
 70
     0
  9
$USERI4
 70
     0
  9
$USERI5
 70
     0
  9
$USERR1
 40
0.0
  9
$USERR2
 40
0.0
  9
$USERR3
 40
0.0
  9
$USERR4
 40
0.0
  9
$USERR5
 40
0.0
  9
$WORLDVIEW
 70
     1
  0
ENDSEC
  0
SECTION
  2
TABLES
  0
TABLE
  2
VPORT
 70
     2
  0
VPORT
  2
*ACTIVE
 70
     0
 10
0.0
 20
0.0
 11
1.0
 21
1.0
 12
567.09491
 22
366.174865
 13
0.0
 23
0.0
 14
5.0
 24
5.0
 15
0.0
 25
0.0
 16
0.0
 26
0.0
 36
1.0
 17
0.0
 27
0.0
 37
0.0
 40
732.349729
 41
1.5487
 42
50.0
 43
0.0
 44
0.0
 50
0.0
 51
0.0
 71
     0
 72
   100
 73
     1
 74
     0
 75
     0
 76
     0
 77
     0
 78
     0
  0
ENDTAB
  0
TABLE
  2
LTYPE
 70
     2
  0
LTYPE
  2
CONTINUOUS
 70
    64
  3
Solid line
 72
    65
 73
     0
 40
0.0
  0
LTYPE
  2
CENTER
 70
    64
  3
____ _ ____ _ ____ _ ____ _ 
 72
    65
 73
     4
 40
60.0
 49
45.0
 49
-5.0
 49
5.0
 49
-5.0
  0
ENDTAB
  0
TABLE
  2
LAYER
 70
     3
  0
LAYER
  2
0
 70
     0
 62
     7
  6
CONTINUOUS
  0
LAYER
  2
L-ZISSEN
 70
    64
 62
     7
  6
CONTINUOUS
  0
LAYER
  2
L-TYUSIN
 70
    64
 62
     1
  6
CENTER
  0
ENDTAB
  0
TABLE
  2
STYLE
 70
     1
  0
STYLE
  2
STANDARD
 70
    64
 40
0.0
 41
1.0
 50
0.0
 71
     0
 42
4.5
  3
TXT
  4

  0
ENDTAB
  0
TABLE
  2
VIEW
 70
     0
  0
ENDTAB
  0
TABLE
  2
UCS
 70
     0
  0
ENDTAB
  0
TABLE
  2
DWGMGR
 70
     0
  0
ENDTAB
  0
ENDSEC
  0
SECTION
  2
BLOCKS
  0
ENDSEC
  0
SECTION
  2
ENTITIES
  0
TEXT
  8
L-ZISSEN
 10
600.0
 20
435.0
 30
0.0
 40
4.5
  1
SUB-BASE CONNECTION
  0
LINE
  8
L-TYUSIN
 10
48.6
 20
260.0
 30
0.0
 11
391.4
 21
260.0
 31
0.0
  0
LINE
  8
L-TYUSIN
 10
220.0
 20
309.0
 30
0.0
 11
220.0
 21
211.0
 31
0.0
  0
LINE
  8
L-ZISSEN
 10
145.1
 20
223.0
 30
0.0
 11
145.1
 21
297.0
 31
0.0
  0
LINE
  8
L-ZISSEN
 10
163.1
 20
304.0
 30
0.0
 11
276.9
 21
304.0
 31
0.0
  0
LINE
  8
L-ZISSEN
 10
294.9
 20
297.0
 30
0.0
 11
294.9
 21
223.0
 31
0.0
  0
LINE
  8
L-ZISSEN
 10
276.9
 20
216.0
 30
0.0
 11
163.1
 21
216.0
 31
0.0
  0
LINE
  8
L-ZISSEN
 10
294.9
 20
177.0
 30
0.0
 11
294.9
 21
109.0
 31
0.0
  0
LINE
  8
L-ZISSEN
 10
145.1
 20
109.0
 30
0.0
 11
145.1
 21
177.0
 31
0.0
  0
LINE
  8
L-TYUSIN
 10
46.6
 20
140.0
 30
0.0
 11
393.4
 21
140.0
 31
0.0
  0
LINE
  8
L-ZISSEN
 10
275.0
 20
178.0
 30
0.0
 11
237.0
 21
178.0
 31
0.0
  0
LINE
  8
L-ZISSEN
 10
368.4
 20
110.0
 30
0.0
 11
71.6
 21
110.0
 31
0.0
  0
LINE
  8
L-TYUSIN
 10
438.0
 20
140.0
 30
0.0
 11
522.0
 21
140.0
 31
0.0
  0
LINE
  8
L-TYUSIN
 10
220.0
 20
183.0
 30
0.0
 11
220.0
 21
56.0
 31
0.0
  0
LINE
  8
L-TYUSIN
 10
480.0
 20
183.0
 30
0.0
 11
480.0
 21
46.0
 31
0.0
  0
LINE
  8
L-ZISSEN
 10
368.4
 20
170.0
 30
0.0
 11
283.9
 21
170.0
 31
0.0
  0
LINE
  8
L-ZISSEN
 10
283.9
 20
170.0
 30
0.0
 11
283.9
 21
120.0
 31
0.0
  0
LINE
  8
L-ZISSEN
 10
283.9
 20
120.0
 30
0.0
 11
156.1
 21
120.0
 31
0.0
  0
LINE
  8
L-ZISSEN
 10
156.1
 20
120.0
 30
0.0
 11
156.1
 21
170.0
 31
0.0
  0
LINE
  8
L-ZISSEN
 10
156.1
 20
170.0
 30
0.0
 11
71.6
 21
170.0
 31
0.0
  0
LINE
  8
L-ZISSEN
 10
361.9
 20
177.0
 30
0.0
 11
256.0
 21
177.0
 31
0.0
  0
LINE
  8
L-ZISSEN
 10
275.0
 20
177.0
 30
0.0
 11
275.0
 21
178.0
 31
0.0
  0
LINE
  8
L-ZISSEN
 10
237.0
 20
177.0
 30
0.0
 11
237.0
 21
178.0
 31
0.0
  0
LINE
  8
L-ZISSEN
 10
203.0
 20
177.0
 30
0.0
 11
203.0
 21
178.0
 31
0.0
  0
LINE
  8
L-ZISSEN
 10
165.0
 20
177.0
 30
0.0
 11
165.0
 21
178.0
 31
0.0
  0
LINE
  8
L-ZISSEN
 10
165.0
 20
178.0
 30
0.0
 11
203.0
 21
178.0
 31
0.0
  0
LINE
  8
L-ZISSEN
 10
256.0
 20
161.12463
 30
0.0
 11
256.0
 21
178.0
 31
0.0
  0
LINE
  8
L-ZISSEN
 10
244.0
 20
165.0
 30
0.0
 11
244.0
 21
178.0
 31
0.0
  0
LINE
  8
L-ZISSEN
 10
244.0
 20
177.0
 30
0.0
 11
184.0
 21
177.0
 31
0.0
  0
LINE
  8
L-ZISSEN
 10
156.1
 20
161.12463
 30
0.0
 11
172.0
 21
161.12463
 31
0.0
  0
LINE
  8
L-ZISSEN
 10
256.0
 20
161.12463
 30
0.0
 11
283.9
 21
161.12463
 31
0.0
  0
LINE
  8
L-ZISSEN
 10
172.0
 20
161.12463
 30
0.0
 11
172.0
 21
178.0
 31
0.0
  0
LINE
  8
L-ZISSEN
 10
184.0
 20
161.12463
 30
0.0
 11
184.0
 21
178.0
 31
0.0
  0
LINE
  8
L-ZISSEN
 10
184.0
 20
161.12463
 30
0.0
 11
187.0
 21
161.12463
 31
0.0
  0
LINE
  8
L-ZISSEN
 10
172.0
 20
177.0
 30
0.0
 11
78.1
 21
177.0
 31
0.0
  0
LINE
  8
L-ZISSEN
 10
255.0
 20
152.5
 30
0.0
 11
235.0
 21
152.5
 31
0.0
  0
LINE
  8
L-ZISSEN
 10
255.0
 20
152.5
 30
0.0
 11
255.0
 21
120.0
 31
0.0
  0
LINE
  8
L-ZISSEN
 10
235.0
 20
152.5
 30
0.0
 11
235.0
 21
120.0
 31
0.0
  0
LINE
  8
L-ZISSEN
 10
185.0
 20
152.5
 30
0.0
 11
185.0
 21
120.0
 31
0.0
  0
LINE
  8
L-ZISSEN
 10
205.0
 20
152.5
 30
0.0
 11
205.0
 21
120.0
 31
0.0
  0
LINE
  8
L-ZISSEN
 10
185.0
 20
152.5
 30
0.0
 11
205.0
 21
152.5
 31
0.0
  0
LINE
  8
L-ZISSEN
 10
524.0
 20
110.0
 30
0.0
 11
436.0
 21
110.0
 31
0.0
  0
LINE
  8
L-ZISSEN
 10
492.5
 20
177.0
 30
0.0
 11
467.5
 21
177.0
 31
0.0
  0
LINE
  8
L-ZISSEN
 10
361.9
 20
276.0
 30
0.0
 11
268.0
 21
276.0
 31
0.0
  0
LINE
  8
L-ZISSEN
 10
361.9
 20
244.0
 30
0.0
 11
256.0
 21
244.0
 31
0.0
  0
LINE
  8
L-ZISSEN
 10
283.9
 20
297.0
 30
0.0
 11
283.9
 21
276.0
 31
0.0
  0
LINE
  8
L-ZISSEN
 10
78.1
 20
247.5
 30
0.0
 11
165.0
 21
247.5
 31
0.0
  0
LINE
  8
L-ZISSEN
 10
78.1
 20
272.5
 30
0.0
 11
165.0
 21
272.5
 31
0.0
  0
LINE
  8
L-ZISSEN
 10
156.1
 20
223.0
 30
0.0
 11
156.1
 21
244.0
 31
0.0
  0
LINE
  8
L-ZISSEN
 10
203.0
 20
244.0
 30
0.0
 11
203.0
 21
276.0
 31
0.0
  0
LINE
  8
L-ZISSEN
 10
237.0
 20
244.0
 30
0.0
 11
237.0
 21
276.0
 31
0.0
  0
LINE
  8
L-ZISSEN
 10
275.0
 20
272.5
 30
0.0
 11
361.9
 21
272.5
 31
0.0
  0
LINE
  8
L-ZISSEN
 10
275.0
 20
247.5
 30
0.0
 11
361.9
 21
247.5
 31
0.0
  0
LINE
  8
L-ZISSEN
 10
203.0
 20
247.5
 30
0.0
 11
237.0
 21
247.5
 31
0.0
  0
LINE
  8
L-ZISSEN
 10
203.0
 20
272.5
 30
0.0
 11
237.0
 21
272.5
 31
0.0
  0
LINE
  8
L-ZISSEN
 10
368.4
 20
223.0
 30
0.0
 11
283.9
 21
223.0
 31
0.0
  0
LINE
  8
L-ZISSEN
 10
368.4
 20
297.0
 30
0.0
 11
283.9
 21
297.0
 31
0.0
  0
LINE
  8
L-ZISSEN
 10
283.9
 20
297.0
 30
0.0
 11
276.9
 21
304.0
 31
0.0
  0
LINE
  8
L-ZISSEN
 10
156.1
 20
297.0
 30
0.0
 11
71.6
 21
297.0
 31
0.0
  0
LINE
  8
L-ZISSEN
 10
156.1
 20
297.0
 30
0.0
 11
163.1
 21
304.0
 31
0.0
  0
LINE
  8
L-ZISSEN
 10
283.9
 20
223.0
 30
0.0
 11
276.9
 21
216.0
 31
0.0
  0
LINE
  8
L-ZISSEN
 10
156.1
 20
223.0
 30
0.0
 11
163.1
 21
216.0
 31
0.0
  0
LINE
  8
L-ZISSEN
 10
156.1
 20
223.0
 30
0.0
 11
71.6
 21
223.0
 31
0.0
  0
LINE
  8
L-ZISSEN
 10
260.0
 20
367.5
 30
0.0
 11
260.0
 21
400.0
 31
0.0
  0
LINE
  8
L-ZISSEN
 10
280.0
 20
367.5
 30
0.0
 11
280.0
 21
400.0
 31
0.0
  0
LINE
  8
L-ZISSEN
 10
280.0
 20
367.5
 30
0.0
 11
260.0
 21
367.5
 31
0.0
  0
LINE
  8
L-ZISSEN
 10
268.0
 20
343.0
 30
0.0
 11
361.9
 21
343.0
 31
0.0
  0
LINE
  8
L-ZISSEN
 10
256.0
 20
358.87537
 30
0.0
 11
253.357003
 21
358.87537
 31
0.0
  0
LINE
  8
L-ZISSEN
 10
256.0
 20
358.87537
 30
0.0
 11
256.0
 21
342.0
 31
0.0
  0
LINE
  8
L-ZISSEN
 10
268.0
 20
355.0
 30
0.0
 11
268.0
 21
342.0
 31
0.0
  0
LINE
  8
L-ZISSEN
 10
184.0
 20
358.87537
 30
0.0
 11
178.0
 21
358.87537
 31
0.0
  0
LINE
  8
L-ZISSEN
 10
283.9
 20
358.87537
 30
0.0
 11
278.0
 21
358.87537
 31
0.0
  0
LINE
  8
L-ZISSEN
 10
196.0
 20
343.0
 30
0.0
 11
256.0
 21
343.0
 31
0.0
  0
LINE
  8
L-ZISSEN
 10
196.0
 20
358.87537
 30
0.0
 11
196.0
 21
342.0
 31
0.0
  0
LINE
  8
L-ZISSEN
 10
184.0
 20
358.87537
 30
0.0
 11
184.0
 21
342.0
 31
0.0
  0
LINE
  8
L-ZISSEN
 10
275.0
 20
342.0
 30
0.0
 11
237.0
 21
342.0
 31
0.0
  0
LINE
  8
L-ZISSEN
 10
275.0
 20
343.0
 30
0.0
 11
275.0
 21
342.0
 31
0.0
  0
LINE
  8
L-ZISSEN
 10
237.0
 20
343.0
 30
0.0
 11
237.0
 21
342.0
 31
0.0
  0
LINE
  8
L-ZISSEN
 10
203.0
 20
343.0
 30
0.0
 11
203.0
 21
342.0
 31
0.0
  0
LINE
  8
L-ZISSEN
 10
165.0
 20
343.0
 30
0.0
 11
165.0
 21
342.0
 31
0.0
  0
LINE
  8
L-ZISSEN
 10
78.1
 20
343.0
 30
0.0
 11
184.0
 21
343.0
 31
0.0
  0
LINE
  8
L-ZISSEN
 10
156.1
 20
350.0
 30
0.0
 11
71.6
 21
350.0
 31
0.0
  0
LINE
  8
L-ZISSEN
 10
156.1
 20
400.0
 30
0.0
 11
156.1
 21
350.0
 31
0.0
  0
LINE
  8
L-ZISSEN
 10
283.9
 20
400.0
 30
0.0
 11
156.1
 21
400.0
 31
0.0
  0
LINE
  8
L-ZISSEN
 10
283.9
 20
350.0
 30
0.0
 11
283.9
 21
400.0
 31
0.0
  0
LINE
  8
L-ZISSEN
 10
368.4
 20
350.0
 30
0.0
 11
283.9
 21
350.0
 31
0.0
  0
LINE
  8
L-ZISSEN
 10
368.4
 20
410.0
 30
0.0
 11
71.6
 21
410.0
 31
0.0
  0
LINE
  8
L-ZISSEN
 10
165.0
 20
342.0
 30
0.0
 11
203.0
 21
342.0
 31
0.0
  0
LINE
  8
L-TYUSIN
 10
46.6
 20
380.0
 30
0.0
 11
393.4
 21
380.0
 31
0.0
  0
LINE
  8
L-ZISSEN
 10
145.1
 20
411.0
 30
0.0
 11
145.1
 21
343.0
 31
0.0
  0
LINE
  8
L-ZISSEN
 10
294.9
 20
343.0
 30
0.0
 11
294.9
 21
411.0
 31
0.0
  0
LINE
  8
L-TYUSIN
 10
220.0
 20
337.0
 30
0.0
 11
220.0
 21
464.0
 31
0.0
  0
LINE
  8
L-ZISSEN
 10
180.0
 20
367.5
 30
0.0
 11
180.0
 21
400.0
 31
0.0
  0
LINE
  8
L-ZISSEN
 10
160.0
 20
367.5
 30
0.0
 11
180.0
 21
367.5
 31
0.0
  0
LINE
  8
L-ZISSEN
 10
160.0
 20
367.5
 30
0.0
 11
160.0
 21
400.0
 31
0.0
  0
CIRCLE
  8
L-ZISSEN
 10
242.0
 20
355.0
 30
0.0
 40
12.0
  0
CIRCLE
  8
L-ZISSEN
 10
210.0
 20
355.0
 30
0.0
 40
12.0
  0
LINE
  8
L-ZISSEN
 10
198.642997
 20
358.87537
 30
0.0
 11
196.0
 21
358.87537
 31
0.0
  0
LINE
  8
L-ZISSEN
 10
230.642997
 20
358.87537
 30
0.0
 11
221.357003
 21
358.87537
 31
0.0
  0
LINE
  8
L-ZISSEN
 10
198.0
 20
292.0
 30
0.0
 11
198.0
 21
276.0
 31
0.0
  0
LINE
  8
L-ZISSEN
 10
156.1
 20
292.0
 30
0.0
 11
160.0
 21
292.0
 31
0.0
  0
LINE
  8
L-ZISSEN
 10
156.1
 20
228.0
 30
0.0
 11
185.0
 21
228.0
 31
0.0
  0
LINE
  8
L-ZISSEN
 10
222.0
 20
292.0
 30
0.0
 11
222.0
 21
276.0
 31
0.0
  0
LINE
  8
L-ZISSEN
 10
230.0
 20
292.0
 30
0.0
 11
230.0
 21
276.0
 31
0.0
  0
LINE
  8
L-ZISSEN
 10
254.0
 20
292.0
 30
0.0
 11
254.0
 21
276.0
 31
0.0
  0
ARC
  8
L-ZISSEN
 10
270.0
 20
294.0
 30
0.0
 40
10.0
 50
0.0
 51
180.0
  0
LINE
  8
L-ZISSEN
 10
260.0
 20
294.0
 30
0.0
 11
260.0
 21
281.656854
 31
0.0
  0
LINE
  8
L-ZISSEN
 10
280.0
 20
294.0
 30
0.0
 11
280.0
 21
276.0
 31
0.0
  0
LINE
  8
L-ZISSEN
 10
280.0
 20
292.0
 30
0.0
 11
283.9
 21
292.0
 31
0.0
  0
LINE
  8
L-ZISSEN
 10
180.0
 20
294.0
 30
0.0
 11
180.0
 21
276.0
 31
0.0
  0
ARC
  8
L-ZISSEN
 10
170.0
 20
294.0
 30
0.0
 40
10.0
 50
0.0
 51
180.0
  0
LINE
  8
L-ZISSEN
 10
160.0
 20
294.0
 30
0.0
 11
160.0
 21
276.0
 31
0.0
  0
LINE
  8
L-ZISSEN
 10
180.0
 20
292.0
 30
0.0
 11
260.0
 21
292.0
 31
0.0
  0
ARC
  8
L-ZISSEN
 10
190.0
 20
276.0
 30
0.0
 40
6.0
 50
0.0
 51
180.0
  0
ARC
  8
L-ZISSEN
 10
178.0
 20
244.0
 30
0.0
 40
6.0
 50
180.0
 51
0.0
  0
LINE
  8
L-ZISSEN
 10
184.0
 20
276.0
 30
0.0
 11
78.1
 21
276.0
 31
0.0
  0
LINE
  8
L-ZISSEN
 10
172.5
 20
244.0
 30
0.0
 11
78.1
 21
244.0
 31
0.0
  0
ARC
  8
L-ZISSEN
 10
262.0
 20
276.0
 30
0.0
 40
6.0
 50
0.0
 51
180.0
  0
ARC
  8
L-ZISSEN
 10
250.0
 20
244.0
 30
0.0
 40
6.0
 50
180.0
 51
0.0
  0
LINE
  8
L-ZISSEN
 10
256.0
 20
276.0
 30
0.0
 11
237.0
 21
276.0
 31
0.0
  0
LINE
  8
L-ZISSEN
 10
244.0
 20
244.0
 30
0.0
 11
184.0
 21
244.0
 31
0.0
  0
LINE
  8
L-ZISSEN
 10
230.0
 20
276.0
 30
0.0
 11
222.0
 21
276.0
 31
0.0
  0
LINE
  8
L-ZISSEN
 10
203.0
 20
276.0
 30
0.0
 11
196.0
 21
276.0
 31
0.0
  0
LINE
  8
L-ZISSEN
 10
205.0
 20
226.0
 30
0.0
 11
205.0
 21
244.0
 31
0.0
  0
ARC
  8
L-ZISSEN
 10
195.0
 20
226.0
 30
0.0
 40
10.0
 50
180.0
 51
0.0
  0
LINE
  8
L-ZISSEN
 10
185.0
 20
226.0
 30
0.0
 11
185.0
 21
244.0
 31
0.0
  0
ARC
  8
L-ZISSEN
 10
245.0
 20
226.0
 30
0.0
 40
10.0
 50
180.0
 51
0.0
  0
LINE
  8
L-ZISSEN
 10
255.0
 20
226.0
 30
0.0
 11
255.0
 21
240.683375
 31
0.0
  0
LINE
  8
L-ZISSEN
 10
235.0
 20
226.0
 30
0.0
 11
235.0
 21
244.0
 31
0.0
  0
LINE
  8
L-ZISSEN
 10
205.0
 20
228.0
 30
0.0
 11
235.0
 21
228.0
 31
0.0
  0
LINE
  8
L-ZISSEN
 10
255.0
 20
228.0
 30
0.0
 11
283.9
 21
228.0
 31
0.0
  0
LINE
  8
L-ZISSEN
 10
443.0
 20
110.0
 30
0.0
 11
443.0
 21
170.0
 31
0.0
  0
LINE
  8
L-ZISSEN
 10
517.0
 20
170.0
 30
0.0
 11
517.0
 21
110.0
 31
0.0
  0
LINE
  8
L-ZISSEN
 10
467.5
 20
177.0
 30
0.0
 11
462.5
 21
170.0
 31
0.0
  0
LINE
  8
L-ZISSEN
 10
492.5
 20
177.0
 30
0.0
 11
497.5
 21
170.0
 31
0.0
  0
LINE
  8
L-ZISSEN
 10
443.0
 20
170.0
 30
0.0
 11
517.0
 21
170.0
 31
0.0
  0
LINE
  8
L-ZISSEN
 10
458.0
 20
178.0
 30
0.0
 11
502.0
 21
178.0
 31
0.0
  0
LINE
  8
L-ZISSEN
 10
524.0
 20
120.0
 30
0.0
 11
517.0
 21
120.0
 31
0.0
  0
LINE
  8
L-ZISSEN
 10
436.0
 20
109.0
 30
0.0
 11
436.0
 21
152.5
 31
0.0
  0
LINE
  8
L-ZISSEN
 10
436.0
 20
152.5
 30
0.0
 11
443.0
 21
152.5
 31
0.0
  0
LINE
  8
L-ZISSEN
 10
524.0
 20
152.5
 30
0.0
 11
517.0
 21
152.5
 31
0.0
  0
LINE
  8
L-ZISSEN
 10
524.0
 20
109.0
 30
0.0
 11
524.0
 21
152.5
 31
0.0
  0
LINE
  8
L-ZISSEN
 10
443.0
 20
120.0
 30
0.0
 11
436.0
 21
120.0
 31
0.0
  0
LINE
  8
L-ZISSEN
 10
512.0
 20
177.0
 30
0.0
 11
512.0
 21
170.0
 31
0.0
  0
LINE
  8
L-ZISSEN
 10
512.0
 20
177.0
 30
0.0
 11
502.0
 21
177.0
 31
0.0
  0
LINE
  8
L-ZISSEN
 10
244.0
 20
244.0
 30
0.0
 11
237.0
 21
244.0
 31
0.0
  0
LINE
  8
L-ZISSEN
 10
244.0
 20
276.0
 30
0.0
 11
237.0
 21
276.0
 31
0.0
  0
LINE
  8
L-ZISSEN
 10
237.0
 20
244.0
 30
0.0
 11
237.0
 21
276.0
 31
0.0
  0
LINE
  8
L-ZISSEN
 10
502.0
 20
178.0
 30
0.0
 11
502.0
 21
170.0
 31
0.0
  0
LINE
  8
L-ZISSEN
 10
458.0
 20
170.0
 30
0.0
 11
458.0
 21
178.0
 31
0.0
  0
LINE
  8
L-ZISSEN
 10
497.5
 20
170.0
 30
0.0
 11
497.5
 21
178.0
 31
0.0
  0
LINE
  8
L-ZISSEN
 10
462.5
 20
170.0
 30
0.0
 11
462.5
 21
178.0
 31
0.0
  0
LINE
  8
L-ZISSEN
 10
299.5
 20
109.0
 30
0.0
 11
140.5
 21
109.0
 31
0.0
  0
LINE
  8
L-ZISSEN
 10
329.5
 20
51.0
 30
0.0
 11
293.0
 21
51.0
 31
0.0
  0
LINE
  8
L-ZISSEN
 10
329.5
 20
78.0
 30
0.0
 11
299.5
 21
78.0
 31
0.0
  0
LINE
  8
L-ZISSEN
 10
110.5
 20
51.0
 30
0.0
 11
110.5
 21
78.0
 31
0.0
  0
LINE
  8
L-ZISSEN
 10
147.0
 20
51.0
 30
0.0
 11
147.0
 21
61.0
 31
0.0
  0
LINE
  8
L-TYUSIN
 10
200.0
 20
85.0
 30
0.0
 11
240.0
 21
85.0
 31
0.0
  0
LINE
  8
L-ZISSEN
 10
140.5
 20
61.0
 30
0.0
 11
299.5
 21
61.0
 31
0.0
  0
LINE
  8
L-ZISSEN
 10
140.5
 20
61.0
 30
0.0
 11
140.5
 21
109.0
 31
0.0
  0
LINE
  8
L-ZISSEN
 10
299.5
 20
61.0
 30
0.0
 11
299.5
 21
109.0
 31
0.0
  0
LINE
  8
L-ZISSEN
 10
293.0
 20
51.0
 30
0.0
 11
293.0
 21
61.0
 31
0.0
  0
LINE
  8
L-ZISSEN
 10
329.5
 20
51.0
 30
0.0
 11
329.5
 21
78.0
 31
0.0
  0
LINE
  8
L-ZISSEN
 10
147.0
 20
51.0
 30
0.0
 11
110.5
 21
51.0
 31
0.0
  0
LINE
  8
L-ZISSEN
 10
140.5
 20
78.0
 30
0.0
 11
110.5
 21
78.0
 31
0.0
  0
LINE
  8
L-TYUSIN
 10
274.0
 20
105.0
 30
0.0
 11
274.0
 21
65.0
 31
0.0
  0
LINE
  8
L-TYUSIN
 10
254.0
 20
85.0
 30
0.0
 11
294.0
 21
85.0
 31
0.0
  0
LINE
  8
L-TYUSIN
 10
166.0
 20
105.0
 30
0.0
 11
166.0
 21
65.0
 31
0.0
  0
LINE
  8
L-TYUSIN
 10
186.0
 20
85.0
 30
0.0
 11
146.0
 21
85.0
 31
0.0
  0
LINE
  8
L-TYUSIN
 10
318.5
 20
83.0
 30
0.0
 11
318.5
 21
46.0
 31
0.0
  0
LINE
  8
L-TYUSIN
 10
121.5
 20
83.0
 30
0.0
 11
121.5
 21
46.0
 31
0.0
  0
LINE
  8
L-ZISSEN
 10
253.0
 20
165.0
 30
0.0
 11
237.0
 21
165.0
 31
0.0
  0
LINE
  8
L-ZISSEN
 10
237.0
 20
165.0
 30
0.0
 11
237.0
 21
152.5
 31
0.0
  0
LINE
  8
L-ZISSEN
 10
253.0
 20
165.0
 30
0.0
 11
253.0
 21
152.5
 31
0.0
  0
LINE
  8
L-ZISSEN
 10
203.0
 20
165.0
 30
0.0
 11
187.0
 21
165.0
 31
0.0
  0
LINE
  8
L-ZISSEN
 10
187.0
 20
165.0
 30
0.0
 11
187.0
 21
152.5
 31
0.0
  0
LINE
  8
L-ZISSEN
 10
203.0
 20
165.0
 30
0.0
 11
203.0
 21
152.5
 31
0.0
  0
LINE
  8
L-ZISSEN
 10
203.0
 20
161.12463
 30
0.0
 11
237.0
 21
161.12463
 31
0.0
  0
LINE
  8
L-TYUSIN
 10
121.5
 20
437.0
 30
0.0
 11
121.5
 21
474.0
 31
0.0
  0
LINE
  8
L-TYUSIN
 10
318.5
 20
437.0
 30
0.0
 11
318.5
 21
474.0
 31
0.0
  0
LINE
  8
L-TYUSIN
 10
247.0
 20
415.0
 30
0.0
 11
247.0
 21
455.0
 31
0.0
  0
LINE
  8
L-ZISSEN
 10
140.5
 20
442.0
 30
0.0
 11
110.5
 21
442.0
 31
0.0
  0
LINE
  8
L-ZISSEN
 10
147.0
 20
469.0
 30
0.0
 11
110.5
 21
469.0
 31
0.0
  0
LINE
  8
L-ZISSEN
 10
329.5
 20
469.0
 30
0.0
 11
329.5
 21
442.0
 31
0.0
  0
LINE
  8
L-ZISSEN
 10
293.0
 20
469.0
 30
0.0
 11
293.0
 21
459.0
 31
0.0
  0
LINE
  8
L-ZISSEN
 10
299.5
 20
459.0
 30
0.0
 11
299.5
 21
411.0
 31
0.0
  0
LINE
  8
L-ZISSEN
 10
140.5
 20
459.0
 30
0.0
 11
140.5
 21
411.0
 31
0.0
  0
LINE
  8
L-ZISSEN
 10
140.5
 20
459.0
 30
0.0
 11
299.5
 21
459.0
 31
0.0
  0
LINE
  8
L-TYUSIN
 10
227.0
 20
435.0
 30
0.0
 11
267.0
 21
435.0
 31
0.0
  0
LINE
  8
L-ZISSEN
 10
147.0
 20
469.0
 30
0.0
 11
147.0
 21
459.0
 31
0.0
  0
LINE
  8
L-ZISSEN
 10
110.5
 20
469.0
 30
0.0
 11
110.5
 21
442.0
 31
0.0
  0
LINE
  8
L-ZISSEN
 10
329.5
 20
442.0
 30
0.0
 11
299.5
 21
442.0
 31
0.0
  0
LINE
  8
L-ZISSEN
 10
329.5
 20
469.0
 30
0.0
 11
293.0
 21
469.0
 31
0.0
  0
LINE
  8
L-ZISSEN
 10
299.5
 20
411.0
 30
0.0
 11
140.5
 21
411.0
 31
0.0
  0
LINE
  8
L-TYUSIN
 10
213.0
 20
435.0
 30
0.0
 11
173.0
 21
435.0
 31
0.0
  0
LINE
  8
L-TYUSIN
 10
193.0
 20
415.0
 30
0.0
 11
193.0
 21
455.0
 31
0.0
  0
LINE
  8
L-ZISSEN
 10
162.0
 20
355.0
 30
0.0
 11
162.0
 21
367.5
 31
0.0
  0
LINE
  8
L-ZISSEN
 10
178.0
 20
355.0
 30
0.0
 11
162.0
 21
355.0
 31
0.0
  0
LINE
  8
L-ZISSEN
 10
178.0
 20
355.0
 30
0.0
 11
178.0
 21
367.5
 31
0.0
  0
LINE
  8
L-ZISSEN
 10
262.0
 20
355.0
 30
0.0
 11
262.0
 21
367.5
 31
0.0
  0
LINE
  8
L-ZISSEN
 10
278.0
 20
355.0
 30
0.0
 11
278.0
 21
367.5
 31
0.0
  0
LINE
  8
L-ZISSEN
 10
278.0
 20
355.0
 30
0.0
 11
262.0
 21
355.0
 31
0.0
  0
LINE
  8
L-ZISSEN
 10
162.0
 20
358.87537
 30
0.0
 11
156.1
 21
358.87537
 31
0.0
  0
LINE
  8
L-ZISSEN
 10
524.0
 20
109.0
 30
0.0
 11
436.0
 21
109.0
 31
0.0
  0
LINE
  8
L-ZISSEN
 10
421.0
 20
51.0
 30
0.0
 11
539.0
 21
51.0
 31
0.0
  0
LINE
  8
L-ZISSEN
 10
421.0
 20
78.0
 30
0.0
 11
539.0
 21
78.0
 31
0.0
  0
LINE
  8
L-ZISSEN
 10
421.0
 20
51.0
 30
0.0
 11
421.0
 21
78.0
 31
0.0
  0
LINE
  8
L-ZISSEN
 10
539.0
 20
51.0
 30
0.0
 11
539.0
 21
78.0
 31
0.0
  0
LINE
  8
L-ZISSEN
 10
436.0
 20
109.0
 30
0.0
 11
436.0
 21
78.0
 31
0.0
  0
LINE
  8
L-ZISSEN
 10
524.0
 20
109.0
 30
0.0
 11
524.0
 21
78.0
 31
0.0
  0
LINE
  8
L-ZISSEN
 10
498.0
 20
78.0
 30
0.0
 11
498.0
 21
51.0
 31
0.0
  0
LINE
  8
L-ZISSEN
 10
462.0
 20
78.0
 30
0.0
 11
462.0
 21
51.0
 31
0.0
  0
LINE
  8
L-TYUSIN
 10
528.0
 20
83.0
 30
0.0
 11
528.0
 21
46.0
 31
0.0
  0
LINE
  8
L-TYUSIN
 10
432.0
 20
83.0
 30
0.0
 11
432.0
 21
46.0
 31
0.0
  0
LINE
  8
L-ZISSEN
 10
443.0
 20
165.0
 30
0.0
 11
438.0
 21
165.0
 31
0.0
  0
LINE
  8
L-ZISSEN
 10
438.0
 20
165.0
 30
0.0
 11
438.0
 21
152.5
 31
0.0
  0
LINE
  8
L-ZISSEN
 10
522.0
 20
165.0
 30
0.0
 11
522.0
 21
152.5
 31
0.0
  0
LINE
  8
L-ZISSEN
 10
517.0
 20
165.0
 30
0.0
 11
522.0
 21
165.0
 31
0.0
  0
CIRCLE
  8
L-ZISSEN
 10
170.0
 20
294.0
 30
0.0
 40
8.0
  0
CIRCLE
  8
L-ZISSEN
 10
270.0
 20
294.0
 30
0.0
 40
8.0
  0
CIRCLE
  8
L-ZISSEN
 10
245.0
 20
226.0
 30
0.0
 40
8.0
  0
CIRCLE
  8
L-ZISSEN
 10
195.0
 20
226.0
 30
0.0
 40
8.0
  0
LINE
  8
L-ZISSEN
 10
140.5
 20
304.0
 30
0.0
 11
140.5
 21
297.0
 31
0.0
  0
LINE
  8
L-ZISSEN
 10
299.5
 20
304.0
 30
0.0
 11
299.5
 21
297.0
 31
0.0
  0
LINE
  8
L-ZISSEN
 10
163.1
 20
216.0
 30
0.0
 11
140.5
 21
216.0
 31
0.0
  0
LINE
  8
L-ZISSEN
 10
276.9
 20
216.0
 30
0.0
 11
299.5
 21
216.0
 31
0.0
  0
LINE
  8
L-ZISSEN
 10
276.9
 20
304.0
 30
0.0
 11
299.5
 21
304.0
 31
0.0
  0
LINE
  8
L-ZISSEN
 10
163.1
 20
304.0
 30
0.0
 11
140.5
 21
304.0
 31
0.0
  0
LINE
  8
L-ZISSEN
 10
140.5
 20
223.0
 30
0.0
 11
140.5
 21
216.0
 31
0.0
  0
LINE
  8
L-ZISSEN
 10
299.5
 20
223.0
 30
0.0
 11
299.5
 21
216.0
 31
0.0
  0
LINE
  8
L-TYUSIN
 10
121.5
 20
317.0
 30
0.0
 11
121.5
 21
299.0
 31
0.0
  0
LINE
  8
L-TYUSIN
 10
112.5
 20
308.0
 30
0.0
 11
130.5
 21
308.0
 31
0.0
  0
CIRCLE
  8
L-ZISSEN
 10
121.5
 20
308.0
 30
0.0
 40
5.5
  0
LINE
  8
L-ZISSEN
 10
140.5
 20
216.0
 30
0.0
 11
125.5
 21
201.0
 31
0.0
  0
CIRCLE
  8
L-ZISSEN
 10
121.5
 20
212.0
 30
0.0
 40
5.5
  0
LINE
  8
L-TYUSIN
 10
112.5
 20
212.0
 30
0.0
 11
130.5
 21
212.0
 31
0.0
  0
LINE
  8
L-TYUSIN
 10
121.5
 20
203.0
 30
0.0
 11
121.5
 21
221.0
 31
0.0
  0
LINE
  8
L-ZISSEN
 10
115.030345
 20
223.0
 30
0.0
 11
110.5
 21
215.153212
 31
0.0
  0
CIRCLE
  8
L-ZISSEN
 10
220.0
 20
85.0
 30
0.0
 40
15.1455
  0
CIRCLE
  8
L-ZISSEN
 10
274.0
 20
85.0
 30
0.0
 40
15.1455
  0
CIRCLE
  8
L-ZISSEN
 10
166.0
 20
85.0
 30
0.0
 40
15.1455
  0
CIRCLE
  8
L-ZISSEN
 10
247.0
 20
435.0
 30
0.0
 40
15.1455
  0
CIRCLE
  8
L-ZISSEN
 10
193.0
 20
435.0
 30
0.0
 40
15.1455
  0
LINE
  8
L-TYUSIN
 10
580.0
 20
445.0
 30
0.0
 11
580.0
 21
10.0
 31
0.0
  0
TEXT
  8
L-ZISSEN
 10
35.0
 20
510.0
 30
0.0
 40
4.5
  1
MODEL NO. : MVM-441-
  0
TEXT
  8
L-ZISSEN
 10
600.0
 20
420.0
 30
0.0
 40
4.5
  1
MODEL NO. : MVM-441-12J
  0
LINE
  8
L-ZISSEN
 10
819.5
 20
173.0
 30
0.0
 11
819.5
 21
166.0
 31
0.0
  0
LINE
  8
L-ZISSEN
 10
660.5
 20
173.0
 30
0.0
 11
660.5
 21
166.0
 31
0.0
  0
LINE
  8
L-ZISSEN
 10
683.1
 20
254.0
 30
0.0
 11
660.5
 21
254.0
 31
0.0
  0
LINE
  8
L-ZISSEN
 10
796.9
 20
254.0
 30
0.0
 11
819.5
 21
254.0
 31
0.0
  0
LINE
  8
L-ZISSEN
 10
796.9
 20
166.0
 30
0.0
 11
819.5
 21
166.0
 31
0.0
  0
LINE
  8
L-ZISSEN
 10
683.1
 20
166.0
 30
0.0
 11
660.5
 21
166.0
 31
0.0
  0
LINE
  8
L-ZISSEN
 10
819.5
 20
254.0
 30
0.0
 11
819.5
 21
247.0
 31
0.0
  0
LINE
  8
L-ZISSEN
 10
660.5
 20
254.0
 30
0.0
 11
660.5
 21
247.0
 31
0.0
  0
LINE
  8
L-ZISSEN
 10
994.0
 20
109.0
 30
0.0
 11
994.0
 21
60.0
 31
0.0
  0
LINE
  8
L-ZISSEN
 10
906.0
 20
109.0
 30
0.0
 11
906.0
 21
93.0
 31
0.0
  0
LINE
  8
L-ZISSEN
 10
994.0
 20
109.0
 30
0.0
 11
906.0
 21
109.0
 31
0.0
  0
LINE
  8
L-ZISSEN
 10
819.5
 20
311.0
 30
0.0
 11
660.5
 21
311.0
 31
0.0
  0
LINE
  8
L-TYUSIN
 10
632.5
 20
65.0
 30
0.0
 11
632.5
 21
20.0
 31
0.0
  0
LINE
  8
L-ZISSEN
 10
819.5
 20
37.0
 30
0.0
 11
819.5
 21
44.906469
 31
0.0
  0
LINE
  8
L-ZISSEN
 10
660.5
 20
37.0
 30
0.0
 11
660.5
 21
44.906469
 31
0.0
  0
LINE
  8
L-TYUSIN
 10
715.0
 20
65.0
 30
0.0
 11
765.0
 21
65.0
 31
0.0
  0
LINE
  8
L-ZISSEN
 10
667.0
 20
25.0
 30
0.0
 11
667.0
 21
37.0
 31
0.0
  0
LINE
  8
L-ZISSEN
 10
819.5
 20
109.0
 30
0.0
 11
660.5
 21
109.0
 31
0.0
  0
LINE
  8
L-ZISSEN
 10
667.0
 20
25.0
 30
0.0
 11
621.5
 21
25.0
 31
0.0
  0
LINE
  8
L-ZISSEN
 10
621.5
 20
25.0
 30
0.0
 11
621.5
 21
60.0
 31
0.0
  0
LINE
  8
L-ZISSEN
 10
652.450045
 20
60.0
 30
0.0
 11
621.5
 21
60.0
 31
0.0
  0
LINE
  8
L-ZISSEN
 10
819.5
 20
37.0
 30
0.0
 11
660.5
 21
37.0
 31
0.0
  0
LINE
  8
L-ZISSEN
 10
813.0
 20
25.0
 30
0.0
 11
813.0
 21
37.0
 31
0.0
  0
LINE
  8
L-ZISSEN
 10
813.0
 20
25.0
 30
0.0
 11
858.5
 21
25.0
 31
0.0
  0
LINE
  8
L-TYUSIN
 10
847.5
 20
65.0
 30
0.0
 11
847.5
 21
20.0
 31
0.0
  0
LINE
  8
L-ZISSEN
 10
858.5
 20
25.0
 30
0.0
 11
858.5
 21
60.0
 31
0.0
  0
LINE
  8
L-ZISSEN
 10
827.549955
 20
60.0
 30
0.0
 11
858.5
 21
60.0
 31
0.0
  0
ARC
  8
L-ZISSEN
 10
740.0
 20
65.0
 30
0.0
 40
28.0
 50
221.409622
 51
318.590378
  0
ARC
  8
L-ZISSEN
 10
680.0
 20
65.0
 30
0.0
 40
28.0
 50
41.409622
 51
318.590378
  0
LINE
  8
L-TYUSIN
 10
680.0
 20
90.0
 30
0.0
 11
680.0
 21
40.0
 31
0.0
  0
LINE
  8
L-TYUSIN
 10
655.0
 20
65.0
 30
0.0
 11
705.0
 21
65.0
 31
0.0
  0
CIRCLE
  8
L-ZISSEN
 10
740.0
 20
65.0
 30
0.0
 40
19.476
  0
LINE
  8
L-ZISSEN
 10
660.5
 20
85.093531
 30
0.0
 11
660.5
 21
109.0
 31
0.0
  0
ARC
  8
L-ZISSEN
 10
710.0
 20
91.457513
 30
0.0
 40
12.0
 50
221.409622
 51
318.590378
  0
ARC
  8
L-ZISSEN
 10
710.0
 20
38.542487
 30
0.0
 40
12.0
 50
41.409622
 51
138.590378
  0
CIRCLE
  8
L-ZISSEN
 10
680.0
 20
65.0
 30
0.0
 40
19.476
  0
CIRCLE
  8
L-ZISSEN
 10
800.0
 20
65.0
 30
0.0
 40
19.476
  0
LINE
  8
L-TYUSIN
 10
800.0
 20
90.0
 30
0.0
 11
800.0
 21
40.0
 31
0.0
  0
LINE
  8
L-TYUSIN
 10
825.0
 20
65.0
 30
0.0
 11
775.0
 21
65.0
 31
0.0
  0
ARC
  8
L-ZISSEN
 10
800.0
 20
65.0
 30
0.0
 40
28.0
 50
221.409622
 51
138.590378
  0
LINE
  8
L-ZISSEN
 10
819.5
 20
85.093531
 30
0.0
 11
819.5
 21
109.0
 31
0.0
  0
ARC
  8
L-ZISSEN
 10
740.0
 20
65.0
 30
0.0
 40
28.0
 50
41.409622
 51
138.590378
  0
ARC
  8
L-ZISSEN
 10
770.0
 20
91.457513
 30
0.0
 40
12.0
 50
221.409622
 51
318.590378
  0
ARC
  8
L-ZISSEN
 10
770.0
 20
38.542487
 30
0.0
 40
12.0
 50
41.409622
 51
138.590378
  0
LINE
  8
L-ZISSEN
 10
891.0
 20
60.0
 30
0.0
 11
1009.0
 21
60.0
 31
0.0
  0
LINE
  8
L-ZISSEN
 10
891.0
 20
25.0
 30
0.0
 11
1009.0
 21
25.0
 31
0.0
  0
LINE
  8
L-TYUSIN
 10
431.0
 20
85.0
 30
0.0
 11
441.0
 21
85.0
 31
0.0
  0
LINE
  8
L-TYUSIN
 10
529.0
 20
85.0
 30
0.0
 11
519.0
 21
85.0
 31
0.0
  0
LINE
  8
L-ZISSEN
 10
891.0
 20
25.0
 30
0.0
 11
891.0
 21
60.0
 31
0.0
  0
LINE
  8
L-ZISSEN
 10
937.0
 20
60.0
 30
0.0
 11
937.0
 21
25.0
 31
0.0
  0
LINE
  8
L-ZISSEN
 10
963.0
 20
60.0
 30
0.0
 11
963.0
 21
25.0
 31
0.0
  0
LINE
  8
L-ZISSEN
 10
1009.0
 20
25.0
 30
0.0
 11
1009.0
 21
60.0
 31
0.0
  0
LINE
  8
L-ZISSEN
 10
900.0
 20
93.0
 30
0.0
 11
900.0
 21
60.0
 31
0.0
  0
LINE
  8
L-ZISSEN
 10
900.0
 20
93.0
 30
0.0
 11
929.0
 21
93.0
 31
0.0
  0
LINE
  8
L-ZISSEN
 10
929.0
 20
93.0
 30
0.0
 11
929.0
 21
60.0
 31
0.0
  0
LINE
  8
L-ZISSEN
 10
1000.0
 20
93.0
 30
0.0
 11
994.0
 21
93.0
 31
0.0
  0
LINE
  8
L-ZISSEN
 10
1000.0
 20
93.0
 30
0.0
 11
1000.0
 21
60.0
 31
0.0
  0
LINE
  8
L-TYUSIN
 10
934.0
 20
65.0
 30
0.0
 11
895.0
 21
65.0
 31
0.0
  0
LINE
  8
L-TYUSIN
 10
989.0
 20
65.0
 30
0.0
 11
1005.0
 21
65.0
 31
0.0
  0
LINE
  8
L-ZISSEN
 10
937.5
 20
88.092523
 30
0.0
 11
937.5
 21
60.0
 31
0.0
  0
LINE
  8
L-ZISSEN
 10
929.0
 20
93.0
 30
0.0
 11
937.5
 21
88.092523
 31
0.0
  0
CIRCLE
  8
L-ZISSEN
 10
710.0
 20
355.0
 30
0.0
 40
19.476
  0
LINE
  8
L-TYUSIN
 10
710.0
 20
330.0
 30
0.0
 11
710.0
 21
380.0
 31
0.0
  0
LINE
  8
L-ZISSEN
 10
827.549955
 20
360.0
 30
0.0
 11
858.5
 21
360.0
 31
0.0
  0
LINE
  8
L-ZISSEN
 10
858.5
 20
395.0
 30
0.0
 11
858.5
 21
360.0
 31
0.0
  0
LINE
  8
L-TYUSIN
 10
847.5
 20
355.0
 30
0.0
 11
847.5
 21
400.0
 31
0.0
  0
LINE
  8
L-ZISSEN
 10
813.0
 20
395.0
 30
0.0
 11
858.5
 21
395.0
 31
0.0
  0
LINE
  8
L-ZISSEN
 10
813.0
 20
395.0
 30
0.0
 11
813.0
 21
383.0
 31
0.0
  0
LINE
  8
L-ZISSEN
 10
819.5
 20
383.0
 30
0.0
 11
660.5
 21
383.0
 31
0.0
  0
LINE
  8
L-ZISSEN
 10
652.450045
 20
360.0
 30
0.0
 11
621.5
 21
360.0
 31
0.0
  0
LINE
  8
L-ZISSEN
 10
621.5
 20
395.0
 30
0.0
 11
621.5
 21
360.0
 31
0.0
  0
LINE
  8
L-ZISSEN
 10
667.0
 20
395.0
 30
0.0
 11
621.5
 21
395.0
 31
0.0
  0
LINE
  8
L-ZISSEN
 10
667.0
 20
395.0
 30
0.0
 11
667.0
 21
383.0
 31
0.0
  0
LINE
  8
L-TYUSIN
 10
685.0
 20
355.0
 30
0.0
 11
735.0
 21
355.0
 31
0.0
  0
LINE
  8
L-TYUSIN
 10
632.5
 20
355.0
 30
0.0
 11
632.5
 21
400.0
 31
0.0
  0
LINE
  8
L-ZISSEN
 10
819.5
 20
383.0
 30
0.0
 11
819.5
 21
311.0
 31
0.0
  0
LINE
  8
L-ZISSEN
 10
660.5
 20
383.0
 30
0.0
 11
660.5
 21
311.0
 31
0.0
  0
ARC
  8
L-ZISSEN
 10
800.0
 20
355.0
 30
0.0
 40
28.0
 50
314.141165
 51
45.858835
  0
ARC
  8
L-ZISSEN
 10
680.0
 20
355.0
 30
0.0
 40
28.0
 50
134.141165
 51
225.858835
  0
CIRCLE
  8
L-ZISSEN
 10
770.0
 20
355.0
 30
0.0
 40
19.476
  0
LINE
  8
L-TYUSIN
 10
795.0
 20
355.0
 30
0.0
 11
745.0
 21
355.0
 31
0.0
  0
LINE
  8
L-TYUSIN
 10
770.0
 20
330.0
 30
0.0
 11
770.0
 21
380.0
 31
0.0
  0
ARC
  8
L-ZISSEN
 10
770.0
 20
355.0
 30
0.0
 40
28.0
 50
221.409622
 51
138.590378
  0
ARC
  8
L-ZISSEN
 10
710.0
 20
355.0
 30
0.0
 40
28.0
 50
41.409622
 51
318.590378
  0
ARC
  8
L-ZISSEN
 10
740.0
 20
381.457513
 30
0.0
 40
12.0
 50
221.409622
 51
318.590378
  0
ARC
  8
L-ZISSEN
 10
740.0
 20
328.542487
 30
0.0
 40
12.0
 50
41.409622
 51
138.590378
  0
SOLID
  8
L-ZISSEN
 10
221.2636
 20
107.414306
 30
0.0
 11
221.709577
 21
107.909835
 31
0.0
 12
220.0
 22
109.0
 32
0.0
 13
220.0
 23
109.0
 33
0.0
  0
LINE
  8
L-ZISSEN
 10
221.486588
 20
107.662071
 30
0.0
 11
230.0
 21
100.0
 31
0.0
  0
LINE
  8
L-ZISSEN
 10
230.0
 20
100.0
 30
0.0
 11
232.0
 21
100.0
 31
0.0
  0
TEXT
  8
L-ZISSEN
 10
234.0
 20
97.75
 30
0.0
 40
4.5
  1
P.P
  0
SOLID
  8
L-ZISSEN
 10
481.2636
 20
107.414306
 30
0.0
 11
481.709577
 21
107.909835
 31
0.0
 12
480.0
 22
109.0
 32
0.0
 13
480.0
 23
109.0
 33
0.0
  0
LINE
  8
L-ZISSEN
 10
481.486588
 20
107.662071
 30
0.0
 11
490.0
 21
100.0
 31
0.0
  0
LINE
  8
L-ZISSEN
 10
490.0
 20
100.0
 30
0.0
 11
492.0
 21
100.0
 31
0.0
  0
TEXT
  8
L-ZISSEN
 10
494.0
 20
97.75
 30
0.0
 40
4.5
  1
P.P
  0
SOLID
  8
L-ZISSEN
 10
741.591992
 20
110.255656
 30
0.0
 11
741.098699
 21
110.704104
 31
0.0
 12
740.0
 22
109.0
 32
0.0
 13
740.0
 23
109.0
 33
0.0
  0
LINE
  8
L-ZISSEN
 10
741.345346
 20
110.47988
 30
0.0
 11
750.0
 21
120.0
 31
0.0
  0
LINE
  8
L-ZISSEN
 10
750.0
 20
120.0
 30
0.0
 11
752.0
 21
120.0
 31
0.0
  0
TEXT
  8
L-ZISSEN
 10
754.0
 20
117.75
 30
0.0
 40
4.5
  1
P.P
  0
SOLID
  8
L-ZISSEN
 10
951.591992
 20
110.255656
 30
0.0
 11
951.098699
 21
110.704104
 31
0.0
 12
950.0
 22
109.0
 32
0.0
 13
950.0
 23
109.0
 33
0.0
  0
LINE
  8
L-ZISSEN
 10
951.345346
 20
110.47988
 30
0.0
 11
960.0
 21
120.0
 31
0.0
  0
LINE
  8
L-ZISSEN
 10
960.0
 20
120.0
 30
0.0
 11
962.0
 21
120.0
 31
0.0
  0
TEXT
  8
L-ZISSEN
 10
964.0
 20
117.75
 30
0.0
 40
4.5
  1
P.P
  0
SOLID
  8
L-ZISSEN
 10
741.098699
 20
309.295896
 30
0.0
 11
741.591992
 21
309.744344
 31
0.0
 12
740.0
 22
311.0
 32
0.0
 13
740.0
 23
311.0
 33
0.0
  0
LINE
  8
L-ZISSEN
 10
741.345346
 20
309.52012
 30
0.0
 11
750.0
 21
300.0
 31
0.0
  0
LINE
  8
L-ZISSEN
 10
750.0
 20
300.0
 30
0.0
 11
752.0
 21
300.0
 31
0.0
  0
TEXT
  8
L-ZISSEN
 10
754.0
 20
297.75
 30
0.0
 40
4.5
  1
P.P
  0
LINE
  8
L-ZISSEN
 10
660.5
 20
254.0
 30
0.0
 11
634.519238
 21
269.0
 31
0.0
  0
LINE
  8
L-TYUSIN
 10
632.5
 20
266.0
 30
0.0
 11
632.5
 21
250.0
 31
0.0
  0
LINE
  8
L-TYUSIN
 10
624.5
 20
258.0
 30
0.0
 11
640.5
 21
258.0
 31
0.0
  0
CIRCLE
  8
L-ZISSEN
 10
632.5
 20
258.0
 30
0.0
 40
5.5
  0
LINE
  8
L-ZISSEN
 10
110.5
 20
212.0
 30
0.0
 11
110.5
 21
215.153212
 31
0.0
  0
LINE
  8
L-ZISSEN
 10
125.5
 20
201.0
 30
0.0
 11
121.5
 21
201.0
 31
0.0
  0
ARC
  8
L-ZISSEN
 10
121.5
 20
212.0
 30
0.0
 40
11.0
 50
180.0
 51
270.0
  0
ARC
  8
L-ZISSEN
 10
121.5
 20
308.0
 30
0.0
 40
11.0
 50
90.0
 51
180.0
  0
LINE
  8
L-ZISSEN
 10
125.5
 20
319.0
 30
0.0
 11
121.5
 21
319.0
 31
0.0
  0
LINE
  8
L-ZISSEN
 10
110.5
 20
308.0
 30
0.0
 11
110.5
 21
304.846788
 31
0.0
  0
LINE
  8
L-ZISSEN
 10
140.5
 20
304.0
 30
0.0
 11
125.5
 21
319.0
 31
0.0
  0
LINE
  8
L-ZISSEN
 10
115.030345
 20
297.0
 30
0.0
 11
110.5
 21
304.846788
 31
0.0
  0
LINE
  8
L-ZISSEN
 10
329.5
 20
308.0
 30
0.0
 11
329.5
 21
304.846788
 31
0.0
  0
LINE
  8
L-ZISSEN
 10
314.5
 20
319.0
 30
0.0
 11
318.5
 21
319.0
 31
0.0
  0
ARC
  8
L-ZISSEN
 10
318.5
 20
308.0
 30
0.0
 40
11.0
 50
360.0
 51
90.0
  0
CIRCLE
  8
L-ZISSEN
 10
318.5
 20
308.0
 30
0.0
 40
5.5
  0
LINE
  8
L-TYUSIN
 10
327.5
 20
308.0
 30
0.0
 11
309.5
 21
308.0
 31
0.0
  0
LINE
  8
L-ZISSEN
 10
299.5
 20
304.0
 30
0.0
 11
314.5
 21
319.0
 31
0.0
  0
LINE
  8
L-TYUSIN
 10
318.5
 20
317.0
 30
0.0
 11
318.5
 21
299.0
 31
0.0
  0
LINE
  8
L-ZISSEN
 10
324.969655
 20
297.0
 30
0.0
 11
329.5
 21
304.846788
 31
0.0
  0
LINE
  8
L-ZISSEN
 10
324.969655
 20
223.0
 30
0.0
 11
329.5
 21
215.153212
 31
0.0
  0
LINE
  8
L-TYUSIN
 10
318.5
 20
203.0
 30
0.0
 11
318.5
 21
221.0
 31
0.0
  0
LINE
  8
L-TYUSIN
 10
327.5
 20
212.0
 30
0.0
 11
309.5
 21
212.0
 31
0.0
  0
CIRCLE
  8
L-ZISSEN
 10
318.5
 20
212.0
 30
0.0
 40
5.5
  0
ARC
  8
L-ZISSEN
 10
318.5
 20
212.0
 30
0.0
 40
11.0
 50
270.0
 51
0.0
  0
LINE
  8
L-ZISSEN
 10
314.5
 20
201.0
 30
0.0
 11
318.5
 21
201.0
 31
0.0
  0
LINE
  8
L-ZISSEN
 10
329.5
 20
212.0
 30
0.0
 11
329.5
 21
215.153212
 31
0.0
  0
LINE
  8
L-ZISSEN
 10
299.5
 20
216.0
 30
0.0
 11
314.5
 21
201.0
 31
0.0
  0
LINE
  8
L-ZISSEN
 10
632.5
 20
269.0
 30
0.0
 11
634.519238
 21
269.0
 31
0.0
  0
LINE
  8
L-ZISSEN
 10
621.5
 20
258.0
 30
0.0
 11
621.5
 21
253.0
 31
0.0
  0
ARC
  8
L-ZISSEN
 10
632.5
 20
258.0
 30
0.0
 40
11.0
 50
90.0
 51
180.0
  0
LINE
  8
L-ZISSEN
 10
819.5
 20
254.0
 30
0.0
 11
845.480762
 21
269.0
 31
0.0
  0
ARC
  8
L-ZISSEN
 10
847.5
 20
258.0
 30
0.0
 40
11.0
 50
0.0
 51
90.0
  0
LINE
  8
L-ZISSEN
 10
858.5
 20
258.0
 30
0.0
 11
858.5
 21
253.0
 31
0.0
  0
LINE
  8
L-ZISSEN
 10
847.5
 20
269.0
 30
0.0
 11
845.480762
 21
269.0
 31
0.0
  0
CIRCLE
  8
L-ZISSEN
 10
847.5
 20
258.0
 30
0.0
 40
5.5
  0
LINE
  8
L-TYUSIN
 10
855.5
 20
258.0
 30
0.0
 11
839.5
 21
258.0
 31
0.0
  0
LINE
  8
L-TYUSIN
 10
847.5
 20
266.0
 30
0.0
 11
847.5
 21
250.0
 31
0.0
  0
LINE
  8
L-ZISSEN
 10
852.5
 20
247.0
 30
0.0
 11
858.5
 21
253.0
 31
0.0
  0
LINE
  8
L-ZISSEN
 10
852.5
 20
173.0
 30
0.0
 11
858.5
 21
167.0
 31
0.0
  0
LINE
  8
L-TYUSIN
 10
847.5
 20
154.0
 30
0.0
 11
847.5
 21
170.0
 31
0.0
  0
LINE
  8
L-TYUSIN
 10
855.5
 20
162.0
 30
0.0
 11
839.5
 21
162.0
 31
0.0
  0
CIRCLE
  8
L-ZISSEN
 10
847.5
 20
162.0
 30
0.0
 40
5.5
  0
LINE
  8
L-ZISSEN
 10
847.5
 20
151.0
 30
0.0
 11
845.480762
 21
151.0
 31
0.0
  0
LINE
  8
L-ZISSEN
 10
858.5
 20
162.0
 30
0.0
 11
858.5
 21
167.0
 31
0.0
  0
ARC
  8
L-ZISSEN
 10
847.5
 20
162.0
 30
0.0
 40
11.0
 50
270.0
 51
0.0
  0
LINE
  8
L-ZISSEN
 10
819.5
 20
166.0
 30
0.0
 11
845.480762
 21
151.0
 31
0.0
  0
LINE
  8
L-ZISSEN
 10
660.5
 20
166.0
 30
0.0
 11
634.519238
 21
151.0
 31
0.0
  0
ARC
  8
L-ZISSEN
 10
632.5
 20
162.0
 30
0.0
 40
11.0
 50
180.0
 51
270.0
  0
LINE
  8
L-ZISSEN
 10
621.5
 20
162.0
 30
0.0
 11
621.5
 21
167.0
 31
0.0
  0
LINE
  8
L-ZISSEN
 10
632.5
 20
151.0
 30
0.0
 11
634.519238
 21
151.0
 31
0.0
  0
CIRCLE
  8
L-ZISSEN
 10
632.5
 20
162.0
 30
0.0
 40
5.5
  0
LINE
  8
L-TYUSIN
 10
624.5
 20
162.0
 30
0.0
 11
640.5
 21
162.0
 31
0.0
  0
LINE
  8
L-TYUSIN
 10
632.5
 20
154.0
 30
0.0
 11
632.5
 21
170.0
 31
0.0
  0
SOLID
  8
L-ZISSEN
 10
741.649916
 20
211.178511
 30
0.0
 11
741.178511
 21
211.649916
 31
0.0
 12
740.0
 22
210.0
 32
0.0
 13
740.0
 23
210.0
 33
0.0
  0
LINE
  8
L-ZISSEN
 10
741.414214
 20
211.414214
 30
0.0
 11
755.0
 21
225.0
 31
0.0
  0
LINE
  8
L-ZISSEN
 10
755.0
 20
225.0
 30
0.0
 11
757.0
 21
225.0
 31
0.0
  0
TEXT
  8
L-ZISSEN
 10
759.0
 20
222.75
 30
0.0
 40
4.5
  1
P.P
  0
SOLID
  8
L-ZISSEN
 10
220.893971
 20
261.81987
 30
0.0
 11
220.25542
 21
262.011435
 31
0.0
 12
220.0
 22
260.0
 32
0.0
 13
220.0
 23
260.0
 33
0.0
  0
LINE
  8
L-ZISSEN
 10
220.574696
 20
261.915653
 30
0.0
 11
235.0
 21
310.0
 31
0.0
  0
LINE
  8
L-ZISSEN
 10
235.0
 20
310.0
 30
0.0
 11
237.0
 21
310.0
 31
0.0
  0
TEXT
  8
L-ZISSEN
 10
239.0
 20
307.75
 30
0.0
 40
4.5
  1
P.P
  0
LINE
  8
L-ZISSEN
 10
627.5
 20
247.0
 30
0.0
 11
621.5
 21
253.0
 31
0.0
  0
LINE
  8
L-ZISSEN
 10
627.5
 20
173.0
 30
0.0
 11
621.5
 21
167.0
 31
0.0
  0
LINE
  8
L-ZISSEN
 10
368.4
 20
170.0
 30
0.0
 11
368.4
 21
110.0
 31
0.0
  0
LINE
  8
L-ZISSEN
 10
361.9
 20
177.0
 30
0.0
 11
361.9
 21
170.0
 31
0.0
  0
LINE
  8
L-ZISSEN
 10
386.4
 20
159.0
 30
0.0
 11
386.4
 21
146.5
 31
0.0
  0
LINE
  8
L-ZISSEN
 10
378.4
 20
166.0
 30
0.0
 11
378.4
 21
114.0
 31
0.0
  0
LINE
  8
L-ZISSEN
 10
378.4
 20
114.0
 30
0.0
 11
368.4
 21
114.0
 31
0.0
  0
LINE
  8
L-ZISSEN
 10
378.4
 20
166.0
 30
0.0
 11
368.4
 21
166.0
 31
0.0
  0
LINE
  8
L-ZISSEN
 10
386.4
 20
121.0
 30
0.0
 11
378.4
 21
121.0
 31
0.0
  0
LINE
  8
L-ZISSEN
 10
386.4
 20
159.0
 30
0.0
 11
378.4
 21
159.0
 31
0.0
  0
LINE
  8
L-ZISSEN
 10
388.4
 20
146.5
 30
0.0
 11
388.4
 21
133.5
 31
0.0
  0
LINE
  8
L-ZISSEN
 10
388.4
 20
133.5
 30
0.0
 11
378.4
 21
133.5
 31
0.0
  0
LINE
  8
L-ZISSEN
 10
388.4
 20
146.5
 30
0.0
 11
378.4
 21
146.5
 31
0.0
  0
LINE
  8
L-ZISSEN
 10
386.4
 20
133.5
 30
0.0
 11
386.4
 21
121.0
 31
0.0
  0
LINE
  8
L-ZISSEN
 10
53.6
 20
133.5
 30
0.0
 11
53.6
 21
121.0
 31
0.0
  0
LINE
  8
L-ZISSEN
 10
51.6
 20
146.5
 30
0.0
 11
61.6
 21
146.5
 31
0.0
  0
LINE
  8
L-ZISSEN
 10
51.6
 20
133.5
 30
0.0
 11
61.6
 21
133.5
 31
0.0
  0
LINE
  8
L-ZISSEN
 10
51.6
 20
146.5
 30
0.0
 11
51.6
 21
133.5
 31
0.0
  0
LINE
  8
L-ZISSEN
 10
53.6
 20
159.0
 30
0.0
 11
61.6
 21
159.0
 31
0.0
  0
LINE
  8
L-ZISSEN
 10
53.6
 20
121.0
 30
0.0
 11
61.6
 21
121.0
 31
0.0
  0
LINE
  8
L-ZISSEN
 10
61.6
 20
166.0
 30
0.0
 11
71.6
 21
166.0
 31
0.0
  0
LINE
  8
L-ZISSEN
 10
61.6
 20
114.0
 30
0.0
 11
71.6
 21
114.0
 31
0.0
  0
LINE
  8
L-ZISSEN
 10
61.6
 20
166.0
 30
0.0
 11
61.6
 21
114.0
 31
0.0
  0
LINE
  8
L-ZISSEN
 10
53.6
 20
159.0
 30
0.0
 11
53.6
 21
146.5
 31
0.0
  0
LINE
  8
L-ZISSEN
 10
78.1
 20
177.0
 30
0.0
 11
78.1
 21
170.0
 31
0.0
  0
LINE
  8
L-ZISSEN
 10
71.6
 20
170.0
 30
0.0
 11
71.6
 21
110.0
 31
0.0
  0
ARC
  8
L-ZISSEN
 10
480.0
 20
140.0
 30
0.0
 40
26.0
 50
41.87787
 51
138.12213
  0
CIRCLE
  8
L-ZISSEN
 10
480.0
 20
140.0
 30
0.0
 40
19.0
  0
ARC
  8
L-ZISSEN
 10
451.0
 20
140.0
 30
0.0
 40
7.5
 50
138.12213
 51
221.87787
  0
ARC
  8
L-ZISSEN
 10
480.0
 20
140.0
 30
0.0
 40
26.0
 50
221.87787
 51
318.12213
  0
LINE
  8
L-ZISSEN
 10
445.415729
 20
145.006588
 30
0.0
 11
460.641195
 21
157.35617
 31
0.0
  0
LINE
  8
L-ZISSEN
 10
445.415729
 20
134.993412
 30
0.0
 11
460.641195
 21
122.64383
 31
0.0
  0
LINE
  8
L-ZISSEN
 10
514.584271
 20
134.993412
 30
0.0
 11
499.358805
 21
122.64383
 31
0.0
  0
LINE
  8
L-ZISSEN
 10
514.584271
 20
145.006588
 30
0.0
 11
499.358805
 21
157.35617
 31
0.0
  0
ARC
  8
L-ZISSEN
 10
509.0
 20
140.0
 30
0.0
 40
7.5
 50
318.12213
 51
41.87787
  0
CIRCLE
  8
L-ZISSEN
 10
451.0
 20
140.0
 30
0.0
 40
6.5
  0
CIRCLE
  8
L-ZISSEN
 10
509.0
 20
140.0
 30
0.0
 40
6.5
  0
LINE
  8
L-ZISSEN
 10
386.4
 20
386.5
 30
0.0
 11
386.4
 21
399.0
 31
0.0
  0
LINE
  8
L-ZISSEN
 10
388.4
 20
373.5
 30
0.0
 11
378.4
 21
373.5
 31
0.0
  0
LINE
  8
L-ZISSEN
 10
388.4
 20
386.5
 30
0.0
 11
378.4
 21
386.5
 31
0.0
  0
LINE
  8
L-ZISSEN
 10
388.4
 20
373.5
 30
0.0
 11
388.4
 21
386.5
 31
0.0
  0
LINE
  8
L-ZISSEN
 10
386.4
 20
361.0
 30
0.0
 11
378.4
 21
361.0
 31
0.0
  0
LINE
  8
L-ZISSEN
 10
386.4
 20
399.0
 30
0.0
 11
378.4
 21
399.0
 31
0.0
  0
LINE
  8
L-ZISSEN
 10
378.4
 20
354.0
 30
0.0
 11
368.4
 21
354.0
 31
0.0
  0
LINE
  8
L-ZISSEN
 10
378.4
 20
406.0
 30
0.0
 11
368.4
 21
406.0
 31
0.0
  0
LINE
  8
L-ZISSEN
 10
378.4
 20
354.0
 30
0.0
 11
378.4
 21
406.0
 31
0.0
  0
LINE
  8
L-ZISSEN
 10
386.4
 20
361.0
 30
0.0
 11
386.4
 21
373.5
 31
0.0
  0
LINE
  8
L-ZISSEN
 10
361.9
 20
343.0
 30
0.0
 11
361.9
 21
350.0
 31
0.0
  0
LINE
  8
L-ZISSEN
 10
368.4
 20
350.0
 30
0.0
 11
368.4
 21
410.0
 31
0.0
  0
LINE
  8
L-ZISSEN
 10
71.6
 20
350.0
 30
0.0
 11
71.6
 21
410.0
 31
0.0
  0
LINE
  8
L-ZISSEN
 10
78.1
 20
343.0
 30
0.0
 11
78.1
 21
350.0
 31
0.0
  0
LINE
  8
L-ZISSEN
 10
53.6
 20
361.0
 30
0.0
 11
53.6
 21
373.5
 31
0.0
  0
LINE
  8
L-ZISSEN
 10
61.6
 20
354.0
 30
0.0
 11
61.6
 21
406.0
 31
0.0
  0
LINE
  8
L-ZISSEN
 10
61.6
 20
406.0
 30
0.0
 11
71.6
 21
406.0
 31
0.0
  0
LINE
  8
L-ZISSEN
 10
61.6
 20
354.0
 30
0.0
 11
71.6
 21
354.0
 31
0.0
  0
LINE
  8
L-ZISSEN
 10
53.6
 20
399.0
 30
0.0
 11
61.6
 21
399.0
 31
0.0
  0
LINE
  8
L-ZISSEN
 10
53.6
 20
361.0
 30
0.0
 11
61.6
 21
361.0
 31
0.0
  0
LINE
  8
L-ZISSEN
 10
51.6
 20
373.5
 30
0.0
 11
51.6
 21
386.5
 31
0.0
  0
LINE
  8
L-ZISSEN
 10
51.6
 20
386.5
 30
0.0
 11
61.6
 21
386.5
 31
0.0
  0
LINE
  8
L-ZISSEN
 10
51.6
 20
373.5
 30
0.0
 11
61.6
 21
373.5
 31
0.0
  0
LINE
  8
L-ZISSEN
 10
53.6
 20
386.5
 30
0.0
 11
53.6
 21
399.0
 31
0.0
  0
LINE
  8
L-ZISSEN
 10
361.9
 20
244.0
 30
0.0
 11
361.9
 21
276.0
 31
0.0
  0
LINE
  8
L-ZISSEN
 10
368.4
 20
223.0
 30
0.0
 11
368.4
 21
297.0
 31
0.0
  0
LINE
  8
L-ZISSEN
 10
388.4
 20
237.5
 30
0.0
 11
378.4
 21
237.5
 31
0.0
  0
LINE
  8
L-ZISSEN
 10
388.4
 20
224.5
 30
0.0
 11
378.4
 21
224.5
 31
0.0
  0
LINE
  8
L-ZISSEN
 10
388.4
 20
237.5
 30
0.0
 11
388.4
 21
224.5
 31
0.0
  0
LINE
  8
L-ZISSEN
 10
386.4
 20
279.0
 30
0.0
 11
378.4
 21
279.0
 31
0.0
  0
LINE
  8
L-ZISSEN
 10
386.4
 20
241.0
 30
0.0
 11
378.4
 21
241.0
 31
0.0
  0
LINE
  8
L-ZISSEN
 10
378.4
 20
296.5
 30
0.0
 11
378.4
 21
223.5
 31
0.0
  0
LINE
  8
L-ZISSEN
 10
386.4
 20
279.0
 30
0.0
 11
386.4
 21
241.0
 31
0.0
  0
LINE
  8
L-ZISSEN
 10
378.4
 20
223.5
 30
0.0
 11
368.4
 21
223.5
 31
0.0
  0
LINE
  8
L-ZISSEN
 10
378.4
 20
296.5
 30
0.0
 11
368.4
 21
296.5
 31
0.0
  0
LINE
  8
L-ZISSEN
 10
388.4
 20
282.5
 30
0.0
 11
388.4
 21
295.5
 31
0.0
  0
LINE
  8
L-ZISSEN
 10
388.4
 20
295.5
 30
0.0
 11
378.4
 21
295.5
 31
0.0
  0
LINE
  8
L-ZISSEN
 10
388.4
 20
282.5
 30
0.0
 11
378.4
 21
282.5
 31
0.0
  0
LINE
  8
L-ZISSEN
 10
51.6
 20
282.5
 30
0.0
 11
61.6
 21
282.5
 31
0.0
  0
LINE
  8
L-ZISSEN
 10
51.6
 20
295.5
 30
0.0
 11
61.6
 21
295.5
 31
0.0
  0
LINE
  8
L-ZISSEN
 10
51.6
 20
282.5
 30
0.0
 11
51.6
 21
295.5
 31
0.0
  0
LINE
  8
L-ZISSEN
 10
61.6
 20
296.5
 30
0.0
 11
71.6
 21
296.5
 31
0.0
  0
LINE
  8
L-ZISSEN
 10
61.6
 20
223.5
 30
0.0
 11
71.6
 21
223.5
 31
0.0
  0
LINE
  8
L-ZISSEN
 10
53.6
 20
279.0
 30
0.0
 11
53.6
 21
241.0
 31
0.0
  0
LINE
  8
L-ZISSEN
 10
61.6
 20
296.5
 30
0.0
 11
61.6
 21
223.5
 31
0.0
  0
LINE
  8
L-ZISSEN
 10
53.6
 20
241.0
 30
0.0
 11
61.6
 21
241.0
 31
0.0
  0
LINE
  8
L-ZISSEN
 10
53.6
 20
279.0
 30
0.0
 11
61.6
 21
279.0
 31
0.0
  0
LINE
  8
L-ZISSEN
 10
51.6
 20
237.5
 30
0.0
 11
51.6
 21
224.5
 31
0.0
  0
LINE
  8
L-ZISSEN
 10
51.6
 20
224.5
 30
0.0
 11
61.6
 21
224.5
 31
0.0
  0
LINE
  8
L-ZISSEN
 10
51.6
 20
237.5
 30
0.0
 11
61.6
 21
237.5
 31
0.0
  0
LINE
  8
L-ZISSEN
 10
71.6
 20
223.0
 30
0.0
 11
71.6
 21
297.0
 31
0.0
  0
LINE
  8
L-ZISSEN
 10
78.1
 20
244.0
 30
0.0
 11
78.1
 21
276.0
 31
0.0
  0
SOLID
  8
L-ZISSEN
 10
221.262672
 20
412.586434
 30
0.0
 11
220.6799
 21
412.910196
 31
0.0
 12
220.0
 22
411.0
 32
0.0
 13
220.0
 23
411.0
 33
0.0
  0
LINE
  8
L-ZISSEN
 10
220.971286
 20
412.748315
 30
0.0
 11
225.0
 21
420.0
 31
0.0
  0
LINE
  8
L-ZISSEN
 10
225.0
 20
420.0
 30
0.0
 11
227.0
 21
420.0
 31
0.0
  0
TEXT
  8
L-ZISSEN
 10
229.0
 20
417.75
 30
0.0
 40
4.5
  1
P.P
  0
SOLID
  8
L-ZISSEN
 10
218.718308
 20
83.428893
 30
0.0
 11
219.297137
 21
83.098134
 31
0.0
 12
220.0
 22
85.0
 32
0.0
 13
220.0
 23
85.0
 33
0.0
  0
LINE
  8
L-ZISSEN
 10
219.007722
 20
83.263514
 30
0.0
 11
200.0
 21
50.0
 31
0.0
  0
LINE
  8
L-ZISSEN
 10
200.0
 20
50.0
 30
0.0
 11
198.0
 21
50.0
 31
0.0
  0
TEXT
  8
L-ZISSEN
 10
166.0
 20
47.75
 30
0.0
 40
4.5
  1
"1" PORT
  0
TEXT
  8
L-ZISSEN
 10
170.0
 20
40.0
 30
0.0
 40
4.5
  1
Rc 3/4
  0
TEXT
  8
L-ZISSEN
 10
170.0
 20
30.0
 30
0.0
 40
4.5
  1
Rc 1
  0
TEXT
  8
L-ZISSEN
 10
107.0
 20
517.0
 30
0.0
 40
4.5
  1
3
  0
TEXT
  8
L-ZISSEN
 10
107.0
 20
503.0
 30
0.0
 40
4.5
  1
5
  0
TEXT
  8
L-ZISSEN
 10
120.5
 20
514.0
 30
0.0
 40
4.5
  1
06
  0
TEXT
  8
L-ZISSEN
 10
120.5
 20
507.0
 30
0.0
 40
4.5
  1
10
  0
LINE
  8
L-ZISSEN
 10
275.0
 20
244.0
 30
0.0
 11
275.0
 21
276.0
 31
0.0
  0
LINE
  8
L-ZISSEN
 10
165.0
 20
244.0
 30
0.0
 11
165.0
 21
276.0
 31
0.0
  0
LINE
  8
L-ZISSEN
 10
156.1
 20
276.0
 30
0.0
 11
156.1
 21
297.0
 31
0.0
  0
LINE
  8
L-ZISSEN
 10
283.9
 20
244.0
 30
0.0
 11
283.9
 21
223.0
 31
0.0
  0
TEXT
  8
L-ZISSEN
 10
672.5
 20
427.5
 30
0.0
 40
4.5
  1
3
  0
TEXT
  8
L-ZISSEN
 10
672.5
 20
412.5
 30
0.0
 40
4.5
  1
5
  0
LINE
  8
L-TYUSIN
 10
252.0
 20
355.0
 30
0.0
 11
232.0
 21
355.0
 31
0.0
  0
LINE
  8
L-TYUSIN
 10
210.0
 20
345.0
 30
0.0
 11
210.0
 21
365.0
 31
0.0
  0
LINE
  8
L-TYUSIN
 10
242.0
 20
345.0
 30
0.0
 11
242.0
 21
365.0
 31
0.0
  0
CIRCLE
  8
L-ZISSEN
 10
242.0
 20
355.0
 30
0.0
 40
5.7225
  0
CIRCLE
  8
L-ZISSEN
 10
210.0
 20
355.0
 30
0.0
 40
5.7225
  0
LINE
  8
L-TYUSIN
 10
220.0
 20
355.0
 30
0.0
 11
200.0
 21
355.0
 31
0.0
  0
LINE
  8
L-TYUSIN
 10
210.0
 20
287.0
 30
0.0
 11
210.0
 21
297.0
 31
0.0
  0
LINE
  8
L-TYUSIN
 10
242.0
 20
287.0
 30
0.0
 11
242.0
 21
297.0
 31
0.0
  0
LINE
  8
L-TYUSIN
 10
512.0
 20
165.0
 30
0.0
 11
527.0
 21
165.0
 31
0.0
  0
ENDSEC
  0
EOF
