  0
SECTION
  2
HEADER
  9
$ACADVER
  1
AC1006
  9
$INSBASE
 10
0.0
 20
0.0
 30
0.0
  9
$EXTMIN
 10
31.0
 20
10.0
  9
$EXTMAX
 10
1330.0
 20
699.5
  9
$LIMMIN
 10
0.0
 20
0.0
  9
$LIMMAX
 10
1189.0
 20
841.0
  9
$ORTHOMODE
 70
     0
  9
$REGENMODE
 70
     1
  9
$FILLMODE
 70
     1
  9
$QTEXTMODE
 70
     0
  9
$MIRRTEXT
 70
     1
  9
$DRAGMODE
 70
     2
  9
$LTSCALE
 40
1.0
  9
$OSMODE
 70
     0
  9
$ATTMODE
 70
     1
  9
$TEXTSIZE
 40
4.5
  9
$TRACEWID
 40
0.05
  9
$TEXTSTYLE
  7
STANDARD
  9
$CLAYER
  8
L-ZISSEN
  9
$CELTYPE
  6
BYLAYER
  9
$CECOLOR
 62
   256
  9
$DIMSCALE
 40
1.0
  9
$DIMASZ
 40
2.0
  9
$DIMEXO
 40
2.0
  9
$DIMDLI
 40
0.38
  9
$DIMRND
 40
0.0
  9
$DIMDLE
 40
1.0
  9
$DIMEXE
 40
2.0
  9
$DIMTP
 40
0.0
  9
$DIMTM
 40
0.0
  9
$DIMTXT
 40
4.5
  9
$DIMCEN
 40
0.09
  9
$DIMTSZ
 40
0.0
  9
$DIMTOL
 70
     0
  9
$DIMLIM
 70
     0
  9
$DIMTIH
 70
     0
  9
$DIMTOH
 70
     0
  9
$DIMSE1
 70
     0
  9
$DIMSE2
 70
     0
  9
$DIMTAD
 70
     1
  9
$DIMZIN
 70
     0
  9
$DIMBLK
  1

  9
$DIMASO
 70
     0
  9
$DIMSHO
 70
     0
  9
$DIMPOST
  1

  9
$DIMAPOST
  1

  9
$DIMALT
 70
     0
  9
$DIMALTD
 70
     2
  9
$DIMALTF
 40
25.4
  9
$DIMLFAC
 40
1.0
  9
$DIMTOFL
 70
     1
  9
$DIMTVP
 40
0.0
  9
$DIMTIX
 70
     1
  9
$DIMSOXD
 70
     0
  9
$DIMSAH
 70
     0
  9
$DIMBLK1
  1

  9
$DIMBLK2
  1

  9
$LUNITS
 70
     2
  9
$LUPREC
 70
     4
  9
$AXISMODE
 70
     0
  9
$AXISUNIT
 10
0.0
 20
0.0
  9
$SKETCHINC
 40
0.1
  9
$FILLETRAD
 40
11.0
  9
$AUNITS
 70
     0
  9
$AUPREC
 70
     0
  9
$MENU
  1
acad
  9
$ELEVATION
 40
0.0
  9
$THICKNESS
 40
0.0
  9
$LIMCHECK
 70
     0
  9
$BLIPMODE
 70
     1
  9
$CHAMFERA
 40
0.0
  9
$CHAMFERB
 40
0.0
  9
$SKPOLY
 70
     0
  9
$TDCREATE
 40
2449002.8784309030
  9
$TDUPDATE
 40
2449002.8784309030
  9
$TDINDWG
 40
0.0000000000
  9
$TDUSRTIMER
 40
0.0000000000
  9
$USRTIMER
 70
     1
  9
$ANGBASE
 50
0.0
  9
$ANGDIR
 70
     0
  9
$PDMODE
 70
     0
  9
$PDSIZE
 40
0.0
  9
$PLINEWID
 40
0.0
  9
$COORDS
 70
     2
  9
$SPLFRAME
 70
     0
  9
$SPLINETYPE
 70
     6
  9
$SPLINESEGS
 70
     8
  9
$ATTDIA
 70
     0
  9
$ATTREQ
 70
     1
  9
$HANDLING
 70
     0
  9
$HANDSEED
  5
0
  9
$SURFTAB1
 70
     6
  9
$SURFTAB2
 70
     6
  9
$SURFTYPE
 70
     6
  9
$SURFU
 70
     6
  9
$SURFV
 70
     6
  9
$FLATLAND
 70
     0
  9
$UCSNAME
  2

  9
$UCSORG
 10
0.0
 20
0.0
 30
0.0
  9
$UCSXDIR
 10
1.0
 20
0.0
 30
0.0
  9
$UCSYDIR
 10
0.0
 20
1.0
 30
0.0
  9
$USERI1
 70
     0
  9
$USERI2
 70
     0
  9
$USERI3
 70
     0
  9
$USERI4
 70
     0
  9
$USERI5
 70
     0
  9
$USERR1
 40
0.0
  9
$USERR2
 40
0.0
  9
$USERR3
 40
0.0
  9
$USERR4
 40
0.0
  9
$USERR5
 40
0.0
  9
$WORLDVIEW
 70
     1
  0
ENDSEC
  0
SECTION
  2
TABLES
  0
TABLE
  2
VPORT
 70
     2
  0
VPORT
  2
*ACTIVE
 70
     0
 10
0.0
 20
0.0
 11
1.0
 21
1.0
 12
674.578245
 22
435.577173
 13
0.0
 23
0.0
 14
5.0
 24
5.0
 15
0.0
 25
0.0
 16
0.0
 26
0.0
 36
1.0
 17
0.0
 27
0.0
 37
0.0
 40
871.154346
 41
1.5487
 42
50.0
 43
0.0
 44
0.0
 50
0.0
 51
0.0
 71
     0
 72
   100
 73
     1
 74
     0
 75
     0
 76
     0
 77
     0
 78
     0
  0
ENDTAB
  0
TABLE
  2
LTYPE
 70
     2
  0
LTYPE
  2
CONTINUOUS
 70
    64
  3
Solid line
 72
    65
 73
     0
 40
0.0
  0
LTYPE
  2
CENTER
 70
    64
  3
____ _ ____ _ ____ _ ____ _ 
 72
    65
 73
     4
 40
60.0
 49
45.0
 49
-5.0
 49
5.0
 49
-5.0
  0
ENDTAB
  0
TABLE
  2
LAYER
 70
     3
  0
LAYER
  2
0
 70
     0
 62
     7
  6
CONTINUOUS
  0
LAYER
  2
L-ZISSEN
 70
    64
 62
     7
  6
CONTINUOUS
  0
LAYER
  2
L-TYUSIN
 70
    64
 62
     1
  6
CENTER
  0
ENDTAB
  0
TABLE
  2
STYLE
 70
     1
  0
STYLE
  2
STANDARD
 70
    64
 40
0.0
 41
1.0
 50
0.0
 71
     0
 42
4.5
  3
TXT
  4

  0
ENDTAB
  0
TABLE
  2
VIEW
 70
     0
  0
ENDTAB
  0
TABLE
  2
UCS
 70
     0
  0
ENDTAB
  0
TABLE
  2
DWGMGR
 70
     0
  0
ENDTAB
  0
ENDSEC
  0
SECTION
  2
BLOCKS
  0
ENDSEC
  0
SECTION
  2
ENTITIES
  0
CIRCLE
  8
L-ZISSEN
 10
322.0
 20
395.0
 30
0.0
 40
5.7225
  0
TEXT
  8
L-ZISSEN
 10
640.0
 20
430.0
 30
0.0
 40
4.5
  1
SUB-BASE CONNECTION
  0
LINE
  8
L-TYUSIN
 10
182.3
 20
280.0
 30
0.0
 11
427.9
 21
280.0
 31
0.0
  0
LINE
  8
L-TYUSIN
 10
300.0
 20
329.0
 30
0.0
 11
300.0
 21
231.0
 31
0.0
  0
LINE
  8
L-ZISSEN
 10
225.1
 20
243.0
 30
0.0
 11
225.1
 21
317.0
 31
0.0
  0
LINE
  8
L-ZISSEN
 10
243.1
 20
324.0
 30
0.0
 11
356.9
 21
324.0
 31
0.0
  0
LINE
  8
L-ZISSEN
 10
374.9
 20
317.0
 30
0.0
 11
374.9
 21
243.0
 31
0.0
  0
LINE
  8
L-ZISSEN
 10
356.9
 20
236.0
 30
0.0
 11
243.1
 21
236.0
 31
0.0
  0
LINE
  8
L-ZISSEN
 10
374.9
 20
177.0
 30
0.0
 11
374.9
 21
109.0
 31
0.0
  0
LINE
  8
L-ZISSEN
 10
225.1
 20
109.0
 30
0.0
 11
225.1
 21
177.0
 31
0.0
  0
LINE
  8
L-TYUSIN
 10
182.3
 20
140.0
 30
0.0
 11
427.9
 21
140.0
 31
0.0
  0
LINE
  8
L-ZISSEN
 10
355.0
 20
178.0
 30
0.0
 11
317.0
 21
178.0
 31
0.0
  0
LINE
  8
L-ZISSEN
 10
422.9
 20
110.0
 30
0.0
 11
217.1
 21
110.0
 31
0.0
  0
LINE
  8
L-TYUSIN
 10
478.0
 20
140.0
 30
0.0
 11
562.0
 21
140.0
 31
0.0
  0
LINE
  8
L-TYUSIN
 10
300.0
 20
183.0
 30
0.0
 11
300.0
 21
56.0
 31
0.0
  0
LINE
  8
L-TYUSIN
 10
520.0
 20
183.0
 30
0.0
 11
520.0
 21
46.0
 31
0.0
  0
LINE
  8
L-ZISSEN
 10
422.9
 20
170.0
 30
0.0
 11
363.9
 21
170.0
 31
0.0
  0
LINE
  8
L-ZISSEN
 10
363.9
 20
170.0
 30
0.0
 11
363.9
 21
120.0
 31
0.0
  0
LINE
  8
L-ZISSEN
 10
363.9
 20
120.0
 30
0.0
 11
236.1
 21
120.0
 31
0.0
  0
LINE
  8
L-ZISSEN
 10
236.1
 20
120.0
 30
0.0
 11
236.1
 21
170.0
 31
0.0
  0
LINE
  8
L-ZISSEN
 10
236.1
 20
170.0
 30
0.0
 11
217.1
 21
170.0
 31
0.0
  0
LINE
  8
L-ZISSEN
 10
422.9
 20
177.0
 30
0.0
 11
336.0
 21
177.0
 31
0.0
  0
LINE
  8
L-ZISSEN
 10
355.0
 20
177.0
 30
0.0
 11
355.0
 21
178.0
 31
0.0
  0
LINE
  8
L-ZISSEN
 10
317.0
 20
177.0
 30
0.0
 11
317.0
 21
178.0
 31
0.0
  0
LINE
  8
L-ZISSEN
 10
283.0
 20
177.0
 30
0.0
 11
283.0
 21
178.0
 31
0.0
  0
LINE
  8
L-ZISSEN
 10
245.0
 20
177.0
 30
0.0
 11
245.0
 21
178.0
 31
0.0
  0
LINE
  8
L-ZISSEN
 10
245.0
 20
178.0
 30
0.0
 11
283.0
 21
178.0
 31
0.0
  0
LINE
  8
L-ZISSEN
 10
336.0
 20
161.12463
 30
0.0
 11
336.0
 21
178.0
 31
0.0
  0
LINE
  8
L-ZISSEN
 10
324.0
 20
165.0
 30
0.0
 11
324.0
 21
178.0
 31
0.0
  0
LINE
  8
L-ZISSEN
 10
324.0
 20
177.0
 30
0.0
 11
264.0
 21
177.0
 31
0.0
  0
LINE
  8
L-ZISSEN
 10
236.1
 20
161.12463
 30
0.0
 11
252.0
 21
161.12463
 31
0.0
  0
LINE
  8
L-ZISSEN
 10
336.0
 20
161.12463
 30
0.0
 11
363.9
 21
161.12463
 31
0.0
  0
LINE
  8
L-ZISSEN
 10
252.0
 20
161.12463
 30
0.0
 11
252.0
 21
178.0
 31
0.0
  0
LINE
  8
L-ZISSEN
 10
264.0
 20
161.12463
 30
0.0
 11
264.0
 21
178.0
 31
0.0
  0
LINE
  8
L-ZISSEN
 10
264.0
 20
161.12463
 30
0.0
 11
267.0
 21
161.12463
 31
0.0
  0
LINE
  8
L-ZISSEN
 10
252.0
 20
177.0
 30
0.0
 11
217.1
 21
177.0
 31
0.0
  0
LINE
  8
L-TYUSIN
 10
325.0
 20
170.0
 30
0.0
 11
325.0
 21
105.0
 31
0.0
  0
LINE
  8
L-ZISSEN
 10
335.0
 20
152.5
 30
0.0
 11
315.0
 21
152.5
 31
0.0
  0
LINE
  8
L-ZISSEN
 10
335.0
 20
152.5
 30
0.0
 11
335.0
 21
120.0
 31
0.0
  0
LINE
  8
L-ZISSEN
 10
315.0
 20
152.5
 30
0.0
 11
315.0
 21
120.0
 31
0.0
  0
LINE
  8
L-ZISSEN
 10
265.0
 20
152.5
 30
0.0
 11
265.0
 21
120.0
 31
0.0
  0
LINE
  8
L-ZISSEN
 10
285.0
 20
152.5
 30
0.0
 11
285.0
 21
120.0
 31
0.0
  0
LINE
  8
L-ZISSEN
 10
265.0
 20
152.5
 30
0.0
 11
285.0
 21
152.5
 31
0.0
  0
LINE
  8
L-TYUSIN
 10
275.0
 20
170.0
 30
0.0
 11
275.0
 21
105.0
 31
0.0
  0
LINE
  8
L-ZISSEN
 10
564.0
 20
110.0
 30
0.0
 11
476.0
 21
110.0
 31
0.0
  0
LINE
  8
L-ZISSEN
 10
532.5
 20
177.0
 30
0.0
 11
507.5
 21
177.0
 31
0.0
  0
LINE
  8
L-ZISSEN
 10
422.9
 20
296.0
 30
0.0
 11
348.0
 21
296.0
 31
0.0
  0
LINE
  8
L-ZISSEN
 10
422.9
 20
264.0
 30
0.0
 11
336.0
 21
264.0
 31
0.0
  0
LINE
  8
L-ZISSEN
 10
363.9
 20
317.0
 30
0.0
 11
363.9
 21
296.0
 31
0.0
  0
LINE
  8
L-ZISSEN
 10
236.1
 20
243.0
 30
0.0
 11
236.1
 21
264.0
 31
0.0
  0
LINE
  8
L-ZISSEN
 10
225.1
 20
267.5
 30
0.0
 11
245.0
 21
267.5
 31
0.0
  0
LINE
  8
L-ZISSEN
 10
225.1
 20
292.5
 30
0.0
 11
245.0
 21
292.5
 31
0.0
  0
LINE
  8
L-ZISSEN
 10
236.1
 20
296.0
 30
0.0
 11
236.1
 21
317.0
 31
0.0
  0
LINE
  8
L-ZISSEN
 10
363.9
 20
264.0
 30
0.0
 11
363.9
 21
243.0
 31
0.0
  0
LINE
  8
L-ZISSEN
 10
245.0
 20
296.0
 30
0.0
 11
245.0
 21
264.0
 31
0.0
  0
LINE
  8
L-ZISSEN
 10
283.0
 20
264.0
 30
0.0
 11
283.0
 21
296.0
 31
0.0
  0
LINE
  8
L-ZISSEN
 10
317.0
 20
264.0
 30
0.0
 11
317.0
 21
296.0
 31
0.0
  0
LINE
  8
L-ZISSEN
 10
355.0
 20
292.5
 30
0.0
 11
422.9
 21
292.5
 31
0.0
  0
LINE
  8
L-ZISSEN
 10
355.0
 20
267.5
 30
0.0
 11
422.9
 21
267.5
 31
0.0
  0
LINE
  8
L-ZISSEN
 10
283.0
 20
267.5
 30
0.0
 11
317.0
 21
267.5
 31
0.0
  0
LINE
  8
L-ZISSEN
 10
283.0
 20
292.5
 30
0.0
 11
317.0
 21
292.5
 31
0.0
  0
LINE
  8
L-ZISSEN
 10
422.9
 20
243.0
 30
0.0
 11
363.9
 21
243.0
 31
0.0
  0
LINE
  8
L-ZISSEN
 10
422.9
 20
317.0
 30
0.0
 11
363.9
 21
317.0
 31
0.0
  0
LINE
  8
L-ZISSEN
 10
363.9
 20
317.0
 30
0.0
 11
356.9
 21
324.0
 31
0.0
  0
LINE
  8
L-ZISSEN
 10
236.1
 20
317.0
 30
0.0
 11
217.1
 21
317.0
 31
0.0
  0
LINE
  8
L-ZISSEN
 10
236.1
 20
317.0
 30
0.0
 11
243.1
 21
324.0
 31
0.0
  0
LINE
  8
L-ZISSEN
 10
363.9
 20
243.0
 30
0.0
 11
356.9
 21
236.0
 31
0.0
  0
LINE
  8
L-ZISSEN
 10
236.1
 20
243.0
 30
0.0
 11
243.1
 21
236.0
 31
0.0
  0
LINE
  8
L-ZISSEN
 10
236.1
 20
243.0
 30
0.0
 11
217.1
 21
243.0
 31
0.0
  0
LINE
  8
L-ZISSEN
 10
340.0
 20
407.5
 30
0.0
 11
340.0
 21
440.0
 31
0.0
  0
LINE
  8
L-ZISSEN
 10
360.0
 20
407.5
 30
0.0
 11
360.0
 21
440.0
 31
0.0
  0
LINE
  8
L-ZISSEN
 10
360.0
 20
407.5
 30
0.0
 11
340.0
 21
407.5
 31
0.0
  0
LINE
  8
L-TYUSIN
 10
350.0
 20
390.0
 30
0.0
 11
350.0
 21
455.0
 31
0.0
  0
LINE
  8
L-ZISSEN
 10
348.0
 20
383.0
 30
0.0
 11
422.9
 21
383.0
 31
0.0
  0
LINE
  8
L-ZISSEN
 10
336.0
 20
398.87537
 30
0.0
 11
333.357003
 21
398.87537
 31
0.0
  0
LINE
  8
L-ZISSEN
 10
336.0
 20
398.87537
 30
0.0
 11
336.0
 21
382.0
 31
0.0
  0
LINE
  8
L-ZISSEN
 10
348.0
 20
395.0
 30
0.0
 11
348.0
 21
382.0
 31
0.0
  0
LINE
  8
L-ZISSEN
 10
264.0
 20
398.87537
 30
0.0
 11
258.0
 21
398.87537
 31
0.0
  0
LINE
  8
L-ZISSEN
 10
363.9
 20
398.87537
 30
0.0
 11
358.0
 21
398.87537
 31
0.0
  0
LINE
  8
L-ZISSEN
 10
276.0
 20
383.0
 30
0.0
 11
336.0
 21
383.0
 31
0.0
  0
LINE
  8
L-ZISSEN
 10
276.0
 20
398.87537
 30
0.0
 11
276.0
 21
382.0
 31
0.0
  0
LINE
  8
L-ZISSEN
 10
264.0
 20
398.87537
 30
0.0
 11
264.0
 21
382.0
 31
0.0
  0
LINE
  8
L-ZISSEN
 10
355.0
 20
382.0
 30
0.0
 11
317.0
 21
382.0
 31
0.0
  0
LINE
  8
L-ZISSEN
 10
355.0
 20
383.0
 30
0.0
 11
355.0
 21
382.0
 31
0.0
  0
LINE
  8
L-ZISSEN
 10
317.0
 20
383.0
 30
0.0
 11
317.0
 21
382.0
 31
0.0
  0
LINE
  8
L-ZISSEN
 10
283.0
 20
383.0
 30
0.0
 11
283.0
 21
382.0
 31
0.0
  0
LINE
  8
L-ZISSEN
 10
245.0
 20
383.0
 30
0.0
 11
245.0
 21
382.0
 31
0.0
  0
LINE
  8
L-ZISSEN
 10
217.1
 20
383.0
 30
0.0
 11
264.0
 21
383.0
 31
0.0
  0
LINE
  8
L-ZISSEN
 10
236.1
 20
390.0
 30
0.0
 11
217.1
 21
390.0
 31
0.0
  0
LINE
  8
L-ZISSEN
 10
236.1
 20
440.0
 30
0.0
 11
236.1
 21
390.0
 31
0.0
  0
LINE
  8
L-ZISSEN
 10
363.9
 20
440.0
 30
0.0
 11
236.1
 21
440.0
 31
0.0
  0
LINE
  8
L-ZISSEN
 10
363.9
 20
390.0
 30
0.0
 11
363.9
 21
440.0
 31
0.0
  0
LINE
  8
L-ZISSEN
 10
422.9
 20
390.0
 30
0.0
 11
363.9
 21
390.0
 31
0.0
  0
LINE
  8
L-ZISSEN
 10
422.9
 20
450.0
 30
0.0
 11
217.1
 21
450.0
 31
0.0
  0
LINE
  8
L-ZISSEN
 10
245.0
 20
382.0
 30
0.0
 11
283.0
 21
382.0
 31
0.0
  0
LINE
  8
L-TYUSIN
 10
182.3
 20
420.0
 30
0.0
 11
430.9
 21
420.0
 31
0.0
  0
LINE
  8
L-ZISSEN
 10
225.1
 20
451.0
 30
0.0
 11
225.1
 21
383.0
 31
0.0
  0
LINE
  8
L-ZISSEN
 10
374.9
 20
383.0
 30
0.0
 11
374.9
 21
451.0
 31
0.0
  0
LINE
  8
L-TYUSIN
 10
300.0
 20
377.0
 30
0.0
 11
300.0
 21
504.0
 31
0.0
  0
LINE
  8
L-ZISSEN
 10
260.0
 20
407.5
 30
0.0
 11
260.0
 21
440.0
 31
0.0
  0
LINE
  8
L-ZISSEN
 10
240.0
 20
407.5
 30
0.0
 11
260.0
 21
407.5
 31
0.0
  0
LINE
  8
L-TYUSIN
 10
250.0
 20
390.0
 30
0.0
 11
250.0
 21
455.0
 31
0.0
  0
LINE
  8
L-ZISSEN
 10
240.0
 20
407.5
 30
0.0
 11
240.0
 21
440.0
 31
0.0
  0
CIRCLE
  8
L-ZISSEN
 10
322.0
 20
395.0
 30
0.0
 40
12.0
  0
CIRCLE
  8
L-ZISSEN
 10
290.0
 20
395.0
 30
0.0
 40
12.0
  0
LINE
  8
L-ZISSEN
 10
278.642997
 20
398.87537
 30
0.0
 11
276.0
 21
398.87537
 31
0.0
  0
LINE
  8
L-ZISSEN
 10
310.642997
 20
398.87537
 30
0.0
 11
301.357003
 21
398.87537
 31
0.0
  0
LINE
  8
L-ZISSEN
 10
278.0
 20
312.0
 30
0.0
 11
278.0
 21
296.0
 31
0.0
  0
LINE
  8
L-ZISSEN
 10
236.1
 20
312.0
 30
0.0
 11
240.0
 21
312.0
 31
0.0
  0
LINE
  8
L-ZISSEN
 10
236.1
 20
248.0
 30
0.0
 11
265.0
 21
248.0
 31
0.0
  0
LINE
  8
L-ZISSEN
 10
302.0
 20
312.0
 30
0.0
 11
302.0
 21
296.0
 31
0.0
  0
LINE
  8
L-ZISSEN
 10
310.0
 20
312.0
 30
0.0
 11
310.0
 21
296.0
 31
0.0
  0
LINE
  8
L-ZISSEN
 10
334.0
 20
312.0
 30
0.0
 11
334.0
 21
296.0
 31
0.0
  0
LINE
  8
L-TYUSIN
 10
350.0
 20
302.0
 30
0.0
 11
350.0
 21
326.0
 31
0.0
  0
LINE
  8
L-TYUSIN
 10
338.0
 20
314.0
 30
0.0
 11
362.0
 21
314.0
 31
0.0
  0
ARC
  8
L-ZISSEN
 10
350.0
 20
314.0
 30
0.0
 40
10.0
 50
0.0
 51
180.0
  0
LINE
  8
L-ZISSEN
 10
340.0
 20
314.0
 30
0.0
 11
340.0
 21
301.656854
 31
0.0
  0
LINE
  8
L-ZISSEN
 10
360.0
 20
314.0
 30
0.0
 11
360.0
 21
296.0
 31
0.0
  0
LINE
  8
L-ZISSEN
 10
360.0
 20
312.0
 30
0.0
 11
363.9
 21
312.0
 31
0.0
  0
LINE
  8
L-ZISSEN
 10
260.0
 20
314.0
 30
0.0
 11
260.0
 21
296.0
 31
0.0
  0
LINE
  8
L-TYUSIN
 10
262.0
 20
314.0
 30
0.0
 11
238.0
 21
314.0
 31
0.0
  0
ARC
  8
L-ZISSEN
 10
250.0
 20
314.0
 30
0.0
 40
10.0
 50
0.0
 51
180.0
  0
LINE
  8
L-ZISSEN
 10
240.0
 20
314.0
 30
0.0
 11
240.0
 21
296.0
 31
0.0
  0
LINE
  8
L-TYUSIN
 10
250.0
 20
302.0
 30
0.0
 11
250.0
 21
326.0
 31
0.0
  0
LINE
  8
L-ZISSEN
 10
260.0
 20
312.0
 30
0.0
 11
340.0
 21
312.0
 31
0.0
  0
ARC
  8
L-ZISSEN
 10
270.0
 20
296.0
 30
0.0
 40
6.0
 50
0.0
 51
180.0
  0
ARC
  8
L-ZISSEN
 10
258.0
 20
264.0
 30
0.0
 40
6.0
 50
180.0
 51
0.0
  0
LINE
  8
L-ZISSEN
 10
264.0
 20
296.0
 30
0.0
 11
225.1
 21
296.0
 31
0.0
  0
LINE
  8
L-ZISSEN
 10
252.0
 20
264.0
 30
0.0
 11
225.1
 21
264.0
 31
0.0
  0
ARC
  8
L-ZISSEN
 10
342.0
 20
296.0
 30
0.0
 40
6.0
 50
0.0
 51
180.0
  0
ARC
  8
L-ZISSEN
 10
330.0
 20
264.0
 30
0.0
 40
6.0
 50
180.0
 51
0.0
  0
LINE
  8
L-ZISSEN
 10
336.0
 20
296.0
 30
0.0
 11
317.0
 21
296.0
 31
0.0
  0
LINE
  8
L-ZISSEN
 10
324.0
 20
264.0
 30
0.0
 11
264.0
 21
264.0
 31
0.0
  0
LINE
  8
L-ZISSEN
 10
310.0
 20
296.0
 30
0.0
 11
302.0
 21
296.0
 31
0.0
  0
LINE
  8
L-ZISSEN
 10
283.0
 20
296.0
 30
0.0
 11
276.0
 21
296.0
 31
0.0
  0
LINE
  8
L-ZISSEN
 10
285.0
 20
246.0
 30
0.0
 11
285.0
 21
264.0
 31
0.0
  0
ARC
  8
L-ZISSEN
 10
275.0
 20
246.0
 30
0.0
 40
10.0
 50
180.0
 51
0.0
  0
LINE
  8
L-TYUSIN
 10
275.0
 20
258.0
 30
0.0
 11
275.0
 21
234.0
 31
0.0
  0
LINE
  8
L-TYUSIN
 10
287.0
 20
246.0
 30
0.0
 11
263.0
 21
246.0
 31
0.0
  0
LINE
  8
L-ZISSEN
 10
265.0
 20
246.0
 30
0.0
 11
265.0
 21
264.0
 31
0.0
  0
ARC
  8
L-ZISSEN
 10
325.0
 20
246.0
 30
0.0
 40
10.0
 50
180.0
 51
0.0
  0
LINE
  8
L-TYUSIN
 10
313.0
 20
246.0
 30
0.0
 11
337.0
 21
246.0
 31
0.0
  0
LINE
  8
L-TYUSIN
 10
325.0
 20
258.0
 30
0.0
 11
325.0
 21
234.0
 31
0.0
  0
LINE
  8
L-ZISSEN
 10
335.0
 20
246.0
 30
0.0
 11
335.0
 21
260.683375
 31
0.0
  0
LINE
  8
L-ZISSEN
 10
315.0
 20
246.0
 30
0.0
 11
315.0
 21
264.0
 31
0.0
  0
LINE
  8
L-ZISSEN
 10
285.0
 20
248.0
 30
0.0
 11
315.0
 21
248.0
 31
0.0
  0
LINE
  8
L-ZISSEN
 10
335.0
 20
248.0
 30
0.0
 11
363.9
 21
248.0
 31
0.0
  0
LINE
  8
L-ZISSEN
 10
422.9
 20
177.0
 30
0.0
 11
422.9
 21
110.0
 31
0.0
  0
LINE
  8
L-ZISSEN
 10
422.9
 20
317.0
 30
0.0
 11
422.9
 21
243.0
 31
0.0
  0
LINE
  8
L-ZISSEN
 10
483.0
 20
110.0
 30
0.0
 11
483.0
 21
170.0
 31
0.0
  0
LINE
  8
L-ZISSEN
 10
483.0
 20
170.0
 30
0.0
 11
502.5
 21
170.0
 31
0.0
  0
LINE
  8
L-ZISSEN
 10
557.0
 20
170.0
 30
0.0
 11
557.0
 21
110.0
 31
0.0
  0
LINE
  8
L-ZISSEN
 10
507.5
 20
177.0
 30
0.0
 11
502.5
 21
170.0
 31
0.0
  0
LINE
  8
L-ZISSEN
 10
532.5
 20
177.0
 30
0.0
 11
537.5
 21
170.0
 31
0.0
  0
LINE
  8
L-ZISSEN
 10
537.5
 20
170.0
 30
0.0
 11
557.0
 21
170.0
 31
0.0
  0
LINE
  8
L-ZISSEN
 10
422.9
 20
383.0
 30
0.0
 11
422.9
 21
450.0
 31
0.0
  0
LINE
  8
L-ZISSEN
 10
498.0
 20
178.0
 30
0.0
 11
542.0
 21
178.0
 31
0.0
  0
LINE
  8
L-ZISSEN
 10
564.0
 20
120.0
 30
0.0
 11
557.0
 21
120.0
 31
0.0
  0
LINE
  8
L-ZISSEN
 10
476.0
 20
109.0
 30
0.0
 11
476.0
 21
152.5
 31
0.0
  0
LINE
  8
L-ZISSEN
 10
476.0
 20
152.5
 30
0.0
 11
483.0
 21
152.5
 31
0.0
  0
LINE
  8
L-ZISSEN
 10
564.0
 20
152.5
 30
0.0
 11
557.0
 21
152.5
 31
0.0
  0
LINE
  8
L-ZISSEN
 10
564.0
 20
109.0
 30
0.0
 11
564.0
 21
152.5
 31
0.0
  0
LINE
  8
L-ZISSEN
 10
483.0
 20
120.0
 30
0.0
 11
476.0
 21
120.0
 31
0.0
  0
LINE
  8
L-ZISSEN
 10
552.0
 20
177.0
 30
0.0
 11
552.0
 21
170.0
 31
0.0
  0
LINE
  8
L-ZISSEN
 10
552.0
 20
177.0
 30
0.0
 11
542.0
 21
177.0
 31
0.0
  0
LINE
  8
L-ZISSEN
 10
217.1
 20
110.0
 30
0.0
 11
217.1
 21
177.0
 31
0.0
  0
LINE
  8
L-ZISSEN
 10
199.3
 20
116.0
 30
0.0
 11
199.3
 21
164.0
 31
0.0
  0
LINE
  8
L-ZISSEN
 10
187.3
 20
120.0
 30
0.0
 11
187.3
 21
160.0
 31
0.0
  0
LINE
  8
L-ZISSEN
 10
199.3
 20
164.0
 30
0.0
 11
207.1
 21
164.0
 31
0.0
  0
LINE
  8
L-ZISSEN
 10
187.3
 20
160.0
 30
0.0
 11
199.3
 21
160.0
 31
0.0
  0
LINE
  8
L-ZISSEN
 10
199.3
 20
116.0
 30
0.0
 11
207.1
 21
116.0
 31
0.0
  0
LINE
  8
L-ZISSEN
 10
187.3
 20
120.0
 30
0.0
 11
199.3
 21
120.0
 31
0.0
  0
LINE
  8
L-ZISSEN
 10
217.1
 20
171.309401
 30
0.0
 11
210.501924
 21
167.5
 31
0.0
  0
LINE
  8
L-ZISSEN
 10
187.3
 20
260.0
 30
0.0
 11
199.3
 21
260.0
 31
0.0
  0
LINE
  8
L-ZISSEN
 10
199.3
 20
256.0
 30
0.0
 11
207.1
 21
256.0
 31
0.0
  0
LINE
  8
L-ZISSEN
 10
187.3
 20
300.0
 30
0.0
 11
199.3
 21
300.0
 31
0.0
  0
LINE
  8
L-ZISSEN
 10
199.3
 20
304.0
 30
0.0
 11
207.1
 21
304.0
 31
0.0
  0
LINE
  8
L-ZISSEN
 10
187.3
 20
260.0
 30
0.0
 11
187.3
 21
300.0
 31
0.0
  0
LINE
  8
L-ZISSEN
 10
199.3
 20
256.0
 30
0.0
 11
199.3
 21
304.0
 31
0.0
  0
LINE
  8
L-ZISSEN
 10
217.1
 20
243.0
 30
0.0
 11
217.1
 21
317.0
 31
0.0
  0
LINE
  8
L-ZISSEN
 10
204.439746
 20
286.0
 30
0.0
 11
204.439746
 21
274.0
 31
0.0
  0
LINE
  8
L-ZISSEN
 10
204.439746
 20
286.0
 30
0.0
 11
217.1
 21
286.0
 31
0.0
  0
LINE
  8
L-ZISSEN
 10
204.439746
 20
274.0
 30
0.0
 11
217.1
 21
274.0
 31
0.0
  0
LINE
  8
L-ZISSEN
 10
58.0
 20
177.0
 30
0.0
 11
68.0
 21
177.0
 31
0.0
  0
LINE
  8
L-ZISSEN
 10
58.0
 20
177.0
 30
0.0
 11
58.0
 21
170.0
 31
0.0
  0
LINE
  8
L-ZISSEN
 10
127.0
 20
120.0
 30
0.0
 11
134.0
 21
120.0
 31
0.0
  0
LINE
  8
L-ZISSEN
 10
46.0
 20
109.0
 30
0.0
 11
46.0
 21
152.5
 31
0.0
  0
LINE
  8
L-ZISSEN
 10
46.0
 20
152.5
 30
0.0
 11
53.0
 21
152.5
 31
0.0
  0
LINE
  8
L-ZISSEN
 10
134.0
 20
152.5
 30
0.0
 11
127.0
 21
152.5
 31
0.0
  0
LINE
  8
L-ZISSEN
 10
134.0
 20
109.0
 30
0.0
 11
134.0
 21
152.5
 31
0.0
  0
LINE
  8
L-ZISSEN
 10
46.0
 20
120.0
 30
0.0
 11
53.0
 21
120.0
 31
0.0
  0
LINE
  8
L-ZISSEN
 10
112.0
 20
178.0
 30
0.0
 11
68.0
 21
178.0
 31
0.0
  0
LINE
  8
L-ZISSEN
 10
72.5
 20
170.0
 30
0.0
 11
53.0
 21
170.0
 31
0.0
  0
LINE
  8
L-ZISSEN
 10
77.5
 20
177.0
 30
0.0
 11
72.5
 21
170.0
 31
0.0
  0
LINE
  8
L-ZISSEN
 10
102.5
 20
177.0
 30
0.0
 11
107.5
 21
170.0
 31
0.0
  0
LINE
  8
L-ZISSEN
 10
53.0
 20
170.0
 30
0.0
 11
53.0
 21
110.0
 31
0.0
  0
LINE
  8
L-ZISSEN
 10
127.0
 20
170.0
 30
0.0
 11
107.5
 21
170.0
 31
0.0
  0
LINE
  8
L-ZISSEN
 10
127.0
 20
110.0
 30
0.0
 11
127.0
 21
170.0
 31
0.0
  0
LINE
  8
L-ZISSEN
 10
77.5
 20
177.0
 30
0.0
 11
102.5
 21
177.0
 31
0.0
  0
LINE
  8
L-ZISSEN
 10
46.0
 20
110.0
 30
0.0
 11
134.0
 21
110.0
 31
0.0
  0
LINE
  8
L-TYUSIN
 10
90.0
 20
183.0
 30
0.0
 11
90.0
 21
46.0
 31
0.0
  0
LINE
  8
L-TYUSIN
 10
132.0
 20
140.0
 30
0.0
 11
48.0
 21
140.0
 31
0.0
  0
CIRCLE
  8
L-ZISSEN
 10
90.0
 20
140.0
 30
0.0
 40
24.0
  0
CIRCLE
  8
L-ZISSEN
 10
90.0
 20
140.0
 30
0.0
 40
20.0
  0
LINE
  8
L-ZISSEN
 10
96.0
 20
171.309401
 30
0.0
 11
84.0
 21
171.309401
 31
0.0
  0
LINE
  8
L-ZISSEN
 10
96.0
 20
171.309401
 30
0.0
 11
96.0
 21
163.2379
 31
0.0
  0
LINE
  8
L-ZISSEN
 10
84.0
 20
171.309401
 30
0.0
 11
84.0
 21
163.2379
 31
0.0
  0
LINE
  8
L-ZISSEN
 10
217.1
 20
388.690599
 30
0.0
 11
210.501924
 21
392.5
 31
0.0
  0
LINE
  8
L-ZISSEN
 10
187.3
 20
440.0
 30
0.0
 11
199.3
 21
440.0
 31
0.0
  0
LINE
  8
L-ZISSEN
 10
199.3
 20
444.0
 30
0.0
 11
217.1
 21
444.0
 31
0.0
  0
LINE
  8
L-ZISSEN
 10
187.3
 20
400.0
 30
0.0
 11
199.3
 21
400.0
 31
0.0
  0
LINE
  8
L-ZISSEN
 10
199.3
 20
396.0
 30
0.0
 11
207.1
 21
396.0
 31
0.0
  0
LINE
  8
L-ZISSEN
 10
187.3
 20
440.0
 30
0.0
 11
187.3
 21
400.0
 31
0.0
  0
LINE
  8
L-ZISSEN
 10
199.3
 20
444.0
 30
0.0
 11
199.3
 21
396.0
 31
0.0
  0
LINE
  8
L-ZISSEN
 10
217.1
 20
450.0
 30
0.0
 11
217.1
 21
383.0
 31
0.0
  0
LINE
  8
L-TYUSIN
 10
202.1
 20
161.0
 30
0.0
 11
222.1
 21
161.0
 31
0.0
  0
LINE
  8
L-TYUSIN
 10
127.0
 20
161.0
 30
0.0
 11
109.0
 21
161.0
 31
0.0
  0
LINE
  8
L-TYUSIN
 10
118.0
 20
170.0
 30
0.0
 11
118.0
 21
152.0
 31
0.0
  0
CIRCLE
  8
L-ZISSEN
 10
118.0
 20
161.0
 30
0.0
 40
6.5
  0
CIRCLE
  8
L-ZISSEN
 10
62.0
 20
161.0
 30
0.0
 40
6.5
  0
LINE
  8
L-TYUSIN
 10
53.0
 20
161.0
 30
0.0
 11
71.0
 21
161.0
 31
0.0
  0
LINE
  8
L-TYUSIN
 10
62.0
 20
170.0
 30
0.0
 11
62.0
 21
152.0
 31
0.0
  0
CIRCLE
  8
L-ZISSEN
 10
118.0
 20
119.0
 30
0.0
 40
6.5
  0
LINE
  8
L-TYUSIN
 10
127.0
 20
119.0
 30
0.0
 11
109.0
 21
119.0
 31
0.0
  0
LINE
  8
L-TYUSIN
 10
118.0
 20
110.0
 30
0.0
 11
118.0
 21
128.0
 31
0.0
  0
CIRCLE
  8
L-ZISSEN
 10
62.0
 20
119.0
 30
0.0
 40
6.5
  0
LINE
  8
L-TYUSIN
 10
62.0
 20
110.0
 30
0.0
 11
62.0
 21
128.0
 31
0.0
  0
LINE
  8
L-TYUSIN
 10
53.0
 20
119.0
 30
0.0
 11
71.0
 21
119.0
 31
0.0
  0
LINE
  8
L-ZISSEN
 10
207.1
 20
154.5
 30
0.0
 11
207.1
 21
167.5
 31
0.0
  0
LINE
  8
L-ZISSEN
 10
207.1
 20
154.5
 30
0.0
 11
217.1
 21
154.5
 31
0.0
  0
LINE
  8
L-ZISSEN
 10
207.1
 20
167.5
 30
0.0
 11
217.1
 21
167.5
 31
0.0
  0
LINE
  8
L-ZISSEN
 10
207.1
 20
165.535898
 30
0.0
 11
204.439746
 21
164.0
 31
0.0
  0
LINE
  8
L-ZISSEN
 10
207.1
 20
125.5
 30
0.0
 11
217.1
 21
125.5
 31
0.0
  0
LINE
  8
L-ZISSEN
 10
207.1
 20
125.5
 30
0.0
 11
207.1
 21
112.5
 31
0.0
  0
LINE
  8
L-TYUSIN
 10
202.1
 20
119.0
 30
0.0
 11
222.1
 21
119.0
 31
0.0
  0
LINE
  8
L-ZISSEN
 10
207.1
 20
112.5
 30
0.0
 11
217.1
 21
112.5
 31
0.0
  0
LINE
  8
L-TYUSIN
 10
202.1
 20
399.0
 30
0.0
 11
222.1
 21
399.0
 31
0.0
  0
LINE
  8
L-ZISSEN
 10
207.1
 20
405.5
 30
0.0
 11
217.1
 21
405.5
 31
0.0
  0
LINE
  8
L-ZISSEN
 10
207.1
 20
405.5
 30
0.0
 11
207.1
 21
392.5
 31
0.0
  0
LINE
  8
L-ZISSEN
 10
207.1
 20
392.5
 30
0.0
 11
217.1
 21
392.5
 31
0.0
  0
LINE
  8
L-ZISSEN
 10
207.1
 20
434.5
 30
0.0
 11
217.1
 21
434.5
 31
0.0
  0
LINE
  8
L-ZISSEN
 10
207.1
 20
434.5
 30
0.0
 11
207.1
 21
447.5
 31
0.0
  0
LINE
  8
L-TYUSIN
 10
202.1
 20
441.0
 30
0.0
 11
222.1
 21
441.0
 31
0.0
  0
LINE
  8
L-ZISSEN
 10
207.1
 20
447.5
 30
0.0
 11
217.1
 21
447.5
 31
0.0
  0
LINE
  8
L-ZISSEN
 10
207.1
 20
394.464102
 30
0.0
 11
204.439746
 21
396.0
 31
0.0
  0
LINE
  8
L-ZISSEN
 10
207.1
 20
245.5
 30
0.0
 11
217.1
 21
245.5
 31
0.0
  0
LINE
  8
L-ZISSEN
 10
207.1
 20
258.5
 30
0.0
 11
207.1
 21
245.5
 31
0.0
  0
LINE
  8
L-TYUSIN
 10
202.1
 20
252.0
 30
0.0
 11
222.1
 21
252.0
 31
0.0
  0
LINE
  8
L-ZISSEN
 10
207.1
 20
258.5
 30
0.0
 11
217.1
 21
258.5
 31
0.0
  0
LINE
  8
L-ZISSEN
 10
207.1
 20
301.5
 30
0.0
 11
217.1
 21
301.5
 31
0.0
  0
LINE
  8
L-ZISSEN
 10
207.1
 20
301.5
 30
0.0
 11
207.1
 21
314.5
 31
0.0
  0
LINE
  8
L-TYUSIN
 10
202.1
 20
308.0
 30
0.0
 11
222.1
 21
308.0
 31
0.0
  0
LINE
  8
L-ZISSEN
 10
207.1
 20
314.5
 30
0.0
 11
217.1
 21
314.5
 31
0.0
  0
LINE
  8
L-ZISSEN
 10
324.0
 20
264.0
 30
0.0
 11
317.0
 21
264.0
 31
0.0
  0
LINE
  8
L-ZISSEN
 10
324.0
 20
296.0
 30
0.0
 11
317.0
 21
296.0
 31
0.0
  0
LINE
  8
L-ZISSEN
 10
317.0
 20
264.0
 30
0.0
 11
317.0
 21
296.0
 31
0.0
  0
LINE
  8
L-ZISSEN
 10
542.0
 20
178.0
 30
0.0
 11
542.0
 21
170.0
 31
0.0
  0
LINE
  8
L-ZISSEN
 10
498.0
 20
170.0
 30
0.0
 11
498.0
 21
178.0
 31
0.0
  0
LINE
  8
L-ZISSEN
 10
537.5
 20
170.0
 30
0.0
 11
537.5
 21
178.0
 31
0.0
  0
LINE
  8
L-ZISSEN
 10
502.5
 20
170.0
 30
0.0
 11
502.5
 21
178.0
 31
0.0
  0
LINE
  8
L-ZISSEN
 10
112.0
 20
178.0
 30
0.0
 11
112.0
 21
170.0
 31
0.0
  0
LINE
  8
L-ZISSEN
 10
107.5
 20
170.0
 30
0.0
 11
107.5
 21
178.0
 31
0.0
  0
LINE
  8
L-ZISSEN
 10
72.5
 20
170.0
 30
0.0
 11
72.5
 21
178.0
 31
0.0
  0
LINE
  8
L-ZISSEN
 10
68.0
 20
170.0
 30
0.0
 11
68.0
 21
178.0
 31
0.0
  0
LINE
  8
L-ZISSEN
 10
379.5
 20
109.0
 30
0.0
 11
220.5
 21
109.0
 31
0.0
  0
LINE
  8
L-ZISSEN
 10
409.5
 20
51.0
 30
0.0
 11
373.0
 21
51.0
 31
0.0
  0
LINE
  8
L-ZISSEN
 10
409.5
 20
78.0
 30
0.0
 11
379.5
 21
78.0
 31
0.0
  0
LINE
  8
L-ZISSEN
 10
190.5
 20
51.0
 30
0.0
 11
190.5
 21
78.0
 31
0.0
  0
LINE
  8
L-ZISSEN
 10
227.0
 20
51.0
 30
0.0
 11
227.0
 21
61.0
 31
0.0
  0
LINE
  8
L-TYUSIN
 10
280.0
 20
85.0
 30
0.0
 11
320.0
 21
85.0
 31
0.0
  0
LINE
  8
L-ZISSEN
 10
220.5
 20
61.0
 30
0.0
 11
379.5
 21
61.0
 31
0.0
  0
LINE
  8
L-ZISSEN
 10
220.5
 20
61.0
 30
0.0
 11
220.5
 21
109.0
 31
0.0
  0
LINE
  8
L-ZISSEN
 10
379.5
 20
61.0
 30
0.0
 11
379.5
 21
109.0
 31
0.0
  0
LINE
  8
L-ZISSEN
 10
373.0
 20
51.0
 30
0.0
 11
373.0
 21
61.0
 31
0.0
  0
LINE
  8
L-ZISSEN
 10
409.5
 20
51.0
 30
0.0
 11
409.5
 21
78.0
 31
0.0
  0
LINE
  8
L-ZISSEN
 10
227.0
 20
51.0
 30
0.0
 11
190.5
 21
51.0
 31
0.0
  0
LINE
  8
L-ZISSEN
 10
220.5
 20
78.0
 30
0.0
 11
190.5
 21
78.0
 31
0.0
  0
LINE
  8
L-TYUSIN
 10
354.0
 20
105.0
 30
0.0
 11
354.0
 21
65.0
 31
0.0
  0
LINE
  8
L-TYUSIN
 10
334.0
 20
85.0
 30
0.0
 11
374.0
 21
85.0
 31
0.0
  0
LINE
  8
L-TYUSIN
 10
246.0
 20
105.0
 30
0.0
 11
246.0
 21
65.0
 31
0.0
  0
LINE
  8
L-TYUSIN
 10
266.0
 20
85.0
 30
0.0
 11
226.0
 21
85.0
 31
0.0
  0
LINE
  8
L-TYUSIN
 10
398.5
 20
83.0
 30
0.0
 11
398.5
 21
46.0
 31
0.0
  0
LINE
  8
L-TYUSIN
 10
201.5
 20
83.0
 30
0.0
 11
201.5
 21
46.0
 31
0.0
  0
LINE
  8
L-ZISSEN
 10
333.0
 20
165.0
 30
0.0
 11
317.0
 21
165.0
 31
0.0
  0
LINE
  8
L-ZISSEN
 10
317.0
 20
165.0
 30
0.0
 11
317.0
 21
152.5
 31
0.0
  0
LINE
  8
L-ZISSEN
 10
333.0
 20
165.0
 30
0.0
 11
333.0
 21
152.5
 31
0.0
  0
LINE
  8
L-ZISSEN
 10
283.0
 20
165.0
 30
0.0
 11
267.0
 21
165.0
 31
0.0
  0
LINE
  8
L-ZISSEN
 10
267.0
 20
165.0
 30
0.0
 11
267.0
 21
152.5
 31
0.0
  0
LINE
  8
L-ZISSEN
 10
283.0
 20
165.0
 30
0.0
 11
283.0
 21
152.5
 31
0.0
  0
LINE
  8
L-ZISSEN
 10
283.0
 20
161.12463
 30
0.0
 11
317.0
 21
161.12463
 31
0.0
  0
LINE
  8
L-TYUSIN
 10
201.5
 20
477.0
 30
0.0
 11
201.5
 21
514.0
 31
0.0
  0
LINE
  8
L-TYUSIN
 10
398.5
 20
477.0
 30
0.0
 11
398.5
 21
514.0
 31
0.0
  0
LINE
  8
L-TYUSIN
 10
327.0
 20
455.0
 30
0.0
 11
327.0
 21
495.0
 31
0.0
  0
LINE
  8
L-ZISSEN
 10
220.5
 20
482.0
 30
0.0
 11
190.5
 21
482.0
 31
0.0
  0
LINE
  8
L-ZISSEN
 10
227.0
 20
509.0
 30
0.0
 11
190.5
 21
509.0
 31
0.0
  0
LINE
  8
L-ZISSEN
 10
409.5
 20
509.0
 30
0.0
 11
409.5
 21
482.0
 31
0.0
  0
LINE
  8
L-ZISSEN
 10
373.0
 20
509.0
 30
0.0
 11
373.0
 21
499.0
 31
0.0
  0
LINE
  8
L-ZISSEN
 10
379.5
 20
499.0
 30
0.0
 11
379.5
 21
451.0
 31
0.0
  0
LINE
  8
L-ZISSEN
 10
220.5
 20
499.0
 30
0.0
 11
220.5
 21
451.0
 31
0.0
  0
LINE
  8
L-ZISSEN
 10
220.5
 20
499.0
 30
0.0
 11
379.5
 21
499.0
 31
0.0
  0
LINE
  8
L-TYUSIN
 10
307.0
 20
475.0
 30
0.0
 11
347.0
 21
475.0
 31
0.0
  0
LINE
  8
L-ZISSEN
 10
227.0
 20
509.0
 30
0.0
 11
227.0
 21
499.0
 31
0.0
  0
LINE
  8
L-ZISSEN
 10
190.5
 20
509.0
 30
0.0
 11
190.5
 21
482.0
 31
0.0
  0
LINE
  8
L-ZISSEN
 10
409.5
 20
482.0
 30
0.0
 11
379.5
 21
482.0
 31
0.0
  0
LINE
  8
L-ZISSEN
 10
409.5
 20
509.0
 30
0.0
 11
373.0
 21
509.0
 31
0.0
  0
LINE
  8
L-ZISSEN
 10
379.5
 20
451.0
 30
0.0
 11
220.5
 21
451.0
 31
0.0
  0
LINE
  8
L-TYUSIN
 10
293.0
 20
475.0
 30
0.0
 11
253.0
 21
475.0
 31
0.0
  0
LINE
  8
L-TYUSIN
 10
273.0
 20
455.0
 30
0.0
 11
273.0
 21
495.0
 31
0.0
  0
LINE
  8
L-ZISSEN
 10
242.0
 20
395.0
 30
0.0
 11
242.0
 21
407.5
 31
0.0
  0
LINE
  8
L-ZISSEN
 10
258.0
 20
395.0
 30
0.0
 11
242.0
 21
395.0
 31
0.0
  0
LINE
  8
L-ZISSEN
 10
258.0
 20
395.0
 30
0.0
 11
258.0
 21
407.5
 31
0.0
  0
LINE
  8
L-ZISSEN
 10
342.0
 20
395.0
 30
0.0
 11
342.0
 21
407.5
 31
0.0
  0
LINE
  8
L-ZISSEN
 10
358.0
 20
395.0
 30
0.0
 11
358.0
 21
407.5
 31
0.0
  0
LINE
  8
L-ZISSEN
 10
358.0
 20
395.0
 30
0.0
 11
342.0
 21
395.0
 31
0.0
  0
LINE
  8
L-ZISSEN
 10
242.0
 20
398.87537
 30
0.0
 11
236.1
 21
398.87537
 31
0.0
  0
LINE
  8
L-ZISSEN
 10
564.0
 20
109.0
 30
0.0
 11
476.0
 21
109.0
 31
0.0
  0
LINE
  8
L-ZISSEN
 10
461.0
 20
51.0
 30
0.0
 11
579.0
 21
51.0
 31
0.0
  0
LINE
  8
L-ZISSEN
 10
461.0
 20
78.0
 30
0.0
 11
579.0
 21
78.0
 31
0.0
  0
LINE
  8
L-ZISSEN
 10
461.0
 20
51.0
 30
0.0
 11
461.0
 21
78.0
 31
0.0
  0
LINE
  8
L-ZISSEN
 10
579.0
 20
51.0
 30
0.0
 11
579.0
 21
78.0
 31
0.0
  0
LINE
  8
L-ZISSEN
 10
476.0
 20
109.0
 30
0.0
 11
476.0
 21
78.0
 31
0.0
  0
LINE
  8
L-ZISSEN
 10
564.0
 20
109.0
 30
0.0
 11
564.0
 21
78.0
 31
0.0
  0
LINE
  8
L-ZISSEN
 10
538.0
 20
78.0
 30
0.0
 11
538.0
 21
51.0
 31
0.0
  0
LINE
  8
L-ZISSEN
 10
502.0
 20
78.0
 30
0.0
 11
502.0
 21
51.0
 31
0.0
  0
LINE
  8
L-TYUSIN
 10
568.0
 20
83.0
 30
0.0
 11
568.0
 21
46.0
 31
0.0
  0
LINE
  8
L-TYUSIN
 10
472.0
 20
83.0
 30
0.0
 11
472.0
 21
46.0
 31
0.0
  0
LINE
  8
L-ZISSEN
 10
483.0
 20
165.0
 30
0.0
 11
478.0
 21
165.0
 31
0.0
  0
LINE
  8
L-ZISSEN
 10
478.0
 20
165.0
 30
0.0
 11
478.0
 21
152.5
 31
0.0
  0
LINE
  8
L-ZISSEN
 10
562.0
 20
165.0
 30
0.0
 11
562.0
 21
152.5
 31
0.0
  0
LINE
  8
L-ZISSEN
 10
557.0
 20
165.0
 30
0.0
 11
562.0
 21
165.0
 31
0.0
  0
LINE
  8
L-ZISSEN
 10
46.0
 20
109.0
 30
0.0
 11
46.0
 21
78.0
 31
0.0
  0
LINE
  8
L-ZISSEN
 10
31.0
 20
78.0
 30
0.0
 11
149.0
 21
78.0
 31
0.0
  0
LINE
  8
L-ZISSEN
 10
31.0
 20
51.0
 30
0.0
 11
31.0
 21
78.0
 31
0.0
  0
LINE
  8
L-ZISSEN
 10
72.0
 20
78.0
 30
0.0
 11
72.0
 21
51.0
 31
0.0
  0
LINE
  8
L-ZISSEN
 10
31.0
 20
51.0
 30
0.0
 11
149.0
 21
51.0
 31
0.0
  0
LINE
  8
L-ZISSEN
 10
108.0
 20
78.0
 30
0.0
 11
108.0
 21
51.0
 31
0.0
  0
LINE
  8
L-ZISSEN
 10
134.0
 20
109.0
 30
0.0
 11
134.0
 21
78.0
 31
0.0
  0
LINE
  8
L-ZISSEN
 10
149.0
 20
51.0
 30
0.0
 11
149.0
 21
78.0
 31
0.0
  0
LINE
  8
L-TYUSIN
 10
138.0
 20
83.0
 30
0.0
 11
138.0
 21
46.0
 31
0.0
  0
LINE
  8
L-TYUSIN
 10
42.0
 20
83.0
 30
0.0
 11
42.0
 21
46.0
 31
0.0
  0
LINE
  8
L-ZISSEN
 10
46.0
 20
109.0
 30
0.0
 11
134.0
 21
109.0
 31
0.0
  0
LINE
  8
L-ZISSEN
 10
53.0
 20
165.0
 30
0.0
 11
48.0
 21
165.0
 31
0.0
  0
LINE
  8
L-ZISSEN
 10
48.0
 20
165.0
 30
0.0
 11
48.0
 21
152.5
 31
0.0
  0
LINE
  8
L-ZISSEN
 10
127.0
 20
165.0
 30
0.0
 11
132.0
 21
165.0
 31
0.0
  0
LINE
  8
L-ZISSEN
 10
132.0
 20
165.0
 30
0.0
 11
132.0
 21
152.5
 31
0.0
  0
CIRCLE
  8
L-ZISSEN
 10
250.0
 20
314.0
 30
0.0
 40
8.0
  0
CIRCLE
  8
L-ZISSEN
 10
350.0
 20
314.0
 30
0.0
 40
8.0
  0
CIRCLE
  8
L-ZISSEN
 10
325.0
 20
246.0
 30
0.0
 40
8.0
  0
CIRCLE
  8
L-ZISSEN
 10
275.0
 20
246.0
 30
0.0
 40
8.0
  0
LINE
  8
L-ZISSEN
 10
220.5
 20
324.0
 30
0.0
 11
220.5
 21
317.0
 31
0.0
  0
LINE
  8
L-ZISSEN
 10
379.5
 20
324.0
 30
0.0
 11
379.5
 21
317.0
 31
0.0
  0
LINE
  8
L-ZISSEN
 10
243.1
 20
236.0
 30
0.0
 11
220.5
 21
236.0
 31
0.0
  0
LINE
  8
L-ZISSEN
 10
356.9
 20
236.0
 30
0.0
 11
379.5
 21
236.0
 31
0.0
  0
LINE
  8
L-ZISSEN
 10
356.9
 20
324.0
 30
0.0
 11
379.5
 21
324.0
 31
0.0
  0
LINE
  8
L-ZISSEN
 10
243.1
 20
324.0
 30
0.0
 11
220.5
 21
324.0
 31
0.0
  0
LINE
  8
L-ZISSEN
 10
220.5
 20
243.0
 30
0.0
 11
220.5
 21
236.0
 31
0.0
  0
LINE
  8
L-ZISSEN
 10
379.5
 20
243.0
 30
0.0
 11
379.5
 21
236.0
 31
0.0
  0
LINE
  8
L-TYUSIN
 10
201.5
 20
337.0
 30
0.0
 11
201.5
 21
319.0
 31
0.0
  0
LINE
  8
L-TYUSIN
 10
192.5
 20
328.0
 30
0.0
 11
210.5
 21
328.0
 31
0.0
  0
CIRCLE
  8
L-ZISSEN
 10
201.5
 20
328.0
 30
0.0
 40
5.5
  0
LINE
  8
L-ZISSEN
 10
220.5
 20
236.0
 30
0.0
 11
205.5
 21
221.0
 31
0.0
  0
CIRCLE
  8
L-ZISSEN
 10
201.5
 20
232.0
 30
0.0
 40
5.5
  0
LINE
  8
L-TYUSIN
 10
192.5
 20
232.0
 30
0.0
 11
210.5
 21
232.0
 31
0.0
  0
LINE
  8
L-TYUSIN
 10
201.5
 20
223.0
 30
0.0
 11
201.5
 21
241.0
 31
0.0
  0
LINE
  8
L-ZISSEN
 10
202.535898
 20
256.0
 30
0.0
 11
190.5
 21
235.153212
 31
0.0
  0
CIRCLE
  8
L-ZISSEN
 10
300.0
 20
85.0
 30
0.0
 40
15.1455
  0
CIRCLE
  8
L-ZISSEN
 10
354.0
 20
85.0
 30
0.0
 40
15.1455
  0
CIRCLE
  8
L-ZISSEN
 10
246.0
 20
85.0
 30
0.0
 40
15.1455
  0
CIRCLE
  8
L-ZISSEN
 10
327.0
 20
475.0
 30
0.0
 40
15.1455
  0
CIRCLE
  8
L-ZISSEN
 10
273.0
 20
475.0
 30
0.0
 40
15.1455
  0
LINE
  8
L-TYUSIN
 10
620.0
 20
445.0
 30
0.0
 11
620.0
 21
10.0
 31
0.0
  0
TEXT
  8
L-ZISSEN
 10
55.0
 20
520.0
 30
0.0
 40
4.5
  1
MODEL No. :
  0
TEXT
  8
L-ZISSEN
 10
100.0
 20
520.0
 30
0.0
 40
4.5
  1
MVM-491-
  0
TEXT
  8
L-ZISSEN
 10
640.0
 20
420.0
 30
0.0
 40
4.5
  1
MODEL No. :
  0
TEXT
  8
L-ZISSEN
 10
685.0
 20
420.0
 30
0.0
 40
4.5
  1
MVM-491-12J
  0
LINE
  8
L-ZISSEN
 10
859.5
 20
173.0
 30
0.0
 11
859.5
 21
166.0
 31
0.0
  0
LINE
  8
L-ZISSEN
 10
700.5
 20
173.0
 30
0.0
 11
700.5
 21
166.0
 31
0.0
  0
LINE
  8
L-ZISSEN
 10
723.1
 20
254.0
 30
0.0
 11
700.5
 21
254.0
 31
0.0
  0
LINE
  8
L-ZISSEN
 10
836.9
 20
254.0
 30
0.0
 11
859.5
 21
254.0
 31
0.0
  0
LINE
  8
L-ZISSEN
 10
836.9
 20
166.0
 30
0.0
 11
859.5
 21
166.0
 31
0.0
  0
LINE
  8
L-ZISSEN
 10
723.1
 20
166.0
 30
0.0
 11
700.5
 21
166.0
 31
0.0
  0
LINE
  8
L-ZISSEN
 10
859.5
 20
254.0
 30
0.0
 11
859.5
 21
247.0
 31
0.0
  0
LINE
  8
L-ZISSEN
 10
700.5
 20
254.0
 30
0.0
 11
700.5
 21
247.0
 31
0.0
  0
LINE
  8
L-ZISSEN
 10
1064.0
 20
109.0
 30
0.0
 11
1064.0
 21
60.0
 31
0.0
  0
LINE
  8
L-ZISSEN
 10
976.0
 20
109.0
 30
0.0
 11
976.0
 21
93.0
 31
0.0
  0
LINE
  8
L-ZISSEN
 10
1064.0
 20
109.0
 30
0.0
 11
976.0
 21
109.0
 31
0.0
  0
LINE
  8
L-ZISSEN
 10
859.5
 20
311.0
 30
0.0
 11
700.5
 21
311.0
 31
0.0
  0
LINE
  8
L-TYUSIN
 10
672.5
 20
65.0
 30
0.0
 11
672.5
 21
20.0
 31
0.0
  0
LINE
  8
L-ZISSEN
 10
859.5
 20
37.0
 30
0.0
 11
859.5
 21
44.906469
 31
0.0
  0
LINE
  8
L-ZISSEN
 10
700.5
 20
37.0
 30
0.0
 11
700.5
 21
44.906469
 31
0.0
  0
LINE
  8
L-TYUSIN
 10
755.0
 20
65.0
 30
0.0
 11
805.0
 21
65.0
 31
0.0
  0
LINE
  8
L-ZISSEN
 10
707.0
 20
25.0
 30
0.0
 11
707.0
 21
37.0
 31
0.0
  0
LINE
  8
L-ZISSEN
 10
859.5
 20
109.0
 30
0.0
 11
700.5
 21
109.0
 31
0.0
  0
LINE
  8
L-ZISSEN
 10
707.0
 20
25.0
 30
0.0
 11
661.5
 21
25.0
 31
0.0
  0
LINE
  8
L-ZISSEN
 10
661.5
 20
25.0
 30
0.0
 11
661.5
 21
60.0
 31
0.0
  0
LINE
  8
L-ZISSEN
 10
692.450045
 20
60.0
 30
0.0
 11
661.5
 21
60.0
 31
0.0
  0
LINE
  8
L-ZISSEN
 10
859.5
 20
37.0
 30
0.0
 11
700.5
 21
37.0
 31
0.0
  0
LINE
  8
L-ZISSEN
 10
853.0
 20
25.0
 30
0.0
 11
853.0
 21
37.0
 31
0.0
  0
LINE
  8
L-ZISSEN
 10
853.0
 20
25.0
 30
0.0
 11
898.5
 21
25.0
 31
0.0
  0
LINE
  8
L-TYUSIN
 10
887.5
 20
65.0
 30
0.0
 11
887.5
 21
20.0
 31
0.0
  0
LINE
  8
L-ZISSEN
 10
898.5
 20
25.0
 30
0.0
 11
898.5
 21
60.0
 31
0.0
  0
LINE
  8
L-ZISSEN
 10
867.549955
 20
60.0
 30
0.0
 11
898.5
 21
60.0
 31
0.0
  0
ARC
  8
L-ZISSEN
 10
780.0
 20
65.0
 30
0.0
 40
28.0
 50
221.409622
 51
318.590378
  0
ARC
  8
L-ZISSEN
 10
720.0
 20
65.0
 30
0.0
 40
28.0
 50
41.409622
 51
318.590378
  0
LINE
  8
L-TYUSIN
 10
720.0
 20
90.0
 30
0.0
 11
720.0
 21
40.0
 31
0.0
  0
LINE
  8
L-TYUSIN
 10
695.0
 20
65.0
 30
0.0
 11
745.0
 21
65.0
 31
0.0
  0
CIRCLE
  8
L-ZISSEN
 10
780.0
 20
65.0
 30
0.0
 40
19.476
  0
LINE
  8
L-ZISSEN
 10
700.5
 20
85.093531
 30
0.0
 11
700.5
 21
109.0
 31
0.0
  0
ARC
  8
L-ZISSEN
 10
750.0
 20
91.457513
 30
0.0
 40
12.0
 50
221.409622
 51
318.590378
  0
ARC
  8
L-ZISSEN
 10
750.0
 20
38.542487
 30
0.0
 40
12.0
 50
41.409622
 51
138.590378
  0
CIRCLE
  8
L-ZISSEN
 10
720.0
 20
65.0
 30
0.0
 40
19.476
  0
CIRCLE
  8
L-ZISSEN
 10
840.0
 20
65.0
 30
0.0
 40
19.476
  0
LINE
  8
L-TYUSIN
 10
840.0
 20
90.0
 30
0.0
 11
840.0
 21
40.0
 31
0.0
  0
LINE
  8
L-TYUSIN
 10
865.0
 20
65.0
 30
0.0
 11
815.0
 21
65.0
 31
0.0
  0
ARC
  8
L-ZISSEN
 10
840.0
 20
65.0
 30
0.0
 40
28.0
 50
221.409622
 51
138.590378
  0
LINE
  8
L-ZISSEN
 10
859.5
 20
85.093531
 30
0.0
 11
859.5
 21
109.0
 31
0.0
  0
ARC
  8
L-ZISSEN
 10
780.0
 20
65.0
 30
0.0
 40
28.0
 50
41.409622
 51
138.590378
  0
ARC
  8
L-ZISSEN
 10
810.0
 20
91.457513
 30
0.0
 40
12.0
 50
221.409622
 51
318.590378
  0
ARC
  8
L-ZISSEN
 10
810.0
 20
38.542487
 30
0.0
 40
12.0
 50
41.409622
 51
138.590378
  0
LINE
  8
L-ZISSEN
 10
961.0
 20
60.0
 30
0.0
 11
1079.0
 21
60.0
 31
0.0
  0
LINE
  8
L-ZISSEN
 10
961.0
 20
25.0
 30
0.0
 11
1079.0
 21
25.0
 31
0.0
  0
LINE
  8
L-TYUSIN
 10
471.0
 20
85.0
 30
0.0
 11
481.0
 21
85.0
 31
0.0
  0
LINE
  8
L-TYUSIN
 10
569.0
 20
85.0
 30
0.0
 11
559.0
 21
85.0
 31
0.0
  0
LINE
  8
L-TYUSIN
 10
41.0
 20
85.0
 30
0.0
 11
51.0
 21
85.0
 31
0.0
  0
LINE
  8
L-TYUSIN
 10
139.0
 20
85.0
 30
0.0
 11
129.0
 21
85.0
 31
0.0
  0
LINE
  8
L-ZISSEN
 10
961.0
 20
25.0
 30
0.0
 11
961.0
 21
60.0
 31
0.0
  0
LINE
  8
L-ZISSEN
 10
1007.0
 20
60.0
 30
0.0
 11
1007.0
 21
25.0
 31
0.0
  0
LINE
  8
L-ZISSEN
 10
1033.0
 20
60.0
 30
0.0
 11
1033.0
 21
25.0
 31
0.0
  0
LINE
  8
L-ZISSEN
 10
1079.0
 20
25.0
 30
0.0
 11
1079.0
 21
60.0
 31
0.0
  0
LINE
  8
L-ZISSEN
 10
970.0
 20
93.0
 30
0.0
 11
970.0
 21
60.0
 31
0.0
  0
LINE
  8
L-ZISSEN
 10
970.0
 20
93.0
 30
0.0
 11
999.0
 21
93.0
 31
0.0
  0
LINE
  8
L-ZISSEN
 10
999.0
 20
93.0
 30
0.0
 11
999.0
 21
60.0
 31
0.0
  0
LINE
  8
L-ZISSEN
 10
1070.0
 20
93.0
 30
0.0
 11
1064.0
 21
93.0
 31
0.0
  0
LINE
  8
L-ZISSEN
 10
1070.0
 20
93.0
 30
0.0
 11
1070.0
 21
60.0
 31
0.0
  0
LINE
  8
L-TYUSIN
 10
1004.0
 20
65.0
 30
0.0
 11
965.0
 21
65.0
 31
0.0
  0
LINE
  8
L-TYUSIN
 10
1059.0
 20
65.0
 30
0.0
 11
1075.0
 21
65.0
 31
0.0
  0
LINE
  8
L-ZISSEN
 10
1007.5
 20
88.092523
 30
0.0
 11
1007.5
 21
60.0
 31
0.0
  0
LINE
  8
L-ZISSEN
 10
999.0
 20
93.0
 30
0.0
 11
1007.5
 21
88.092523
 31
0.0
  0
CIRCLE
  8
L-ZISSEN
 10
750.0
 20
355.0
 30
0.0
 40
19.476
  0
LINE
  8
L-TYUSIN
 10
750.0
 20
330.0
 30
0.0
 11
750.0
 21
380.0
 31
0.0
  0
LINE
  8
L-ZISSEN
 10
867.549955
 20
360.0
 30
0.0
 11
898.5
 21
360.0
 31
0.0
  0
LINE
  8
L-ZISSEN
 10
898.5
 20
395.0
 30
0.0
 11
898.5
 21
360.0
 31
0.0
  0
LINE
  8
L-TYUSIN
 10
887.5
 20
355.0
 30
0.0
 11
887.5
 21
400.0
 31
0.0
  0
LINE
  8
L-ZISSEN
 10
853.0
 20
395.0
 30
0.0
 11
898.5
 21
395.0
 31
0.0
  0
LINE
  8
L-ZISSEN
 10
853.0
 20
395.0
 30
0.0
 11
853.0
 21
383.0
 31
0.0
  0
LINE
  8
L-ZISSEN
 10
859.5
 20
383.0
 30
0.0
 11
700.5
 21
383.0
 31
0.0
  0
LINE
  8
L-ZISSEN
 10
692.450045
 20
360.0
 30
0.0
 11
661.5
 21
360.0
 31
0.0
  0
LINE
  8
L-ZISSEN
 10
661.5
 20
395.0
 30
0.0
 11
661.5
 21
360.0
 31
0.0
  0
LINE
  8
L-ZISSEN
 10
707.0
 20
395.0
 30
0.0
 11
661.5
 21
395.0
 31
0.0
  0
LINE
  8
L-ZISSEN
 10
707.0
 20
395.0
 30
0.0
 11
707.0
 21
383.0
 31
0.0
  0
LINE
  8
L-TYUSIN
 10
725.0
 20
355.0
 30
0.0
 11
775.0
 21
355.0
 31
0.0
  0
LINE
  8
L-TYUSIN
 10
672.5
 20
355.0
 30
0.0
 11
672.5
 21
400.0
 31
0.0
  0
LINE
  8
L-ZISSEN
 10
859.5
 20
383.0
 30
0.0
 11
859.5
 21
311.0
 31
0.0
  0
LINE
  8
L-ZISSEN
 10
700.5
 20
383.0
 30
0.0
 11
700.5
 21
311.0
 31
0.0
  0
ARC
  8
L-ZISSEN
 10
840.0
 20
355.0
 30
0.0
 40
28.0
 50
314.141165
 51
45.858835
  0
ARC
  8
L-ZISSEN
 10
720.0
 20
355.0
 30
0.0
 40
28.0
 50
134.141165
 51
225.858835
  0
CIRCLE
  8
L-ZISSEN
 10
810.0
 20
355.0
 30
0.0
 40
19.476
  0
LINE
  8
L-TYUSIN
 10
835.0
 20
355.0
 30
0.0
 11
785.0
 21
355.0
 31
0.0
  0
LINE
  8
L-TYUSIN
 10
810.0
 20
330.0
 30
0.0
 11
810.0
 21
380.0
 31
0.0
  0
ARC
  8
L-ZISSEN
 10
810.0
 20
355.0
 30
0.0
 40
28.0
 50
221.409622
 51
138.590378
  0
ARC
  8
L-ZISSEN
 10
750.0
 20
355.0
 30
0.0
 40
28.0
 50
41.409622
 51
318.590378
  0
ARC
  8
L-ZISSEN
 10
780.0
 20
381.457513
 30
0.0
 40
12.0
 50
221.409622
 51
318.590378
  0
ARC
  8
L-ZISSEN
 10
780.0
 20
328.542487
 30
0.0
 40
12.0
 50
41.409622
 51
138.590378
  0
SOLID
  8
L-ZISSEN
 10
301.2636
 20
107.414306
 30
0.0
 11
301.709577
 21
107.909835
 31
0.0
 12
300.0
 22
109.0
 32
0.0
 13
300.0
 23
109.0
 33
0.0
  0
LINE
  8
L-ZISSEN
 10
301.486588
 20
107.662071
 30
0.0
 11
310.0
 21
100.0
 31
0.0
  0
LINE
  8
L-ZISSEN
 10
310.0
 20
100.0
 30
0.0
 11
312.0
 21
100.0
 31
0.0
  0
TEXT
  8
L-ZISSEN
 10
314.0
 20
97.75
 30
0.0
 40
4.5
  1
P.P
  0
SOLID
  8
L-ZISSEN
 10
521.2636
 20
107.414306
 30
0.0
 11
521.709577
 21
107.909835
 31
0.0
 12
520.0
 22
109.0
 32
0.0
 13
520.0
 23
109.0
 33
0.0
  0
LINE
  8
L-ZISSEN
 10
521.486588
 20
107.662071
 30
0.0
 11
530.0
 21
100.0
 31
0.0
  0
LINE
  8
L-ZISSEN
 10
530.0
 20
100.0
 30
0.0
 11
532.0
 21
100.0
 31
0.0
  0
TEXT
  8
L-ZISSEN
 10
534.0
 20
97.75
 30
0.0
 40
4.5
  1
P.P
  0
SOLID
  8
L-ZISSEN
 10
781.591992
 20
110.255656
 30
0.0
 11
781.098699
 21
110.704104
 31
0.0
 12
780.0
 22
109.0
 32
0.0
 13
780.0
 23
109.0
 33
0.0
  0
LINE
  8
L-ZISSEN
 10
781.345346
 20
110.47988
 30
0.0
 11
790.0
 21
120.0
 31
0.0
  0
LINE
  8
L-ZISSEN
 10
790.0
 20
120.0
 30
0.0
 11
792.0
 21
120.0
 31
0.0
  0
TEXT
  8
L-ZISSEN
 10
794.0
 20
117.75
 30
0.0
 40
4.5
  1
P.P
  0
SOLID
  8
L-ZISSEN
 10
1021.591992
 20
110.255656
 30
0.0
 11
1021.098699
 21
110.704104
 31
0.0
 12
1020.0
 22
109.0
 32
0.0
 13
1020.0
 23
109.0
 33
0.0
  0
LINE
  8
L-ZISSEN
 10
1021.345346
 20
110.47988
 30
0.0
 11
1030.0
 21
120.0
 31
0.0
  0
LINE
  8
L-ZISSEN
 10
1030.0
 20
120.0
 30
0.0
 11
1032.0
 21
120.0
 31
0.0
  0
TEXT
  8
L-ZISSEN
 10
1034.0
 20
117.75
 30
0.0
 40
4.5
  1
P.P
  0
SOLID
  8
L-ZISSEN
 10
781.098699
 20
309.295896
 30
0.0
 11
781.591992
 21
309.744344
 31
0.0
 12
780.0
 22
311.0
 32
0.0
 13
780.0
 23
311.0
 33
0.0
  0
LINE
  8
L-ZISSEN
 10
781.345346
 20
309.52012
 30
0.0
 11
790.0
 21
300.0
 31
0.0
  0
LINE
  8
L-ZISSEN
 10
790.0
 20
300.0
 30
0.0
 11
792.0
 21
300.0
 31
0.0
  0
TEXT
  8
L-ZISSEN
 10
794.0
 20
297.75
 30
0.0
 40
4.5
  1
P.P
  0
LINE
  8
L-ZISSEN
 10
680.5
 20
234.0
 30
0.0
 11
661.5
 21
253.0
 31
0.0
  0
LINE
  8
L-ZISSEN
 10
700.5
 20
254.0
 30
0.0
 11
674.519238
 21
269.0
 31
0.0
  0
LINE
  8
L-TYUSIN
 10
672.5
 20
266.0
 30
0.0
 11
672.5
 21
250.0
 31
0.0
  0
LINE
  8
L-TYUSIN
 10
664.5
 20
258.0
 30
0.0
 11
680.5
 21
258.0
 31
0.0
  0
CIRCLE
  8
L-ZISSEN
 10
672.5
 20
258.0
 30
0.0
 40
5.5
  0
LINE
  8
L-ZISSEN
 10
190.5
 20
232.0
 30
0.0
 11
190.5
 21
235.153212
 31
0.0
  0
LINE
  8
L-ZISSEN
 10
205.5
 20
221.0
 30
0.0
 11
201.5
 21
221.0
 31
0.0
  0
ARC
  8
L-ZISSEN
 10
201.5
 20
232.0
 30
0.0
 40
11.0
 50
180.0
 51
270.0
  0
ARC
  8
L-ZISSEN
 10
201.5
 20
328.0
 30
0.0
 40
11.0
 50
90.0
 51
180.0
  0
LINE
  8
L-ZISSEN
 10
205.5
 20
339.0
 30
0.0
 11
201.5
 21
339.0
 31
0.0
  0
LINE
  8
L-ZISSEN
 10
190.5
 20
328.0
 30
0.0
 11
190.5
 21
324.846788
 31
0.0
  0
LINE
  8
L-ZISSEN
 10
220.5
 20
324.0
 30
0.0
 11
205.5
 21
339.0
 31
0.0
  0
LINE
  8
L-ZISSEN
 10
202.535898
 20
304.0
 30
0.0
 11
190.5
 21
324.846788
 31
0.0
  0
LINE
  8
L-ZISSEN
 10
409.5
 20
328.0
 30
0.0
 11
409.5
 21
324.846788
 31
0.0
  0
LINE
  8
L-ZISSEN
 10
394.5
 20
339.0
 30
0.0
 11
398.5
 21
339.0
 31
0.0
  0
ARC
  8
L-ZISSEN
 10
398.5
 20
328.0
 30
0.0
 40
11.0
 50
360.0
 51
90.0
  0
CIRCLE
  8
L-ZISSEN
 10
398.5
 20
328.0
 30
0.0
 40
5.5
  0
LINE
  8
L-TYUSIN
 10
407.5
 20
328.0
 30
0.0
 11
389.5
 21
328.0
 31
0.0
  0
LINE
  8
L-ZISSEN
 10
379.5
 20
324.0
 30
0.0
 11
394.5
 21
339.0
 31
0.0
  0
LINE
  8
L-TYUSIN
 10
398.5
 20
337.0
 30
0.0
 11
398.5
 21
319.0
 31
0.0
  0
LINE
  8
L-ZISSEN
 10
404.969655
 20
317.0
 30
0.0
 11
409.5
 21
324.846788
 31
0.0
  0
LINE
  8
L-ZISSEN
 10
404.969655
 20
243.0
 30
0.0
 11
409.5
 21
235.153212
 31
0.0
  0
LINE
  8
L-TYUSIN
 10
398.5
 20
223.0
 30
0.0
 11
398.5
 21
241.0
 31
0.0
  0
LINE
  8
L-TYUSIN
 10
407.5
 20
232.0
 30
0.0
 11
389.5
 21
232.0
 31
0.0
  0
CIRCLE
  8
L-ZISSEN
 10
398.5
 20
232.0
 30
0.0
 40
5.5
  0
ARC
  8
L-ZISSEN
 10
398.5
 20
232.0
 30
0.0
 40
11.0
 50
270.0
 51
0.0
  0
LINE
  8
L-ZISSEN
 10
394.5
 20
221.0
 30
0.0
 11
398.5
 21
221.0
 31
0.0
  0
LINE
  8
L-ZISSEN
 10
409.5
 20
232.0
 30
0.0
 11
409.5
 21
235.153212
 31
0.0
  0
LINE
  8
L-ZISSEN
 10
379.5
 20
236.0
 30
0.0
 11
394.5
 21
221.0
 31
0.0
  0
LINE
  8
L-ZISSEN
 10
672.5
 20
269.0
 30
0.0
 11
674.519238
 21
269.0
 31
0.0
  0
LINE
  8
L-ZISSEN
 10
661.5
 20
258.0
 30
0.0
 11
661.5
 21
253.0
 31
0.0
  0
ARC
  8
L-ZISSEN
 10
672.5
 20
258.0
 30
0.0
 40
11.0
 50
90.0
 51
180.0
  0
LINE
  8
L-ZISSEN
 10
859.5
 20
254.0
 30
0.0
 11
885.480762
 21
269.0
 31
0.0
  0
ARC
  8
L-ZISSEN
 10
887.5
 20
258.0
 30
0.0
 40
11.0
 50
0.0
 51
90.0
  0
LINE
  8
L-ZISSEN
 10
898.5
 20
258.0
 30
0.0
 11
898.5
 21
253.0
 31
0.0
  0
LINE
  8
L-ZISSEN
 10
887.5
 20
269.0
 30
0.0
 11
885.480762
 21
269.0
 31
0.0
  0
CIRCLE
  8
L-ZISSEN
 10
887.5
 20
258.0
 30
0.0
 40
5.5
  0
LINE
  8
L-TYUSIN
 10
895.5
 20
258.0
 30
0.0
 11
879.5
 21
258.0
 31
0.0
  0
LINE
  8
L-TYUSIN
 10
887.5
 20
266.0
 30
0.0
 11
887.5
 21
250.0
 31
0.0
  0
LINE
  8
L-ZISSEN
 10
892.5
 20
247.0
 30
0.0
 11
898.5
 21
253.0
 31
0.0
  0
LINE
  8
L-ZISSEN
 10
892.5
 20
173.0
 30
0.0
 11
898.5
 21
167.0
 31
0.0
  0
LINE
  8
L-TYUSIN
 10
887.5
 20
154.0
 30
0.0
 11
887.5
 21
170.0
 31
0.0
  0
LINE
  8
L-TYUSIN
 10
895.5
 20
162.0
 30
0.0
 11
879.5
 21
162.0
 31
0.0
  0
CIRCLE
  8
L-ZISSEN
 10
887.5
 20
162.0
 30
0.0
 40
5.5
  0
LINE
  8
L-ZISSEN
 10
887.5
 20
151.0
 30
0.0
 11
885.480762
 21
151.0
 31
0.0
  0
LINE
  8
L-ZISSEN
 10
898.5
 20
162.0
 30
0.0
 11
898.5
 21
167.0
 31
0.0
  0
ARC
  8
L-ZISSEN
 10
887.5
 20
162.0
 30
0.0
 40
11.0
 50
270.0
 51
0.0
  0
LINE
  8
L-ZISSEN
 10
859.5
 20
166.0
 30
0.0
 11
885.480762
 21
151.0
 31
0.0
  0
LINE
  8
L-ZISSEN
 10
700.5
 20
166.0
 30
0.0
 11
674.519238
 21
151.0
 31
0.0
  0
LINE
  8
L-ZISSEN
 10
680.5
 20
186.0
 30
0.0
 11
661.5
 21
167.0
 31
0.0
  0
ARC
  8
L-ZISSEN
 10
672.5
 20
162.0
 30
0.0
 40
11.0
 50
180.0
 51
270.0
  0
LINE
  8
L-ZISSEN
 10
661.5
 20
162.0
 30
0.0
 11
661.5
 21
167.0
 31
0.0
  0
LINE
  8
L-ZISSEN
 10
672.5
 20
151.0
 30
0.0
 11
674.519238
 21
151.0
 31
0.0
  0
CIRCLE
  8
L-ZISSEN
 10
672.5
 20
162.0
 30
0.0
 40
5.5
  0
LINE
  8
L-TYUSIN
 10
664.5
 20
162.0
 30
0.0
 11
680.5
 21
162.0
 31
0.0
  0
LINE
  8
L-TYUSIN
 10
672.5
 20
154.0
 30
0.0
 11
672.5
 21
170.0
 31
0.0
  0
SOLID
  8
L-ZISSEN
 10
781.649916
 20
211.178511
 30
0.0
 11
781.178511
 21
211.649916
 31
0.0
 12
780.0
 22
210.0
 32
0.0
 13
780.0
 23
210.0
 33
0.0
  0
LINE
  8
L-ZISSEN
 10
781.414214
 20
211.414214
 30
0.0
 11
795.0
 21
225.0
 31
0.0
  0
LINE
  8
L-ZISSEN
 10
795.0
 20
225.0
 30
0.0
 11
797.0
 21
225.0
 31
0.0
  0
TEXT
  8
L-ZISSEN
 10
799.0
 20
222.75
 30
0.0
 40
4.5
  1
P.P
  0
SOLID
  8
L-ZISSEN
 10
300.893971
 20
281.81987
 30
0.0
 11
300.25542
 21
282.011435
 31
0.0
 12
300.0
 22
280.0
 32
0.0
 13
300.0
 23
280.0
 33
0.0
  0
LINE
  8
L-ZISSEN
 10
300.574696
 20
281.915653
 30
0.0
 11
315.0
 21
330.0
 31
0.0
  0
LINE
  8
L-ZISSEN
 10
315.0
 20
330.0
 30
0.0
 11
317.0
 21
330.0
 31
0.0
  0
TEXT
  8
L-ZISSEN
 10
319.0
 20
327.75
 30
0.0
 40
4.5
  1
P.P
  0
LINE
  8
L-ZISSEN
 10
355.0
 20
264.0
 30
0.0
 11
355.0
 21
296.0
 31
0.0
  0
LINE
  8
L-TYUSIN
 10
338.0
 20
169.0
 30
0.0
 11
354.0
 21
169.0
 31
0.0
  0
LINE
  8
L-TYUSIN
 10
346.0
 20
177.0
 30
0.0
 11
346.0
 21
161.0
 31
0.0
  0
CIRCLE
  8
L-ZISSEN
 10
346.0
 20
169.0
 30
0.0
 40
4.283
  0
SOLID
  8
L-ZISSEN
 10
301.262672
 20
452.586434
 30
0.0
 11
300.6799
 21
452.910196
 31
0.0
 12
300.0
 22
451.0
 32
0.0
 13
300.0
 23
451.0
 33
0.0
  0
LINE
  8
L-ZISSEN
 10
300.971286
 20
452.748315
 30
0.0
 11
305.0
 21
460.0
 31
0.0
  0
LINE
  8
L-ZISSEN
 10
305.0
 20
460.0
 30
0.0
 11
307.0
 21
460.0
 31
0.0
  0
TEXT
  8
L-ZISSEN
 10
309.0
 20
457.75
 30
0.0
 40
4.5
  1
P.P
  0
SOLID
  8
L-ZISSEN
 10
298.985643
 20
83.244383
 30
0.0
 11
299.609863
 21
83.0103
 31
0.0
 12
300.0
 22
85.0
 32
0.0
 13
300.0
 23
85.0
 33
0.0
  0
LINE
  8
L-ZISSEN
 10
299.297753
 20
83.127342
 30
0.0
 11
285.0
 21
45.0
 31
0.0
  0
LINE
  8
L-ZISSEN
 10
285.0
 20
45.0
 30
0.0
 11
283.0
 21
45.0
 31
0.0
  0
TEXT
  8
L-ZISSEN
 10
251.0
 20
42.75
 30
0.0
 40
4.5
  1
"1" PORT
  0
TEXT
  8
L-ZISSEN
 10
255.0
 20
35.0
 30
0.0
 40
4.5
  1
Rc 3/4
  0
TEXT
  8
L-ZISSEN
 10
255.0
 20
25.0
 30
0.0
 40
4.5
  1
Rc 1
  0
TEXT
  8
L-ZISSEN
 10
136.0
 20
524.0
 30
0.0
 40
4.5
  1
06
  0
TEXT
  8
L-ZISSEN
 10
136.0
 20
517.0
 30
0.0
 40
4.5
  1
10
  0
ENDSEC
  0
EOF
