  0
SECTION
  2
HEADER
  9
$ACADVER
  1
AC1006
  9
$INSBASE
 10
0.0
 20
0.0
 30
0.0
  9
$EXTMIN
 10
23.0
 20
15.0
  9
$EXTMAX
 10
910.0
 20
556.5
  9
$LIMMIN
 10
0.0
 20
0.0
  9
$LIMMAX
 10
841.0
 20
594.0
  9
$ORTHOMODE
 70
     0
  9
$REGENMODE
 70
     1
  9
$FILLMODE
 70
     1
  9
$QTEXTMODE
 70
     0
  9
$MIRRTEXT
 70
     1
  9
$DRAGMODE
 70
     2
  9
$LTSCALE
 40
1.0
  9
$OSMODE
 70
     0
  9
$ATTMODE
 70
     1
  9
$TEXTSIZE
 40
4.5
  9
$TRACEWID
 40
0.05
  9
$TEXTSTYLE
  7
STANDARD
  9
$CLAYER
  8
L-ZISSEN
  9
$CELTYPE
  6
BYLAYER
  9
$CECOLOR
 62
   256
  9
$DIMSCALE
 40
1.0
  9
$DIMASZ
 40
2.0
  9
$DIMEXO
 40
2.0
  9
$DIMDLI
 40
0.38
  9
$DIMRND
 40
0.0
  9
$DIMDLE
 40
1.0
  9
$DIMEXE
 40
2.0
  9
$DIMTP
 40
0.0
  9
$DIMTM
 40
0.0
  9
$DIMTXT
 40
4.5
  9
$DIMCEN
 40
0.09
  9
$DIMTSZ
 40
0.0
  9
$DIMTOL
 70
     0
  9
$DIMLIM
 70
     0
  9
$DIMTIH
 70
     0
  9
$DIMTOH
 70
     0
  9
$DIMSE1
 70
     0
  9
$DIMSE2
 70
     0
  9
$DIMTAD
 70
     1
  9
$DIMZIN
 70
     0
  9
$DIMBLK
  1

  9
$DIMASO
 70
     0
  9
$DIMSHO
 70
     0
  9
$DIMPOST
  1

  9
$DIMAPOST
  1

  9
$DIMALT
 70
     0
  9
$DIMALTD
 70
     2
  9
$DIMALTF
 40
25.4
  9
$DIMLFAC
 40
1.0
  9
$DIMTOFL
 70
     1
  9
$DIMTVP
 40
0.0
  9
$DIMTIX
 70
     1
  9
$DIMSOXD
 70
     0
  9
$DIMSAH
 70
     0
  9
$DIMBLK1
  1

  9
$DIMBLK2
  1

  9
$LUNITS
 70
     2
  9
$LUPREC
 70
     4
  9
$AXISMODE
 70
     0
  9
$AXISUNIT
 10
0.0
 20
0.0
  9
$SKETCHINC
 40
0.1
  9
$FILLETRAD
 40
0.0
  9
$AUNITS
 70
     0
  9
$AUPREC
 70
     0
  9
$MENU
  1
acad
  9
$ELEVATION
 40
0.0
  9
$THICKNESS
 40
0.0
  9
$LIMCHECK
 70
     0
  9
$BLIPMODE
 70
     1
  9
$CHAMFERA
 40
0.0
  9
$CHAMFERB
 40
0.0
  9
$SKPOLY
 70
     0
  9
$TDCREATE
 40
2449002.7918781252
  9
$TDUPDATE
 40
2449002.7918781252
  9
$TDINDWG
 40
0.0000000000
  9
$TDUSRTIMER
 40
0.0000000000
  9
$USRTIMER
 70
     1
  9
$ANGBASE
 50
0.0
  9
$ANGDIR
 70
     0
  9
$PDMODE
 70
     0
  9
$PDSIZE
 40
0.0
  9
$PLINEWID
 40
0.0
  9
$COORDS
 70
     2
  9
$SPLFRAME
 70
     0
  9
$SPLINETYPE
 70
     6
  9
$SPLINESEGS
 70
     8
  9
$ATTDIA
 70
     0
  9
$ATTREQ
 70
     1
  9
$HANDLING
 70
     0
  9
$HANDSEED
  5
0
  9
$SURFTAB1
 70
     6
  9
$SURFTAB2
 70
     6
  9
$SURFTYPE
 70
     6
  9
$SURFU
 70
     6
  9
$SURFV
 70
     6
  9
$FLATLAND
 70
     0
  9
$UCSNAME
  2

  9
$UCSORG
 10
0.0
 20
0.0
 30
0.0
  9
$UCSXDIR
 10
1.0
 20
0.0
 30
0.0
  9
$UCSYDIR
 10
0.0
 20
1.0
 30
0.0
  9
$USERI1
 70
     0
  9
$USERI2
 70
     0
  9
$USERI3
 70
     0
  9
$USERI4
 70
     0
  9
$USERI5
 70
     0
  9
$USERR1
 40
0.0
  9
$USERR2
 40
0.0
  9
$USERR3
 40
0.0
  9
$USERR4
 40
0.0
  9
$USERR5
 40
0.0
  9
$WORLDVIEW
 70
     1
  0
ENDSEC
  0
SECTION
  2
TABLES
  0
TABLE
  2
VPORT
 70
     2
  0
VPORT
  2
*ACTIVE
 70
     0
 10
0.0
 20
0.0
 11
1.0
 21
1.0
 12
476.455978
 22
307.649038
 13
0.0
 23
0.0
 14
5.0
 24
5.0
 15
0.0
 25
0.0
 16
0.0
 26
0.0
 36
1.0
 17
0.0
 27
0.0
 37
0.0
 40
615.298075
 41
1.5487
 42
50.0
 43
0.0
 44
0.0
 50
0.0
 51
0.0
 71
     0
 72
   100
 73
     1
 74
     0
 75
     0
 76
     0
 77
     0
 78
     0
  0
ENDTAB
  0
TABLE
  2
LTYPE
 70
     2
  0
LTYPE
  2
CONTINUOUS
 70
    64
  3
Solid line
 72
    65
 73
     0
 40
0.0
  0
LTYPE
  2
CENTER
 70
    64
  3
____ _ ____ _ ____ _ ____ _ 
 72
    65
 73
     4
 40
60.0
 49
45.0
 49
-5.0
 49
5.0
 49
-5.0
  0
ENDTAB
  0
TABLE
  2
LAYER
 70
     3
  0
LAYER
  2
0
 70
     0
 62
     7
  6
CONTINUOUS
  0
LAYER
  2
L-ZISSEN
 70
    64
 62
     7
  6
CONTINUOUS
  0
LAYER
  2
L-TYUSIN
 70
    64
 62
     1
  6
CENTER
  0
ENDTAB
  0
TABLE
  2
STYLE
 70
     1
  0
STYLE
  2
STANDARD
 70
    64
 40
0.0
 41
1.0
 50
0.0
 71
     0
 42
4.5
  3
TXT
  4

  0
ENDTAB
  0
TABLE
  2
VIEW
 70
     0
  0
ENDTAB
  0
TABLE
  2
UCS
 70
     0
  0
ENDTAB
  0
TABLE
  2
DWGMGR
 70
     0
  0
ENDTAB
  0
ENDSEC
  0
SECTION
  2
BLOCKS
  0
ENDSEC
  0
SECTION
  2
ENTITIES
  0
LINE
  8
L-TYUSIN
  6
CENTER
 62
     1
 10
135.000026
 20
350.0
 30
0.0
 11
320.499986
 21
350.0
 31
0.0
  0
LINE
  8
L-TYUSIN
  6
CENTER
 62
     1
 10
220.0
 20
397.0
 30
0.0
 11
220.0
 21
303.0
 31
0.0
  0
LINE
  8
L-ZISSEN
  6
CONTINUOUS
 62
     7
 10
267.499986
 20
382.49999
 30
0.0
 11
267.499986
 21
317.50001
 31
0.0
  0
LINE
  8
L-ZISSEN
  6
CONTINUOUS
 62
     7
 10
172.500014
 20
317.50001
 30
0.0
 11
172.500014
 21
382.49999
 31
0.0
  0
LINE
  8
L-ZISSEN
  6
CONTINUOUS
 62
     7
 10
162.500017
 20
371.999993
 30
0.0
 11
236.999995
 21
371.999993
 31
0.0
  0
LINE
  8
L-ZISSEN
  6
CONTINUOUS
 62
     7
 10
162.500017
 20
328.000007
 30
0.0
 11
236.999995
 21
328.000007
 31
0.0
  0
LINE
  8
L-ZISSEN
  6
CONTINUOUS
 62
     7
 10
172.500014
 20
382.49999
 30
0.0
 11
198.017884
 21
382.49999
 31
0.0
  0
LINE
  8
L-ZISSEN
  6
CONTINUOUS
 62
     7
 10
172.500014
 20
317.50001
 30
0.0
 11
193.017886
 21
317.50001
 31
0.0
  0
LINE
  8
L-ZISSEN
  6
CONTINUOUS
 62
     7
 10
211.982125
 20
382.49999
 30
0.0
 11
228.017875
 21
382.49999
 31
0.0
  0
LINE
  8
L-ZISSEN
  6
CONTINUOUS
 62
     7
 10
206.982126
 20
317.50001
 30
0.0
 11
233.017874
 21
317.50001
 31
0.0
  0
LINE
  8
L-ZISSEN
  6
CONTINUOUS
 62
     7
 10
246.982114
 20
317.50001
 30
0.0
 11
267.499986
 21
317.50001
 31
0.0
  0
LINE
  8
L-ZISSEN
  6
CONTINUOUS
 62
     7
 10
254.141411
 20
371.999993
 30
0.0
 11
277.499986
 21
371.999993
 31
0.0
  0
LINE
  8
L-ZISSEN
  6
CONTINUOUS
 62
     7
 10
236.999995
 20
328.000007
 30
0.0
 11
236.999995
 21
322.000008
 31
0.0
  0
LINE
  8
L-ZISSEN
  6
CONTINUOUS
 62
     7
 10
236.999995
 20
322.000008
 30
0.0
 11
256.999989
 21
322.000008
 31
0.0
  0
LINE
  8
L-ZISSEN
  6
CONTINUOUS
 62
     7
 10
256.999989
 20
328.000007
 30
0.0
 11
256.999989
 21
322.000008
 31
0.0
  0
LINE
  8
L-ZISSEN
  6
CONTINUOUS
 62
     7
 10
254.141411
 20
328.000007
 30
0.0
 11
277.499986
 21
328.000007
 31
0.0
  0
LINE
  8
L-ZISSEN
  6
CONTINUOUS
 62
     7
 10
162.500017
 20
371.999993
 30
0.0
 11
162.500017
 21
328.000007
 31
0.0
  0
LINE
  8
L-ZISSEN
  6
CONTINUOUS
 62
     7
 10
156.200019
 20
337.250004
 30
0.0
 11
156.200019
 21
328.750006
 31
0.0
  0
LINE
  8
L-ZISSEN
  6
CONTINUOUS
 62
     7
 10
162.500017
 20
337.250004
 30
0.0
 11
156.200019
 21
337.250004
 31
0.0
  0
LINE
  8
L-ZISSEN
  6
CONTINUOUS
 62
     7
 10
162.500017
 20
328.750006
 30
0.0
 11
156.200019
 21
328.750006
 31
0.0
  0
LINE
  8
L-TYUSIN
  6
CENTER
 62
     1
 10
135.000026
 20
240.0
 30
0.0
 11
320.499986
 21
240.0
 31
0.0
  0
LINE
  8
L-ZISSEN
  6
CONTINUOUS
 62
     7
 10
140.000024
 20
256.5
 30
0.0
 11
140.000024
 21
223.5
 31
0.0
  0
LINE
  8
L-ZISSEN
  6
CONTINUOUS
 62
     7
 10
172.500014
 20
267.999992
 30
0.0
 11
172.500014
 21
217.000007
 31
0.0
  0
LINE
  8
L-ZISSEN
  6
CONTINUOUS
 62
     7
 10
267.499986
 20
267.999992
 30
0.0
 11
267.499986
 21
217.000007
 31
0.0
  0
LINE
  8
L-ZISSEN
  6
CONTINUOUS
 62
     7
 10
162.500017
 20
252.749996
 30
0.0
 11
156.200019
 21
252.749996
 31
0.0
  0
LINE
  8
L-ZISSEN
  6
CONTINUOUS
 62
     7
 10
162.500017
 20
261.249994
 30
0.0
 11
156.200019
 21
261.249994
 31
0.0
  0
LINE
  8
L-ZISSEN
  6
CONTINUOUS
 62
     7
 10
156.200019
 20
261.249994
 30
0.0
 11
156.200019
 21
252.749996
 31
0.0
  0
LINE
  8
L-ZISSEN
  6
CONTINUOUS
 62
     7
 10
156.200019
 20
227.250004
 30
0.0
 11
156.200019
 21
218.750006
 31
0.0
  0
LINE
  8
L-ZISSEN
  6
CONTINUOUS
 62
     7
 10
162.500017
 20
227.250004
 30
0.0
 11
156.200019
 21
227.250004
 31
0.0
  0
LINE
  8
L-ZISSEN
  6
CONTINUOUS
 62
     7
 10
162.500017
 20
218.750006
 30
0.0
 11
156.200019
 21
218.750006
 31
0.0
  0
LINE
  8
L-ZISSEN
  6
CONTINUOUS
 62
     7
 10
162.500017
 20
218.000007
 30
0.0
 11
277.499986
 21
218.000007
 31
0.0
  0
LINE
  8
L-ZISSEN
  6
CONTINUOUS
 62
     7
 10
162.500017
 20
267.999992
 30
0.0
 11
277.499986
 21
267.999992
 31
0.0
  0
LINE
  8
L-ZISSEN
  6
CONTINUOUS
 62
     7
 10
162.500017
 20
218.000007
 30
0.0
 11
162.500017
 21
267.999992
 31
0.0
  0
LINE
  8
L-ZISSEN
  6
CONTINUOUS
 62
     7
 10
267.499986
 20
227.000004
 30
0.0
 11
172.500014
 21
227.000004
 31
0.0
  0
CIRCLE
  8
L-ZISSEN
  6
CONTINUOUS
 62
     7
 10
246.999992
 20
254.999995
 30
0.0
 40
9.999997
  0
LINE
  8
L-ZISSEN
  6
CONTINUOUS
 62
     7
 10
195.000008
 20
234.500002
 30
0.0
 11
205.000005
 21
234.500002
 31
0.0
  0
LINE
  8
L-ZISSEN
  6
CONTINUOUS
 62
     7
 10
195.000008
 20
234.500002
 30
0.0
 11
195.000008
 21
227.000004
 31
0.0
  0
LINE
  8
L-ZISSEN
  6
CONTINUOUS
 62
     7
 10
205.000005
 20
234.500002
 30
0.0
 11
205.000005
 21
227.000004
 31
0.0
  0
LINE
  8
L-ZISSEN
  6
CONTINUOUS
 62
     7
 10
244.999993
 20
234.500002
 30
0.0
 11
244.999993
 21
227.000004
 31
0.0
  0
LINE
  8
L-ZISSEN
  6
CONTINUOUS
 62
     7
 10
234.999996
 20
234.500002
 30
0.0
 11
234.999996
 21
227.000004
 31
0.0
  0
LINE
  8
L-ZISSEN
  6
CONTINUOUS
 62
     7
 10
234.999996
 20
234.500002
 30
0.0
 11
244.999993
 21
234.500002
 31
0.0
  0
CIRCLE
  8
L-ZISSEN
  6
CONTINUOUS
 62
     7
 10
200.000006
 20
318.00001
 30
0.0
 40
4.999999
  0
LINE
  8
L-TYUSIN
  6
CENTER
 62
     1
 10
220.0
 20
272.999992
 30
0.0
 11
220.0
 21
172.000007
 31
0.0
  0
LINE
  8
L-ZISSEN
  6
CONTINUOUS
 62
     7
 10
162.500017
 20
371.249994
 30
0.0
 11
156.200019
 21
371.249994
 31
0.0
  0
LINE
  8
L-ZISSEN
  6
CONTINUOUS
 62
     7
 10
162.500017
 20
362.749996
 30
0.0
 11
156.200019
 21
362.749996
 31
0.0
  0
LINE
  8
L-ZISSEN
  6
CONTINUOUS
 62
     7
 10
156.200019
 20
362.749996
 30
0.0
 11
156.200019
 21
371.249994
 31
0.0
  0
ARC
  8
L-ZISSEN
  6
CONTINUOUS
 62
     7
 10
239.999994
 20
318.00001
 30
0.0
 40
4.999999
 50
126.869898
 51
53.130102
  0
ARC
  8
L-ZISSEN
 10
234.999996
 20
381.99999
 30
0.0
 40
5.0
 50
306.869921
 51
293.578171
  0
CIRCLE
  8
L-ZISSEN
 10
205.000005
 20
381.99999
 30
0.0
 40
5.0
  0
ARC
  8
L-ZISSEN
 10
200.000006
 20
318.00001
 30
0.0
 40
7.0
 50
184.096043
 51
355.903957
  0
ARC
  8
L-ZISSEN
 10
239.999994
 20
318.00001
 30
0.0
 40
7.0
 50
184.096043
 51
355.903957
  0
ARC
  8
L-ZISSEN
 10
205.000005
 20
381.99999
 30
0.0
 40
7.0
 50
4.096043
 51
175.903957
  0
ARC
  8
L-ZISSEN
 10
234.999996
 20
381.99999
 30
0.0
 40
7.0
 50
4.096043
 51
175.903957
  0
LINE
  8
L-ZISSEN
  6
CONTINUOUS
 62
     7
 10
241.982116
 20
382.49999
 30
0.0
 11
267.499986
 21
382.49999
 31
0.0
  0
LINE
  8
L-ZISSEN
  6
CONTINUOUS
 62
     7
 10
236.999995
 20
377.999992
 30
0.0
 11
256.999989
 21
377.999992
 31
0.0
  0
LINE
  8
L-ZISSEN
  6
CONTINUOUS
 62
     7
 10
236.999995
 20
371.999993
 30
0.0
 11
236.999995
 21
377.999992
 31
0.0
  0
LINE
  8
L-ZISSEN
  6
CONTINUOUS
 62
     7
 10
256.999989
 20
371.999993
 30
0.0
 11
256.999989
 21
377.999992
 31
0.0
  0
LINE
  8
L-ZISSEN
 10
193.017886
 20
227.000004
 30
0.0
 11
193.017886
 21
218.000007
 31
0.0
  0
LINE
  8
L-ZISSEN
 10
206.982126
 20
227.000004
 30
0.0
 11
206.982126
 21
218.000007
 31
0.0
  0
LINE
  8
L-ZISSEN
 10
246.982114
 20
227.000004
 30
0.0
 11
246.982114
 21
218.000007
 31
0.0
  0
LINE
  8
L-ZISSEN
 10
233.017874
 20
227.000004
 30
0.0
 11
233.017874
 21
218.000007
 31
0.0
  0
LINE
  8
L-ZISSEN
 10
186.500014
 20
263.322848
 30
0.0
 11
241.456521
 21
263.322848
 31
0.0
  0
LINE
  8
L-ZISSEN
 10
172.500014
 20
355.852354
 30
0.0
 11
267.499986
 21
355.852354
 31
0.0
  0
LINE
  8
L-ZISSEN
 10
172.500014
 20
344.147646
 30
0.0
 11
267.499986
 21
344.147646
 31
0.0
  0
LINE
  8
L-ZISSEN
  6
CONTINUOUS
 62
     7
 10
186.500014
 20
328.000007
 30
0.0
 11
186.500014
 21
344.147646
 31
0.0
  0
LINE
  8
L-ZISSEN
  6
CONTINUOUS
 62
     7
 10
186.500014
 20
355.852354
 30
0.0
 11
186.500014
 21
371.999993
 31
0.0
  0
LINE
  8
L-ZISSEN
 10
277.499986
 20
262.0
 30
0.0
 11
254.141411
 21
262.0
 31
0.0
  0
LINE
  8
L-ZISSEN
  6
CONTINUOUS
 62
     7
 10
186.500014
 20
263.322848
 30
0.0
 11
186.500014
 21
254.0
 31
0.0
  0
LINE
  8
L-ZISSEN
 10
186.500014
 20
262.0
 30
0.0
 11
162.500017
 21
262.0
 31
0.0
  0
LINE
  8
L-ZISSEN
 10
186.500014
 20
254.0
 30
0.0
 11
237.05012
 21
254.0
 31
0.0
  0
LINE
  8
L-ZISSEN
 10
140.000024
 20
223.5
 30
0.0
 11
156.200019
 21
223.5
 31
0.0
  0
LINE
  8
L-ZISSEN
 10
140.000024
 20
256.5
 30
0.0
 11
156.200019
 21
256.5
 31
0.0
  0
LINE
  8
L-TYUSIN
  6
CENTER
 62
     1
 10
70.0
 20
273.0
 30
0.0
 11
70.0
 21
172.000007
 31
0.0
  0
LINE
  8
L-TYUSIN
  6
CENTER
 62
     1
 10
43.0
 20
240.0
 30
0.0
 11
97.0
 21
240.0
 31
0.0
  0
CIRCLE
  8
L-ZISSEN
 10
70.0
 20
240.0
 30
0.0
 40
16.5
  0
LINE
  8
L-ZISSEN
 10
48.0
 20
262.0
 30
0.0
 11
48.0
 21
218.0
 31
0.0
  0
LINE
  8
L-ZISSEN
 10
30.5
 20
218.0
 30
0.0
 11
109.5
 21
218.0
 31
0.0
  0
LINE
  8
L-ZISSEN
 10
92.0
 20
218.0
 30
0.0
 11
92.0
 21
262.0
 31
0.0
  0
LINE
  8
L-ZISSEN
 10
92.0
 20
262.0
 30
0.0
 11
76.0
 21
262.0
 31
0.0
  0
ARC
  8
L-ZISSEN
 10
70.0
 20
262.0
 30
0.0
 40
6.0
 50
0.0
 51
180.0
  0
CIRCLE
  8
L-ZISSEN
 10
87.0
 20
257.0
 30
0.0
 40
4.25
  0
CIRCLE
  8
L-ZISSEN
 10
87.0
 20
223.0
 30
0.0
 40
4.25
  0
CIRCLE
  8
L-ZISSEN
 10
53.0
 20
223.0
 30
0.0
 40
4.25
  0
CIRCLE
  8
L-ZISSEN
 10
53.0
 20
257.0
 30
0.0
 40
4.25
  0
LINE
  8
L-ZISSEN
 10
162.500017
 20
356.0
 30
0.0
 11
172.500014
 21
356.0
 31
0.0
  0
LINE
  8
L-ZISSEN
 10
162.500017
 20
344.0
 30
0.0
 11
172.500014
 21
344.0
 31
0.0
  0
LINE
  8
L-ZISSEN
  6
CONTINUOUS
 62
     7
 10
140.000024
 20
366.5
 30
0.0
 11
140.000024
 21
333.5
 31
0.0
  0
LINE
  8
L-ZISSEN
 10
140.000024
 20
333.5
 30
0.0
 11
156.200019
 21
333.5
 31
0.0
  0
LINE
  8
L-ZISSEN
 10
140.000024
 20
366.5
 30
0.0
 11
156.200019
 21
366.5
 31
0.0
  0
LINE
  8
L-ZISSEN
 10
30.5
 20
227.0
 30
0.0
 11
48.0
 21
227.0
 31
0.0
  0
LINE
  8
L-ZISSEN
 10
92.0
 20
227.0
 30
0.0
 11
109.5
 21
227.0
 31
0.0
  0
LINE
  8
L-ZISSEN
 10
98.0
 20
264.999992
 30
0.0
 11
75.196157
 21
264.999992
 31
0.0
  0
LINE
  8
L-ZISSEN
 10
98.0
 20
244.999992
 30
0.0
 11
92.0
 21
244.999992
 31
0.0
  0
LINE
  8
L-ZISSEN
 10
98.0
 20
264.999992
 30
0.0
 11
98.0
 21
244.999992
 31
0.0
  0
LINE
  8
L-ZISSEN
 10
42.0
 20
264.999992
 30
0.0
 11
42.0
 21
244.999992
 31
0.0
  0
LINE
  8
L-ZISSEN
 10
48.0
 20
244.999992
 30
0.0
 11
42.0
 21
244.999992
 31
0.0
  0
LINE
  8
L-ZISSEN
 10
64.803843
 20
264.999992
 30
0.0
 11
42.0
 21
264.999992
 31
0.0
  0
LINE
  8
L-ZISSEN
 10
374.803843
 20
264.999992
 30
0.0
 11
352.0
 21
264.999992
 31
0.0
  0
LINE
  8
L-ZISSEN
 10
358.0
 20
244.999992
 30
0.0
 11
352.0
 21
244.999992
 31
0.0
  0
LINE
  8
L-ZISSEN
 10
352.0
 20
264.999992
 30
0.0
 11
352.0
 21
244.999992
 31
0.0
  0
LINE
  8
L-ZISSEN
 10
408.0
 20
264.999992
 30
0.0
 11
408.0
 21
244.999992
 31
0.0
  0
LINE
  8
L-ZISSEN
 10
408.0
 20
244.999992
 30
0.0
 11
402.0
 21
244.999992
 31
0.0
  0
LINE
  8
L-ZISSEN
 10
408.0
 20
264.999992
 30
0.0
 11
385.196157
 21
264.999992
 31
0.0
  0
LINE
  8
L-ZISSEN
 10
402.0
 20
227.0
 30
0.0
 11
419.5
 21
227.0
 31
0.0
  0
LINE
  8
L-ZISSEN
 10
340.5
 20
227.0
 30
0.0
 11
358.0
 21
227.0
 31
0.0
  0
CIRCLE
  8
L-ZISSEN
 10
363.0
 20
257.0
 30
0.0
 40
4.25
  0
CIRCLE
  8
L-ZISSEN
 10
363.0
 20
223.0
 30
0.0
 40
4.25
  0
CIRCLE
  8
L-ZISSEN
 10
397.0
 20
223.0
 30
0.0
 40
4.25
  0
CIRCLE
  8
L-ZISSEN
 10
397.0
 20
257.0
 30
0.0
 40
4.25
  0
LINE
  8
L-ZISSEN
 10
402.0
 20
218.0
 30
0.0
 11
402.0
 21
262.0
 31
0.0
  0
LINE
  8
L-ZISSEN
 10
340.5
 20
218.0
 30
0.0
 11
419.5
 21
218.0
 31
0.0
  0
LINE
  8
L-ZISSEN
 10
358.0
 20
262.0
 30
0.0
 11
358.0
 21
218.0
 31
0.0
  0
LINE
  8
L-TYUSIN
  6
CENTER
 62
     1
 10
353.0
 20
240.0
 30
0.0
 11
407.0
 21
240.0
 31
0.0
  0
LINE
  8
L-TYUSIN
  6
CENTER
 62
     1
 10
380.0
 20
273.0
 30
0.0
 11
380.0
 21
172.000007
 31
0.0
  0
LINE
  8
L-ZISSEN
  6
CONTINUOUS
 62
     7
 10
277.499986
 20
267.999992
 30
0.0
 11
277.499986
 21
218.000007
 31
0.0
  0
LINE
  8
L-TYUSIN
  6
CENTER
 62
     1
 10
135.000026
 20
80.0
 30
0.0
 11
320.499986
 21
80.0
 31
0.0
  0
LINE
  8
L-TYUSIN
  6
CENTER
 62
     1
 10
220.0
 20
127.0
 30
0.0
 11
220.0
 21
33.0
 31
0.0
  0
LINE
  8
L-ZISSEN
  6
CONTINUOUS
 62
     7
 10
277.499986
 20
97.009611
 30
0.0
 11
277.499986
 21
62.990389
 31
0.0
  0
LINE
  8
L-ZISSEN
  6
CONTINUOUS
 62
     7
 10
277.499986
 20
218.750006
 30
0.0
 11
283.799984
 21
218.750006
 31
0.0
  0
LINE
  8
L-ZISSEN
  6
CONTINUOUS
 62
     7
 10
277.499986
 20
227.250004
 30
0.0
 11
283.799984
 21
227.250004
 31
0.0
  0
LINE
  8
L-ZISSEN
  6
CONTINUOUS
 62
     7
 10
283.799984
 20
227.250004
 30
0.0
 11
283.799984
 21
218.750006
 31
0.0
  0
LINE
  8
L-ZISSEN
  6
CONTINUOUS
 62
     7
 10
277.499986
 20
252.749996
 30
0.0
 11
283.799984
 21
252.749996
 31
0.0
  0
LINE
  8
L-ZISSEN
  6
CONTINUOUS
 62
     7
 10
277.499986
 20
261.249994
 30
0.0
 11
283.799984
 21
261.249994
 31
0.0
  0
LINE
  8
L-ZISSEN
  6
CONTINUOUS
 62
     7
 10
283.799984
 20
261.249994
 30
0.0
 11
283.799984
 21
252.749996
 31
0.0
  0
LINE
  8
L-ZISSEN
 10
402.0
 20
262.0
 30
0.0
 11
386.0
 21
262.0
 31
0.0
  0
LINE
  8
L-ZISSEN
 10
254.141411
 20
328.000007
 30
0.0
 11
254.141411
 21
344.147646
 31
0.0
  0
LINE
  8
L-ZISSEN
 10
64.0
 20
262.0
 30
0.0
 11
48.0
 21
262.0
 31
0.0
  0
LINE
  8
L-ZISSEN
 10
254.141411
 20
371.999993
 30
0.0
 11
254.141411
 21
355.852354
 31
0.0
  0
LINE
  8
L-ZISSEN
 10
277.499986
 20
356.0
 30
0.0
 11
267.499986
 21
356.0
 31
0.0
  0
LINE
  8
L-ZISSEN
 10
277.499986
 20
344.0
 30
0.0
 11
267.499986
 21
344.0
 31
0.0
  0
LINE
  8
L-ZISSEN
  6
CONTINUOUS
 62
     7
 10
170.0
 20
217.000007
 30
0.0
 11
270.0
 21
217.000007
 31
0.0
  0
LINE
  8
L-ZISSEN
 10
338.0
 20
217.0
 30
0.0
 11
422.0
 21
217.0
 31
0.0
  0
LINE
  8
L-ZISSEN
  6
CONTINUOUS
 62
     7
 10
343.000002
 20
234.500002
 30
0.0
 11
352.999999
 21
234.500002
 31
0.0
  0
LINE
  8
L-ZISSEN
  6
CONTINUOUS
 62
     7
 10
343.000002
 20
234.500002
 30
0.0
 11
343.000002
 21
227.000004
 31
0.0
  0
LINE
  8
L-ZISSEN
  6
CONTINUOUS
 62
     7
 10
352.999999
 20
234.500002
 30
0.0
 11
352.999999
 21
227.000004
 31
0.0
  0
LINE
  8
L-ZISSEN
 10
340.5
 20
217.0
 30
0.0
 11
340.5
 21
227.0
 31
0.0
  0
LINE
  8
L-ZISSEN
 10
419.5
 20
217.0
 30
0.0
 11
419.5
 21
227.0
 31
0.0
  0
LINE
  8
L-ZISSEN
  6
CONTINUOUS
 62
     7
 10
407.000002
 20
234.500002
 30
0.0
 11
407.000002
 21
227.000004
 31
0.0
  0
LINE
  8
L-ZISSEN
  6
CONTINUOUS
 62
     7
 10
416.999999
 20
234.500002
 30
0.0
 11
416.999999
 21
227.000004
 31
0.0
  0
LINE
  8
L-ZISSEN
  6
CONTINUOUS
 62
     7
 10
416.999999
 20
234.500002
 30
0.0
 11
407.000002
 21
234.500002
 31
0.0
  0
LINE
  8
L-ZISSEN
  6
CONTINUOUS
 62
     7
 10
42.999999
 20
234.500002
 30
0.0
 11
42.999999
 21
227.000004
 31
0.0
  0
LINE
  8
L-ZISSEN
  6
CONTINUOUS
 62
     7
 10
33.000002
 20
234.500002
 30
0.0
 11
33.000002
 21
227.000004
 31
0.0
  0
LINE
  8
L-ZISSEN
  6
CONTINUOUS
 62
     7
 10
33.000002
 20
234.500002
 30
0.0
 11
42.999999
 21
234.500002
 31
0.0
  0
LINE
  8
L-ZISSEN
 10
30.5
 20
217.0
 30
0.0
 11
30.5
 21
227.0
 31
0.0
  0
LINE
  8
L-ZISSEN
  6
CONTINUOUS
 62
     7
 10
97.000001
 20
234.500002
 30
0.0
 11
97.000002
 21
227.000004
 31
0.0
  0
LINE
  8
L-ZISSEN
  6
CONTINUOUS
 62
     7
 10
106.999999
 20
234.500002
 30
0.0
 11
97.000001
 21
234.500002
 31
0.0
  0
LINE
  8
L-ZISSEN
  6
CONTINUOUS
 62
     7
 10
106.999999
 20
234.500002
 30
0.0
 11
106.999999
 21
227.000004
 31
0.0
  0
LINE
  8
L-ZISSEN
 10
109.5
 20
217.0
 30
0.0
 11
109.5
 21
227.0
 31
0.0
  0
LINE
  8
L-ZISSEN
 10
28.0
 20
217.0
 30
0.0
 11
112.0
 21
217.0
 31
0.0
  0
LINE
  8
L-ZISSEN
  6
CONTINUOUS
 62
     7
 10
150.0
 20
177.000007
 30
0.0
 11
290.0
 21
177.000007
 31
0.0
  0
LINE
  8
L-TYUSIN
 10
280.0
 20
172.000007
 30
0.0
 11
280.0
 21
192.000007
 31
0.0
  0
LINE
  8
L-TYUSIN
 10
160.0
 20
172.000007
 30
0.0
 11
160.0
 21
192.000007
 31
0.0
  0
LINE
  8
L-ZISSEN
 10
290.0
 20
177.000007
 30
0.0
 11
290.0
 21
187.000007
 31
0.0
  0
LINE
  8
L-ZISSEN
 10
290.0
 20
187.000007
 30
0.0
 11
270.0
 21
187.000007
 31
0.0
  0
LINE
  8
L-ZISSEN
 10
150.0
 20
187.000007
 30
0.0
 11
150.0
 21
177.000007
 31
0.0
  0
LINE
  8
L-ZISSEN
 10
170.0
 20
187.000007
 30
0.0
 11
170.0
 21
217.000007
 31
0.0
  0
LINE
  8
L-ZISSEN
 10
270.0
 20
187.000007
 30
0.0
 11
270.0
 21
217.000007
 31
0.0
  0
LINE
  8
L-ZISSEN
 10
170.0
 20
187.000007
 30
0.0
 11
150.0
 21
187.000007
 31
0.0
  0
LINE
  8
L-ZISSEN
 10
170.0
 20
308.0
 30
0.0
 11
170.0
 21
328.000007
 31
0.0
  0
LINE
  8
L-ZISSEN
 10
270.0
 20
392.0
 30
0.0
 11
270.0
 21
371.999993
 31
0.0
  0
LINE
  8
L-ZISSEN
 10
170.0
 20
392.0
 30
0.0
 11
270.0
 21
392.0
 31
0.0
  0
LINE
  8
L-ZISSEN
 10
170.0
 20
308.0
 30
0.0
 11
270.0
 21
308.0
 31
0.0
  0
LINE
  8
L-ZISSEN
 10
270.0
 20
328.000007
 30
0.0
 11
270.0
 21
308.0
 31
0.0
  0
LINE
  8
L-ZISSEN
 10
170.0
 20
371.999993
 30
0.0
 11
170.0
 21
392.0
 31
0.0
  0
ARC
  8
L-ZISSEN
 10
160.0
 20
380.0
 30
0.0
 40
10.0
 50
90.0
 51
240.0
  0
LINE
  8
L-ZISSEN
 10
160.0
 20
390.0
 30
0.0
 11
170.0
 21
392.0
 31
0.0
  0
LINE
  8
L-ZISSEN
 10
155.0
 20
371.339746
 30
0.0
 11
156.200019
 21
370.646915
 31
0.0
  0
CIRCLE
  8
L-ZISSEN
 10
160.0
 20
380.0
 30
0.0
 40
4.5
  0
CIRCLE
  8
L-ZISSEN
 10
160.0
 20
320.0
 30
0.0
 40
4.5
  0
ARC
  8
L-ZISSEN
 10
160.0
 20
320.0
 30
0.0
 40
10.0
 50
120.0
 51
270.0
  0
LINE
  8
L-ZISSEN
 10
160.0
 20
310.0
 30
0.0
 11
170.0
 21
308.0
 31
0.0
  0
LINE
  8
L-ZISSEN
 10
155.0
 20
328.660254
 30
0.0
 11
156.200019
 21
329.353085
 31
0.0
  0
CIRCLE
  8
L-ZISSEN
 10
280.0
 20
320.0
 30
0.0
 40
4.5
  0
LINE
  8
L-ZISSEN
 10
280.0
 20
310.0
 30
0.0
 11
270.0
 21
308.0
 31
0.0
  0
CIRCLE
  8
L-ZISSEN
 10
280.0
 20
380.0
 30
0.0
 40
4.5
  0
LINE
  8
L-ZISSEN
 10
280.0
 20
390.0
 30
0.0
 11
270.0
 21
392.0
 31
0.0
  0
ARC
  8
L-ZISSEN
 10
160.0
 20
50.0
 30
0.0
 40
10.0
 50
120.0
 51
270.0
  0
CIRCLE
  8
L-ZISSEN
 10
160.0
 20
50.0
 30
0.0
 40
4.5
  0
LINE
  8
L-ZISSEN
 10
160.0
 20
40.0
 30
0.0
 11
170.0
 21
38.0
 31
0.0
  0
LINE
  8
L-ZISSEN
 10
170.0
 20
67.320508
 30
0.0
 11
170.0
 21
92.679492
 31
0.0
  0
LINE
  8
L-ZISSEN
 10
170.0
 20
38.0
 30
0.0
 11
270.0
 21
38.0
 31
0.0
  0
LINE
  8
L-ZISSEN
 10
270.0
 20
92.679492
 30
0.0
 11
270.0
 21
67.320508
 31
0.0
  0
LINE
  8
L-ZISSEN
 10
155.0
 20
58.660254
 30
0.0
 11
170.0
 21
67.320508
 31
0.0
  0
LINE
  8
L-ZISSEN
 10
285.0
 20
58.660254
 30
0.0
 11
270.0
 21
67.320508
 31
0.0
  0
LINE
  8
L-ZISSEN
 10
280.0
 20
40.0
 30
0.0
 11
270.0
 21
38.0
 31
0.0
  0
CIRCLE
  8
L-ZISSEN
 10
280.0
 20
50.0
 30
0.0
 40
4.5
  0
ARC
  8
L-ZISSEN
 10
280.0
 20
50.0
 30
0.0
 40
10.0
 50
270.0
 51
60.0
  0
ARC
  8
L-ZISSEN
 10
280.0
 20
110.0
 30
0.0
 40
10.0
 50
300.0
 51
90.0
  0
CIRCLE
  8
L-ZISSEN
 10
280.0
 20
110.0
 30
0.0
 40
4.5
  0
LINE
  8
L-ZISSEN
 10
280.0
 20
120.0
 30
0.0
 11
270.0
 21
122.0
 31
0.0
  0
LINE
  8
L-ZISSEN
 10
285.0
 20
101.339746
 30
0.0
 11
270.0
 21
92.679492
 31
0.0
  0
LINE
  8
L-ZISSEN
 10
155.0
 20
101.339746
 30
0.0
 11
170.0
 21
92.679492
 31
0.0
  0
LINE
  8
L-ZISSEN
 10
170.0
 20
122.0
 30
0.0
 11
270.0
 21
122.0
 31
0.0
  0
LINE
  8
L-ZISSEN
 10
160.0
 20
120.0
 30
0.0
 11
170.0
 21
122.0
 31
0.0
  0
LINE
  8
L-TYUSIN
  6
CENTER
 62
     1
 10
160.0
 20
118.0
 30
0.0
 11
160.0
 21
102.0
 31
0.0
  0
LINE
  8
L-TYUSIN
  6
CENTER
 62
     1
 10
152.0
 20
110.0
 30
0.0
 11
168.0
 21
110.0
 31
0.0
  0
CIRCLE
  8
L-ZISSEN
 10
160.0
 20
110.0
 30
0.0
 40
4.5
  0
ARC
  8
L-ZISSEN
 10
160.0
 20
110.0
 30
0.0
 40
10.0
 50
90.0
 51
240.0
  0
LINE
  8
L-ZISSEN
 10
140.000024
 20
96.5
 30
0.0
 11
156.200019
 21
96.5
 31
0.0
  0
LINE
  8
L-ZISSEN
 10
140.000024
 20
63.5
 30
0.0
 11
156.200019
 21
63.5
 31
0.0
  0
LINE
  8
L-ZISSEN
  6
CONTINUOUS
 62
     7
 10
162.500017
 20
67.250004
 30
0.0
 11
156.200019
 21
67.250004
 31
0.0
  0
LINE
  8
L-ZISSEN
  6
CONTINUOUS
 62
     7
 10
156.200019
 20
67.250004
 30
0.0
 11
156.200019
 21
59.353085
 31
0.0
  0
LINE
  8
L-ZISSEN
  6
CONTINUOUS
 62
     7
 10
156.200019
 20
100.646915
 30
0.0
 11
156.200019
 21
92.749996
 31
0.0
  0
LINE
  8
L-ZISSEN
  6
CONTINUOUS
 62
     7
 10
162.500017
 20
92.749996
 30
0.0
 11
156.200019
 21
92.749996
 31
0.0
  0
LINE
  8
L-ZISSEN
  6
CONTINUOUS
 62
     7
 10
140.000024
 20
96.5
 30
0.0
 11
140.000024
 21
63.5
 31
0.0
  0
LINE
  8
L-ZISSEN
  6
CONTINUOUS
 62
     7
 10
162.500017
 20
62.990391
 30
0.0
 11
162.500017
 21
97.009609
 31
0.0
  0
LINE
  8
L-TYUSIN
  6
CENTER
 62
     1
 10
152.0
 20
50.0
 30
0.0
 11
168.0
 21
50.0
 31
0.0
  0
LINE
  8
L-TYUSIN
  6
CENTER
 62
     1
 10
160.0
 20
42.0
 30
0.0
 11
160.0
 21
58.0
 31
0.0
  0
LINE
  8
L-TYUSIN
  6
CENTER
 62
     1
 10
280.0
 20
118.0
 30
0.0
 11
280.0
 21
102.0
 31
0.0
  0
LINE
  8
L-TYUSIN
  6
CENTER
 62
     1
 10
288.0
 20
110.0
 30
0.0
 11
272.0
 21
110.0
 31
0.0
  0
LINE
  8
L-TYUSIN
  6
CENTER
 62
     1
 10
280.0
 20
42.0
 30
0.0
 11
280.0
 21
58.0
 31
0.0
  0
LINE
  8
L-TYUSIN
  6
CENTER
 62
     1
 10
288.0
 20
50.0
 30
0.0
 11
272.0
 21
50.0
 31
0.0
  0
LINE
  8
L-TYUSIN
  6
CENTER
 62
     1
 10
152.0
 20
380.0
 30
0.0
 11
168.0
 21
380.0
 31
0.0
  0
LINE
  8
L-TYUSIN
  6
CENTER
 62
     1
 10
160.0
 20
388.0
 30
0.0
 11
160.0
 21
372.0
 31
0.0
  0
LINE
  8
L-TYUSIN
  6
CENTER
 62
     1
 10
288.0
 20
380.0
 30
0.0
 11
272.0
 21
380.0
 31
0.0
  0
LINE
  8
L-TYUSIN
  6
CENTER
 62
     1
 10
280.0
 20
388.0
 30
0.0
 11
280.0
 21
372.0
 31
0.0
  0
LINE
  8
L-TYUSIN
  6
CENTER
 62
     1
 10
280.0
 20
312.0
 30
0.0
 11
280.0
 21
328.0
 31
0.0
  0
LINE
  8
L-TYUSIN
  6
CENTER
 62
     1
 10
288.0
 20
320.0
 30
0.0
 11
272.0
 21
320.0
 31
0.0
  0
LINE
  8
L-TYUSIN
  6
CENTER
 62
     1
 10
152.0
 20
320.0
 30
0.0
 11
168.0
 21
320.0
 31
0.0
  0
LINE
  8
L-TYUSIN
  6
CENTER
 62
     1
 10
160.0
 20
312.0
 30
0.0
 11
160.0
 21
328.0
 31
0.0
  0
LINE
  8
L-ZISSEN
 10
170.0
 20
512.999993
 30
0.0
 11
150.0
 21
512.999993
 31
0.0
  0
LINE
  8
L-ZISSEN
 10
270.0
 20
512.999993
 30
0.0
 11
270.0
 21
482.999993
 31
0.0
  0
LINE
  8
L-ZISSEN
 10
170.0
 20
512.999993
 30
0.0
 11
170.0
 21
482.999993
 31
0.0
  0
LINE
  8
L-ZISSEN
 10
150.0
 20
512.999993
 30
0.0
 11
150.0
 21
522.999993
 31
0.0
  0
LINE
  8
L-ZISSEN
 10
290.0
 20
512.999993
 30
0.0
 11
270.0
 21
512.999993
 31
0.0
  0
LINE
  8
L-ZISSEN
 10
290.0
 20
522.999993
 30
0.0
 11
290.0
 21
512.999993
 31
0.0
  0
LINE
  8
L-TYUSIN
 10
160.0
 20
527.999993
 30
0.0
 11
160.0
 21
507.999993
 31
0.0
  0
LINE
  8
L-TYUSIN
 10
280.0
 20
527.999993
 30
0.0
 11
280.0
 21
507.999993
 31
0.0
  0
LINE
  8
L-ZISSEN
  6
CONTINUOUS
 62
     7
 10
150.0
 20
522.999993
 30
0.0
 11
290.0
 21
522.999993
 31
0.0
  0
LINE
  8
L-ZISSEN
  6
CONTINUOUS
 62
     7
 10
170.0
 20
482.999993
 30
0.0
 11
270.0
 21
482.999993
 31
0.0
  0
LINE
  8
L-ZISSEN
  6
CONTINUOUS
 62
     7
 10
283.799984
 20
438.750006
 30
0.0
 11
283.799984
 21
447.250004
 31
0.0
  0
LINE
  8
L-ZISSEN
  6
CONTINUOUS
 62
     7
 10
277.499986
 20
438.750006
 30
0.0
 11
283.799984
 21
438.750006
 31
0.0
  0
LINE
  8
L-ZISSEN
  6
CONTINUOUS
 62
     7
 10
277.499986
 20
447.250004
 30
0.0
 11
283.799984
 21
447.250004
 31
0.0
  0
LINE
  8
L-ZISSEN
  6
CONTINUOUS
 62
     7
 10
283.799984
 20
472.749996
 30
0.0
 11
283.799984
 21
481.249994
 31
0.0
  0
LINE
  8
L-ZISSEN
  6
CONTINUOUS
 62
     7
 10
277.499986
 20
472.749996
 30
0.0
 11
283.799984
 21
472.749996
 31
0.0
  0
LINE
  8
L-ZISSEN
  6
CONTINUOUS
 62
     7
 10
277.499986
 20
481.249994
 30
0.0
 11
283.799984
 21
481.249994
 31
0.0
  0
LINE
  8
L-ZISSEN
  6
CONTINUOUS
 62
     7
 10
277.499986
 20
432.000008
 30
0.0
 11
277.499986
 21
481.999993
 31
0.0
  0
LINE
  8
L-ZISSEN
 10
140.000024
 20
443.5
 30
0.0
 11
156.200019
 21
443.5
 31
0.0
  0
LINE
  8
L-ZISSEN
 10
140.000024
 20
476.5
 30
0.0
 11
156.200019
 21
476.5
 31
0.0
  0
LINE
  8
L-ZISSEN
 10
186.500014
 20
446.0
 30
0.0
 11
237.05012
 21
446.0
 31
0.0
  0
LINE
  8
L-ZISSEN
 10
186.500014
 20
438.0
 30
0.0
 11
162.500017
 21
438.0
 31
0.0
  0
LINE
  8
L-ZISSEN
  6
CONTINUOUS
 62
     7
 10
186.500014
 20
436.677152
 30
0.0
 11
186.500014
 21
446.0
 31
0.0
  0
LINE
  8
L-ZISSEN
 10
277.499986
 20
438.0
 30
0.0
 11
254.141411
 21
438.0
 31
0.0
  0
LINE
  8
L-ZISSEN
 10
186.500014
 20
436.677152
 30
0.0
 11
241.456521
 21
436.677152
 31
0.0
  0
LINE
  8
L-ZISSEN
 10
211.982125
 20
472.999996
 30
0.0
 11
211.982125
 21
481.999993
 31
0.0
  0
LINE
  8
L-ZISSEN
 10
198.017884
 20
472.999996
 30
0.0
 11
198.017884
 21
481.999993
 31
0.0
  0
LINE
  8
L-TYUSIN
  6
CENTER
 62
     1
 10
220.0
 20
427.000008
 30
0.0
 11
220.0
 21
527.999993
 31
0.0
  0
LINE
  8
L-ZISSEN
  6
CONTINUOUS
 62
     7
 10
210.000003
 20
465.499998
 30
0.0
 11
210.000003
 21
472.999996
 31
0.0
  0
LINE
  8
L-ZISSEN
  6
CONTINUOUS
 62
     7
 10
200.000006
 20
465.499998
 30
0.0
 11
200.000006
 21
472.999996
 31
0.0
  0
LINE
  8
L-ZISSEN
  6
CONTINUOUS
 62
     7
 10
200.000006
 20
465.499998
 30
0.0
 11
210.000003
 21
465.499998
 31
0.0
  0
CIRCLE
  8
L-ZISSEN
  6
CONTINUOUS
 62
     7
 10
246.999992
 20
445.000005
 30
0.0
 40
9.999997
  0
LINE
  8
L-ZISSEN
  6
CONTINUOUS
 62
     7
 10
267.499986
 20
472.999996
 30
0.0
 11
172.500014
 21
472.999996
 31
0.0
  0
LINE
  8
L-ZISSEN
  6
CONTINUOUS
 62
     7
 10
162.500017
 20
481.999993
 30
0.0
 11
162.500017
 21
432.000008
 31
0.0
  0
LINE
  8
L-ZISSEN
  6
CONTINUOUS
 62
     7
 10
162.500017
 20
432.000008
 30
0.0
 11
277.499986
 21
432.000008
 31
0.0
  0
LINE
  8
L-ZISSEN
  6
CONTINUOUS
 62
     7
 10
162.500017
 20
481.999993
 30
0.0
 11
277.499986
 21
481.999993
 31
0.0
  0
LINE
  8
L-ZISSEN
  6
CONTINUOUS
 62
     7
 10
162.500017
 20
481.249994
 30
0.0
 11
156.200019
 21
481.249994
 31
0.0
  0
LINE
  8
L-ZISSEN
  6
CONTINUOUS
 62
     7
 10
162.500017
 20
472.749996
 30
0.0
 11
156.200019
 21
472.749996
 31
0.0
  0
LINE
  8
L-ZISSEN
  6
CONTINUOUS
 62
     7
 10
156.200019
 20
472.749996
 30
0.0
 11
156.200019
 21
481.249994
 31
0.0
  0
LINE
  8
L-ZISSEN
  6
CONTINUOUS
 62
     7
 10
156.200019
 20
438.750006
 30
0.0
 11
156.200019
 21
447.250004
 31
0.0
  0
LINE
  8
L-ZISSEN
  6
CONTINUOUS
 62
     7
 10
162.500017
 20
438.750006
 30
0.0
 11
156.200019
 21
438.750006
 31
0.0
  0
LINE
  8
L-ZISSEN
  6
CONTINUOUS
 62
     7
 10
162.500017
 20
447.250004
 30
0.0
 11
156.200019
 21
447.250004
 31
0.0
  0
LINE
  8
L-ZISSEN
  6
CONTINUOUS
 62
     7
 10
267.499986
 20
432.000008
 30
0.0
 11
267.499986
 21
482.999993
 31
0.0
  0
LINE
  8
L-ZISSEN
  6
CONTINUOUS
 62
     7
 10
172.500014
 20
432.000008
 30
0.0
 11
172.500014
 21
482.999993
 31
0.0
  0
LINE
  8
L-ZISSEN
  6
CONTINUOUS
 62
     7
 10
140.000024
 20
443.5
 30
0.0
 11
140.000024
 21
476.5
 31
0.0
  0
LINE
  8
L-TYUSIN
  6
CENTER
 62
     1
 10
135.000026
 20
460.0
 30
0.0
 11
320.499986
 21
460.0
 31
0.0
  0
LINE
  8
L-ZISSEN
  6
CONTINUOUS
 62
     7
 10
239.999994
 20
465.499998
 30
0.0
 11
229.999997
 21
465.499998
 31
0.0
  0
LINE
  8
L-ZISSEN
  6
CONTINUOUS
 62
     7
 10
239.999994
 20
465.499998
 30
0.0
 11
239.999994
 21
472.999996
 31
0.0
  0
LINE
  8
L-ZISSEN
  6
CONTINUOUS
 62
     7
 10
229.999997
 20
465.499998
 30
0.0
 11
229.999997
 21
472.999996
 31
0.0
  0
LINE
  8
L-ZISSEN
 10
241.982116
 20
472.999996
 30
0.0
 11
241.982116
 21
481.999993
 31
0.0
  0
LINE
  8
L-ZISSEN
 10
228.017875
 20
472.999996
 30
0.0
 11
228.017875
 21
481.999993
 31
0.0
  0
LINE
  8
L-ZISSEN
  6
CONTINUOUS
 62
     7
 10
28.0
 20
177.000007
 30
0.0
 11
112.0
 21
177.000007
 31
0.0
  0
LINE
  8
L-ZISSEN
  6
CONTINUOUS
 62
     7
 10
28.0
 20
187.000007
 30
0.0
 11
112.0
 21
187.000007
 31
0.0
  0
LINE
  8
L-ZISSEN
 10
28.0
 20
177.000007
 30
0.0
 11
28.0
 21
217.0
 31
0.0
  0
LINE
  8
L-ZISSEN
 10
112.0
 20
177.000007
 30
0.0
 11
112.0
 21
217.0
 31
0.0
  0
LINE
  8
L-TYUSIN
 10
100.0
 20
172.000007
 30
0.0
 11
100.0
 21
192.000007
 31
0.0
  0
LINE
  8
L-TYUSIN
 10
40.0
 20
172.000007
 30
0.0
 11
40.0
 21
192.000007
 31
0.0
  0
LINE
  8
L-ZISSEN
 10
57.320508
 20
187.000007
 30
0.0
 11
57.320508
 21
177.000007
 31
0.0
  0
LINE
  8
L-ZISSEN
 10
82.679492
 20
187.000007
 30
0.0
 11
82.679492
 21
177.000007
 31
0.0
  0
LINE
  8
L-ZISSEN
 10
338.0
 20
177.000007
 30
0.0
 11
338.0
 21
217.0
 31
0.0
  0
LINE
  8
L-ZISSEN
  6
CONTINUOUS
 62
     7
 10
338.0
 20
187.000007
 30
0.0
 11
422.0
 21
187.000007
 31
0.0
  0
LINE
  8
L-ZISSEN
  6
CONTINUOUS
 62
     7
 10
338.0
 20
177.000007
 30
0.0
 11
422.0
 21
177.000007
 31
0.0
  0
LINE
  8
L-TYUSIN
 10
350.0
 20
172.000007
 30
0.0
 11
350.0
 21
192.000007
 31
0.0
  0
LINE
  8
L-ZISSEN
 10
367.320508
 20
187.000007
 30
0.0
 11
367.320508
 21
177.000007
 31
0.0
  0
LINE
  8
L-ZISSEN
 10
392.679492
 20
187.000007
 30
0.0
 11
392.679492
 21
177.000007
 31
0.0
  0
LINE
  8
L-TYUSIN
 10
410.0
 20
172.000007
 30
0.0
 11
410.0
 21
192.000007
 31
0.0
  0
LINE
  8
L-ZISSEN
 10
422.0
 20
177.000007
 30
0.0
 11
422.0
 21
217.0
 31
0.0
  0
LINE
  8
L-TYUSIN
 10
235.0
 20
202.000007
 30
0.0
 11
205.0
 21
202.000007
 31
0.0
  0
LINE
  8
L-TYUSIN
 10
270.0
 20
202.000007
 30
0.0
 11
240.0
 21
202.000007
 31
0.0
  0
LINE
  8
L-TYUSIN
  6
CENTER
 62
     1
 10
255.0
 20
217.000007
 30
0.0
 11
255.0
 21
187.000007
 31
0.0
  0
LINE
  8
L-TYUSIN
 10
170.0
 20
202.000007
 30
0.0
 11
200.0
 21
202.000007
 31
0.0
  0
LINE
  8
L-TYUSIN
  6
CENTER
 62
     1
 10
185.0
 20
217.000007
 30
0.0
 11
185.0
 21
187.000007
 31
0.0
  0
LINE
  8
L-TYUSIN
  6
CENTER
 62
     1
 10
185.0
 20
512.999993
 30
0.0
 11
185.0
 21
482.999993
 31
0.0
  0
LINE
  8
L-TYUSIN
 10
170.0
 20
497.999993
 30
0.0
 11
200.0
 21
497.999993
 31
0.0
  0
LINE
  8
L-TYUSIN
 10
270.0
 20
497.999993
 30
0.0
 11
240.0
 21
497.999993
 31
0.0
  0
LINE
  8
L-TYUSIN
  6
CENTER
 62
     1
 10
255.0
 20
512.999993
 30
0.0
 11
255.0
 21
482.999993
 31
0.0
  0
LINE
  8
L-TYUSIN
  6
CENTER
 62
     1
 10
255.0
 20
313.0
 30
0.0
 11
255.0
 21
303.0
 31
0.0
  0
LINE
  8
L-TYUSIN
  6
CENTER
 62
     1
 10
185.0
 20
313.0
 30
0.0
 11
185.0
 21
303.0
 31
0.0
  0
LINE
  8
L-TYUSIN
  6
CENTER
 62
     1
 10
255.0
 20
397.0
 30
0.0
 11
255.0
 21
387.0
 31
0.0
  0
LINE
  8
L-TYUSIN
  6
CENTER
 62
     1
 10
185.0
 20
397.0
 30
0.0
 11
185.0
 21
387.0
 31
0.0
  0
LINE
  8
L-TYUSIN
  6
CENTER
 62
     1
 10
185.0
 20
127.0
 30
0.0
 11
185.0
 21
117.0
 31
0.0
  0
LINE
  8
L-TYUSIN
  6
CENTER
 62
     1
 10
255.0
 20
127.0
 30
0.0
 11
255.0
 21
117.0
 31
0.0
  0
LINE
  8
L-TYUSIN
  6
CENTER
 62
     1
 10
255.0
 20
43.0
 30
0.0
 11
255.0
 21
33.0
 31
0.0
  0
LINE
  8
L-TYUSIN
  6
CENTER
 62
     1
 10
185.0
 20
43.0
 30
0.0
 11
185.0
 21
33.0
 31
0.0
  0
LINE
  8
L-TYUSIN
 10
343.0
 20
202.000007
 30
0.0
 11
333.0
 21
202.000007
 31
0.0
  0
LINE
  8
L-TYUSIN
 10
417.0
 20
202.000007
 30
0.0
 11
427.0
 21
202.000007
 31
0.0
  0
LINE
  8
L-TYUSIN
 10
33.0
 20
202.000007
 30
0.0
 11
23.0
 21
202.000007
 31
0.0
  0
LINE
  8
L-TYUSIN
 10
107.0
 20
202.000007
 30
0.0
 11
117.0
 21
202.000007
 31
0.0
  0
CIRCLE
  8
L-ZISSEN
 10
185.0
 20
497.999993
 30
0.0
 40
9.3155
  0
CIRCLE
  8
L-ZISSEN
 10
255.0
 20
497.999993
 30
0.0
 40
9.3155
  0
CIRCLE
  8
L-ZISSEN
 10
185.0
 20
202.000007
 30
0.0
 40
9.3155
  0
CIRCLE
  8
L-ZISSEN
 10
255.0
 20
202.000007
 30
0.0
 40
9.3155
  0
CIRCLE
  8
L-ZISSEN
 10
220.0
 20
202.000007
 30
0.0
 40
9.3155
  0
TEXT
  8
L-ZISSEN
 10
30.0
 20
545.0
 30
0.0
 40
4.5
  1
MODEL No. :
  0
TEXT
  8
L-ZISSEN
 10
75.0
 20
545.0
 30
0.0
 40
4.5
  1
MVM-491-
  0
LINE
  8
L-TYUSIN
 10
700.0
 20
175.000007
 30
0.0
 11
690.0
 21
175.000007
 31
0.0
  0
LINE
  8
L-TYUSIN
  6
CENTER
 62
     1
 10
538.0
 20
260.0
 30
0.0
 11
538.0
 21
250.0
 31
0.0
  0
LINE
  8
L-ZISSEN
  6
CONTINUOUS
 62
     7
 10
532.500014
 20
402.999993
 30
0.0
 11
627.499986
 21
402.999993
 31
0.0
  0
LINE
  8
L-TYUSIN
  6
CENTER
 62
     1
 10
505.0
 20
262.0
 30
0.0
 11
505.0
 21
278.0
 31
0.0
  0
LINE
  8
L-TYUSIN
  6
CENTER
 62
     1
 10
497.0
 20
270.0
 30
0.0
 11
513.0
 21
270.0
 31
0.0
  0
LINE
  8
L-ZISSEN
  6
CONTINUOUS
 62
     7
 10
532.5
 20
197.000007
 30
0.0
 11
627.5
 21
197.000007
 31
0.0
  0
LINE
  8
L-ZISSEN
  6
CONTINUOUS
 62
     7
 10
495.0
 20
155.000007
 30
0.0
 11
554.0
 21
155.000007
 31
0.0
  0
LINE
  8
L-TYUSIN
  6
CENTER
 62
     1
 10
655.0
 20
172.000007
 30
0.0
 11
655.0
 21
150.000007
 31
0.0
  0
LINE
  8
L-ZISSEN
 10
665.0
 20
167.000007
 30
0.0
 11
665.0
 21
155.000007
 31
0.0
  0
LINE
  8
L-ZISSEN
  6
CONTINUOUS
 62
     7
 10
495.0
 20
167.000007
 30
0.0
 11
519.0
 21
167.000007
 31
0.0
  0
LINE
  8
L-TYUSIN
  6
CENTER
 62
     1
 10
505.0
 20
172.000007
 30
0.0
 11
505.0
 21
150.000007
 31
0.0
  0
LINE
  8
L-ZISSEN
 10
495.0
 20
167.000007
 30
0.0
 11
495.0
 21
155.000007
 31
0.0
  0
LINE
  8
L-TYUSIN
  6
CENTER
 62
     1
 10
523.0
 20
175.000007
 30
0.0
 11
553.0
 21
175.000007
 31
0.0
  0
LINE
  8
L-TYUSIN
  6
CENTER
 62
     1
 10
622.0
 20
190.000007
 30
0.0
 11
622.0
 21
160.000007
 31
0.0
  0
ARC
  8
L-ZISSEN
 10
622.0
 20
175.000007
 30
0.0
 40
19.0
 50
0.0
 51
140.833289
  0
ARC
  8
L-ZISSEN
 10
580.0
 20
175.000007
 30
0.0
 40
19.0
 50
219.166711
 51
320.833289
  0
LINE
  8
L-ZISSEN
 10
641.0
 20
175.000007
 30
0.0
 11
641.0
 21
167.000007
 31
0.0
  0
ARC
  8
L-ZISSEN
 10
538.0
 20
175.000007
 30
0.0
 40
19.0
 50
39.166711
 51
180.0
  0
LINE
  8
L-TYUSIN
  6
CENTER
 62
     1
 10
538.0
 20
190.000007
 30
0.0
 11
538.0
 21
160.000007
 31
0.0
  0
LINE
  8
L-ZISSEN
 10
519.0
 20
175.000007
 30
0.0
 11
519.0
 21
167.000007
 31
0.0
  0
LINE
  8
L-ZISSEN
  6
CONTINUOUS
 62
     7
 10
641.0
 20
167.000007
 30
0.0
 11
665.0
 21
167.000007
 31
0.0
  0
LINE
  8
L-ZISSEN
 10
627.499986
 20
197.000007
 30
0.0
 11
627.499986
 21
193.186544
 31
0.0
  0
LINE
  8
L-ZISSEN
 10
532.500014
 20
197.000007
 30
0.0
 11
532.500014
 21
193.186544
 31
0.0
  0
LINE
  8
L-ZISSEN
  6
CONTINUOUS
 62
     7
 10
594.73092
 20
187.000007
 30
0.0
 11
607.26908
 21
187.000007
 31
0.0
  0
LINE
  8
L-ZISSEN
  6
CONTINUOUS
 62
     7
 10
552.73092
 20
163.000007
 30
0.0
 11
565.26908
 21
163.000007
 31
0.0
  0
ARC
  8
L-ZISSEN
 10
580.0
 20
175.000007
 30
0.0
 40
19.0
 50
39.166711
 51
140.833289
  0
LINE
  8
L-ZISSEN
  6
CONTINUOUS
 62
     7
 10
552.73092
 20
187.000007
 30
0.0
 11
565.26908
 21
187.000007
 31
0.0
  0
LINE
  8
L-ZISSEN
  6
CONTINUOUS
 62
     7
 10
594.73092
 20
163.000007
 30
0.0
 11
607.26908
 21
163.000007
 31
0.0
  0
LINE
  8
L-ZISSEN
 10
606.0
 20
155.000007
 30
0.0
 11
598.0
 21
163.000007
 31
0.0
  0
LINE
  8
L-ZISSEN
 10
554.0
 20
155.000007
 30
0.0
 11
562.0
 21
163.000007
 31
0.0
  0
LINE
  8
L-ZISSEN
  6
CONTINUOUS
 62
     7
 10
606.0
 20
155.000007
 30
0.0
 11
665.0
 21
155.000007
 31
0.0
  0
CIRCLE
  8
L-ZISSEN
 10
622.0
 20
175.000007
 30
0.0
 40
12.0585
  0
CIRCLE
  8
L-ZISSEN
 10
538.0
 20
175.000007
 30
0.0
 40
12.0585
  0
CIRCLE
  8
L-ZISSEN
 10
580.0
 20
175.000007
 30
0.0
 40
12.0585
  0
LINE
  8
L-TYUSIN
  6
CENTER
 62
     1
 10
607.0
 20
175.000007
 30
0.0
 11
637.0
 21
175.000007
 31
0.0
  0
LINE
  8
L-TYUSIN
  6
CENTER
 62
     1
 10
565.0
 20
175.000007
 30
0.0
 11
595.0
 21
175.000007
 31
0.0
  0
LINE
  8
L-ZISSEN
 10
700.0
 20
155.000007
 30
0.0
 11
780.0
 21
155.000007
 31
0.0
  0
LINE
  8
L-ZISSEN
 10
695.0
 20
156.000007
 30
0.0
 11
695.0
 21
194.000007
 31
0.0
  0
LINE
  8
L-ZISSEN
 10
695.0
 20
194.000007
 30
0.0
 11
785.0
 21
194.000007
 31
0.0
  0
LINE
  8
L-ZISSEN
 10
695.0
 20
156.000007
 30
0.0
 11
700.0
 21
156.000007
 31
0.0
  0
LINE
  8
L-TYUSIN
  6
CENTER
 62
     1
 10
710.0
 20
172.000007
 30
0.0
 11
710.0
 21
150.000007
 31
0.0
  0
LINE
  8
L-ZISSEN
 10
700.0
 20
155.000007
 30
0.0
 11
700.0
 21
167.000007
 31
0.0
  0
LINE
  8
L-ZISSEN
 10
700.0
 20
167.000007
 30
0.0
 11
735.980762
 21
167.000007
 31
0.0
  0
LINE
  8
L-ZISSEN
 10
780.0
 20
167.000007
 30
0.0
 11
780.0
 21
155.000007
 31
0.0
  0
ARC
  8
L-ZISSEN
 10
505.0
 20
270.0
 30
0.0
 40
10.0
 50
120.0
 51
270.0
  0
CIRCLE
  8
L-ZISSEN
 10
505.0
 20
270.0
 30
0.0
 40
4.5
  0
LINE
  8
L-ZISSEN
 10
519.0
 20
260.0
 30
0.0
 11
505.0
 21
260.0
 31
0.0
  0
LINE
  8
L-TYUSIN
  6
CENTER
 62
     1
 10
622.0
 20
260.0
 30
0.0
 11
622.0
 21
250.0
 31
0.0
  0
LINE
  8
L-ZISSEN
 10
519.0
 20
255.0
 30
0.0
 11
519.0
 21
278.750006
 31
0.0
  0
LINE
  8
L-ZISSEN
 10
557.0
 20
255.0
 30
0.0
 11
557.0
 21
261.675457
 31
0.0
  0
LINE
  8
L-ZISSEN
 10
561.0
 20
255.0
 30
0.0
 11
561.0
 21
261.071806
 31
0.0
  0
LINE
  8
L-ZISSEN
 10
599.0
 20
255.0
 30
0.0
 11
599.0
 21
261.071806
 31
0.0
  0
LINE
  8
L-ZISSEN
 10
603.0
 20
255.0
 30
0.0
 11
603.0
 21
261.675457
 31
0.0
  0
LINE
  8
L-ZISSEN
 10
641.0
 20
255.0
 30
0.0
 11
519.0
 21
255.0
 31
0.0
  0
LINE
  8
L-ZISSEN
 10
500.0
 20
278.660254
 30
0.0
 11
508.382686
 21
283.5
 31
0.0
  0
LINE
  8
L-ZISSEN
 10
519.0
 20
340.0
 30
0.0
 11
505.0
 21
340.0
 31
0.0
  0
CIRCLE
  8
L-ZISSEN
 10
505.0
 20
330.0
 30
0.0
 40
4.5
  0
LINE
  8
L-TYUSIN
  6
CENTER
 62
     1
 10
505.0
 20
338.0
 30
0.0
 11
505.0
 21
322.0
 31
0.0
  0
LINE
  8
L-TYUSIN
  6
CENTER
 62
     1
 10
497.0
 20
330.0
 30
0.0
 11
513.0
 21
330.0
 31
0.0
  0
ARC
  8
L-ZISSEN
 10
505.0
 20
330.0
 30
0.0
 40
10.0
 50
90.0
 51
240.0
  0
LINE
  8
L-ZISSEN
 10
500.0
 20
321.339746
 30
0.0
 11
508.382686
 21
316.5
 31
0.0
  0
LINE
  8
L-ZISSEN
 10
519.0
 20
345.0
 30
0.0
 11
519.0
 21
321.249994
 31
0.0
  0
LINE
  8
L-ZISSEN
 10
641.0
 20
345.0
 30
0.0
 11
596.0
 21
345.0
 31
0.0
  0
LINE
  8
L-ZISSEN
 10
596.0
 20
345.0
 30
0.0
 11
596.0
 21
338.928193
 31
0.0
  0
LINE
  8
L-TYUSIN
  6
CENTER
 62
     1
 10
615.0
 20
340.0
 30
0.0
 11
615.0
 21
350.0
 31
0.0
  0
LINE
  8
L-ZISSEN
 10
641.0
 20
260.0
 30
0.0
 11
655.0
 21
260.0
 31
0.0
  0
CIRCLE
  8
L-ZISSEN
 10
655.0
 20
270.0
 30
0.0
 40
4.5
  0
LINE
  8
L-TYUSIN
  6
CENTER
 62
     1
 10
655.0
 20
262.0
 30
0.0
 11
655.0
 21
278.0
 31
0.0
  0
LINE
  8
L-TYUSIN
  6
CENTER
 62
     1
 10
663.0
 20
270.0
 30
0.0
 11
647.0
 21
270.0
 31
0.0
  0
CIRCLE
  8
L-ZISSEN
 10
655.0
 20
330.0
 30
0.0
 40
4.5
  0
LINE
  8
L-TYUSIN
  6
CENTER
 62
     1
 10
663.0
 20
330.0
 30
0.0
 11
647.0
 21
330.0
 31
0.0
  0
LINE
  8
L-TYUSIN
  6
CENTER
 62
     1
 10
655.0
 20
338.0
 30
0.0
 11
655.0
 21
322.0
 31
0.0
  0
LINE
  8
L-ZISSEN
 10
641.0
 20
340.0
 30
0.0
 11
655.0
 21
340.0
 31
0.0
  0
LINE
  8
L-TYUSIN
  6
CENTER
 62
     1
 10
545.0
 20
340.0
 30
0.0
 11
545.0
 21
350.0
 31
0.0
  0
LINE
  8
L-ZISSEN
 10
564.0
 20
345.0
 30
0.0
 11
564.0
 21
338.928193
 31
0.0
  0
LINE
  8
L-ZISSEN
 10
615.26908
 20
155.000007
 30
0.0
 11
607.26908
 21
163.000007
 31
0.0
  0
LINE
  8
L-ZISSEN
 10
544.73092
 20
155.000007
 30
0.0
 11
552.73092
 21
163.000007
 31
0.0
  0
LINE
  8
L-ZISSEN
 10
519.0
 20
35.0
 30
0.0
 11
519.0
 21
40.0
 31
0.0
  0
LINE
  8
L-ZISSEN
 10
519.0
 20
40.0
 30
0.0
 11
505.0
 21
40.0
 31
0.0
  0
CIRCLE
  8
L-ZISSEN
 10
505.0
 20
50.0
 30
0.0
 40
4.5
  0
LINE
  8
L-TYUSIN
  6
CENTER
 62
     1
 10
497.0
 20
50.0
 30
0.0
 11
513.0
 21
50.0
 31
0.0
  0
LINE
  8
L-TYUSIN
  6
CENTER
 62
     1
 10
505.0
 20
42.0
 30
0.0
 11
505.0
 21
58.0
 31
0.0
  0
ARC
  8
L-ZISSEN
 10
505.0
 20
50.0
 30
0.0
 40
10.0
 50
120.0
 51
270.0
  0
LINE
  8
L-ZISSEN
 10
500.0
 20
58.660254
 30
0.0
 11
530.0
 21
75.980762
 31
0.0
  0
LINE
  8
L-ZISSEN
 10
500.0
 20
101.339746
 30
0.0
 11
530.0
 21
84.019238
 31
0.0
  0
ARC
  8
L-ZISSEN
 10
505.0
 20
110.0
 30
0.0
 40
10.0
 50
90.0
 51
240.0
  0
CIRCLE
  8
L-ZISSEN
 10
505.0
 20
110.0
 30
0.0
 40
4.5
  0
LINE
  8
L-TYUSIN
  6
CENTER
 62
     1
 10
497.0
 20
110.0
 30
0.0
 11
513.0
 21
110.0
 31
0.0
  0
LINE
  8
L-TYUSIN
  6
CENTER
 62
     1
 10
505.0
 20
118.0
 30
0.0
 11
505.0
 21
102.0
 31
0.0
  0
LINE
  8
L-ZISSEN
 10
519.0
 20
120.0
 30
0.0
 11
505.0
 21
120.0
 31
0.0
  0
LINE
  8
L-ZISSEN
 10
519.0
 20
125.0
 30
0.0
 11
519.0
 21
120.0
 31
0.0
  0
LINE
  8
L-ZISSEN
 10
641.0
 20
125.0
 30
0.0
 11
519.0
 21
125.0
 31
0.0
  0
LINE
  8
L-TYUSIN
  6
CENTER
 62
     1
 10
545.0
 20
40.0
 30
0.0
 11
545.0
 21
30.0
 31
0.0
  0
LINE
  8
L-TYUSIN
  6
CENTER
 62
     1
 10
615.0
 20
40.0
 30
0.0
 11
615.0
 21
30.0
 31
0.0
  0
LINE
  8
L-ZISSEN
 10
641.0
 20
125.0
 30
0.0
 11
641.0
 21
120.0
 31
0.0
  0
LINE
  8
L-ZISSEN
 10
641.0
 20
120.0
 30
0.0
 11
655.0
 21
120.0
 31
0.0
  0
CIRCLE
  8
L-ZISSEN
 10
655.0
 20
110.0
 30
0.0
 40
4.5
  0
LINE
  8
L-TYUSIN
  6
CENTER
 62
     1
 10
655.0
 20
118.0
 30
0.0
 11
655.0
 21
102.0
 31
0.0
  0
LINE
  8
L-TYUSIN
  6
CENTER
 62
     1
 10
663.0
 20
110.0
 30
0.0
 11
647.0
 21
110.0
 31
0.0
  0
LINE
  8
L-TYUSIN
  6
CENTER
 62
     1
 10
663.0
 20
50.0
 30
0.0
 11
647.0
 21
50.0
 31
0.0
  0
CIRCLE
  8
L-ZISSEN
 10
655.0
 20
50.0
 30
0.0
 40
4.5
  0
LINE
  8
L-TYUSIN
  6
CENTER
 62
     1
 10
655.0
 20
42.0
 30
0.0
 11
655.0
 21
58.0
 31
0.0
  0
LINE
  8
L-ZISSEN
 10
641.0
 20
40.0
 30
0.0
 11
655.0
 21
40.0
 31
0.0
  0
LINE
  8
L-ZISSEN
 10
641.0
 20
35.0
 30
0.0
 11
641.0
 21
40.0
 31
0.0
  0
LINE
  8
L-ZISSEN
 10
641.0
 20
35.0
 30
0.0
 11
596.0
 21
35.0
 31
0.0
  0
LINE
  8
L-TYUSIN
  6
CENTER
 62
     1
 10
622.0
 20
120.0
 30
0.0
 11
622.0
 21
130.0
 31
0.0
  0
LINE
  8
L-TYUSIN
  6
CENTER
 62
     1
 10
538.0
 20
120.0
 30
0.0
 11
538.0
 21
130.0
 31
0.0
  0
LINE
  8
L-ZISSEN
 10
530.0
 20
84.019238
 30
0.0
 11
530.0
 21
75.980762
 31
0.0
  0
LINE
  8
L-ZISSEN
 10
660.0
 20
101.339746
 30
0.0
 11
630.0
 21
84.019238
 31
0.0
  0
ARC
  8
L-ZISSEN
 10
655.0
 20
110.0
 30
0.0
 40
10.0
 50
300.0
 51
90.0
  0
LINE
  8
L-ZISSEN
 10
630.0
 20
84.019238
 30
0.0
 11
630.0
 21
75.980762
 31
0.0
  0
LINE
  8
L-ZISSEN
 10
660.0
 20
58.660254
 30
0.0
 11
630.0
 21
75.980762
 31
0.0
  0
ARC
  8
L-ZISSEN
 10
655.0
 20
50.0
 30
0.0
 40
10.0
 50
270.0
 51
60.0
  0
CIRCLE
  8
L-ZISSEN
 10
545.0
 20
424.999993
 30
0.0
 40
12.0585
  0
LINE
  8
L-ZISSEN
  6
CONTINUOUS
 62
     7
 10
606.0
 20
444.999993
 30
0.0
 11
665.0
 21
444.999993
 31
0.0
  0
LINE
  8
L-ZISSEN
 10
554.0
 20
444.999993
 30
0.0
 11
562.0
 21
436.999993
 31
0.0
  0
LINE
  8
L-ZISSEN
 10
606.0
 20
444.999993
 30
0.0
 11
598.0
 21
436.999993
 31
0.0
  0
LINE
  8
L-ZISSEN
  6
CONTINUOUS
 62
     7
 10
562.0
 20
436.999993
 30
0.0
 11
598.0
 21
436.999993
 31
0.0
  0
LINE
  8
L-ZISSEN
  6
CONTINUOUS
 62
     7
 10
559.73092
 20
412.999993
 30
0.0
 11
600.26908
 21
412.999993
 31
0.0
  0
LINE
  8
L-ZISSEN
  6
CONTINUOUS
 62
     7
 10
641.0
 20
432.999993
 30
0.0
 11
665.0
 21
432.999993
 31
0.0
  0
LINE
  8
L-ZISSEN
 10
519.0
 20
424.999993
 30
0.0
 11
519.0
 21
432.999993
 31
0.0
  0
LINE
  8
L-TYUSIN
  6
CENTER
 62
     1
 10
545.0
 20
409.999993
 30
0.0
 11
545.0
 21
439.999993
 31
0.0
  0
ARC
  8
L-ZISSEN
 10
538.0
 20
424.999993
 30
0.0
 40
19.0
 50
180.0
 51
270.0
  0
LINE
  8
L-ZISSEN
 10
641.0
 20
424.999993
 30
0.0
 11
641.0
 21
432.999993
 31
0.0
  0
LINE
  8
L-TYUSIN
  6
CENTER
 62
     1
 10
530.0
 20
424.999993
 30
0.0
 11
560.0
 21
424.999993
 31
0.0
  0
LINE
  8
L-ZISSEN
 10
495.0
 20
432.999993
 30
0.0
 11
495.0
 21
444.999993
 31
0.0
  0
LINE
  8
L-TYUSIN
  6
CENTER
 62
     1
 10
505.0
 20
427.999993
 30
0.0
 11
505.0
 21
449.999993
 31
0.0
  0
LINE
  8
L-ZISSEN
  6
CONTINUOUS
 62
     7
 10
495.0
 20
432.999993
 30
0.0
 11
519.0
 21
432.999993
 31
0.0
  0
LINE
  8
L-ZISSEN
 10
665.0
 20
432.999993
 30
0.0
 11
665.0
 21
444.999993
 31
0.0
  0
LINE
  8
L-TYUSIN
  6
CENTER
 62
     1
 10
655.0
 20
427.999993
 30
0.0
 11
655.0
 21
449.999993
 31
0.0
  0
LINE
  8
L-ZISSEN
  6
CONTINUOUS
 62
     7
 10
495.0
 20
444.999993
 30
0.0
 11
554.0
 21
444.999993
 31
0.0
  0
LINE
  8
L-ZISSEN
 10
627.499986
 20
402.999993
 30
0.0
 11
627.499986
 21
406.813456
 31
0.0
  0
LINE
  8
L-ZISSEN
 10
532.500014
 20
402.999993
 30
0.0
 11
532.500014
 21
406.813456
 31
0.0
  0
ARC
  8
L-ZISSEN
 10
545.0
 20
424.999993
 30
0.0
 40
19.0
 50
270.0
 51
320.833289
  0
LINE
  8
L-ZISSEN
 10
538.0
 20
405.999993
 30
0.0
 11
545.0
 21
405.999993
 31
0.0
  0
ARC
  8
L-ZISSEN
 10
615.0
 20
424.999993
 30
0.0
 40
19.0
 50
219.166711
 51
270.0
  0
LINE
  8
L-ZISSEN
 10
622.0
 20
405.999993
 30
0.0
 11
615.0
 21
405.999993
 31
0.0
  0
ARC
  8
L-ZISSEN
 10
622.0
 20
424.999993
 30
0.0
 40
19.0
 50
270.0
 51
0.0
  0
CIRCLE
  8
L-ZISSEN
 10
615.0
 20
424.999993
 30
0.0
 40
12.0585
  0
LINE
  8
L-TYUSIN
  6
CENTER
 62
     1
 10
615.0
 20
409.999993
 30
0.0
 11
615.0
 21
439.999993
 31
0.0
  0
LINE
  8
L-TYUSIN
  6
CENTER
 62
     1
 10
630.0
 20
424.999993
 30
0.0
 11
600.0
 21
424.999993
 31
0.0
  0
ARC
  8
L-ZISSEN
 10
580.0
 20
424.999993
 30
0.0
 40
19.0
 50
39.166711
 51
140.833289
  0
LINE
  8
L-ZISSEN
 10
596.0
 20
340.0
 30
0.0
 11
564.0
 21
340.0
 31
0.0
  0
LINE
  8
L-ZISSEN
 10
564.0
 20
345.0
 30
0.0
 11
519.0
 21
345.0
 31
0.0
  0
LINE
  8
L-ZISSEN
 10
596.0
 20
40.0
 30
0.0
 11
564.0
 21
40.0
 31
0.0
  0
LINE
  8
L-ZISSEN
 10
564.0
 20
35.0
 30
0.0
 11
564.0
 21
40.0
 31
0.0
  0
LINE
  8
L-ZISSEN
 10
596.0
 20
35.0
 30
0.0
 11
596.0
 21
40.0
 31
0.0
  0
LINE
  8
L-ZISSEN
 10
564.0
 20
35.0
 30
0.0
 11
519.0
 21
35.0
 31
0.0
  0
LINE
  8
L-ZISSEN
 10
744.019238
 20
155.000007
 30
0.0
 11
744.019238
 21
167.000007
 31
0.0
  0
LINE
  8
L-ZISSEN
 10
735.980762
 20
155.000007
 30
0.0
 11
735.980762
 21
167.000007
 31
0.0
  0
LINE
  8
L-ZISSEN
 10
744.019238
 20
167.000007
 30
0.0
 11
780.0
 21
167.000007
 31
0.0
  0
LINE
  8
L-ZISSEN
 10
785.0
 20
156.000007
 30
0.0
 11
785.0
 21
194.000007
 31
0.0
  0
LINE
  8
L-TYUSIN
 10
780.0
 20
175.000007
 30
0.0
 11
790.0
 21
175.000007
 31
0.0
  0
LINE
  8
L-ZISSEN
 10
785.0
 20
156.000007
 30
0.0
 11
780.0
 21
156.000007
 31
0.0
  0
LINE
  8
L-ZISSEN
 10
772.0
 20
194.000007
 30
0.0
 11
772.0
 21
197.0
 31
0.0
  0
LINE
  8
L-ZISSEN
 10
779.0
 20
194.000007
 30
0.0
 11
779.0
 21
197.0
 31
0.0
  0
LINE
  8
L-ZISSEN
 10
701.0
 20
194.000007
 30
0.0
 11
701.0
 21
197.0
 31
0.0
  0
LINE
  8
L-ZISSEN
 10
708.0
 20
194.000007
 30
0.0
 11
708.0
 21
197.0
 31
0.0
  0
LINE
  8
L-TYUSIN
  6
CENTER
 62
     1
 10
770.0
 20
172.000007
 30
0.0
 11
770.0
 21
150.000007
 31
0.0
  0
SOLID
  8
L-ZISSEN
 10
220.433289
 20
78.01925
 30
0.0
 11
221.052274
 21
78.266844
 31
0.0
 12
220.0
 22
80.0
 32
0.0
 13
220.0
 23
80.0
 33
0.0
  0
LINE
  8
L-ZISSEN
 10
220.742781
 20
78.143047
 30
0.0
 11
240.0
 21
30.0
 31
0.0
  0
LINE
  8
L-ZISSEN
 10
240.0
 20
30.0
 30
0.0
 11
242.0
 21
30.0
 31
0.0
  0
TEXT
  8
L-ZISSEN
 10
244.0
 20
27.75
 30
0.0
 40
4.5
  1
P.P
  0
SOLID
  8
L-ZISSEN
 10
580.029814
 20
77.972632
 30
0.0
 11
580.685728
 21
78.091889
 31
0.0
 12
580.0
 22
80.0
 32
0.0
 13
580.0
 23
80.0
 33
0.0
  0
LINE
  8
L-ZISSEN
 10
580.357771
 20
78.03226
 30
0.0
 11
590.0
 21
25.0
 31
0.0
  0
LINE
  8
L-ZISSEN
 10
590.0
 20
25.0
 30
0.0
 11
592.0
 21
25.0
 31
0.0
  0
TEXT
  8
L-ZISSEN
 10
594.0
 20
22.75
 30
0.0
 40
4.5
  1
P.P
  0
SOLID
  8
L-ZISSEN
 10
219.403715
 20
241.937926
 30
0.0
 11
218.80743
 21
241.639783
 31
0.0
 12
220.0
 22
240.0
 32
0.0
 13
220.0
 23
240.0
 33
0.0
  0
LINE
  8
L-ZISSEN
 10
219.105573
 20
241.788854
 30
0.0
 11
200.0
 21
280.0
 31
0.0
  0
LINE
  8
L-ZISSEN
 10
200.0
 20
280.0
 30
0.0
 11
198.0
 21
280.0
 31
0.0
  0
TEXT
  8
L-ZISSEN
 10
187.0
 20
277.75
 30
0.0
 40
4.5
  1
P.P
  0
LINE
  8
L-ZISSEN
 10
779.0
 20
197.0
 30
0.0
 11
701.0
 21
197.0
 31
0.0
  0
SOLID
  8
L-ZISSEN
 10
578.821489
 20
221.649916
 30
0.0
 11
578.350084
 21
221.178511
 31
0.0
 12
580.0
 22
220.0
 32
0.0
 13
580.0
 23
220.0
 33
0.0
  0
LINE
  8
L-ZISSEN
 10
578.585786
 20
221.414214
 30
0.0
 11
570.0
 21
230.0
 31
0.0
  0
LINE
  8
L-ZISSEN
 10
570.0
 20
230.0
 30
0.0
 11
568.0
 21
230.0
 31
0.0
  0
TEXT
  8
L-ZISSEN
 10
557.0
 20
227.75
 30
0.0
 40
4.5
  1
P.P
  0
SOLID
  8
L-ZISSEN
 10
218.90578
 20
458.293016
 30
0.0
 11
219.518543
 21
458.030404
 31
0.0
 12
220.0
 22
460.0
 32
0.0
 13
220.0
 23
460.0
 33
0.0
  0
LINE
  8
L-ZISSEN
 10
219.212161
 20
458.16171
 30
0.0
 11
205.0
 21
425.0
 31
0.0
  0
LINE
  8
L-ZISSEN
 10
205.0
 20
425.0
 30
0.0
 11
203.0
 21
425.0
 31
0.0
  0
TEXT
  8
L-ZISSEN
 10
192.0
 20
422.75
 30
0.0
 40
4.5
  1
P.P
  0
SOLID
  8
L-ZISSEN
 10
579.16795
 20
301.849001
 30
0.0
 11
578.61325
 21
301.479201
 31
0.0
 12
580.0
 22
300.0
 32
0.0
 13
580.0
 23
300.0
 33
0.0
  0
LINE
  8
L-ZISSEN
 10
578.8906
 20
301.664101
 30
0.0
 11
570.0
 21
315.0
 31
0.0
  0
LINE
  8
L-ZISSEN
 10
570.0
 20
315.0
 30
0.0
 11
568.0
 21
315.0
 31
0.0
  0
TEXT
  8
L-ZISSEN
 10
557.0
 20
312.75
 30
0.0
 40
4.5
  1
P.P
  0
SOLID
  8
L-ZISSEN
 10
578.350084
 20
378.821489
 30
0.0
 11
578.821489
 21
378.350084
 31
0.0
 12
580.0
 22
380.0
 32
0.0
 13
580.0
 23
380.0
 33
0.0
  0
LINE
  8
L-ZISSEN
 10
578.585786
 20
378.585786
 30
0.0
 11
570.0
 21
370.0
 31
0.0
  0
LINE
  8
L-ZISSEN
 10
570.0
 20
370.0
 30
0.0
 11
568.0
 21
370.0
 31
0.0
  0
TEXT
  8
L-ZISSEN
 10
557.0
 20
367.75
 30
0.0
 40
4.5
  1
P.P
  0
TEXT
  8
L-ZISSEN
 10
480.0
 20
475.0
 30
0.0
 40
4.5
  1
SUB-BASE CONNECTION
  0
TEXT
  8
L-ZISSEN
 10
480.0
 20
465.0
 30
0.0
 40
4.5
  1
MODEL No. :
  0
TEXT
  8
L-ZISSEN
 10
525.0
 20
465.0
 30
0.0
 40
4.5
  1
MVM-491-06J
  0
LINE
  8
L-ZISSEN
  6
CONTINUOUS
 62
     7
 10
283.799984
 20
67.250004
 30
0.0
 11
283.799984
 21
59.353084
 31
0.0
  0
LINE
  8
L-ZISSEN
  6
CONTINUOUS
 62
     7
 10
277.499986
 20
67.250004
 30
0.0
 11
283.799984
 21
67.250004
 31
0.0
  0
LINE
  8
L-ZISSEN
  6
CONTINUOUS
 62
     7
 10
283.799984
 20
92.749996
 30
0.0
 11
283.799984
 21
100.646916
 31
0.0
  0
LINE
  8
L-ZISSEN
  6
CONTINUOUS
 62
     7
 10
277.499986
 20
92.749996
 30
0.0
 11
283.799984
 21
92.749996
 31
0.0
  0
LINE
  8
L-ZISSEN
  6
CONTINUOUS
 62
     7
 10
315.499986
 20
258.5
 30
0.0
 11
315.499986
 21
221.5
 31
0.0
  0
LINE
  8
L-ZISSEN
 10
315.499986
 20
221.5
 30
0.0
 11
283.799984
 21
221.5
 31
0.0
  0
LINE
  8
L-ZISSEN
 10
315.499986
 20
258.5
 30
0.0
 11
283.799984
 21
258.5
 31
0.0
  0
CIRCLE
  8
L-ZISSEN
 10
380.0
 20
240.0
 30
0.0
 40
18.5
  0
ARC
  8
L-ZISSEN
 10
380.0
 20
262.0
 30
0.0
 40
6.0
 50
0.0
 51
180.0
  0
LINE
  8
L-ZISSEN
 10
374.0
 20
262.0
 30
0.0
 11
358.0
 21
262.0
 31
0.0
  0
LINE
  8
L-ZISSEN
 10
315.499986
 20
368.5
 30
0.0
 11
283.799984
 21
368.5
 31
0.0
  0
LINE
  8
L-ZISSEN
 10
315.499986
 20
331.5
 30
0.0
 11
283.799984
 21
331.5
 31
0.0
  0
LINE
  8
L-ZISSEN
  6
CONTINUOUS
 62
     7
 10
315.499986
 20
368.5
 30
0.0
 11
315.499986
 21
331.5
 31
0.0
  0
LINE
  8
L-ZISSEN
  6
CONTINUOUS
 62
     7
 10
283.799984
 20
371.249994
 30
0.0
 11
283.799984
 21
362.749996
 31
0.0
  0
LINE
  8
L-ZISSEN
  6
CONTINUOUS
 62
     7
 10
277.499986
 20
371.249994
 30
0.0
 11
283.799984
 21
371.249994
 31
0.0
  0
LINE
  8
L-ZISSEN
  6
CONTINUOUS
 62
     7
 10
277.499986
 20
362.749996
 30
0.0
 11
283.799984
 21
362.749996
 31
0.0
  0
LINE
  8
L-ZISSEN
  6
CONTINUOUS
 62
     7
 10
283.799984
 20
337.250004
 30
0.0
 11
283.799984
 21
328.750006
 31
0.0
  0
LINE
  8
L-ZISSEN
  6
CONTINUOUS
 62
     7
 10
277.499986
 20
337.250004
 30
0.0
 11
283.799984
 21
337.250004
 31
0.0
  0
LINE
  8
L-ZISSEN
  6
CONTINUOUS
 62
     7
 10
277.499986
 20
328.750006
 30
0.0
 11
283.799984
 21
328.750006
 31
0.0
  0
LINE
  8
L-ZISSEN
  6
CONTINUOUS
 62
     7
 10
277.499986
 20
371.999993
 30
0.0
 11
277.499986
 21
328.000007
 31
0.0
  0
LINE
  8
L-ZISSEN
 10
285.0
 20
328.660254
 30
0.0
 11
283.799981
 21
329.353085
 31
0.0
  0
LINE
  8
L-ZISSEN
 10
285.0
 20
371.339746
 30
0.0
 11
283.799981
 21
370.646915
 31
0.0
  0
ARC
  8
L-ZISSEN
 10
280.0
 20
320.0
 30
0.0
 40
10.0
 50
270.0
 51
60.0
  0
ARC
  8
L-ZISSEN
 10
280.0
 20
380.0
 30
0.0
 40
10.0
 50
300.0
 51
90.0
  0
SOLID
  8
L-ZISSEN
 10
220.132672
 20
352.023242
 30
0.0
 11
219.469313
 21
351.956906
 31
0.0
 12
220.0
 22
350.0
 32
0.0
 13
220.0
 23
350.0
 33
0.0
  0
LINE
  8
L-ZISSEN
 10
219.800993
 20
351.990074
 30
0.0
 11
215.0
 21
400.0
 31
0.0
  0
LINE
  8
L-ZISSEN
 10
215.0
 20
400.0
 30
0.0
 11
213.0
 21
400.0
 31
0.0
  0
TEXT
  8
L-ZISSEN
 10
202.0
 20
397.75
 30
0.0
 40
4.5
  1
P.P
  0
LINE
  8
L-ZISSEN
 10
660.0
 20
321.339746
 30
0.0
 11
651.617314
 21
316.5
 31
0.0
  0
ARC
  8
L-ZISSEN
 10
655.0
 20
330.0
 30
0.0
 40
10.0
 50
300.0
 51
90.0
  0
LINE
  8
L-ZISSEN
 10
660.0
 20
278.660254
 30
0.0
 11
651.617314
 21
283.5
 31
0.0
  0
ARC
  8
L-ZISSEN
 10
655.0
 20
270.0
 30
0.0
 40
10.0
 50
270.0
 51
60.0
  0
LINE
  8
L-ZISSEN
 10
641.0
 20
345.0
 30
0.0
 11
641.0
 21
321.249994
 31
0.0
  0
LINE
  8
L-ZISSEN
 10
641.0
 20
255.0
 30
0.0
 11
641.0
 21
278.750006
 31
0.0
  0
LINE
  8
L-ZISSEN
 10
315.499986
 20
61.5
 30
0.0
 11
283.799984
 21
61.5
 31
0.0
  0
LINE
  8
L-ZISSEN
 10
315.499986
 20
98.5
 30
0.0
 11
283.799984
 21
98.5
 31
0.0
  0
LINE
  8
L-ZISSEN
  6
CONTINUOUS
 62
     7
 10
315.499986
 20
98.5
 30
0.0
 11
315.499986
 21
61.5
 31
0.0
  0
LINE
  8
L-ZISSEN
 10
315.499986
 20
441.5
 30
0.0
 11
283.799984
 21
441.5
 31
0.0
  0
LINE
  8
L-ZISSEN
 10
315.499986
 20
478.5
 30
0.0
 11
283.799984
 21
478.5
 31
0.0
  0
LINE
  8
L-ZISSEN
  6
CONTINUOUS
 62
     7
 10
315.499986
 20
478.5
 30
0.0
 11
315.499986
 21
441.5
 31
0.0
  0
SOLID
  8
L-ZISSEN
 10
381.281692
 20
241.571107
 30
0.0
 11
380.702863
 21
241.901866
 31
0.0
 12
380.0
 22
240.0
 32
0.0
 13
380.0
 23
240.0
 33
0.0
  0
LINE
  8
L-ZISSEN
 10
380.992278
 20
241.736486
 30
0.0
 11
400.0
 21
275.0
 31
0.0
  0
LINE
  8
L-ZISSEN
 10
400.0
 20
275.0
 30
0.0
 11
402.0
 21
275.0
 31
0.0
  0
TEXT
  8
L-ZISSEN
 10
404.0
 20
272.75
 30
0.0
 40
4.5
  1
P.P
  0
SOLID
  8
L-ZISSEN
 10
738.821489
 20
221.649916
 30
0.0
 11
738.350084
 21
221.178511
 31
0.0
 12
740.0
 22
220.0
 32
0.0
 13
740.0
 23
220.0
 33
0.0
  0
LINE
  8
L-ZISSEN
 10
738.585786
 20
221.414214
 30
0.0
 11
730.0
 21
230.0
 31
0.0
  0
LINE
  8
L-ZISSEN
 10
730.0
 20
230.0
 30
0.0
 11
728.0
 21
230.0
 31
0.0
  0
TEXT
  8
L-ZISSEN
 10
717.0
 20
227.75
 30
0.0
 40
4.5
  1
P.P
  0
LINE
  8
L-TYUSIN
 10
460.0
 20
485.0
 30
0.0
 11
460.0
 21
15.0
 31
0.0
  0
CIRCLE
  8
L-ZISSEN
 10
380.0
 20
240.0
 30
0.0
 40
5.7225
  0
SOLID
  8
L-ZISSEN
 10
218.657336
 20
200.480676
 30
0.0
 11
219.222668
 21
200.127344
 31
0.0
 12
220.0
 22
202.000007
 32
0.0
 13
220.0
 23
202.000007
 33
0.0
  0
LINE
  8
L-ZISSEN
 10
218.940002
 20
200.30401
 30
0.0
 11
200.0
 21
170.0
 31
0.0
  0
LINE
  8
L-ZISSEN
 10
200.0
 20
170.0
 30
0.0
 11
198.0
 21
170.0
 31
0.0
  0
TEXT
  8
L-ZISSEN
 10
166.0
 20
167.75
 30
0.0
 40
4.5
  1
"1" PORT
  0
TEXT
  8
L-ZISSEN
 10
170.0
 20
160.0
 30
0.0
 40
4.5
  1
Rc 1/4
  0
TEXT
  8
L-ZISSEN
 10
170.0
 20
150.0
 30
0.0
 40
4.5
  1
Rc 3/8
  0
TEXT
  8
L-ZISSEN
 10
170.0
 20
140.0
 30
0.0
 40
4.5
  1
Rc 1/2
  0
TEXT
  8
L-ZISSEN
 10
111.0
 20
545.0
 30
0.0
 40
4.5
  1
03
  0
TEXT
  8
L-ZISSEN
 10
111.0
 20
552.0
 30
0.0
 40
4.5
  1
02U
  0
TEXT
  8
L-ZISSEN
 10
111.0
 20
538.0
 30
0.0
 40
4.5
  1
04
  0
ENDSEC
  0
EOF
