  0
SECTION
  2
HEADER
  9
$ACADVER
  1
AC1006
  9
$INSBASE
 10
0.0
 20
0.0
 30
0.0
  9
$EXTMIN
 10
45.0
 20
15.0
  9
$EXTMAX
 10
1825.0
 20
1075.0
  9
$LIMMIN
 10
0.0
 20
0.0
  9
$LIMMAX
 10
1680.0
 20
1188.0
  9
$ORTHOMODE
 70
     0
  9
$REGENMODE
 70
     1
  9
$FILLMODE
 70
     1
  9
$QTEXTMODE
 70
     0
  9
$MIRRTEXT
 70
     1
  9
$DRAGMODE
 70
     2
  9
$LTSCALE
 40
1.0
  9
$OSMODE
 70
     0
  9
$ATTMODE
 70
     1
  9
$TEXTSIZE
 40
4.5
  9
$TRACEWID
 40
0.05
  9
$TEXTSTYLE
  7
STANDARD
  9
$CLAYER
  8
L-ZISSEN
  9
$CELTYPE
  6
BYLAYER
  9
$CECOLOR
 62
   256
  9
$DIMSCALE
 40
1.0
  9
$DIMASZ
 40
2.0
  9
$DIMEXO
 40
1.0
  9
$DIMDLI
 40
0.38
  9
$DIMRND
 40
0.0
  9
$DIMDLE
 40
1.0
  9
$DIMEXE
 40
1.0
  9
$DIMTP
 40
0.0
  9
$DIMTM
 40
0.0
  9
$DIMTXT
 40
4.5
  9
$DIMCEN
 40
0.09
  9
$DIMTSZ
 40
0.0
  9
$DIMTOL
 70
     0
  9
$DIMLIM
 70
     0
  9
$DIMTIH
 70
     0
  9
$DIMTOH
 70
     0
  9
$DIMSE1
 70
     0
  9
$DIMSE2
 70
     0
  9
$DIMTAD
 70
     1
  9
$DIMZIN
 70
     0
  9
$DIMBLK
  1

  9
$DIMASO
 70
     0
  9
$DIMSHO
 70
     0
  9
$DIMPOST
  1

  9
$DIMAPOST
  1

  9
$DIMALT
 70
     0
  9
$DIMALTD
 70
     2
  9
$DIMALTF
 40
25.4
  9
$DIMLFAC
 40
1.0
  9
$DIMTOFL
 70
     1
  9
$DIMTVP
 40
0.0
  9
$DIMTIX
 70
     1
  9
$DIMSOXD
 70
     0
  9
$DIMSAH
 70
     0
  9
$DIMBLK1
  1

  9
$DIMBLK2
  1

  9
$LUNITS
 70
     2
  9
$LUPREC
 70
     4
  9
$AXISMODE
 70
     0
  9
$AXISUNIT
 10
0.0
 20
0.0
  9
$SKETCHINC
 40
0.1
  9
$FILLETRAD
 40
0.0
  9
$AUNITS
 70
     0
  9
$AUPREC
 70
     0
  9
$MENU
  1
acad
  9
$ELEVATION
 40
0.0
  9
$THICKNESS
 40
0.0
  9
$LIMCHECK
 70
     0
  9
$BLIPMODE
 70
     1
  9
$CHAMFERA
 40
5.0
  9
$CHAMFERB
 40
5.0
  9
$SKPOLY
 70
     0
  9
$TDCREATE
 40
2449069.5566488425
  9
$TDUPDATE
 40
2449069.5566488425
  9
$TDINDWG
 40
0.0000000000
  9
$TDUSRTIMER
 40
0.0000000000
  9
$USRTIMER
 70
     1
  9
$ANGBASE
 50
0.0
  9
$ANGDIR
 70
     0
  9
$PDMODE
 70
     0
  9
$PDSIZE
 40
0.0
  9
$PLINEWID
 40
0.0
  9
$COORDS
 70
     2
  9
$SPLFRAME
 70
     0
  9
$SPLINETYPE
 70
     6
  9
$SPLINESEGS
 70
     8
  9
$ATTDIA
 70
     0
  9
$ATTREQ
 70
     1
  9
$HANDLING
 70
     0
  9
$HANDSEED
  5
0
  9
$SURFTAB1
 70
     6
  9
$SURFTAB2
 70
     6
  9
$SURFTYPE
 70
     6
  9
$SURFU
 70
     6
  9
$SURFV
 70
     6
  9
$FLATLAND
 70
     0
  9
$UCSNAME
  2

  9
$UCSORG
 10
0.0
 20
0.0
 30
0.0
  9
$UCSXDIR
 10
1.0
 20
0.0
 30
0.0
  9
$UCSYDIR
 10
0.0
 20
1.0
 30
0.0
  9
$USERI1
 70
     0
  9
$USERI2
 70
     0
  9
$USERI3
 70
     0
  9
$USERI4
 70
     0
  9
$USERI5
 70
     0
  9
$USERR1
 40
0.0
  9
$USERR2
 40
0.0
  9
$USERR3
 40
0.0
  9
$USERR4
 40
0.0
  9
$USERR5
 40
0.0
  9
$WORLDVIEW
 70
     1
  0
ENDSEC
  0
SECTION
  2
TABLES
  0
TABLE
  2
VPORT
 70
     2
  0
VPORT
  2
*ACTIVE
 70
     0
 10
0.0
 20
0.0
 11
1.0
 21
1.0
 12
952.911956
 22
615.298075
 13
0.0
 23
0.0
 14
5.0
 24
5.0
 15
0.0
 25
0.0
 16
0.0
 26
0.0
 36
1.0
 17
0.0
 27
0.0
 37
0.0
 40
1230.59615
 41
1.5487
 42
50.0
 43
0.0
 44
0.0
 50
0.0
 51
0.0
 71
     0
 72
   100
 73
     1
 74
     0
 75
     0
 76
     0
 77
     0
 78
     0
  0
ENDTAB
  0
TABLE
  2
LTYPE
 70
     2
  0
LTYPE
  2
CONTINUOUS
 70
    64
  3
Solid line
 72
    65
 73
     0
 40
0.0
  0
LTYPE
  2
CENTER
 70
    64
  3
____ _ ____ _ ____ _ ____ _ 
 72
    65
 73
     4
 40
60.0
 49
45.0
 49
-5.0
 49
5.0
 49
-5.0
  0
ENDTAB
  0
TABLE
  2
LAYER
 70
     3
  0
LAYER
  2
0
 70
     0
 62
     7
  6
CONTINUOUS
  0
LAYER
  2
L-ZISSEN
 70
    64
 62
     7
  6
CONTINUOUS
  0
LAYER
  2
L-TYUSIN
 70
    64
 62
     1
  6
CENTER
  0
ENDTAB
  0
TABLE
  2
STYLE
 70
     1
  0
STYLE
  2
STANDARD
 70
    64
 40
0.0
 41
1.0
 50
0.0
 71
     0
 42
4.5
  3
TXT
  4

  0
ENDTAB
  0
TABLE
  2
VIEW
 70
     0
  0
ENDTAB
  0
TABLE
  2
UCS
 70
     0
  0
ENDTAB
  0
TABLE
  2
DWGMGR
 70
     0
  0
ENDTAB
  0
ENDSEC
  0
SECTION
  2
BLOCKS
  0
ENDSEC
  0
SECTION
  2
ENTITIES
  0
LINE
  8
L-TYUSIN
 10
241.0
 20
280.0
 30
0.0
 11
319.0
 21
280.0
 31
0.0
  0
LINE
  8
L-TYUSIN
 10
360.0
 20
261.0
 30
0.0
 11
360.0
 21
339.0
 31
0.0
  0
LINE
  8
L-TYUSIN
 10
280.0
 20
235.0
 30
0.0
 11
280.0
 21
432.0
 31
0.0
  0
LINE
  8
L-TYUSIN
 10
280.0
 20
175.0
 30
0.0
 11
280.0
 21
25.0
 31
0.0
  0
LINE
  8
L-TYUSIN
 10
85.5
 20
100.0
 30
0.0
 11
474.5
 21
100.0
 31
0.0
  0
LINE
  8
L-ZISSEN
 10
178.0
 20
147.0
 30
0.0
 11
178.0
 21
53.0
 31
0.0
  0
LINE
  8
L-ZISSEN
 10
382.0
 20
147.0
 30
0.0
 11
382.0
 21
53.0
 31
0.0
  0
LINE
  8
L-ZISSEN
 10
178.0
 20
53.0
 30
0.0
 11
382.0
 21
53.0
 31
0.0
  0
LINE
  8
L-ZISSEN
 10
178.0
 20
147.0
 30
0.0
 11
382.0
 21
147.0
 31
0.0
  0
LINE
  8
L-ZISSEN
 10
166.0
 20
170.0
 30
0.0
 11
394.0
 21
170.0
 31
0.0
  0
CIRCLE
  8
L-ZISSEN
 10
280.0
 20
280.0
 30
0.0
 40
34.0
  0
CIRCLE
  8
L-ZISSEN
 10
360.0
 20
300.0
 30
0.0
 40
34.0
  0
LINE
  8
L-ZISSEN
 10
326.0
 20
155.0
 30
0.0
 11
326.0
 21
170.0
 31
0.0
  0
LINE
  8
L-ZISSEN
 10
394.0
 20
158.294693
 30
0.0
 11
394.0
 21
170.0
 31
0.0
  0
LINE
  8
L-ZISSEN
 10
314.0
 20
155.0
 30
0.0
 11
314.0
 21
170.0
 31
0.0
  0
LINE
  8
L-ZISSEN
 10
246.0
 20
155.0
 30
0.0
 11
246.0
 21
170.0
 31
0.0
  0
LINE
  8
L-ZISSEN
 10
170.0
 20
155.0
 30
0.0
 11
390.0
 21
155.0
 31
0.0
  0
LINE
  8
L-ZISSEN
 10
170.0
 20
45.0
 30
0.0
 11
390.0
 21
45.0
 31
0.0
  0
LINE
  8
L-ZISSEN
 10
390.0
 20
155.0
 30
0.0
 11
390.0
 21
154.529796
 31
0.0
  0
LINE
  8
L-ZISSEN
 10
170.0
 20
155.0
 30
0.0
 11
170.0
 21
154.529796
 31
0.0
  0
LINE
  8
L-ZISSEN
 10
166.0
 20
158.294693
 30
0.0
 11
166.0
 21
170.0
 31
0.0
  0
LINE
  8
L-ZISSEN
 10
234.0
 20
155.0
 30
0.0
 11
234.0
 21
170.0
 31
0.0
  0
LINE
  8
L-ZISSEN
 10
354.0
 20
45.0
 30
0.0
 11
354.0
 21
30.0
 31
0.0
  0
LINE
  8
L-ZISSEN
 10
206.0
 20
30.0
 30
0.0
 11
354.0
 21
30.0
 31
0.0
  0
LINE
  8
L-ZISSEN
 10
286.0
 20
45.0
 30
0.0
 11
286.0
 21
30.0
 31
0.0
  0
LINE
  8
L-TYUSIN
 10
320.0
 20
50.0
 30
0.0
 11
320.0
 21
25.0
 31
0.0
  0
LINE
  8
L-ZISSEN
 10
274.0
 20
45.0
 30
0.0
 11
274.0
 21
30.0
 31
0.0
  0
LINE
  8
L-ZISSEN
 10
206.0
 20
45.0
 30
0.0
 11
206.0
 21
30.0
 31
0.0
  0
LINE
  8
L-TYUSIN
 10
240.0
 20
50.0
 30
0.0
 11
240.0
 21
25.0
 31
0.0
  0
LINE
  8
L-TYUSIN
 10
360.0
 20
175.0
 30
0.0
 11
360.0
 21
150.0
 31
0.0
  0
LINE
  8
L-TYUSIN
 10
200.0
 20
175.0
 30
0.0
 11
200.0
 21
150.0
 31
0.0
  0
LINE
  8
L-TYUSIN
 10
398.0
 20
45.0
 30
0.0
 11
418.0
 21
45.0
 31
0.0
  0
LINE
  8
L-TYUSIN
 10
408.0
 20
55.0
 30
0.0
 11
408.0
 21
35.0
 31
0.0
  0
CIRCLE
  8
L-ZISSEN
 10
408.0
 20
45.0
 30
0.0
 40
5.5
  0
ARC
  8
L-ZISSEN
 10
408.0
 20
45.0
 30
0.0
 40
12.0
 50
225.0
 51
45.0
  0
LINE
  8
L-ZISSEN
 10
400.0
 20
124.0
 30
0.0
 11
400.0
 21
76.0
 31
0.0
  0
LINE
  8
L-ZISSEN
 10
416.485281
 20
53.485281
 30
0.0
 11
400.0
 21
76.0
 31
0.0
  0
LINE
  8
L-ZISSEN
 10
399.514719
 20
36.514719
 30
0.0
 11
382.0
 21
53.0
 31
0.0
  0
CIRCLE
  8
L-ZISSEN
 10
408.0
 20
155.0
 30
0.0
 40
5.5
  0
LINE
  8
L-TYUSIN
 10
398.0
 20
155.0
 30
0.0
 11
418.0
 21
155.0
 31
0.0
  0
LINE
  8
L-TYUSIN
 10
408.0
 20
145.0
 30
0.0
 11
408.0
 21
165.0
 31
0.0
  0
LINE
  8
L-ZISSEN
 10
416.485281
 20
146.514719
 30
0.0
 11
400.0
 21
124.0
 31
0.0
  0
ARC
  8
L-ZISSEN
 10
408.0
 20
155.0
 30
0.0
 40
12.0
 50
315.0
 51
135.0
  0
LINE
  8
L-ZISSEN
 10
399.514719
 20
163.485281
 30
0.0
 11
382.0
 21
147.0
 31
0.0
  0
ARC
  8
L-ZISSEN
 10
152.0
 20
155.0
 30
0.0
 40
12.0
 50
45.0
 51
225.0
  0
CIRCLE
  8
L-ZISSEN
 10
152.0
 20
155.0
 30
0.0
 40
5.5
  0
LINE
  8
L-TYUSIN
 10
162.0
 20
155.0
 30
0.0
 11
142.0
 21
155.0
 31
0.0
  0
LINE
  8
L-TYUSIN
 10
152.0
 20
145.0
 30
0.0
 11
152.0
 21
165.0
 31
0.0
  0
LINE
  8
L-ZISSEN
 10
160.485281
 20
163.485281
 30
0.0
 11
178.0
 21
147.0
 31
0.0
  0
LINE
  8
L-ZISSEN
 10
143.514719
 20
146.514719
 30
0.0
 11
160.0
 21
124.0
 31
0.0
  0
LINE
  8
L-ZISSEN
 10
160.0
 20
124.0
 30
0.0
 11
160.0
 21
76.0
 31
0.0
  0
LINE
  8
L-ZISSEN
 10
143.514719
 20
53.485281
 30
0.0
 11
160.0
 21
76.0
 31
0.0
  0
CIRCLE
  8
L-ZISSEN
 10
152.0
 20
45.0
 30
0.0
 40
5.5
  0
LINE
  8
L-TYUSIN
 10
152.0
 20
55.0
 30
0.0
 11
152.0
 21
35.0
 31
0.0
  0
LINE
  8
L-TYUSIN
 10
162.0
 20
45.0
 30
0.0
 11
142.0
 21
45.0
 31
0.0
  0
ARC
  8
L-ZISSEN
 10
152.0
 20
45.0
 30
0.0
 40
12.0
 50
135.0
 51
315.0
  0
LINE
  8
L-ZISSEN
 10
160.485281
 20
36.514719
 30
0.0
 11
178.0
 21
53.0
 31
0.0
  0
LINE
  8
L-ZISSEN
 10
160.485281
 20
673.485281
 30
0.0
 11
170.0
 21
664.529796
 31
0.0
  0
ARC
  8
L-ZISSEN
 10
152.0
 20
665.0
 30
0.0
 40
12.0
 50
45.0
 51
225.0
  0
LINE
  8
L-TYUSIN
 10
162.0
 20
665.0
 30
0.0
 11
142.0
 21
665.0
 31
0.0
  0
LINE
  8
L-TYUSIN
 10
152.0
 20
655.0
 30
0.0
 11
152.0
 21
675.0
 31
0.0
  0
CIRCLE
  8
L-ZISSEN
 10
152.0
 20
665.0
 30
0.0
 40
5.5
  0
LINE
  8
L-ZISSEN
 10
143.514719
 20
656.514719
 30
0.0
 11
149.749197
 21
648.0
 31
0.0
  0
LINE
  8
L-ZISSEN
 10
143.514719
 20
563.485281
 30
0.0
 11
149.749197
 21
572.0
 31
0.0
  0
LINE
  8
L-ZISSEN
 10
160.485281
 20
546.514719
 30
0.0
 11
166.0
 21
551.705307
 31
0.0
  0
LINE
  8
L-TYUSIN
 10
152.0
 20
565.0
 30
0.0
 11
152.0
 21
545.0
 31
0.0
  0
LINE
  8
L-TYUSIN
 10
162.0
 20
555.0
 30
0.0
 11
142.0
 21
555.0
 31
0.0
  0
CIRCLE
  8
L-ZISSEN
 10
152.0
 20
555.0
 30
0.0
 40
5.5
  0
ARC
  8
L-ZISSEN
 10
152.0
 20
555.0
 30
0.0
 40
12.0
 50
135.0
 51
315.0
  0
LINE
  8
L-ZISSEN
 10
399.514719
 20
546.514719
 30
0.0
 11
394.0
 21
551.705307
 31
0.0
  0
ARC
  8
L-ZISSEN
 10
408.0
 20
555.0
 30
0.0
 40
12.0
 50
225.0
 51
45.0
  0
LINE
  8
L-ZISSEN
 10
416.485281
 20
563.485281
 30
0.0
 11
410.250803
 21
572.0
 31
0.0
  0
LINE
  8
L-TYUSIN
 10
408.0
 20
565.0
 30
0.0
 11
408.0
 21
545.0
 31
0.0
  0
LINE
  8
L-TYUSIN
 10
398.0
 20
555.0
 30
0.0
 11
418.0
 21
555.0
 31
0.0
  0
CIRCLE
  8
L-ZISSEN
 10
408.0
 20
555.0
 30
0.0
 40
5.5
  0
LINE
  8
L-ZISSEN
 10
399.514719
 20
673.485281
 30
0.0
 11
390.0
 21
664.529796
 31
0.0
  0
LINE
  8
L-ZISSEN
 10
416.485281
 20
656.514719
 30
0.0
 11
410.250803
 21
648.0
 31
0.0
  0
ARC
  8
L-ZISSEN
 10
408.0
 20
665.0
 30
0.0
 40
12.0
 50
315.0
 51
135.0
  0
CIRCLE
  8
L-ZISSEN
 10
408.0
 20
665.0
 30
0.0
 40
5.5
  0
LINE
  8
L-TYUSIN
 10
408.0
 20
655.0
 30
0.0
 11
408.0
 21
675.0
 31
0.0
  0
LINE
  8
L-TYUSIN
 10
398.0
 20
665.0
 30
0.0
 11
418.0
 21
665.0
 31
0.0
  0
LINE
  8
L-TYUSIN
 10
200.0
 20
535.0
 30
0.0
 11
200.0
 21
560.0
 31
0.0
  0
LINE
  8
L-TYUSIN
 10
360.0
 20
535.0
 30
0.0
 11
360.0
 21
560.0
 31
0.0
  0
LINE
  8
L-TYUSIN
 10
240.0
 20
660.0
 30
0.0
 11
240.0
 21
685.0
 31
0.0
  0
LINE
  8
L-ZISSEN
 10
206.0
 20
665.0
 30
0.0
 11
206.0
 21
680.0
 31
0.0
  0
LINE
  8
L-ZISSEN
 10
274.0
 20
665.0
 30
0.0
 11
274.0
 21
680.0
 31
0.0
  0
LINE
  8
L-TYUSIN
 10
320.0
 20
660.0
 30
0.0
 11
320.0
 21
685.0
 31
0.0
  0
LINE
  8
L-ZISSEN
 10
286.0
 20
665.0
 30
0.0
 11
286.0
 21
680.0
 31
0.0
  0
LINE
  8
L-ZISSEN
 10
206.0
 20
680.0
 30
0.0
 11
354.0
 21
680.0
 31
0.0
  0
LINE
  8
L-ZISSEN
 10
354.0
 20
665.0
 30
0.0
 11
354.0
 21
680.0
 31
0.0
  0
LINE
  8
L-ZISSEN
 10
234.0
 20
555.0
 30
0.0
 11
234.0
 21
540.0
 31
0.0
  0
LINE
  8
L-ZISSEN
 10
166.0
 20
572.0
 30
0.0
 11
166.0
 21
540.0
 31
0.0
  0
LINE
  8
L-ZISSEN
 10
170.0
 20
555.0
 30
0.0
 11
170.0
 21
572.0
 31
0.0
  0
LINE
  8
L-ZISSEN
 10
390.0
 20
555.0
 30
0.0
 11
390.0
 21
572.0
 31
0.0
  0
LINE
  8
L-ZISSEN
 10
170.0
 20
665.0
 30
0.0
 11
390.0
 21
665.0
 31
0.0
  0
LINE
  8
L-ZISSEN
 10
170.0
 20
555.0
 30
0.0
 11
390.0
 21
555.0
 31
0.0
  0
LINE
  8
L-ZISSEN
 10
246.0
 20
555.0
 30
0.0
 11
246.0
 21
540.0
 31
0.0
  0
LINE
  8
L-ZISSEN
 10
314.0
 20
555.0
 30
0.0
 11
314.0
 21
540.0
 31
0.0
  0
LINE
  8
L-ZISSEN
 10
394.0
 20
572.0
 30
0.0
 11
394.0
 21
540.0
 31
0.0
  0
LINE
  8
L-ZISSEN
 10
326.0
 20
555.0
 30
0.0
 11
326.0
 21
540.0
 31
0.0
  0
LINE
  8
L-ZISSEN
 10
166.0
 20
540.0
 30
0.0
 11
394.0
 21
540.0
 31
0.0
  0
LINE
  8
L-TYUSIN
 10
85.5
 20
610.0
 30
0.0
 11
474.5
 21
610.0
 31
0.0
  0
LINE
  8
L-TYUSIN
 10
280.0
 20
535.0
 30
0.0
 11
280.0
 21
685.0
 31
0.0
  0
LINE
  8
L-ZISSEN
 10
170.0
 20
45.470204
 30
0.0
 11
170.0
 21
45.0
 31
0.0
  0
LINE
  8
L-ZISSEN
 10
390.0
 20
45.470204
 30
0.0
 11
390.0
 21
45.0
 31
0.0
  0
LINE
  8
L-ZISSEN
 10
380.0
 20
335.0
 30
0.0
 11
180.0
 21
335.0
 31
0.0
  0
LINE
  8
L-ZISSEN
 10
170.0
 20
325.0
 30
0.0
 11
170.0
 21
316.0
 31
0.0
  0
LINE
  8
L-ZISSEN
 10
140.0
 20
240.0
 30
0.0
 11
178.0
 21
240.0
 31
0.0
  0
LINE
  8
L-ZISSEN
 10
390.0
 20
246.0
 30
0.0
 11
390.0
 21
284.0
 31
0.0
  0
LINE
  8
L-ZISSEN
 10
140.0
 20
260.0
 30
0.0
 11
170.0
 21
260.0
 31
0.0
  0
LINE
  8
L-ZISSEN
 10
420.0
 20
240.0
 30
0.0
 11
420.0
 21
260.0
 31
0.0
  0
LINE
  8
L-ZISSEN
 10
140.0
 20
240.0
 30
0.0
 11
140.0
 21
260.0
 31
0.0
  0
LINE
  8
L-ZISSEN
 10
382.0
 20
240.0
 30
0.0
 11
420.0
 21
240.0
 31
0.0
  0
LINE
  8
L-ZISSEN
 10
170.0
 20
246.0
 30
0.0
 11
390.0
 21
246.0
 31
0.0
  0
LINE
  8
L-ZISSEN
 10
382.0
 20
240.0
 30
0.0
 11
382.0
 21
246.0
 31
0.0
  0
LINE
  8
L-ZISSEN
 10
178.0
 20
240.0
 30
0.0
 11
178.0
 21
246.0
 31
0.0
  0
LINE
  8
L-ZISSEN
 10
390.0
 20
260.0
 30
0.0
 11
420.0
 21
260.0
 31
0.0
  0
LINE
  8
L-ZISSEN
 10
390.0
 20
316.0
 30
0.0
 11
390.0
 21
325.0
 31
0.0
  0
LINE
  8
L-ZISSEN
 10
170.0
 20
284.0
 30
0.0
 11
170.0
 21
246.0
 31
0.0
  0
LINE
  8
L-ZISSEN
 10
380.0
 20
335.0
 30
0.0
 11
390.0
 21
325.0
 31
0.0
  0
LINE
  8
L-ZISSEN
 10
180.0
 20
335.0
 30
0.0
 11
170.0
 21
325.0
 31
0.0
  0
LINE
  8
L-TYUSIN
 10
321.0
 20
300.0
 30
0.0
 11
399.0
 21
300.0
 31
0.0
  0
LINE
  8
L-ZISSEN
 10
227.495454
 20
280.0
 30
0.0
 11
246.0
 21
280.0
 31
0.0
  0
LINE
  8
L-ZISSEN
 10
252.504546
 20
300.0
 30
0.0
 11
234.0
 21
300.0
 31
0.0
  0
CIRCLE
  8
L-ZISSEN
 10
200.0
 20
300.0
 30
0.0
 40
34.0
  0
LINE
  8
L-TYUSIN
 10
200.0
 20
261.0
 30
0.0
 11
200.0
 21
339.0
 31
0.0
  0
LINE
  8
L-ZISSEN
 10
180.0
 20
885.0
 30
0.0
 11
170.0
 21
895.0
 31
0.0
  0
LINE
  8
L-ZISSEN
 10
380.0
 20
885.0
 30
0.0
 11
390.0
 21
895.0
 31
0.0
  0
LINE
  8
L-ZISSEN
 10
272.496154
 20
930.0
 30
0.0
 11
287.503846
 21
930.0
 31
0.0
  0
LINE
  8
L-ZISSEN
 10
287.503846
 20
950.0
 30
0.0
 11
272.496154
 21
950.0
 31
0.0
  0
LINE
  8
L-ZISSEN
 10
170.0
 20
895.0
 30
0.0
 11
170.0
 21
974.0
 31
0.0
  0
LINE
  8
L-ZISSEN
 10
390.0
 20
960.0
 30
0.0
 11
420.0
 21
960.0
 31
0.0
  0
LINE
  8
L-ZISSEN
 10
178.0
 20
980.0
 30
0.0
 11
178.0
 21
974.0
 31
0.0
  0
LINE
  8
L-ZISSEN
 10
382.0
 20
980.0
 30
0.0
 11
382.0
 21
974.0
 31
0.0
  0
LINE
  8
L-ZISSEN
 10
170.0
 20
974.0
 30
0.0
 11
390.0
 21
974.0
 31
0.0
  0
LINE
  8
L-ZISSEN
 10
382.0
 20
980.0
 30
0.0
 11
420.0
 21
980.0
 31
0.0
  0
LINE
  8
L-ZISSEN
 10
140.0
 20
980.0
 30
0.0
 11
140.0
 21
960.0
 31
0.0
  0
LINE
  8
L-ZISSEN
 10
420.0
 20
980.0
 30
0.0
 11
420.0
 21
960.0
 31
0.0
  0
LINE
  8
L-ZISSEN
 10
140.0
 20
960.0
 30
0.0
 11
170.0
 21
960.0
 31
0.0
  0
LINE
  8
L-ZISSEN
 10
390.0
 20
974.0
 30
0.0
 11
390.0
 21
895.0
 31
0.0
  0
LINE
  8
L-ZISSEN
 10
140.0
 20
980.0
 30
0.0
 11
178.0
 21
980.0
 31
0.0
  0
LINE
  8
L-ZISSEN
 10
380.0
 20
885.0
 30
0.0
 11
180.0
 21
885.0
 31
0.0
  0
CIRCLE
  8
L-ZISSEN
 10
320.0
 20
940.0
 30
0.0
 40
34.0
  0
LINE
  8
L-TYUSIN
 10
280.0
 20
979.0
 30
0.0
 11
280.0
 21
788.0
 31
0.0
  0
LINE
  8
L-TYUSIN
 10
201.0
 20
940.0
 30
0.0
 11
359.0
 21
940.0
 31
0.0
  0
LINE
  8
L-TYUSIN
 10
239.0
 20
300.0
 30
0.0
 11
161.0
 21
300.0
 31
0.0
  0
LINE
  8
L-ZISSEN
 10
307.495454
 20
300.0
 30
0.0
 11
326.0
 21
300.0
 31
0.0
  0
LINE
  8
L-ZISSEN
 10
332.504546
 20
280.0
 30
0.0
 11
314.0
 21
280.0
 31
0.0
  0
LINE
  8
L-TYUSIN
 10
320.0
 20
979.0
 30
0.0
 11
320.0
 21
901.0
 31
0.0
  0
CIRCLE
  8
L-ZISSEN
 10
240.0
 20
940.0
 30
0.0
 40
34.0
  0
LINE
  8
L-TYUSIN
 10
240.0
 20
979.0
 30
0.0
 11
240.0
 21
901.0
 31
0.0
  0
LINE
  8
L-TYUSIN
 10
525.0
 20
280.0
 30
0.0
 11
675.0
 21
280.0
 31
0.0
  0
LINE
  8
L-TYUSIN
 10
600.0
 20
235.0
 30
0.0
 11
600.0
 21
493.5
 31
0.0
  0
LINE
  8
L-TYUSIN
 10
573.0
 20
300.0
 30
0.0
 11
525.0
 21
300.0
 31
0.0
  0
LINE
  8
L-ZISSEN
 10
545.0
 20
334.0
 30
0.0
 11
530.0
 21
334.0
 31
0.0
  0
LINE
  8
L-ZISSEN
 10
545.0
 20
266.0
 30
0.0
 11
530.0
 21
266.0
 31
0.0
  0
LINE
  8
L-ZISSEN
 10
530.0
 20
334.0
 30
0.0
 11
530.0
 21
246.0
 31
0.0
  0
LINE
  8
L-ZISSEN
 10
568.0
 20
316.0
 30
0.0
 11
568.0
 21
284.0
 31
0.0
  0
LINE
  8
L-ZISSEN
 10
533.0
 20
246.0
 30
0.0
 11
530.0
 21
246.0
 31
0.0
  0
LINE
  8
L-ZISSEN
 10
670.0
 20
314.0
 30
0.0
 11
670.0
 21
246.0
 31
0.0
  0
LINE
  8
L-ZISSEN
 10
667.0
 20
246.0
 30
0.0
 11
670.0
 21
246.0
 31
0.0
  0
LINE
  8
L-ZISSEN
 10
655.0
 20
314.0
 30
0.0
 11
670.0
 21
314.0
 31
0.0
  0
LINE
  8
L-ZISSEN
 10
533.0
 20
240.0
 30
0.0
 11
667.0
 21
240.0
 31
0.0
  0
LINE
  8
L-ZISSEN
 10
533.0
 20
260.0
 30
0.0
 11
533.0
 21
240.0
 31
0.0
  0
LINE
  8
L-ZISSEN
 10
576.0
 20
260.0
 30
0.0
 11
576.0
 21
240.0
 31
0.0
  0
LINE
  8
L-ZISSEN
 10
533.0
 20
260.0
 30
0.0
 11
576.0
 21
260.0
 31
0.0
  0
LINE
  8
L-TYUSIN
 10
545.0
 20
265.0
 30
0.0
 11
545.0
 21
235.0
 31
0.0
  0
LINE
  8
L-ZISSEN
 10
667.0
 20
260.0
 30
0.0
 11
624.0
 21
260.0
 31
0.0
  0
LINE
  8
L-TYUSIN
 10
655.0
 20
265.0
 30
0.0
 11
655.0
 21
235.0
 31
0.0
  0
LINE
  8
L-ZISSEN
 10
667.0
 20
260.0
 30
0.0
 11
667.0
 21
240.0
 31
0.0
  0
LINE
  8
L-ZISSEN
 10
624.0
 20
260.0
 30
0.0
 11
624.0
 21
240.0
 31
0.0
  0
LINE
  8
L-ZISSEN
 10
545.0
 20
335.0
 30
0.0
 11
655.0
 21
335.0
 31
0.0
  0
LINE
  8
L-ZISSEN
 10
545.0
 20
316.0
 30
0.0
 11
568.0
 21
316.0
 31
0.0
  0
LINE
  8
L-ZISSEN
 10
545.0
 20
284.0
 30
0.0
 11
568.0
 21
284.0
 31
0.0
  0
LINE
  8
L-ZISSEN
 10
362.0
 20
336.0
 30
0.0
 11
198.0
 21
336.0
 31
0.0
  0
LINE
  8
L-ZISSEN
 10
545.0
 20
336.0
 30
0.0
 11
655.0
 21
336.0
 31
0.0
  0
LINE
  8
L-ZISSEN
 10
362.0
 20
427.0
 30
0.0
 11
198.0
 21
427.0
 31
0.0
  0
LINE
  8
L-ZISSEN
 10
198.0
 20
427.0
 30
0.0
 11
198.0
 21
335.0
 31
0.0
  0
LINE
  8
L-ZISSEN
 10
362.0
 20
427.0
 30
0.0
 11
362.0
 21
335.0
 31
0.0
  0
LINE
  8
L-TYUSIN
 10
83.5
 20
378.0
 30
0.0
 11
476.5
 21
378.0
 31
0.0
  0
ARC
  8
L-ZISSEN
 10
340.0
 20
654.0
 30
0.0
 40
10.0
 50
203.578178
 51
336.421822
  0
ARC
  8
L-ZISSEN
 10
310.0
 20
566.0
 30
0.0
 40
10.0
 50
23.578178
 51
156.421822
  0
LINE
  8
L-ZISSEN
 10
198.0
 20
555.0
 30
0.0
 11
198.0
 21
584.136191
 31
0.0
  0
LINE
  8
L-ZISSEN
 10
362.0
 20
555.0
 30
0.0
 11
362.0
 21
584.136191
 31
0.0
  0
LINE
  8
L-ZISSEN
 10
198.0
 20
570.0
 30
0.0
 11
240.834849
 21
570.0
 31
0.0
  0
LINE
  8
L-ZISSEN
 10
198.0
 20
650.0
 30
0.0
 11
210.834849
 21
650.0
 31
0.0
  0
LINE
  8
L-ZISSEN
 10
319.165151
 20
570.0
 30
0.0
 11
362.0
 21
570.0
 31
0.0
  0
LINE
  8
L-ZISSEN
 10
349.165151
 20
650.0
 30
0.0
 11
362.0
 21
650.0
 31
0.0
  0
ARC
  8
L-ZISSEN
 10
340.0
 20
654.0
 30
0.0
 40
11.0
 50
338.676314
 51
201.323686
  0
ARC
  8
L-ZISSEN
 10
310.0
 20
566.0
 30
0.0
 40
11.0
 50
158.676314
 51
21.323686
  0
CIRCLE
  8
L-ZISSEN
 10
310.0
 20
566.0
 30
0.0
 40
8.0
  0
CIRCLE
  8
L-ZISSEN
 10
340.0
 20
654.0
 30
0.0
 40
8.0
  0
CIRCLE
  8
L-ZISSEN
 10
220.0
 20
654.0
 30
0.0
 40
8.0
  0
ARC
  8
L-ZISSEN
 10
220.0
 20
654.0
 30
0.0
 40
11.0
 50
338.676314
 51
201.323686
  0
ARC
  8
L-ZISSEN
 10
220.0
 20
654.0
 30
0.0
 40
10.0
 50
203.578178
 51
336.421822
  0
ARC
  8
L-ZISSEN
 10
250.0
 20
566.0
 30
0.0
 40
10.0
 50
23.578178
 51
156.421822
  0
CIRCLE
  8
L-ZISSEN
 10
250.0
 20
566.0
 30
0.0
 40
8.0
  0
ARC
  8
L-ZISSEN
 10
250.0
 20
566.0
 30
0.0
 40
11.0
 50
158.676314
 51
21.323686
  0
LINE
  8
L-ZISSEN
 10
229.165151
 20
650.0
 30
0.0
 11
330.834849
 21
650.0
 31
0.0
  0
LINE
  8
L-ZISSEN
 10
259.165151
 20
570.0
 30
0.0
 11
300.834849
 21
570.0
 31
0.0
  0
LINE
  8
L-ZISSEN
 10
349.5
 20
560.0
 30
0.0
 11
349.5
 21
570.0
 31
0.0
  0
LINE
  8
L-ZISSEN
 10
379.0
 20
560.0
 30
0.0
 11
349.5
 21
560.0
 31
0.0
  0
LINE
  8
L-ZISSEN
 10
379.0
 20
660.0
 30
0.0
 11
349.5
 21
660.0
 31
0.0
  0
LINE
  8
L-ZISSEN
 10
349.5
 20
659.545268
 30
0.0
 11
349.5
 21
660.0
 31
0.0
  0
LINE
  8
L-ZISSEN
 10
181.0
 20
660.0
 30
0.0
 11
210.5
 21
660.0
 31
0.0
  0
LINE
  8
L-ZISSEN
 10
210.5
 20
560.0
 30
0.0
 11
210.5
 21
570.0
 31
0.0
  0
LINE
  8
L-ZISSEN
 10
181.0
 20
560.0
 30
0.0
 11
210.5
 21
560.0
 31
0.0
  0
LINE
  8
L-ZISSEN
 10
210.5
 20
659.545268
 30
0.0
 11
210.5
 21
660.0
 31
0.0
  0
LINE
  8
L-ZISSEN
 10
379.0
 20
418.0
 30
0.0
 11
320.246951
 21
418.0
 31
0.0
  0
LINE
  8
L-ZISSEN
 10
362.0
 20
346.0
 30
0.0
 11
198.0
 21
346.0
 31
0.0
  0
LINE
  8
L-ZISSEN
 10
320.246951
 20
414.0
 30
0.0
 11
299.753049
 21
414.0
 31
0.0
  0
LINE
  8
L-ZISSEN
 10
349.5
 20
418.0
 30
0.0
 11
349.5
 21
346.0
 31
0.0
  0
LINE
  8
L-ZISSEN
 10
320.246951
 20
418.0
 30
0.0
 11
320.246951
 21
346.0
 31
0.0
  0
LINE
  8
L-ZISSEN
 10
299.753049
 20
427.0
 30
0.0
 11
299.753049
 21
346.0
 31
0.0
  0
LINE
  8
L-ZISSEN
 10
239.753049
 20
414.0
 30
0.0
 11
260.246951
 21
414.0
 31
0.0
  0
LINE
  8
L-ZISSEN
 10
260.246951
 20
427.0
 30
0.0
 11
260.246951
 21
346.0
 31
0.0
  0
LINE
  8
L-ZISSEN
 10
239.753049
 20
418.0
 30
0.0
 11
239.753049
 21
346.0
 31
0.0
  0
LINE
  8
L-ZISSEN
 10
210.5
 20
418.0
 30
0.0
 11
210.5
 21
346.0
 31
0.0
  0
LINE
  8
L-ZISSEN
 10
239.753049
 20
418.0
 30
0.0
 11
181.0
 21
418.0
 31
0.0
  0
LINE
  8
L-ZISSEN
 10
258.0
 20
426.5
 30
0.0
 11
258.0
 21
414.0
 31
0.0
  0
LINE
  8
L-ZISSEN
 10
242.0
 20
426.5
 30
0.0
 11
242.0
 21
414.0
 31
0.0
  0
LINE
  8
L-ZISSEN
 10
242.0
 20
426.5
 30
0.0
 11
258.0
 21
426.5
 31
0.0
  0
LINE
  8
L-ZISSEN
 10
318.0
 20
426.5
 30
0.0
 11
302.0
 21
426.5
 31
0.0
  0
LINE
  8
L-ZISSEN
 10
318.0
 20
426.5
 30
0.0
 11
318.0
 21
414.0
 31
0.0
  0
LINE
  8
L-ZISSEN
 10
302.0
 20
426.5
 30
0.0
 11
302.0
 21
414.0
 31
0.0
  0
LINE
  8
L-TYUSIN
 10
545.0
 20
378.0
 30
0.0
 11
655.0
 21
378.0
 31
0.0
  0
LINE
  8
L-ZISSEN
 10
550.0
 20
418.0
 30
0.0
 11
550.0
 21
338.0
 31
0.0
  0
LINE
  8
L-ZISSEN
 10
550.0
 20
338.0
 30
0.0
 11
650.0
 21
338.0
 31
0.0
  0
LINE
  8
L-ZISSEN
 10
650.0
 20
338.0
 30
0.0
 11
650.0
 21
418.0
 31
0.0
  0
LINE
  8
L-ZISSEN
 10
650.0
 20
418.0
 30
0.0
 11
613.0
 21
418.0
 31
0.0
  0
LINE
  8
L-ZISSEN
 10
613.0
 20
413.707142
 30
0.0
 11
613.0
 21
426.0
 31
0.0
  0
LINE
  8
L-ZISSEN
 10
613.0
 20
426.0
 30
0.0
 11
587.0
 21
426.0
 31
0.0
  0
LINE
  8
L-ZISSEN
 10
587.0
 20
426.0
 30
0.0
 11
587.0
 21
413.707142
 31
0.0
  0
LINE
  8
L-ZISSEN
 10
587.0
 20
418.0
 30
0.0
 11
550.0
 21
418.0
 31
0.0
  0
CIRCLE
  8
L-ZISSEN
 10
640.0
 20
408.0
 30
0.0
 40
6.5
  0
CIRCLE
  8
L-ZISSEN
 10
560.0
 20
408.0
 30
0.0
 40
6.5
  0
CIRCLE
  8
L-ZISSEN
 10
560.0
 20
348.0
 30
0.0
 40
6.5
  0
CIRCLE
  8
L-ZISSEN
 10
640.0
 20
348.0
 30
0.0
 40
6.5
  0
LINE
  8
L-ZISSEN
 10
560.0
 20
427.0
 30
0.0
 11
640.0
 21
427.0
 31
0.0
  0
LINE
  8
L-ZISSEN
 10
560.0
 20
427.0
 30
0.0
 11
560.0
 21
418.0
 31
0.0
  0
LINE
  8
L-ZISSEN
 10
640.0
 20
427.0
 30
0.0
 11
640.0
 21
418.0
 31
0.0
  0
LINE
  8
L-ZISSEN
 10
545.0
 20
346.0
 30
0.0
 11
550.0
 21
346.0
 31
0.0
  0
LINE
  8
L-ZISSEN
 10
650.0
 20
346.0
 30
0.0
 11
655.0
 21
346.0
 31
0.0
  0
LINE
  8
L-ZISSEN
 10
652.0
 20
426.5
 30
0.0
 11
640.0
 21
426.5
 31
0.0
  0
LINE
  8
L-ZISSEN
 10
652.0
 20
426.5
 30
0.0
 11
652.0
 21
414.0
 31
0.0
  0
LINE
  8
L-ZISSEN
 10
650.0
 20
414.0
 30
0.0
 11
655.0
 21
414.0
 31
0.0
  0
LINE
  8
L-ZISSEN
 10
655.0
 20
260.0
 30
0.0
 11
655.0
 21
414.0
 31
0.0
  0
LINE
  8
L-ZISSEN
 10
545.0
 20
260.0
 30
0.0
 11
545.0
 21
284.0
 31
0.0
  0
LINE
  8
L-ZISSEN
 10
548.0
 20
426.5
 30
0.0
 11
548.0
 21
414.0
 31
0.0
  0
LINE
  8
L-ZISSEN
 10
548.0
 20
426.5
 30
0.0
 11
560.0
 21
426.5
 31
0.0
  0
LINE
  8
L-ZISSEN
 10
550.0
 20
414.0
 30
0.0
 11
545.0
 21
414.0
 31
0.0
  0
LINE
  8
L-ZISSEN
 10
545.0
 20
316.0
 30
0.0
 11
545.0
 21
414.0
 31
0.0
  0
LINE
  8
L-ZISSEN
 10
442.0
 20
426.0
 30
0.0
 11
442.0
 21
413.707142
 31
0.0
  0
LINE
  8
L-ZISSEN
 10
379.0
 20
418.0
 30
0.0
 11
379.0
 21
338.0
 31
0.0
  0
LINE
  8
L-ZISSEN
 10
461.5
 20
340.0
 30
0.0
 11
379.0
 21
340.0
 31
0.0
  0
LINE
  8
L-ZISSEN
 10
442.0
 20
426.0
 30
0.0
 11
362.0
 21
426.0
 31
0.0
  0
LINE
  8
L-ZISSEN
 10
388.5
 20
414.5
 30
0.0
 11
379.0
 21
414.5
 31
0.0
  0
LINE
  8
L-ZISSEN
 10
388.5
 20
401.5
 30
0.0
 11
379.0
 21
401.5
 31
0.0
  0
LINE
  8
L-ZISSEN
 10
388.5
 20
414.5
 30
0.0
 11
388.5
 21
401.5
 31
0.0
  0
LINE
  8
L-ZISSEN
 10
388.5
 20
354.5
 30
0.0
 11
379.0
 21
354.5
 31
0.0
  0
LINE
  8
L-ZISSEN
 10
388.5
 20
341.5
 30
0.0
 11
379.0
 21
341.5
 31
0.0
  0
LINE
  8
L-ZISSEN
 10
388.5
 20
341.5
 30
0.0
 11
388.5
 21
354.5
 31
0.0
  0
LINE
  8
L-ZISSEN
 10
461.5
 20
572.0
 30
0.0
 11
388.5
 21
572.0
 31
0.0
  0
LINE
  8
L-ZISSEN
 10
461.5
 20
648.0
 30
0.0
 11
388.5
 21
648.0
 31
0.0
  0
LINE
  8
L-ZISSEN
 10
442.0
 20
623.0
 30
0.0
 11
442.0
 21
597.0
 31
0.0
  0
LINE
  8
L-ZISSEN
 10
379.0
 20
560.0
 30
0.0
 11
379.0
 21
584.729844
 31
0.0
  0
LINE
  8
L-ZISSEN
 10
390.0
 20
648.0
 30
0.0
 11
390.0
 21
665.0
 31
0.0
  0
LINE
  8
L-ZISSEN
 10
404.1
 20
623.0
 30
0.0
 11
442.0
 21
623.0
 31
0.0
  0
LINE
  8
L-ZISSEN
 10
404.1
 20
597.0
 30
0.0
 11
442.0
 21
597.0
 31
0.0
  0
LINE
  8
L-ZISSEN
 10
379.0
 20
635.270156
 30
0.0
 11
379.0
 21
660.0
 31
0.0
  0
LINE
  8
L-ZISSEN
 10
388.5
 20
563.5
 30
0.0
 11
379.0
 21
563.5
 31
0.0
  0
LINE
  8
L-ZISSEN
 10
388.5
 20
576.5
 30
0.0
 11
379.0
 21
576.5
 31
0.0
  0
LINE
  8
L-ZISSEN
 10
388.5
 20
576.5
 30
0.0
 11
388.5
 21
563.5
 31
0.0
  0
LINE
  8
L-ZISSEN
 10
388.5
 20
656.5
 30
0.0
 11
379.0
 21
656.5
 31
0.0
  0
LINE
  8
L-ZISSEN
 10
388.5
 20
643.5
 30
0.0
 11
388.5
 21
656.5
 31
0.0
  0
LINE
  8
L-ZISSEN
 10
388.5
 20
643.5
 30
0.0
 11
379.0
 21
643.5
 31
0.0
  0
LINE
  8
L-ZISSEN
 10
171.5
 20
414.5
 30
0.0
 11
171.5
 21
401.5
 31
0.0
  0
LINE
  8
L-ZISSEN
 10
171.5
 20
401.5
 30
0.0
 11
181.0
 21
401.5
 31
0.0
  0
LINE
  8
L-ZISSEN
 10
171.5
 20
414.5
 30
0.0
 11
181.0
 21
414.5
 31
0.0
  0
LINE
  8
L-ZISSEN
 10
171.5
 20
354.5
 30
0.0
 11
181.0
 21
354.5
 31
0.0
  0
LINE
  8
L-ZISSEN
 10
171.5
 20
341.5
 30
0.0
 11
171.5
 21
354.5
 31
0.0
  0
LINE
  8
L-ZISSEN
 10
171.5
 20
341.5
 30
0.0
 11
181.0
 21
341.5
 31
0.0
  0
LINE
  8
L-ZISSEN
 10
181.0
 20
418.0
 30
0.0
 11
181.0
 21
338.0
 31
0.0
  0
LINE
  8
L-ZISSEN
 10
181.0
 20
338.0
 30
0.0
 11
198.0
 21
338.0
 31
0.0
  0
LINE
  8
L-ZISSEN
 10
379.0
 20
338.0
 30
0.0
 11
362.0
 21
338.0
 31
0.0
  0
LINE
  8
L-ZISSEN
 10
181.0
 20
560.0
 30
0.0
 11
181.0
 21
584.729844
 31
0.0
  0
LINE
  8
L-ZISSEN
 10
171.5
 20
576.5
 30
0.0
 11
181.0
 21
576.5
 31
0.0
  0
LINE
  8
L-ZISSEN
 10
171.5
 20
563.5
 30
0.0
 11
181.0
 21
563.5
 31
0.0
  0
LINE
  8
L-ZISSEN
 10
181.0
 20
635.270156
 30
0.0
 11
181.0
 21
660.0
 31
0.0
  0
LINE
  8
L-ZISSEN
 10
171.5
 20
643.5
 30
0.0
 11
181.0
 21
643.5
 31
0.0
  0
LINE
  8
L-ZISSEN
 10
171.5
 20
656.5
 30
0.0
 11
181.0
 21
656.5
 31
0.0
  0
LINE
  8
L-ZISSEN
 10
171.5
 20
643.5
 30
0.0
 11
171.5
 21
656.5
 31
0.0
  0
LINE
  8
L-ZISSEN
 10
171.5
 20
576.5
 30
0.0
 11
171.5
 21
563.5
 31
0.0
  0
LINE
  8
L-ZISSEN
 10
170.0
 20
648.0
 30
0.0
 11
170.0
 21
665.0
 31
0.0
  0
LINE
  8
L-ZISSEN
 10
461.5
 20
413.707142
 30
0.0
 11
388.5
 21
413.707142
 31
0.0
  0
LINE
  8
L-ZISSEN
 10
379.0
 20
882.0
 30
0.0
 11
362.0
 21
882.0
 31
0.0
  0
LINE
  8
L-ZISSEN
 10
181.0
 20
882.0
 30
0.0
 11
198.0
 21
882.0
 31
0.0
  0
LINE
  8
L-ZISSEN
 10
181.0
 20
802.0
 30
0.0
 11
181.0
 21
882.0
 31
0.0
  0
LINE
  8
L-ZISSEN
 10
171.5
 20
878.5
 30
0.0
 11
181.0
 21
878.5
 31
0.0
  0
LINE
  8
L-ZISSEN
 10
171.5
 20
878.5
 30
0.0
 11
171.5
 21
865.5
 31
0.0
  0
LINE
  8
L-ZISSEN
 10
171.5
 20
865.5
 30
0.0
 11
181.0
 21
865.5
 31
0.0
  0
LINE
  8
L-ZISSEN
 10
171.5
 20
805.5
 30
0.0
 11
181.0
 21
805.5
 31
0.0
  0
LINE
  8
L-ZISSEN
 10
171.5
 20
818.5
 30
0.0
 11
181.0
 21
818.5
 31
0.0
  0
LINE
  8
L-ZISSEN
 10
171.5
 20
805.5
 30
0.0
 11
171.5
 21
818.5
 31
0.0
  0
LINE
  8
L-ZISSEN
 10
388.5
 20
878.5
 30
0.0
 11
388.5
 21
865.5
 31
0.0
  0
LINE
  8
L-ZISSEN
 10
388.5
 20
878.5
 30
0.0
 11
379.0
 21
878.5
 31
0.0
  0
LINE
  8
L-ZISSEN
 10
388.5
 20
865.5
 30
0.0
 11
379.0
 21
865.5
 31
0.0
  0
LINE
  8
L-ZISSEN
 10
388.5
 20
805.5
 30
0.0
 11
388.5
 21
818.5
 31
0.0
  0
LINE
  8
L-ZISSEN
 10
388.5
 20
818.5
 30
0.0
 11
379.0
 21
818.5
 31
0.0
  0
LINE
  8
L-ZISSEN
 10
388.5
 20
805.5
 30
0.0
 11
379.0
 21
805.5
 31
0.0
  0
LINE
  8
L-ZISSEN
 10
379.0
 20
802.0
 30
0.0
 11
379.0
 21
882.0
 31
0.0
  0
LINE
  8
L-ZISSEN
 10
332.0
 20
793.5
 30
0.0
 11
332.0
 21
806.0
 31
0.0
  0
LINE
  8
L-ZISSEN
 10
348.0
 20
793.5
 30
0.0
 11
348.0
 21
806.0
 31
0.0
  0
LINE
  8
L-ZISSEN
 10
348.0
 20
793.5
 30
0.0
 11
332.0
 21
793.5
 31
0.0
  0
LINE
  8
L-ZISSEN
 10
212.0
 20
793.5
 30
0.0
 11
228.0
 21
793.5
 31
0.0
  0
LINE
  8
L-ZISSEN
 10
212.0
 20
793.5
 30
0.0
 11
212.0
 21
806.0
 31
0.0
  0
LINE
  8
L-ZISSEN
 10
228.0
 20
793.5
 30
0.0
 11
228.0
 21
806.0
 31
0.0
  0
LINE
  8
L-ZISSEN
 10
209.753049
 20
802.0
 30
0.0
 11
181.0
 21
802.0
 31
0.0
  0
LINE
  8
L-ZISSEN
 10
209.753049
 20
802.0
 30
0.0
 11
209.753049
 21
874.0
 31
0.0
  0
LINE
  8
L-ZISSEN
 10
230.246951
 20
793.0
 30
0.0
 11
230.246951
 21
874.0
 31
0.0
  0
LINE
  8
L-ZISSEN
 10
209.753049
 20
806.0
 30
0.0
 11
230.246951
 21
806.0
 31
0.0
  0
LINE
  8
L-ZISSEN
 10
329.753049
 20
793.0
 30
0.0
 11
329.753049
 21
874.0
 31
0.0
  0
LINE
  8
L-ZISSEN
 10
350.246951
 20
802.0
 30
0.0
 11
350.246951
 21
874.0
 31
0.0
  0
LINE
  8
L-ZISSEN
 10
350.246951
 20
806.0
 30
0.0
 11
329.753049
 21
806.0
 31
0.0
  0
LINE
  8
L-ZISSEN
 10
362.0
 20
874.0
 30
0.0
 11
198.0
 21
874.0
 31
0.0
  0
LINE
  8
L-ZISSEN
 10
379.0
 20
802.0
 30
0.0
 11
350.246951
 21
802.0
 31
0.0
  0
LINE
  8
L-TYUSIN
 10
83.5
 20
842.0
 30
0.0
 11
476.5
 21
842.0
 31
0.0
  0
LINE
  8
L-ZISSEN
 10
362.0
 20
793.0
 30
0.0
 11
362.0
 21
885.0
 31
0.0
  0
LINE
  8
L-ZISSEN
 10
198.0
 20
793.0
 30
0.0
 11
198.0
 21
885.0
 31
0.0
  0
LINE
  8
L-ZISSEN
 10
362.0
 20
793.0
 30
0.0
 11
198.0
 21
793.0
 31
0.0
  0
LINE
  8
L-ZISSEN
 10
362.0
 20
884.0
 30
0.0
 11
198.0
 21
884.0
 31
0.0
  0
LINE
  8
L-ZISSEN
 10
1154.0
 20
54.0
 30
0.0
 11
1206.0
 21
54.0
 31
0.0
  0
LINE
  8
L-TYUSIN
 10
1245.0
 20
660.0
 30
0.0
 11
1245.0
 21
30.0
 31
0.0
  0
LINE
  8
L-TYUSIN
 10
745.0
 20
240.0
 30
0.0
 11
1245.0
 21
240.0
 31
0.0
  0
LINE
  8
L-TYUSIN
 10
745.0
 20
660.0
 30
0.0
 11
745.0
 21
30.0
 31
0.0
  0
CIRCLE
  8
L-ZISSEN
 10
1200.0
 20
480.0
 30
0.0
 40
4.49995
  0
CIRCLE
  8
L-ZISSEN
 10
1160.0
 20
480.0
 30
0.0
 40
4.49995
  0
CIRCLE
  8
L-ZISSEN
 10
1200.0
 20
520.0
 30
0.0
 40
4.49995
  0
CIRCLE
  8
L-ZISSEN
 10
1160.0
 20
520.0
 30
0.0
 40
4.49995
  0
CIRCLE
  8
L-ZISSEN
 10
1180.0
 20
500.0
 30
0.0
 40
19.0
  0
CIRCLE
  8
L-ZISSEN
 10
1180.0
 20
500.0
 30
0.0
 40
11.0
  0
LINE
  8
L-ZISSEN
 10
1003.0
 20
526.0
 30
0.0
 11
1077.1
 21
526.0
 31
0.0
  0
LINE
  8
L-ZISSEN
 10
946.9
 20
474.0
 30
0.0
 11
1077.1
 21
474.0
 31
0.0
  0
LINE
  8
L-ZISSEN
 10
1077.1
 20
564.0
 30
0.0
 11
946.9
 21
564.0
 31
0.0
  0
LINE
  8
L-ZISSEN
 10
1077.1
 20
616.0
 30
0.0
 11
946.9
 21
616.0
 31
0.0
  0
LINE
  8
L-ZISSEN
  6
CONTINUOUS
 62
     7
 10
1015.1
 20
406.0
 30
0.0
 11
1061.1
 21
404.393644
 31
0.0
  0
LINE
  8
L-ZISSEN
  6
CONTINUOUS
 62
     7
 10
1061.1
 20
355.606356
 30
0.0
 11
1061.1
 21
404.393644
 31
0.0
  0
LINE
  8
L-ZISSEN
  6
CONTINUOUS
 62
     7
 10
1015.1
 20
354.0
 30
0.0
 11
1061.1
 21
355.606356
 31
0.0
  0
LINE
  8
L-ZISSEN
  6
CONTINUOUS
 62
     7
 10
1015.1
 20
264.0
 30
0.0
 11
1061.1
 21
265.606356
 31
0.0
  0
LINE
  8
L-ZISSEN
  6
CONTINUOUS
 62
     7
 10
1015.1
 20
316.0
 30
0.0
 11
1061.1
 21
314.393644
 31
0.0
  0
LINE
  8
L-ZISSEN
  6
CONTINUOUS
 62
     7
 10
1061.1
 20
265.606356
 30
0.0
 11
1061.1
 21
314.393644
 31
0.0
  0
LINE
  8
L-ZISSEN
 10
1081.74282
 20
475.50005
 30
0.0
 11
1077.1
 21
475.50005
 31
0.0
  0
LINE
  8
L-ZISSEN
 10
1081.74282
 20
484.49995
 30
0.0
 11
1081.74282
 21
475.50005
 31
0.0
  0
LINE
  8
L-ZISSEN
 10
1081.74282
 20
484.49995
 30
0.0
 11
1077.1
 21
484.49995
 31
0.0
  0
LINE
  8
L-ZISSEN
 10
1081.74282
 20
515.50005
 30
0.0
 11
1077.1
 21
515.50005
 31
0.0
  0
LINE
  8
L-ZISSEN
 10
1081.74282
 20
515.50005
 30
0.0
 11
1081.74282
 21
524.49995
 31
0.0
  0
LINE
  8
L-ZISSEN
 10
1088.7
 20
511.0
 30
0.0
 11
1088.7
 21
489.0
 31
0.0
  0
LINE
  8
L-ZISSEN
 10
1088.7
 20
489.0
 30
0.0
 11
1087.7
 21
489.0
 31
0.0
  0
LINE
  8
L-ZISSEN
 10
1087.7
 20
511.0
 30
0.0
 11
1088.7
 21
511.0
 31
0.0
  0
LINE
  8
L-ZISSEN
 10
1081.74282
 20
524.49995
 30
0.0
 11
1077.1
 21
524.49995
 31
0.0
  0
LINE
  8
L-ZISSEN
 10
1081.74282
 20
481.0
 30
0.0
 11
1087.7
 21
481.0
 31
0.0
  0
LINE
  8
L-ZISSEN
 10
1081.74282
 20
519.0
 30
0.0
 11
1087.7
 21
519.0
 31
0.0
  0
LINE
  8
L-ZISSEN
 10
1077.1
 20
526.0
 30
0.0
 11
1077.1
 21
474.0
 31
0.0
  0
LINE
  8
L-ZISSEN
 10
1087.7
 20
519.0
 30
0.0
 11
1087.7
 21
481.0
 31
0.0
  0
LINE
  8
L-ZISSEN
 10
1087.7
 20
609.0
 30
0.0
 11
1087.7
 21
571.0
 31
0.0
  0
LINE
  8
L-ZISSEN
 10
1077.1
 20
616.0
 30
0.0
 11
1077.1
 21
564.0
 31
0.0
  0
LINE
  8
L-ZISSEN
 10
1081.74282
 20
609.0
 30
0.0
 11
1087.7
 21
609.0
 31
0.0
  0
LINE
  8
L-ZISSEN
 10
1081.74282
 20
571.0
 30
0.0
 11
1087.7
 21
571.0
 31
0.0
  0
LINE
  8
L-ZISSEN
 10
1081.74282
 20
614.49995
 30
0.0
 11
1077.1
 21
614.49995
 31
0.0
  0
LINE
  8
L-ZISSEN
 10
1087.7
 20
601.0
 30
0.0
 11
1088.7
 21
601.0
 31
0.0
  0
LINE
  8
L-ZISSEN
 10
1088.7
 20
579.0
 30
0.0
 11
1087.7
 21
579.0
 31
0.0
  0
LINE
  8
L-ZISSEN
 10
1088.7
 20
601.0
 30
0.0
 11
1088.7
 21
579.0
 31
0.0
  0
LINE
  8
L-ZISSEN
 10
1081.74282
 20
605.50005
 30
0.0
 11
1081.74282
 21
614.49995
 31
0.0
  0
LINE
  8
L-ZISSEN
 10
1081.74282
 20
605.50005
 30
0.0
 11
1077.1
 21
605.50005
 31
0.0
  0
LINE
  8
L-ZISSEN
 10
1081.74282
 20
574.49995
 30
0.0
 11
1077.1
 21
574.49995
 31
0.0
  0
LINE
  8
L-ZISSEN
 10
1081.74282
 20
574.49995
 30
0.0
 11
1081.74282
 21
565.50005
 31
0.0
  0
LINE
  8
L-ZISSEN
 10
1081.74282
 20
565.50005
 30
0.0
 11
1077.1
 21
565.50005
 31
0.0
  0
CIRCLE
  8
L-ZISSEN
 10
1180.0
 20
290.0
 30
0.0
 40
11.0
  0
CIRCLE
  8
L-ZISSEN
 10
1180.0
 20
290.0
 30
0.0
 40
9.0
  0
CIRCLE
  8
L-ZISSEN
 10
1180.0
 20
290.0
 30
0.0
 40
7.25
  0
LINE
  8
L-ZISSEN
 10
1061.1
 20
391.0
 30
0.0
 11
1074.1
 21
391.0
 31
0.0
  0
LINE
  8
L-ZISSEN
  6
CONTINUOUS
 62
     7
 10
1074.1
 20
389.0
 30
0.0
 11
1080.1
 21
389.0
 31
0.0
  0
LINE
  8
L-ZISSEN
  6
CONTINUOUS
 62
     7
 10
1080.1
 20
387.25
 30
0.0
 11
1087.1
 21
387.25
 31
0.0
  0
LINE
  8
L-ZISSEN
 10
1061.1
 20
369.0
 30
0.0
 11
1074.1
 21
369.0
 31
0.0
  0
LINE
  8
L-ZISSEN
  6
CONTINUOUS
 62
     7
 10
1080.1
 20
389.0
 30
0.0
 11
1080.1
 21
371.0
 31
0.0
  0
LINE
  8
L-ZISSEN
  6
CONTINUOUS
 62
     7
 10
1074.1
 20
371.0
 30
0.0
 11
1080.1
 21
371.0
 31
0.0
  0
LINE
  8
L-ZISSEN
  6
CONTINUOUS
 62
     7
 10
1080.1
 20
372.75
 30
0.0
 11
1087.1
 21
372.75
 31
0.0
  0
LINE
  8
L-ZISSEN
  6
CONTINUOUS
 62
     7
 10
1087.1
 20
387.25
 30
0.0
 11
1087.1
 21
372.75
 31
0.0
  0
LINE
  8
L-ZISSEN
  6
CONTINUOUS
 62
     7
 10
1074.1
 20
391.0
 30
0.0
 11
1074.1
 21
369.0
 31
0.0
  0
LINE
  8
L-ZISSEN
  6
CONTINUOUS
 62
     7
 10
1074.1
 20
301.0
 30
0.0
 11
1074.1
 21
279.0
 31
0.0
  0
LINE
  8
L-ZISSEN
  6
CONTINUOUS
 62
     7
 10
1087.1
 20
297.25
 30
0.0
 11
1087.1
 21
282.75
 31
0.0
  0
LINE
  8
L-ZISSEN
  6
CONTINUOUS
 62
     7
 10
1080.1
 20
282.75
 30
0.0
 11
1087.1
 21
282.75
 31
0.0
  0
LINE
  8
L-ZISSEN
  6
CONTINUOUS
 62
     7
 10
1074.1
 20
281.0
 30
0.0
 11
1080.1
 21
281.0
 31
0.0
  0
LINE
  8
L-ZISSEN
  6
CONTINUOUS
 62
     7
 10
1080.1
 20
299.0
 30
0.0
 11
1080.1
 21
281.0
 31
0.0
  0
LINE
  8
L-ZISSEN
 10
1061.1
 20
279.0
 30
0.0
 11
1074.1
 21
279.0
 31
0.0
  0
LINE
  8
L-ZISSEN
  6
CONTINUOUS
 62
     7
 10
1080.1
 20
297.25
 30
0.0
 11
1087.1
 21
297.25
 31
0.0
  0
LINE
  8
L-ZISSEN
  6
CONTINUOUS
 62
     7
 10
1074.1
 20
299.0
 30
0.0
 11
1080.1
 21
299.0
 31
0.0
  0
LINE
  8
L-ZISSEN
 10
1061.1
 20
301.0
 30
0.0
 11
1074.1
 21
301.0
 31
0.0
  0
LINE
  8
L-ZISSEN
 10
1003.0
 20
106.0
 30
0.0
 11
1077.1
 21
106.0
 31
0.0
  0
LINE
  8
L-ZISSEN
 10
946.9
 20
54.0
 30
0.0
 11
1077.1
 21
54.0
 31
0.0
  0
LINE
  8
L-ZISSEN
 10
1077.1
 20
144.0
 30
0.0
 11
946.9
 21
144.0
 31
0.0
  0
LINE
  8
L-ZISSEN
 10
1077.1
 20
196.0
 30
0.0
 11
946.9
 21
196.0
 31
0.0
  0
CIRCLE
  8
L-ZISSEN
 10
1180.0
 20
80.0
 30
0.0
 40
11.0
  0
CIRCLE
  8
L-ZISSEN
 10
1180.0
 20
80.0
 30
0.0
 40
9.0
  0
CIRCLE
  8
L-ZISSEN
 10
1180.0
 20
80.0
 30
0.0
 40
7.25
  0
CIRCLE
  8
L-ZISSEN
 10
1180.0
 20
80.0
 30
0.0
 40
19.0
  0
CIRCLE
  8
L-ZISSEN
 10
1160.0
 20
100.0
 30
0.0
 40
4.49995
  0
CIRCLE
  8
L-ZISSEN
 10
1200.0
 20
100.0
 30
0.0
 40
4.49995
  0
CIRCLE
  8
L-ZISSEN
 10
1160.0
 20
60.0
 30
0.0
 40
4.49995
  0
CIRCLE
  8
L-ZISSEN
 10
1200.0
 20
60.0
 30
0.0
 40
4.49995
  0
LINE
  8
L-ZISSEN
  6
CONTINUOUS
 62
     7
 10
1100.7
 20
91.0
 30
0.0
 11
1100.7
 21
69.0
 31
0.0
  0
LINE
  8
L-ZISSEN
  6
CONTINUOUS
 62
     7
 10
1114.0
 20
87.25
 30
0.0
 11
1114.0
 21
72.75
 31
0.0
  0
LINE
  8
L-ZISSEN
  6
CONTINUOUS
 62
     7
 10
1106.7
 20
72.75
 30
0.0
 11
1114.0
 21
72.75
 31
0.0
  0
LINE
  8
L-ZISSEN
  6
CONTINUOUS
 62
     7
 10
1100.7
 20
71.0
 30
0.0
 11
1106.7
 21
71.0
 31
0.0
  0
LINE
  8
L-ZISSEN
  6
CONTINUOUS
 62
     7
 10
1106.7
 20
89.0
 30
0.0
 11
1106.7
 21
71.0
 31
0.0
  0
LINE
  8
L-ZISSEN
 10
1087.7
 20
69.0
 30
0.0
 11
1100.7
 21
69.0
 31
0.0
  0
LINE
  8
L-ZISSEN
  6
CONTINUOUS
 62
     7
 10
1106.7
 20
87.25
 30
0.0
 11
1114.0
 21
87.25
 31
0.0
  0
LINE
  8
L-ZISSEN
  6
CONTINUOUS
 62
     7
 10
1100.7
 20
89.0
 30
0.0
 11
1106.7
 21
89.0
 31
0.0
  0
LINE
  8
L-ZISSEN
 10
1087.7
 20
91.0
 30
0.0
 11
1100.7
 21
91.0
 31
0.0
  0
LINE
  8
L-ZISSEN
 10
1087.7
 20
181.0
 30
0.0
 11
1100.7
 21
181.0
 31
0.0
  0
LINE
  8
L-ZISSEN
  6
CONTINUOUS
 62
     7
 10
1100.7
 20
179.0
 30
0.0
 11
1106.7
 21
179.0
 31
0.0
  0
LINE
  8
L-ZISSEN
  6
CONTINUOUS
 62
     7
 10
1106.7
 20
177.25
 30
0.0
 11
1114.0
 21
177.25
 31
0.0
  0
LINE
  8
L-ZISSEN
 10
1087.7
 20
159.0
 30
0.0
 11
1100.7
 21
159.0
 31
0.0
  0
LINE
  8
L-ZISSEN
  6
CONTINUOUS
 62
     7
 10
1106.7
 20
179.0
 30
0.0
 11
1106.7
 21
161.0
 31
0.0
  0
LINE
  8
L-ZISSEN
  6
CONTINUOUS
 62
     7
 10
1100.7
 20
161.0
 30
0.0
 11
1106.7
 21
161.0
 31
0.0
  0
LINE
  8
L-ZISSEN
  6
CONTINUOUS
 62
     7
 10
1106.7
 20
162.75
 30
0.0
 11
1114.0
 21
162.75
 31
0.0
  0
LINE
  8
L-ZISSEN
  6
CONTINUOUS
 62
     7
 10
1114.0
 20
177.25
 30
0.0
 11
1114.0
 21
162.75
 31
0.0
  0
LINE
  8
L-ZISSEN
  6
CONTINUOUS
 62
     7
 10
1100.7
 20
181.0
 30
0.0
 11
1100.7
 21
159.0
 31
0.0
  0
LINE
  8
L-ZISSEN
 10
1087.7
 20
99.0
 30
0.0
 11
1087.7
 21
61.0
 31
0.0
  0
LINE
  8
L-ZISSEN
 10
1077.1
 20
106.0
 30
0.0
 11
1077.1
 21
54.0
 31
0.0
  0
LINE
  8
L-ZISSEN
 10
1081.74282
 20
99.0
 30
0.0
 11
1087.7
 21
99.0
 31
0.0
  0
LINE
  8
L-ZISSEN
 10
1081.74282
 20
61.0
 30
0.0
 11
1087.7
 21
61.0
 31
0.0
  0
LINE
  8
L-ZISSEN
 10
1081.74282
 20
104.49995
 30
0.0
 11
1077.1
 21
104.49995
 31
0.0
  0
LINE
  8
L-ZISSEN
 10
1081.74282
 20
95.50005
 30
0.0
 11
1081.74282
 21
104.49995
 31
0.0
  0
LINE
  8
L-ZISSEN
 10
1081.74282
 20
95.50005
 30
0.0
 11
1077.1
 21
95.50005
 31
0.0
  0
LINE
  8
L-ZISSEN
 10
1081.74282
 20
64.49995
 30
0.0
 11
1077.1
 21
64.49995
 31
0.0
  0
LINE
  8
L-ZISSEN
 10
1081.74282
 20
64.49995
 30
0.0
 11
1081.74282
 21
55.50005
 31
0.0
  0
LINE
  8
L-ZISSEN
 10
1081.74282
 20
55.50005
 30
0.0
 11
1077.1
 21
55.50005
 31
0.0
  0
LINE
  8
L-ZISSEN
 10
1081.74282
 20
145.50005
 30
0.0
 11
1077.1
 21
145.50005
 31
0.0
  0
LINE
  8
L-ZISSEN
 10
1081.74282
 20
154.49995
 30
0.0
 11
1081.74282
 21
145.50005
 31
0.0
  0
LINE
  8
L-ZISSEN
 10
1081.74282
 20
154.49995
 30
0.0
 11
1077.1
 21
154.49995
 31
0.0
  0
LINE
  8
L-ZISSEN
 10
1081.74282
 20
185.50005
 30
0.0
 11
1077.1
 21
185.50005
 31
0.0
  0
LINE
  8
L-ZISSEN
 10
1081.74282
 20
185.50005
 30
0.0
 11
1081.74282
 21
194.49995
 31
0.0
  0
LINE
  8
L-ZISSEN
 10
1081.74282
 20
194.49995
 30
0.0
 11
1077.1
 21
194.49995
 31
0.0
  0
LINE
  8
L-ZISSEN
 10
1081.74282
 20
151.0
 30
0.0
 11
1087.7
 21
151.0
 31
0.0
  0
LINE
  8
L-ZISSEN
 10
1081.74282
 20
189.0
 30
0.0
 11
1087.7
 21
189.0
 31
0.0
  0
LINE
  8
L-ZISSEN
 10
1077.1
 20
196.0
 30
0.0
 11
1077.1
 21
144.0
 31
0.0
  0
LINE
  8
L-ZISSEN
 10
1087.7
 20
189.0
 30
0.0
 11
1087.7
 21
151.0
 31
0.0
  0
LINE
  8
L-ZISSEN
 10
1403.0
 20
534.0
 30
0.0
 11
1351.0
 21
534.0
 31
0.0
  0
LINE
  8
L-ZISSEN
 10
1403.0
 20
539.6
 30
0.0
 11
1403.0
 21
526.0
 31
0.0
  0
LINE
  8
L-ZISSEN
 10
1351.0
 20
539.6
 30
0.0
 11
1351.0
 21
526.0
 31
0.0
  0
LINE
  8
L-ZISSEN
 10
1351.0
 20
539.6
 30
0.0
 11
1403.0
 21
539.6
 31
0.0
  0
LINE
  8
L-ZISSEN
  6
CONTINUOUS
 62
     7
 10
1358.5
 20
543.2
 30
0.0
 11
1351.5
 21
543.2
 31
0.0
  0
LINE
  8
L-ZISSEN
  6
CONTINUOUS
 62
     7
 10
1358.5
 20
539.6
 30
0.0
 11
1358.5
 21
543.2
 31
0.0
  0
LINE
  8
L-ZISSEN
  6
CONTINUOUS
 62
     7
 10
1351.5
 20
539.6
 30
0.0
 11
1351.5
 21
543.2
 31
0.0
  0
LINE
  8
L-ZISSEN
  6
CONTINUOUS
 62
     7
 10
1395.5
 20
539.6
 30
0.0
 11
1395.5
 21
543.2
 31
0.0
  0
LINE
  8
L-ZISSEN
  6
CONTINUOUS
 62
     7
 10
1402.5
 20
539.6
 30
0.0
 11
1402.5
 21
543.2
 31
0.0
  0
LINE
  8
L-ZISSEN
  6
CONTINUOUS
 62
     7
 10
1402.5
 20
543.2
 30
0.0
 11
1395.5
 21
543.2
 31
0.0
  0
LINE
  8
L-ZISSEN
 10
1494.0
 20
539.6
 30
0.0
 11
1494.0
 21
546.1
 31
0.0
  0
LINE
  8
L-ZISSEN
 10
1502.0
 20
546.1
 30
0.0
 11
1502.0
 21
543.2
 31
0.0
  0
LINE
  8
L-ZISSEN
  6
CONTINUOUS
 62
     7
 10
1502.0
 20
546.1
 30
0.0
 11
1494.0
 21
546.1
 31
0.0
  0
LINE
  8
L-ZISSEN
  6
CONTINUOUS
 62
     7
 10
1505.5
 20
539.6
 30
0.0
 11
1505.5
 21
543.2
 31
0.0
  0
LINE
  8
L-ZISSEN
  6
CONTINUOUS
 62
     7
 10
1498.5
 20
539.6
 30
0.0
 11
1498.5
 21
543.2
 31
0.0
  0
LINE
  8
L-ZISSEN
  6
CONTINUOUS
 62
     7
 10
1498.5
 20
543.2
 30
0.0
 11
1505.5
 21
543.2
 31
0.0
  0
LINE
  8
L-ZISSEN
  6
CONTINUOUS
 62
     7
 10
1461.5
 20
543.2
 30
0.0
 11
1454.5
 21
543.2
 31
0.0
  0
LINE
  8
L-ZISSEN
  6
CONTINUOUS
 62
     7
 10
1461.5
 20
539.6
 30
0.0
 11
1461.5
 21
543.2
 31
0.0
  0
LINE
  8
L-ZISSEN
  6
CONTINUOUS
 62
     7
 10
1454.5
 20
539.6
 30
0.0
 11
1454.5
 21
543.2
 31
0.0
  0
LINE
  8
L-ZISSEN
 10
1454.0
 20
539.6
 30
0.0
 11
1506.0
 21
539.6
 31
0.0
  0
LINE
  8
L-ZISSEN
 10
1452.0
 20
534.0
 30
0.0
 11
1508.0
 21
534.0
 31
0.0
  0
LINE
  8
L-ZISSEN
 10
1506.0
 20
539.6
 30
0.0
 11
1506.0
 21
474.0
 31
0.0
  0
LINE
  8
L-ZISSEN
 10
1454.0
 20
474.0
 30
0.0
 11
1454.0
 21
539.6
 31
0.0
  0
CIRCLE
  8
L-ZISSEN
 10
1392.0
 20
608.0
 30
0.0
 40
4.0
  0
LINE
  8
L-ZISSEN
  6
CONTINUOUS
 62
     7
 10
1388.0
 20
546.1
 30
0.0
 11
1396.0
 21
546.1
 31
0.0
  0
LINE
  8
L-ZISSEN
 10
1388.0
 20
546.1
 30
0.0
 11
1388.0
 21
539.6
 31
0.0
  0
LINE
  8
L-ZISSEN
 10
1396.0
 20
543.2
 30
0.0
 11
1396.0
 21
546.1
 31
0.0
  0
LINE
  8
L-ZISSEN
  6
CONTINUOUS
 62
     7
 10
1002.5
 20
119.1
 30
0.0
 11
995.5
 21
119.1
 31
0.0
  0
LINE
  8
L-ZISSEN
  6
CONTINUOUS
 62
     7
 10
1002.5
 20
115.5
 30
0.0
 11
1002.5
 21
119.1
 31
0.0
  0
LINE
  8
L-ZISSEN
  6
CONTINUOUS
 62
     7
 10
995.5
 20
115.5
 30
0.0
 11
995.5
 21
119.1
 31
0.0
  0
LINE
  8
L-ZISSEN
  6
CONTINUOUS
 62
     7
 10
946.9
 20
104.5
 30
0.0
 11
943.6
 21
104.5
 31
0.0
  0
LINE
  8
L-ZISSEN
  6
CONTINUOUS
 62
     7
 10
946.9
 20
95.5
 30
0.0
 11
943.6
 21
95.5
 31
0.0
  0
LINE
  8
L-ZISSEN
  6
CONTINUOUS
 62
     7
 10
943.6
 20
104.5
 30
0.0
 11
943.6
 21
95.5
 31
0.0
  0
LINE
  8
L-ZISSEN
  6
CONTINUOUS
 62
     7
 10
951.5
 20
115.5
 30
0.0
 11
951.5
 21
119.1
 31
0.0
  0
LINE
  8
L-ZISSEN
  6
CONTINUOUS
 62
     7
 10
958.5
 20
115.5
 30
0.0
 11
958.5
 21
119.1
 31
0.0
  0
LINE
  8
L-ZISSEN
  6
CONTINUOUS
 62
     7
 10
958.5
 20
119.1
 30
0.0
 11
951.5
 21
119.1
 31
0.0
  0
LINE
  8
L-ZISSEN
 10
951.0
 20
115.5
 30
0.0
 11
1003.0
 21
115.5
 31
0.0
  0
LINE
  8
L-ZISSEN
 10
946.9
 20
106.0
 30
0.0
 11
951.0
 21
106.0
 31
0.0
  0
LINE
  8
L-ZISSEN
 10
951.0
 20
115.5
 30
0.0
 11
951.0
 21
106.0
 31
0.0
  0
LINE
  8
L-ZISSEN
 10
1003.0
 20
115.5
 30
0.0
 11
1003.0
 21
106.0
 31
0.0
  0
LINE
  8
L-ZISSEN
 10
969.5
 20
114.0
 30
0.0
 11
969.5
 21
111.618381
 31
0.0
  0
LINE
  8
L-ZISSEN
 10
984.5
 20
114.0
 30
0.0
 11
984.5
 21
111.618381
 31
0.0
  0
CIRCLE
  8
L-ZISSEN
 10
977.0
 20
101.0
 30
0.0
 40
9.3
  0
ARC
  8
L-ZISSEN
 10
977.0
 20
101.0
 30
0.0
 40
13.0
 50
125.234418
 51
54.765582
  0
LINE
  8
L-ZISSEN
 10
1003.0
 20
114.0
 30
0.0
 11
951.0
 21
114.0
 31
0.0
  0
LINE
  8
L-ZISSEN
 10
1005.1
 20
106.0
 30
0.0
 11
1005.1
 21
54.0
 31
0.0
  0
LINE
  8
L-ZISSEN
 10
948.9
 20
106.0
 30
0.0
 11
948.9
 21
54.0
 31
0.0
  0
LINE
  8
L-ZISSEN
 10
946.9
 20
106.0
 30
0.0
 11
946.9
 21
54.0
 31
0.0
  0
LINE
  8
L-ZISSEN
  6
CONTINUOUS
 62
     7
 10
943.6
 20
64.5
 30
0.0
 11
943.6
 21
55.5
 31
0.0
  0
LINE
  8
L-ZISSEN
  6
CONTINUOUS
 62
     7
 10
946.9
 20
55.5
 30
0.0
 11
943.6
 21
55.5
 31
0.0
  0
LINE
  8
L-ZISSEN
  6
CONTINUOUS
 62
     7
 10
946.9
 20
64.5
 30
0.0
 11
943.6
 21
64.5
 31
0.0
  0
LINE
  8
L-ZISSEN
 10
1152.0
 20
88.0
 30
0.0
 11
1152.0
 21
114.0
 31
0.0
  0
LINE
  8
L-ZISSEN
  6
CONTINUOUS
 62
     7
 10
1154.5
 20
115.5
 30
0.0
 11
1154.5
 21
119.1
 31
0.0
  0
LINE
  8
L-ZISSEN
  6
CONTINUOUS
 62
     7
 10
1161.5
 20
115.5
 30
0.0
 11
1161.5
 21
119.1
 31
0.0
  0
LINE
  8
L-ZISSEN
  6
CONTINUOUS
 62
     7
 10
1161.5
 20
119.1
 30
0.0
 11
1154.5
 21
119.1
 31
0.0
  0
LINE
  8
L-ZISSEN
 10
1152.0
 20
88.0
 30
0.0
 11
1154.0
 21
88.0
 31
0.0
  0
LINE
  8
L-ZISSEN
 10
1152.0
 20
114.0
 30
0.0
 11
1208.0
 21
114.0
 31
0.0
  0
LINE
  8
L-ZISSEN
 10
1154.0
 20
115.5
 30
0.0
 11
1206.0
 21
115.5
 31
0.0
  0
LINE
  8
L-ZISSEN
 10
1154.0
 20
54.0
 30
0.0
 11
1154.0
 21
115.5
 31
0.0
  0
LINE
  8
L-ZISSEN
 10
1154.0
 20
106.0
 30
0.0
 11
1206.0
 21
106.0
 31
0.0
  0
LINE
  8
L-ZISSEN
  6
CONTINUOUS
 62
     7
 10
1198.5
 20
119.1
 30
0.0
 11
1205.5
 21
119.1
 31
0.0
  0
LINE
  8
L-ZISSEN
  6
CONTINUOUS
 62
     7
 10
1198.5
 20
115.5
 30
0.0
 11
1198.5
 21
119.1
 31
0.0
  0
LINE
  8
L-ZISSEN
  6
CONTINUOUS
 62
     7
 10
1205.5
 20
115.5
 30
0.0
 11
1205.5
 21
119.1
 31
0.0
  0
LINE
  8
L-ZISSEN
 10
1208.0
 20
88.0
 30
0.0
 11
1208.0
 21
114.0
 31
0.0
  0
LINE
  8
L-ZISSEN
 10
1206.0
 20
88.0
 30
0.0
 11
1208.0
 21
88.0
 31
0.0
  0
LINE
  8
L-ZISSEN
 10
1206.0
 20
115.5
 30
0.0
 11
1206.0
 21
54.0
 31
0.0
  0
LINE
  8
L-TYUSIN
 10
745.0
 20
450.0
 30
0.0
 11
1525.0
 21
450.0
 31
0.0
  0
LINE
  8
L-TYUSIN
 62
     1
 10
1211.0
 20
75.0
 30
0.0
 11
1201.0
 21
75.0
 31
0.0
  0
TEXT
  8
L-ZISSEN
 10
1270.0
 20
640.0
 30
0.0
 40
4.5
  1
PILOT LAMP
  0
TEXT
  8
L-ZISSEN
 10
1270.0
 20
630.0
 30
0.0
 40
4.5
  1
MODEL No. :
  0
TEXT
  8
L-ZISSEN
 10
1315.0
 20
630.0
 30
0.0
 40
4.5
  1
MVD-4*1-**YS
  0
LINE
  8
L-ZISSEN
 10
266.0
 20
621.5
 30
0.0
 11
266.0
 21
598.5
 31
0.0
  0
CIRCLE
  8
L-ZISSEN
 10
262.0
 20
632.0
 30
0.0
 40
3.5
  0
CIRCLE
  8
L-ZISSEN
 10
262.0
 20
588.0
 30
0.0
 40
3.5
  0
CIRCLE
  8
L-ZISSEN
 10
218.0
 20
588.0
 30
0.0
 40
3.5
  0
CIRCLE
  8
L-ZISSEN
 10
218.0
 20
632.0
 30
0.0
 40
3.5
  0
LINE
  8
L-ZISSEN
 10
214.0
 20
636.0
 30
0.0
 11
214.0
 21
584.0
 31
0.0
  0
LINE
  8
L-ZISSEN
 10
266.0
 20
636.0
 30
0.0
 11
266.0
 21
584.0
 31
0.0
  0
LINE
  8
L-ZISSEN
 10
201.9
 20
636.0
 30
0.0
 11
270.1
 21
636.0
 31
0.0
  0
LINE
  8
L-ZISSEN
 10
201.9
 20
584.0
 30
0.0
 11
270.1
 21
584.0
 31
0.0
  0
LINE
  8
L-ZISSEN
  6
CONTINUOUS
 62
     7
 10
201.9
 20
636.0
 30
0.0
 11
155.9
 21
634.393644
 31
0.0
  0
LINE
  8
L-ZISSEN
  6
CONTINUOUS
 62
     7
 10
155.9
 20
634.393644
 30
0.0
 11
155.9
 21
585.606356
 31
0.0
  0
LINE
  8
L-ZISSEN
  6
CONTINUOUS
 62
     7
 10
154.9
 20
599.0
 30
0.0
 11
155.9
 21
599.0
 31
0.0
  0
LINE
  8
L-ZISSEN
  6
CONTINUOUS
 62
     7
 10
154.9
 20
599.0
 30
0.0
 11
154.9
 21
621.0
 31
0.0
  0
LINE
  8
L-ZISSEN
  6
CONTINUOUS
 62
     7
 10
154.9
 20
621.0
 30
0.0
 11
155.9
 21
621.0
 31
0.0
  0
LINE
  8
L-ZISSEN
  6
CONTINUOUS
 62
     7
 10
201.9
 20
584.0
 30
0.0
 11
155.9
 21
585.606356
 31
0.0
  0
LINE
  8
L-ZISSEN
  6
CONTINUOUS
 62
     7
 10
211.9
 20
636.0
 30
0.0
 11
211.9
 21
584.0
 31
0.0
  0
LINE
  8
L-ZISSEN
  6
CONTINUOUS
 62
     7
 10
273.4
 20
625.5
 30
0.0
 11
273.4
 21
634.5
 31
0.0
  0
LINE
  8
L-ZISSEN
  6
CONTINUOUS
 62
     7
 10
270.1
 20
634.5
 30
0.0
 11
273.4
 21
634.5
 31
0.0
  0
LINE
  8
L-ZISSEN
  6
CONTINUOUS
 62
     7
 10
270.1
 20
625.5
 30
0.0
 11
273.4
 21
625.5
 31
0.0
  0
LINE
  8
L-ZISSEN
  6
CONTINUOUS
 62
     7
 10
270.1
 20
585.5
 30
0.0
 11
273.4
 21
585.5
 31
0.0
  0
LINE
  8
L-ZISSEN
  6
CONTINUOUS
 62
     7
 10
270.1
 20
594.5
 30
0.0
 11
273.4
 21
594.5
 31
0.0
  0
LINE
  8
L-ZISSEN
  6
CONTINUOUS
 62
     7
 10
273.4
 20
585.5
 30
0.0
 11
273.4
 21
594.5
 31
0.0
  0
LINE
  8
L-ZISSEN
  6
CONTINUOUS
 62
     7
 10
270.1
 20
584.0
 30
0.0
 11
270.1
 21
636.0
 31
0.0
  0
LINE
  8
L-ZISSEN
  6
CONTINUOUS
 62
     7
 10
268.1
 20
636.0
 30
0.0
 11
268.1
 21
584.0
 31
0.0
  0
LINE
  8
L-ZISSEN
 10
253.0
 20
636.0
 30
0.0
 11
253.0
 21
638.0
 31
0.0
  0
LINE
  8
L-ZISSEN
 10
253.0
 20
582.0
 30
0.0
 11
253.0
 21
584.0
 31
0.0
  0
LINE
  8
L-ZISSEN
 10
227.0
 20
582.0
 30
0.0
 11
227.0
 21
584.0
 31
0.0
  0
LINE
  8
L-ZISSEN
 10
227.0
 20
582.0
 30
0.0
 11
253.0
 21
582.0
 31
0.0
  0
LINE
  8
L-ZISSEN
 10
227.0
 20
636.0
 30
0.0
 11
227.0
 21
638.0
 31
0.0
  0
LINE
  8
L-ZISSEN
 10
227.0
 20
638.0
 30
0.0
 11
253.0
 21
638.0
 31
0.0
  0
LINE
  8
L-TYUSIN
  6
CENTER
 62
     1
 10
252.0
 20
589.0
 30
0.0
 11
252.0
 21
579.0
 31
0.0
  0
LINE
  8
L-ZISSEN
 10
362.0
 20
635.863809
 30
0.0
 11
362.0
 21
665.0
 31
0.0
  0
LINE
  8
L-ZISSEN
  6
CONTINUOUS
 62
     7
 10
358.1
 20
427.0
 30
0.0
 11
404.1
 21
428.606356
 31
0.0
  0
LINE
  8
L-ZISSEN
  6
CONTINUOUS
 62
     7
 10
289.9
 20
437.5
 30
0.0
 11
286.6
 21
437.5
 31
0.0
  0
LINE
  8
L-ZISSEN
  6
CONTINUOUS
 62
     7
 10
289.9
 20
428.5
 30
0.0
 11
286.6
 21
428.5
 31
0.0
  0
LINE
  8
L-ZISSEN
  6
CONTINUOUS
 62
     7
 10
286.6
 20
437.5
 30
0.0
 11
286.6
 21
428.5
 31
0.0
  0
LINE
  8
L-ZISSEN
 10
289.9
 20
479.0
 30
0.0
 11
289.9
 21
427.0
 31
0.0
  0
LINE
  8
L-ZISSEN
 10
291.9
 20
479.0
 30
0.0
 11
291.9
 21
427.0
 31
0.0
  0
LINE
  8
L-ZISSEN
 10
348.1
 20
479.0
 30
0.0
 11
348.1
 21
427.0
 31
0.0
  0
LINE
  8
L-ZISSEN
  6
CONTINUOUS
 62
     7
 10
404.1
 20
428.606356
 30
0.0
 11
404.1
 21
477.393644
 31
0.0
  0
LINE
  8
L-ZISSEN
 10
346.0
 20
487.0
 30
0.0
 11
294.0
 21
487.0
 31
0.0
  0
ARC
  8
L-ZISSEN
 10
320.0
 20
474.0
 30
0.0
 40
13.0
 50
125.234418
 51
54.765582
  0
CIRCLE
  8
L-ZISSEN
 10
320.0
 20
474.0
 30
0.0
 40
9.3
  0
LINE
  8
L-ZISSEN
 10
327.5
 20
487.0
 30
0.0
 11
327.5
 21
484.618381
 31
0.0
  0
LINE
  8
L-ZISSEN
 10
312.5
 20
487.0
 30
0.0
 11
312.5
 21
484.618381
 31
0.0
  0
LINE
  8
L-ZISSEN
 10
346.0
 20
488.5
 30
0.0
 11
346.0
 21
479.0
 31
0.0
  0
LINE
  8
L-ZISSEN
 10
294.0
 20
488.5
 30
0.0
 11
294.0
 21
479.0
 31
0.0
  0
LINE
  8
L-ZISSEN
 10
289.9
 20
479.0
 30
0.0
 11
294.0
 21
479.0
 31
0.0
  0
LINE
  8
L-ZISSEN
 10
346.0
 20
479.0
 30
0.0
 11
358.1
 21
479.0
 31
0.0
  0
LINE
  8
L-ZISSEN
 10
294.0
 20
488.5
 30
0.0
 11
346.0
 21
488.5
 31
0.0
  0
LINE
  8
L-ZISSEN
  6
CONTINUOUS
 62
     7
 10
301.5
 20
492.1
 30
0.0
 11
294.5
 21
492.1
 31
0.0
  0
LINE
  8
L-ZISSEN
  6
CONTINUOUS
 62
     7
 10
301.5
 20
488.5
 30
0.0
 11
301.5
 21
492.1
 31
0.0
  0
LINE
  8
L-ZISSEN
  6
CONTINUOUS
 62
     7
 10
294.5
 20
488.5
 30
0.0
 11
294.5
 21
492.1
 31
0.0
  0
LINE
  8
L-ZISSEN
  6
CONTINUOUS
 62
     7
 10
286.6
 20
477.5
 30
0.0
 11
286.6
 21
468.5
 31
0.0
  0
LINE
  8
L-ZISSEN
  6
CONTINUOUS
 62
     7
 10
289.9
 20
468.5
 30
0.0
 11
286.6
 21
468.5
 31
0.0
  0
LINE
  8
L-ZISSEN
  6
CONTINUOUS
 62
     7
 10
289.9
 20
477.5
 30
0.0
 11
286.6
 21
477.5
 31
0.0
  0
LINE
  8
L-ZISSEN
  6
CONTINUOUS
 62
     7
 10
358.1
 20
479.0
 30
0.0
 11
404.1
 21
477.393644
 31
0.0
  0
LINE
  8
L-ZISSEN
  6
CONTINUOUS
 62
     7
 10
405.1
 20
442.0
 30
0.0
 11
404.1
 21
442.0
 31
0.0
  0
LINE
  8
L-ZISSEN
  6
CONTINUOUS
 62
     7
 10
405.1
 20
464.0
 30
0.0
 11
405.1
 21
442.0
 31
0.0
  0
LINE
  8
L-ZISSEN
  6
CONTINUOUS
 62
     7
 10
405.1
 20
464.0
 30
0.0
 11
404.1
 21
464.0
 31
0.0
  0
LINE
  8
L-ZISSEN
  6
CONTINUOUS
 62
     7
 10
338.5
 20
488.5
 30
0.0
 11
338.5
 21
492.1
 31
0.0
  0
LINE
  8
L-ZISSEN
  6
CONTINUOUS
 62
     7
 10
345.5
 20
488.5
 30
0.0
 11
345.5
 21
492.1
 31
0.0
  0
LINE
  8
L-ZISSEN
  6
CONTINUOUS
 62
     7
 10
345.5
 20
492.1
 30
0.0
 11
338.5
 21
492.1
 31
0.0
  0
LINE
  8
L-TYUSIN
  6
CENTER
 62
     1
 10
299.0
 20
772.0
 30
0.0
 11
317.0
 21
772.0
 31
0.0
  0
LINE
  8
L-TYUSIN
  6
CENTER
 62
     1
 10
308.0
 20
781.0
 30
0.0
 11
308.0
 21
763.0
 31
0.0
  0
CIRCLE
  8
L-ZISSEN
 10
308.0
 20
772.0
 30
0.0
 40
5.7225
  0
LINE
  8
L-ZISSEN
  6
CONTINUOUS
 62
     7
 10
345.5
 20
727.9
 30
0.0
 11
338.5
 21
727.9
 31
0.0
  0
LINE
  8
L-ZISSEN
  6
CONTINUOUS
 62
     7
 10
345.5
 20
731.5
 30
0.0
 11
345.5
 21
727.9
 31
0.0
  0
LINE
  8
L-ZISSEN
  6
CONTINUOUS
 62
     7
 10
338.5
 20
731.5
 30
0.0
 11
338.5
 21
727.9
 31
0.0
  0
LINE
  8
L-ZISSEN
  6
CONTINUOUS
 62
     7
 10
405.1
 20
756.0
 30
0.0
 11
404.1
 21
756.0
 31
0.0
  0
LINE
  8
L-ZISSEN
  6
CONTINUOUS
 62
     7
 10
405.1
 20
756.0
 30
0.0
 11
405.1
 21
778.0
 31
0.0
  0
LINE
  8
L-ZISSEN
  6
CONTINUOUS
 62
     7
 10
405.1
 20
778.0
 30
0.0
 11
404.1
 21
778.0
 31
0.0
  0
LINE
  8
L-ZISSEN
  6
CONTINUOUS
 62
     7
 10
358.1
 20
741.0
 30
0.0
 11
404.1
 21
742.606356
 31
0.0
  0
LINE
  8
L-ZISSEN
  6
CONTINUOUS
 62
     7
 10
289.9
 20
742.5
 30
0.0
 11
286.6
 21
742.5
 31
0.0
  0
LINE
  8
L-ZISSEN
  6
CONTINUOUS
 62
     7
 10
289.9
 20
751.5
 30
0.0
 11
286.6
 21
751.5
 31
0.0
  0
LINE
  8
L-ZISSEN
  6
CONTINUOUS
 62
     7
 10
286.6
 20
742.5
 30
0.0
 11
286.6
 21
751.5
 31
0.0
  0
LINE
  8
L-ZISSEN
  6
CONTINUOUS
 62
     7
 10
294.5
 20
731.5
 30
0.0
 11
294.5
 21
727.9
 31
0.0
  0
LINE
  8
L-ZISSEN
  6
CONTINUOUS
 62
     7
 10
301.5
 20
731.5
 30
0.0
 11
301.5
 21
727.9
 31
0.0
  0
LINE
  8
L-ZISSEN
  6
CONTINUOUS
 62
     7
 10
301.5
 20
727.9
 30
0.0
 11
294.5
 21
727.9
 31
0.0
  0
LINE
  8
L-ZISSEN
 10
294.0
 20
731.5
 30
0.0
 11
346.0
 21
731.5
 31
0.0
  0
LINE
  8
L-ZISSEN
 10
346.0
 20
741.0
 30
0.0
 11
358.1
 21
741.0
 31
0.0
  0
LINE
  8
L-ZISSEN
 10
289.9
 20
741.0
 30
0.0
 11
294.0
 21
741.0
 31
0.0
  0
LINE
  8
L-ZISSEN
 10
294.0
 20
731.5
 30
0.0
 11
294.0
 21
741.0
 31
0.0
  0
LINE
  8
L-ZISSEN
 10
346.0
 20
731.5
 30
0.0
 11
346.0
 21
741.0
 31
0.0
  0
LINE
  8
L-ZISSEN
 10
312.5
 20
733.0
 30
0.0
 11
312.5
 21
735.381619
 31
0.0
  0
LINE
  8
L-ZISSEN
 10
327.5
 20
733.0
 30
0.0
 11
327.5
 21
735.381619
 31
0.0
  0
CIRCLE
  8
L-ZISSEN
 10
320.0
 20
746.0
 30
0.0
 40
9.3
  0
ARC
  8
L-ZISSEN
 10
320.0
 20
746.0
 30
0.0
 40
13.0
 50
305.234418
 51
234.765582
  0
LINE
  8
L-ZISSEN
 10
346.0
 20
733.0
 30
0.0
 11
294.0
 21
733.0
 31
0.0
  0
LINE
  8
L-ZISSEN
  6
CONTINUOUS
 62
     7
 10
404.1
 20
791.393644
 30
0.0
 11
404.1
 21
742.606356
 31
0.0
  0
LINE
  8
L-ZISSEN
 10
348.1
 20
741.0
 30
0.0
 11
348.1
 21
793.0
 31
0.0
  0
LINE
  8
L-ZISSEN
 10
291.9
 20
741.0
 30
0.0
 11
291.9
 21
793.0
 31
0.0
  0
LINE
  8
L-ZISSEN
 10
289.9
 20
741.0
 30
0.0
 11
289.9
 21
793.0
 31
0.0
  0
LINE
  8
L-ZISSEN
  6
CONTINUOUS
 62
     7
 10
286.6
 20
782.5
 30
0.0
 11
286.6
 21
791.5
 31
0.0
  0
LINE
  8
L-ZISSEN
  6
CONTINUOUS
 62
     7
 10
289.9
 20
791.5
 30
0.0
 11
286.6
 21
791.5
 31
0.0
  0
LINE
  8
L-ZISSEN
  6
CONTINUOUS
 62
     7
 10
289.9
 20
782.5
 30
0.0
 11
286.6
 21
782.5
 31
0.0
  0
LINE
  8
L-ZISSEN
  6
CONTINUOUS
 62
     7
 10
358.1
 20
793.0
 30
0.0
 11
404.1
 21
791.393644
 31
0.0
  0
LINE
  8
L-TYUSIN
 62
     1
 10
631.0
 20
448.0
 30
0.0
 11
621.0
 21
448.0
 31
0.0
  0
LINE
  8
L-ZISSEN
 10
626.0
 20
488.5
 30
0.0
 11
626.0
 21
427.0
 31
0.0
  0
LINE
  8
L-ZISSEN
 10
626.0
 20
461.0
 30
0.0
 11
628.0
 21
461.0
 31
0.0
  0
LINE
  8
L-ZISSEN
 10
628.0
 20
461.0
 30
0.0
 11
628.0
 21
487.0
 31
0.0
  0
LINE
  8
L-ZISSEN
  6
CONTINUOUS
 62
     7
 10
625.5
 20
488.5
 30
0.0
 11
625.5
 21
492.1
 31
0.0
  0
LINE
  8
L-ZISSEN
  6
CONTINUOUS
 62
     7
 10
618.5
 20
488.5
 30
0.0
 11
618.5
 21
492.1
 31
0.0
  0
LINE
  8
L-ZISSEN
  6
CONTINUOUS
 62
     7
 10
618.5
 20
492.1
 30
0.0
 11
625.5
 21
492.1
 31
0.0
  0
LINE
  8
L-ZISSEN
 10
574.0
 20
479.0
 30
0.0
 11
626.0
 21
479.0
 31
0.0
  0
LINE
  8
L-ZISSEN
 10
574.0
 20
427.0
 30
0.0
 11
574.0
 21
488.5
 31
0.0
  0
LINE
  8
L-ZISSEN
 10
574.0
 20
488.5
 30
0.0
 11
626.0
 21
488.5
 31
0.0
  0
LINE
  8
L-ZISSEN
 10
572.0
 20
487.0
 30
0.0
 11
628.0
 21
487.0
 31
0.0
  0
LINE
  8
L-ZISSEN
 10
572.0
 20
461.0
 30
0.0
 11
574.0
 21
461.0
 31
0.0
  0
LINE
  8
L-ZISSEN
  6
CONTINUOUS
 62
     7
 10
581.5
 20
492.1
 30
0.0
 11
574.5
 21
492.1
 31
0.0
  0
LINE
  8
L-ZISSEN
  6
CONTINUOUS
 62
     7
 10
581.5
 20
488.5
 30
0.0
 11
581.5
 21
492.1
 31
0.0
  0
LINE
  8
L-ZISSEN
  6
CONTINUOUS
 62
     7
 10
574.5
 20
488.5
 30
0.0
 11
574.5
 21
492.1
 31
0.0
  0
LINE
  8
L-ZISSEN
 10
572.0
 20
461.0
 30
0.0
 11
572.0
 21
487.0
 31
0.0
  0
CIRCLE
  8
L-ZISSEN
 10
600.0
 20
453.0
 30
0.0
 40
11.0
  0
LINE
  8
L-TYUSIN
  6
CENTER
 62
     1
 10
965.0
 20
191.0
 30
0.0
 11
965.0
 21
201.0
 31
0.0
  0
LINE
  8
L-ZISSEN
 10
951.0
 20
158.5
 30
0.0
 11
951.0
 21
181.5
 31
0.0
  0
CIRCLE
  8
L-ZISSEN
 10
955.0
 20
148.0
 30
0.0
 40
3.5
  0
CIRCLE
  8
L-ZISSEN
 10
955.0
 20
192.0
 30
0.0
 40
3.5
  0
CIRCLE
  8
L-ZISSEN
 10
999.0
 20
192.0
 30
0.0
 40
3.5
  0
CIRCLE
  8
L-ZISSEN
 10
999.0
 20
148.0
 30
0.0
 40
3.5
  0
LINE
  8
L-ZISSEN
 10
1003.0
 20
144.0
 30
0.0
 11
1003.0
 21
196.0
 31
0.0
  0
LINE
  8
L-ZISSEN
 10
951.0
 20
144.0
 30
0.0
 11
951.0
 21
196.0
 31
0.0
  0
LINE
  8
L-ZISSEN
  6
CONTINUOUS
 62
     7
 10
1005.1
 20
144.0
 30
0.0
 11
1005.1
 21
196.0
 31
0.0
  0
LINE
  8
L-ZISSEN
  6
CONTINUOUS
 62
     7
 10
943.6
 20
154.5
 30
0.0
 11
943.6
 21
145.5
 31
0.0
  0
LINE
  8
L-ZISSEN
  6
CONTINUOUS
 62
     7
 10
946.9
 20
145.5
 30
0.0
 11
943.6
 21
145.5
 31
0.0
  0
LINE
  8
L-ZISSEN
  6
CONTINUOUS
 62
     7
 10
946.9
 20
154.5
 30
0.0
 11
943.6
 21
154.5
 31
0.0
  0
LINE
  8
L-ZISSEN
  6
CONTINUOUS
 62
     7
 10
946.9
 20
194.5
 30
0.0
 11
943.6
 21
194.5
 31
0.0
  0
LINE
  8
L-ZISSEN
  6
CONTINUOUS
 62
     7
 10
946.9
 20
185.5
 30
0.0
 11
943.6
 21
185.5
 31
0.0
  0
LINE
  8
L-ZISSEN
  6
CONTINUOUS
 62
     7
 10
943.6
 20
194.5
 30
0.0
 11
943.6
 21
185.5
 31
0.0
  0
LINE
  8
L-ZISSEN
  6
CONTINUOUS
 62
     7
 10
946.9
 20
196.0
 30
0.0
 11
946.9
 21
144.0
 31
0.0
  0
LINE
  8
L-ZISSEN
  6
CONTINUOUS
 62
     7
 10
948.9
 20
144.0
 30
0.0
 11
948.9
 21
196.0
 31
0.0
  0
LINE
  8
L-ZISSEN
 10
964.0
 20
144.0
 30
0.0
 11
964.0
 21
142.0
 31
0.0
  0
LINE
  8
L-ZISSEN
 10
964.0
 20
198.0
 30
0.0
 11
964.0
 21
196.0
 31
0.0
  0
LINE
  8
L-ZISSEN
 10
990.0
 20
198.0
 30
0.0
 11
990.0
 21
196.0
 31
0.0
  0
LINE
  8
L-ZISSEN
 10
990.0
 20
198.0
 30
0.0
 11
964.0
 21
198.0
 31
0.0
  0
LINE
  8
L-ZISSEN
 10
990.0
 20
144.0
 30
0.0
 11
990.0
 21
142.0
 31
0.0
  0
LINE
  8
L-ZISSEN
 10
990.0
 20
142.0
 30
0.0
 11
964.0
 21
142.0
 31
0.0
  0
LINE
  8
L-ZISSEN
 10
1206.0
 20
325.5
 30
0.0
 11
1206.0
 21
264.0
 31
0.0
  0
CIRCLE
  8
L-ZISSEN
 10
1200.0
 20
270.0
 30
0.0
 40
4.49995
  0
LINE
  8
L-TYUSIN
 62
     1
 10
1211.0
 20
285.0
 30
0.0
 11
1201.0
 21
285.0
 31
0.0
  0
CIRCLE
  8
L-ZISSEN
 10
1160.0
 20
270.0
 30
0.0
 40
4.49995
  0
LINE
  8
L-ZISSEN
 10
1154.0
 20
264.0
 30
0.0
 11
1206.0
 21
264.0
 31
0.0
  0
LINE
  8
L-ZISSEN
 10
1154.0
 20
264.0
 30
0.0
 11
1154.0
 21
325.5
 31
0.0
  0
LINE
  8
L-ZISSEN
  6
CONTINUOUS
 62
     7
 10
1205.5
 20
325.5
 30
0.0
 11
1205.5
 21
329.1
 31
0.0
  0
LINE
  8
L-ZISSEN
  6
CONTINUOUS
 62
     7
 10
1198.5
 20
325.5
 30
0.0
 11
1198.5
 21
329.1
 31
0.0
  0
LINE
  8
L-ZISSEN
  6
CONTINUOUS
 62
     7
 10
1198.5
 20
329.1
 30
0.0
 11
1205.5
 21
329.1
 31
0.0
  0
LINE
  8
L-ZISSEN
 10
1154.0
 20
316.0
 30
0.0
 11
1206.0
 21
316.0
 31
0.0
  0
LINE
  8
L-ZISSEN
 10
1154.0
 20
325.5
 30
0.0
 11
1206.0
 21
325.5
 31
0.0
  0
LINE
  8
L-ZISSEN
 10
1152.0
 20
324.0
 30
0.0
 11
1208.0
 21
324.0
 31
0.0
  0
LINE
  8
L-ZISSEN
  6
CONTINUOUS
 62
     7
 10
1161.5
 20
329.1
 30
0.0
 11
1154.5
 21
329.1
 31
0.0
  0
LINE
  8
L-ZISSEN
  6
CONTINUOUS
 62
     7
 10
1161.5
 20
325.5
 30
0.0
 11
1161.5
 21
329.1
 31
0.0
  0
LINE
  8
L-ZISSEN
  6
CONTINUOUS
 62
     7
 10
1154.5
 20
325.5
 30
0.0
 11
1154.5
 21
329.1
 31
0.0
  0
CIRCLE
  8
L-ZISSEN
 10
1200.0
 20
310.0
 30
0.0
 40
4.49995
  0
CIRCLE
  8
L-ZISSEN
 10
1160.0
 20
310.0
 30
0.0
 40
4.49995
  0
LINE
  8
L-ZISSEN
 10
1206.0
 20
298.0
 30
0.0
 11
1208.0
 21
298.0
 31
0.0
  0
LINE
  8
L-ZISSEN
 10
1208.0
 20
298.0
 30
0.0
 11
1208.0
 21
324.0
 31
0.0
  0
LINE
  8
L-ZISSEN
 10
1152.0
 20
298.0
 30
0.0
 11
1154.0
 21
298.0
 31
0.0
  0
LINE
  8
L-ZISSEN
 10
1152.0
 20
298.0
 30
0.0
 11
1152.0
 21
324.0
 31
0.0
  0
LINE
  8
L-ZISSEN
  6
CONTINUOUS
 62
     7
 10
946.9
 20
274.5
 30
0.0
 11
943.6
 21
274.5
 31
0.0
  0
LINE
  8
L-ZISSEN
  6
CONTINUOUS
 62
     7
 10
946.9
 20
265.5
 30
0.0
 11
943.6
 21
265.5
 31
0.0
  0
LINE
  8
L-ZISSEN
  6
CONTINUOUS
 62
     7
 10
943.6
 20
274.5
 30
0.0
 11
943.6
 21
265.5
 31
0.0
  0
LINE
  8
L-ZISSEN
 10
946.9
 20
316.0
 30
0.0
 11
946.9
 21
264.0
 31
0.0
  0
LINE
  8
L-ZISSEN
 10
948.9
 20
316.0
 30
0.0
 11
948.9
 21
264.0
 31
0.0
  0
LINE
  8
L-ZISSEN
 10
1005.1
 20
316.0
 30
0.0
 11
1005.1
 21
264.0
 31
0.0
  0
LINE
  8
L-ZISSEN
 10
1003.0
 20
324.0
 30
0.0
 11
951.0
 21
324.0
 31
0.0
  0
ARC
  8
L-ZISSEN
 10
977.0
 20
311.0
 30
0.0
 40
13.0
 50
125.234418
 51
54.765582
  0
CIRCLE
  8
L-ZISSEN
 10
977.0
 20
311.0
 30
0.0
 40
9.3
  0
LINE
  8
L-ZISSEN
 10
984.5
 20
324.0
 30
0.0
 11
984.5
 21
321.618381
 31
0.0
  0
LINE
  8
L-ZISSEN
 10
969.5
 20
324.0
 30
0.0
 11
969.5
 21
321.618381
 31
0.0
  0
LINE
  8
L-ZISSEN
 10
1003.0
 20
325.5
 30
0.0
 11
1003.0
 21
316.0
 31
0.0
  0
LINE
  8
L-ZISSEN
 10
951.0
 20
325.5
 30
0.0
 11
951.0
 21
316.0
 31
0.0
  0
LINE
  8
L-ZISSEN
 10
946.9
 20
316.0
 30
0.0
 11
951.0
 21
316.0
 31
0.0
  0
LINE
  8
L-ZISSEN
 10
951.0
 20
325.5
 30
0.0
 11
1003.0
 21
325.5
 31
0.0
  0
LINE
  8
L-ZISSEN
  6
CONTINUOUS
 62
     7
 10
958.5
 20
329.1
 30
0.0
 11
951.5
 21
329.1
 31
0.0
  0
LINE
  8
L-ZISSEN
  6
CONTINUOUS
 62
     7
 10
958.5
 20
325.5
 30
0.0
 11
958.5
 21
329.1
 31
0.0
  0
LINE
  8
L-ZISSEN
  6
CONTINUOUS
 62
     7
 10
951.5
 20
325.5
 30
0.0
 11
951.5
 21
329.1
 31
0.0
  0
LINE
  8
L-ZISSEN
  6
CONTINUOUS
 62
     7
 10
943.6
 20
314.5
 30
0.0
 11
943.6
 21
305.5
 31
0.0
  0
LINE
  8
L-ZISSEN
  6
CONTINUOUS
 62
     7
 10
946.9
 20
305.5
 30
0.0
 11
943.6
 21
305.5
 31
0.0
  0
LINE
  8
L-ZISSEN
  6
CONTINUOUS
 62
     7
 10
946.9
 20
314.5
 30
0.0
 11
943.6
 21
314.5
 31
0.0
  0
LINE
  8
L-ZISSEN
  6
CONTINUOUS
 62
     7
 10
995.5
 20
325.5
 30
0.0
 11
995.5
 21
329.1
 31
0.0
  0
LINE
  8
L-ZISSEN
  6
CONTINUOUS
 62
     7
 10
1002.5
 20
325.5
 30
0.0
 11
1002.5
 21
329.1
 31
0.0
  0
LINE
  8
L-ZISSEN
  6
CONTINUOUS
 62
     7
 10
1002.5
 20
329.1
 30
0.0
 11
995.5
 21
329.1
 31
0.0
  0
LINE
  8
L-ZISSEN
 10
946.9
 20
264.0
 30
0.0
 11
1015.1
 21
264.0
 31
0.0
  0
LINE
  8
L-ZISSEN
 10
1003.0
 20
316.0
 30
0.0
 11
1015.1
 21
316.0
 31
0.0
  0
LINE
  8
L-ZISSEN
 10
990.0
 20
352.0
 30
0.0
 11
964.0
 21
352.0
 31
0.0
  0
LINE
  8
L-ZISSEN
 10
990.0
 20
354.0
 30
0.0
 11
990.0
 21
352.0
 31
0.0
  0
LINE
  8
L-ZISSEN
 10
990.0
 20
408.0
 30
0.0
 11
964.0
 21
408.0
 31
0.0
  0
LINE
  8
L-ZISSEN
 10
990.0
 20
408.0
 30
0.0
 11
990.0
 21
406.0
 31
0.0
  0
LINE
  8
L-ZISSEN
 10
964.0
 20
408.0
 30
0.0
 11
964.0
 21
406.0
 31
0.0
  0
LINE
  8
L-ZISSEN
 10
964.0
 20
354.0
 30
0.0
 11
964.0
 21
352.0
 31
0.0
  0
LINE
  8
L-ZISSEN
  6
CONTINUOUS
 62
     7
 10
948.9
 20
354.0
 30
0.0
 11
948.9
 21
406.0
 31
0.0
  0
LINE
  8
L-ZISSEN
  6
CONTINUOUS
 62
     7
 10
946.9
 20
406.0
 30
0.0
 11
946.9
 21
354.0
 31
0.0
  0
LINE
  8
L-ZISSEN
  6
CONTINUOUS
 62
     7
 10
943.6
 20
404.5
 30
0.0
 11
943.6
 21
395.5
 31
0.0
  0
LINE
  8
L-ZISSEN
  6
CONTINUOUS
 62
     7
 10
946.9
 20
395.5
 30
0.0
 11
943.6
 21
395.5
 31
0.0
  0
LINE
  8
L-ZISSEN
  6
CONTINUOUS
 62
     7
 10
946.9
 20
404.5
 30
0.0
 11
943.6
 21
404.5
 31
0.0
  0
LINE
  8
L-ZISSEN
  6
CONTINUOUS
 62
     7
 10
946.9
 20
364.5
 30
0.0
 11
943.6
 21
364.5
 31
0.0
  0
LINE
  8
L-ZISSEN
  6
CONTINUOUS
 62
     7
 10
946.9
 20
355.5
 30
0.0
 11
943.6
 21
355.5
 31
0.0
  0
LINE
  8
L-ZISSEN
  6
CONTINUOUS
 62
     7
 10
943.6
 20
364.5
 30
0.0
 11
943.6
 21
355.5
 31
0.0
  0
LINE
  8
L-ZISSEN
  6
CONTINUOUS
 62
     7
 10
1005.1
 20
354.0
 30
0.0
 11
1005.1
 21
406.0
 31
0.0
  0
LINE
  8
L-ZISSEN
 10
951.0
 20
354.0
 30
0.0
 11
951.0
 21
406.0
 31
0.0
  0
LINE
  8
L-ZISSEN
 10
1003.0
 20
354.0
 30
0.0
 11
1003.0
 21
406.0
 31
0.0
  0
CIRCLE
  8
L-ZISSEN
 10
999.0
 20
358.0
 30
0.0
 40
3.5
  0
CIRCLE
  8
L-ZISSEN
 10
999.0
 20
402.0
 30
0.0
 40
3.5
  0
CIRCLE
  8
L-ZISSEN
 10
955.0
 20
402.0
 30
0.0
 40
3.5
  0
CIRCLE
  8
L-ZISSEN
 10
955.0
 20
358.0
 30
0.0
 40
3.5
  0
LINE
  8
L-ZISSEN
 10
951.0
 20
368.5
 30
0.0
 11
951.0
 21
391.5
 31
0.0
  0
LINE
  8
L-TYUSIN
  6
CENTER
 62
     1
 10
965.0
 20
401.0
 30
0.0
 11
965.0
 21
411.0
 31
0.0
  0
LINE
  8
L-ZISSEN
 10
1015.1
 20
406.0
 30
0.0
 11
946.9
 21
406.0
 31
0.0
  0
LINE
  8
L-ZISSEN
 10
1015.1
 20
354.0
 30
0.0
 11
946.9
 21
354.0
 31
0.0
  0
LINE
  8
L-ZISSEN
  6
CONTINUOUS
 62
     7
 10
946.9
 20
484.5
 30
0.0
 11
943.6
 21
484.5
 31
0.0
  0
LINE
  8
L-ZISSEN
  6
CONTINUOUS
 62
     7
 10
946.9
 20
475.5
 30
0.0
 11
943.6
 21
475.5
 31
0.0
  0
LINE
  8
L-ZISSEN
  6
CONTINUOUS
 62
     7
 10
943.6
 20
484.5
 30
0.0
 11
943.6
 21
475.5
 31
0.0
  0
LINE
  8
L-ZISSEN
 10
946.9
 20
526.0
 30
0.0
 11
946.9
 21
474.0
 31
0.0
  0
LINE
  8
L-ZISSEN
 10
948.9
 20
526.0
 30
0.0
 11
948.9
 21
474.0
 31
0.0
  0
LINE
  8
L-ZISSEN
 10
1005.1
 20
526.0
 30
0.0
 11
1005.1
 21
474.0
 31
0.0
  0
LINE
  8
L-ZISSEN
 10
1003.0
 20
534.0
 30
0.0
 11
951.0
 21
534.0
 31
0.0
  0
ARC
  8
L-ZISSEN
 10
977.0
 20
521.0
 30
0.0
 40
13.0
 50
125.234418
 51
54.765582
  0
CIRCLE
  8
L-ZISSEN
 10
977.0
 20
521.0
 30
0.0
 40
9.3
  0
LINE
  8
L-ZISSEN
 10
984.5
 20
534.0
 30
0.0
 11
984.5
 21
531.618381
 31
0.0
  0
LINE
  8
L-ZISSEN
 10
969.5
 20
534.0
 30
0.0
 11
969.5
 21
531.618381
 31
0.0
  0
LINE
  8
L-ZISSEN
 10
1003.0
 20
535.5
 30
0.0
 11
1003.0
 21
526.0
 31
0.0
  0
LINE
  8
L-ZISSEN
 10
951.0
 20
535.5
 30
0.0
 11
951.0
 21
526.0
 31
0.0
  0
LINE
  8
L-ZISSEN
 10
946.9
 20
526.0
 30
0.0
 11
951.0
 21
526.0
 31
0.0
  0
LINE
  8
L-ZISSEN
 10
951.0
 20
535.5
 30
0.0
 11
1003.0
 21
535.5
 31
0.0
  0
LINE
  8
L-ZISSEN
  6
CONTINUOUS
 62
     7
 10
958.5
 20
539.1
 30
0.0
 11
951.5
 21
539.1
 31
0.0
  0
LINE
  8
L-ZISSEN
  6
CONTINUOUS
 62
     7
 10
958.5
 20
535.5
 30
0.0
 11
958.5
 21
539.1
 31
0.0
  0
LINE
  8
L-ZISSEN
  6
CONTINUOUS
 62
     7
 10
951.5
 20
535.5
 30
0.0
 11
951.5
 21
539.1
 31
0.0
  0
LINE
  8
L-ZISSEN
  6
CONTINUOUS
 62
     7
 10
943.6
 20
524.5
 30
0.0
 11
943.6
 21
515.5
 31
0.0
  0
LINE
  8
L-ZISSEN
  6
CONTINUOUS
 62
     7
 10
946.9
 20
515.5
 30
0.0
 11
943.6
 21
515.5
 31
0.0
  0
LINE
  8
L-ZISSEN
  6
CONTINUOUS
 62
     7
 10
946.9
 20
524.5
 30
0.0
 11
943.6
 21
524.5
 31
0.0
  0
LINE
  8
L-ZISSEN
  6
CONTINUOUS
 62
     7
 10
995.5
 20
535.5
 30
0.0
 11
995.5
 21
539.1
 31
0.0
  0
LINE
  8
L-ZISSEN
  6
CONTINUOUS
 62
     7
 10
1002.5
 20
535.5
 30
0.0
 11
1002.5
 21
539.1
 31
0.0
  0
LINE
  8
L-ZISSEN
  6
CONTINUOUS
 62
     7
 10
1002.5
 20
539.1
 30
0.0
 11
995.5
 21
539.1
 31
0.0
  0
LINE
  8
L-ZISSEN
 10
990.0
 20
562.0
 30
0.0
 11
964.0
 21
562.0
 31
0.0
  0
LINE
  8
L-ZISSEN
 10
990.0
 20
564.0
 30
0.0
 11
990.0
 21
562.0
 31
0.0
  0
LINE
  8
L-ZISSEN
 10
990.0
 20
618.0
 30
0.0
 11
964.0
 21
618.0
 31
0.0
  0
LINE
  8
L-ZISSEN
 10
990.0
 20
618.0
 30
0.0
 11
990.0
 21
616.0
 31
0.0
  0
LINE
  8
L-ZISSEN
 10
964.0
 20
618.0
 30
0.0
 11
964.0
 21
616.0
 31
0.0
  0
LINE
  8
L-ZISSEN
 10
964.0
 20
564.0
 30
0.0
 11
964.0
 21
562.0
 31
0.0
  0
LINE
  8
L-ZISSEN
  6
CONTINUOUS
 62
     7
 10
948.9
 20
564.0
 30
0.0
 11
948.9
 21
616.0
 31
0.0
  0
LINE
  8
L-ZISSEN
  6
CONTINUOUS
 62
     7
 10
946.9
 20
616.0
 30
0.0
 11
946.9
 21
564.0
 31
0.0
  0
LINE
  8
L-ZISSEN
  6
CONTINUOUS
 62
     7
 10
943.6
 20
614.5
 30
0.0
 11
943.6
 21
605.5
 31
0.0
  0
LINE
  8
L-ZISSEN
  6
CONTINUOUS
 62
     7
 10
946.9
 20
605.5
 30
0.0
 11
943.6
 21
605.5
 31
0.0
  0
LINE
  8
L-ZISSEN
  6
CONTINUOUS
 62
     7
 10
946.9
 20
614.5
 30
0.0
 11
943.6
 21
614.5
 31
0.0
  0
LINE
  8
L-ZISSEN
  6
CONTINUOUS
 62
     7
 10
946.9
 20
574.5
 30
0.0
 11
943.6
 21
574.5
 31
0.0
  0
LINE
  8
L-ZISSEN
  6
CONTINUOUS
 62
     7
 10
946.9
 20
565.5
 30
0.0
 11
943.6
 21
565.5
 31
0.0
  0
LINE
  8
L-ZISSEN
  6
CONTINUOUS
 62
     7
 10
943.6
 20
574.5
 30
0.0
 11
943.6
 21
565.5
 31
0.0
  0
LINE
  8
L-ZISSEN
  6
CONTINUOUS
 62
     7
 10
1005.1
 20
564.0
 30
0.0
 11
1005.1
 21
616.0
 31
0.0
  0
LINE
  8
L-ZISSEN
 10
951.0
 20
564.0
 30
0.0
 11
951.0
 21
616.0
 31
0.0
  0
LINE
  8
L-ZISSEN
 10
1003.0
 20
564.0
 30
0.0
 11
1003.0
 21
616.0
 31
0.0
  0
CIRCLE
  8
L-ZISSEN
 10
999.0
 20
568.0
 30
0.0
 40
3.5
  0
CIRCLE
  8
L-ZISSEN
 10
999.0
 20
612.0
 30
0.0
 40
3.5
  0
CIRCLE
  8
L-ZISSEN
 10
955.0
 20
612.0
 30
0.0
 40
3.5
  0
CIRCLE
  8
L-ZISSEN
 10
955.0
 20
568.0
 30
0.0
 40
3.5
  0
LINE
  8
L-ZISSEN
 10
951.0
 20
578.5
 30
0.0
 11
951.0
 21
601.5
 31
0.0
  0
LINE
  8
L-TYUSIN
  6
CENTER
 62
     1
 10
965.0
 20
611.0
 30
0.0
 11
965.0
 21
621.0
 31
0.0
  0
LINE
  8
L-ZISSEN
 10
1206.0
 20
535.5
 30
0.0
 11
1206.0
 21
474.0
 31
0.0
  0
LINE
  8
L-TYUSIN
 62
     1
 10
1211.0
 20
495.0
 30
0.0
 11
1201.0
 21
495.0
 31
0.0
  0
LINE
  8
L-ZISSEN
 10
1154.0
 20
474.0
 30
0.0
 11
1206.0
 21
474.0
 31
0.0
  0
LINE
  8
L-ZISSEN
 10
1154.0
 20
474.0
 30
0.0
 11
1154.0
 21
535.5
 31
0.0
  0
LINE
  8
L-ZISSEN
 10
1152.0
 20
508.0
 30
0.0
 11
1154.0
 21
508.0
 31
0.0
  0
LINE
  8
L-ZISSEN
  6
CONTINUOUS
 62
     7
 10
1154.5
 20
535.5
 30
0.0
 11
1154.5
 21
539.1
 31
0.0
  0
LINE
  8
L-ZISSEN
 10
1152.0
 20
508.0
 30
0.0
 11
1152.0
 21
534.0
 31
0.0
  0
LINE
  8
L-ZISSEN
  6
CONTINUOUS
 62
     7
 10
1161.5
 20
539.1
 30
0.0
 11
1154.5
 21
539.1
 31
0.0
  0
LINE
  8
L-ZISSEN
 10
1154.0
 20
535.5
 30
0.0
 11
1206.0
 21
535.5
 31
0.0
  0
LINE
  8
L-ZISSEN
 10
1152.0
 20
534.0
 30
0.0
 11
1208.0
 21
534.0
 31
0.0
  0
LINE
  8
L-ZISSEN
 10
1154.0
 20
526.0
 30
0.0
 11
1206.0
 21
526.0
 31
0.0
  0
LINE
  8
L-ZISSEN
  6
CONTINUOUS
 62
     7
 10
1198.5
 20
535.5
 30
0.0
 11
1198.5
 21
539.1
 31
0.0
  0
LINE
  8
L-ZISSEN
  6
CONTINUOUS
 62
     7
 10
1198.5
 20
539.1
 30
0.0
 11
1205.5
 21
539.1
 31
0.0
  0
LINE
  8
L-ZISSEN
  6
CONTINUOUS
 62
     7
 10
1205.5
 20
535.5
 30
0.0
 11
1205.5
 21
539.1
 31
0.0
  0
LINE
  8
L-ZISSEN
 10
1208.0
 20
508.0
 30
0.0
 11
1208.0
 21
534.0
 31
0.0
  0
LINE
  8
L-ZISSEN
 10
1206.0
 20
508.0
 30
0.0
 11
1208.0
 21
508.0
 31
0.0
  0
LINE
  8
L-ZISSEN
  6
CONTINUOUS
 62
     7
 10
1161.5
 20
535.5
 30
0.0
 11
1161.5
 21
539.1
 31
0.0
  0
SOLID
  8
L-ZISSEN
 10
598.456513
 20
428.314822
 30
0.0
 11
598.113516
 21
427.743161
 31
0.0
 12
600.0
 22
427.0
 32
0.0
 13
600.0
 23
427.0
 33
0.0
  0
LINE
  8
L-ZISSEN
 10
598.285014
 20
428.028992
 30
0.0
 11
570.0
 21
445.0
 31
0.0
  0
LINE
  8
L-ZISSEN
 10
570.0
 20
445.0
 30
0.0
 11
568.0
 21
445.0
 31
0.0
  0
TEXT
  8
L-ZISSEN
 10
556.357143
 20
442.75
 30
0.0
 40
4.5
  1
P.P
  0
SOLID
  8
L-ZISSEN
 10
1178.290423
 20
472.909835
 30
0.0
 11
1178.7364
 21
472.414306
 31
0.0
 12
1180.0
 22
474.0
 32
0.0
 13
1180.0
 23
474.0
 33
0.0
  0
LINE
  8
L-ZISSEN
 10
1178.513412
 20
472.662071
 30
0.0
 11
1170.0
 21
465.0
 31
0.0
  0
LINE
  8
L-ZISSEN
 10
1170.0
 20
465.0
 30
0.0
 11
1168.0
 21
465.0
 31
0.0
  0
TEXT
  8
L-ZISSEN
 10
1156.357143
 20
462.75
 30
0.0
 40
4.5
  1
P.P
  0
TEXT
  8
L-ZISSEN
 10
1156.357143
 20
252.75
 30
0.0
 40
4.5
  1
P.P
  0
LINE
  8
L-ZISSEN
 10
1170.0
 20
255.0
 30
0.0
 11
1168.0
 21
255.0
 31
0.0
  0
LINE
  8
L-ZISSEN
 10
1178.513412
 20
262.662071
 30
0.0
 11
1170.0
 21
255.0
 31
0.0
  0
SOLID
  8
L-ZISSEN
 10
1178.290423
 20
262.909835
 30
0.0
 11
1178.7364
 21
262.414306
 31
0.0
 12
1180.0
 22
264.0
 32
0.0
 13
1180.0
 23
264.0
 33
0.0
  0
SOLID
  8
L-ZISSEN
 10
1178.290423
 20
52.909835
 30
0.0
 11
1178.7364
 21
52.414306
 31
0.0
 12
1180.0
 22
54.0
 32
0.0
 13
1180.0
 23
54.0
 33
0.0
  0
LINE
  8
L-ZISSEN
 10
1178.513412
 20
52.662071
 30
0.0
 11
1170.0
 21
45.0
 31
0.0
  0
LINE
  8
L-ZISSEN
 10
1170.0
 20
45.0
 30
0.0
 11
1168.0
 21
45.0
 31
0.0
  0
TEXT
  8
L-ZISSEN
 10
1156.357143
 20
42.75
 30
0.0
 40
4.5
  1
P.P
  0
TEXT
  8
L-ZISSEN
 10
1456.357143
 20
462.75
 30
0.0
 40
4.5
  1
P.P
  0
LINE
  8
L-ZISSEN
 10
1470.0
 20
465.0
 30
0.0
 11
1468.0
 21
465.0
 31
0.0
  0
LINE
  8
L-ZISSEN
 10
1478.513412
 20
472.662071
 30
0.0
 11
1470.0
 21
465.0
 31
0.0
  0
SOLID
  8
L-ZISSEN
 10
1478.290423
 20
472.909835
 30
0.0
 11
1478.7364
 21
472.414306
 31
0.0
 12
1480.0
 22
474.0
 32
0.0
 13
1480.0
 23
474.0
 33
0.0
  0
CIRCLE
  8
L-ZISSEN
 10
200.0
 20
300.0
 30
0.0
 40
19.476
  0
CIRCLE
  8
L-ZISSEN
 10
280.0
 20
280.0
 30
0.0
 40
19.476
  0
CIRCLE
  8
L-ZISSEN
 10
360.0
 20
300.0
 30
0.0
 40
19.476
  0
CIRCLE
  8
L-ZISSEN
 10
240.0
 20
940.0
 30
0.0
 40
19.476
  0
CIRCLE
  8
L-ZISSEN
 10
320.0
 20
940.0
 30
0.0
 40
19.476
  0
SOLID
  8
L-ZISSEN
 10
278.737328
 20
278.413566
 30
0.0
 11
279.3201
 21
278.089804
 31
0.0
 12
280.0
 22
280.0
 32
0.0
 13
280.0
 23
280.0
 33
0.0
  0
LINE
  8
L-ZISSEN
 10
279.028714
 20
278.251685
 30
0.0
 11
255.0
 21
235.0
 31
0.0
  0
LINE
  8
L-ZISSEN
 10
255.0
 20
235.0
 30
0.0
 11
253.0
 21
235.0
 31
0.0
  0
TEXT
  8
L-ZISSEN
 10
220.357143
 20
232.75
 30
0.0
 40
4.5
  1
"1" PORT
  0
TEXT
  8
L-ZISSEN
 10
220.0
 20
225.0
 30
0.0
 40
4.5
  1
Rc 1-1/4
  0
TEXT
  8
L-ZISSEN
 10
220.0
 20
215.0
 30
0.0
 40
4.5
  1
Rc 1-1/2
  0
TEXT
  8
L-ZISSEN
 10
75.0
 20
1020.0
 30
0.0
 40
4.5
  1
MODEL No. :
  0
TEXT
  8
L-ZISSEN
 10
120.0
 20
1020.0
 30
0.0
 40
4.5
  1
MVD-4 1-  Y
  0
TEXT
  8
L-ZISSEN
 10
157.0
 20
1024.0
 30
0.0
 40
4.5
  1
12
  0
TEXT
  8
L-ZISSEN
 10
157.0
 20
1017.0
 30
0.0
 40
4.5
  1
14
  0
TEXT
  8
L-ZISSEN
 10
172.0
 20
1024.0
 30
0.0
 40
4.5
  1
AC-100V
  0
TEXT
  8
L-ZISSEN
 10
172.0
 20
1017.0
 30
0.0
 40
4.5
  1
AC-200V
  0
TEXT
  8
L-ZISSEN
 10
882.0
 20
632.0
 30
0.0
 40
4.5
  1
DC-100V
  0
TEXT
  8
L-ZISSEN
 10
882.0
 20
639.0
 30
0.0
 40
4.5
  1
DC-24V
  0
TEXT
  8
L-ZISSEN
 10
825.0
 20
635.0
 30
0.0
 40
4.5
  1
MVD-4*1-**YH
  0
TEXT
  8
L-ZISSEN
 10
780.0
 20
635.0
 30
0.0
 40
4.5
  1
MODEL No. :
  0
TEXT
  8
L-ZISSEN
 10
780.0
 20
425.0
 30
0.0
 40
4.5
  1
MODEL No. :
  0
TEXT
  8
L-ZISSEN
 10
825.0
 20
425.0
 30
0.0
 40
4.5
  1
MVD-4*1-**YR
  0
TEXT
  8
L-ZISSEN
 10
882.0
 20
429.0
 30
0.0
 40
4.5
  1
AC-100V
  0
TEXT
  8
L-ZISSEN
 10
882.0
 20
422.0
 30
0.0
 40
4.5
  1
AC-200V
  0
TEXT
  8
L-ZISSEN
 10
887.0
 20
212.0
 30
0.0
 40
4.5
  1
DC-100V
  0
TEXT
  8
L-ZISSEN
 10
887.0
 20
219.0
 30
0.0
 40
4.5
  1
DC-24V
  0
TEXT
  8
L-ZISSEN
 10
825.0
 20
215.0
 30
0.0
 40
4.5
  1
MVD-4*1-**YHR
  0
TEXT
  8
L-ZISSEN
 10
780.0
 20
215.0
 30
0.0
 40
4.5
  1
MODEL No. :
  0
TEXT
  8
L-ZISSEN
 10
780.0
 20
645.0
 30
0.0
 40
4.5
  1
PILOT VALVE
  0
TEXT
  8
L-ZISSEN
 10
780.0
 20
435.0
 30
0.0
 40
4.5
  1
PILOT VALVE
  0
TEXT
  8
L-ZISSEN
 10
780.0
 20
225.0
 30
0.0
 40
4.5
  1
PILOT VALVE
  0
TEXT
  8
L-ZISSEN
 10
1270.0
 20
435.0
 30
0.0
 40
4.5
  1
EXTERNAL PILOT AIR SUPPLY
  0
TEXT
  8
L-ZISSEN
 10
1270.0
 20
425.0
 30
0.0
 40
4.5
  1
MODEL No. :
  0
TEXT
  8
L-ZISSEN
 10
1315.0
 20
425.0
 30
0.0
 40
4.5
  1
MVD-4*1-**YP
  0
CIRCLE
  8
L-ZISSEN
 10
1320.0
 20
385.0
 30
0.0
 40
5.7225
  0
SOLID
  8
L-ZISSEN
 10
1321.649916
 20
386.178511
 30
0.0
 11
1321.178511
 21
386.649916
 31
0.0
 12
1320.0
 22
385.0
 32
0.0
 13
1320.0
 23
385.0
 33
0.0
  0
LINE
  8
L-ZISSEN
 10
1321.414214
 20
386.414214
 30
0.0
 11
1330.0
 21
395.0
 31
0.0
  0
LINE
  8
L-ZISSEN
 10
1330.0
 20
395.0
 30
0.0
 11
1332.0
 21
395.0
 31
0.0
  0
TEXT
  8
L-ZISSEN
 10
1334.0
 20
392.75
 30
0.0
 40
4.5
  1
P.P
  0
LINE
  8
L-TYUSIN
 10
408.0
 20
265.0
 30
0.0
 11
408.0
 21
235.0
 31
0.0
  0
LINE
  8
L-TYUSIN
 10
152.0
 20
265.0
 30
0.0
 11
152.0
 21
235.0
 31
0.0
  0
LINE
  8
L-TYUSIN
 10
408.0
 20
985.0
 30
0.0
 11
408.0
 21
955.0
 31
0.0
  0
LINE
  8
L-TYUSIN
 10
152.0
 20
985.0
 30
0.0
 11
152.0
 21
955.0
 31
0.0
  0
LINE
  8
L-ZISSEN
  6
CONTINUOUS
 62
     7
 10
201.9
 20
793.0
 30
0.0
 11
155.9
 21
791.393644
 31
0.0
  0
LINE
  8
L-ZISSEN
  6
CONTINUOUS
 62
     7
 10
270.1
 20
782.5
 30
0.0
 11
273.4
 21
782.5
 31
0.0
  0
LINE
  8
L-ZISSEN
  6
CONTINUOUS
 62
     7
 10
270.1
 20
791.5
 30
0.0
 11
273.4
 21
791.5
 31
0.0
  0
LINE
  8
L-ZISSEN
  6
CONTINUOUS
 62
     7
 10
273.4
 20
782.5
 30
0.0
 11
273.4
 21
791.5
 31
0.0
  0
LINE
  8
L-ZISSEN
 10
270.1
 20
741.0
 30
0.0
 11
270.1
 21
793.0
 31
0.0
  0
LINE
  8
L-ZISSEN
 10
268.1
 20
741.0
 30
0.0
 11
268.1
 21
793.0
 31
0.0
  0
LINE
  8
L-ZISSEN
 10
211.9
 20
741.0
 30
0.0
 11
211.9
 21
793.0
 31
0.0
  0
LINE
  8
L-ZISSEN
  6
CONTINUOUS
 62
     7
 10
155.9
 20
791.393644
 30
0.0
 11
155.9
 21
742.606356
 31
0.0
  0
LINE
  8
L-ZISSEN
 10
214.0
 20
733.0
 30
0.0
 11
266.0
 21
733.0
 31
0.0
  0
ARC
  8
L-ZISSEN
 10
240.0
 20
746.0
 30
0.0
 40
13.0
 50
305.234418
 51
234.765582
  0
CIRCLE
  8
L-ZISSEN
 10
240.0
 20
746.0
 30
0.0
 40
9.3
  0
LINE
  8
L-ZISSEN
 10
232.5
 20
733.0
 30
0.0
 11
232.5
 21
735.381619
 31
0.0
  0
LINE
  8
L-ZISSEN
 10
247.5
 20
733.0
 30
0.0
 11
247.5
 21
735.381619
 31
0.0
  0
LINE
  8
L-ZISSEN
 10
214.0
 20
731.5
 30
0.0
 11
214.0
 21
741.0
 31
0.0
  0
LINE
  8
L-ZISSEN
 10
266.0
 20
731.5
 30
0.0
 11
266.0
 21
741.0
 31
0.0
  0
LINE
  8
L-ZISSEN
 10
270.1
 20
741.0
 30
0.0
 11
266.0
 21
741.0
 31
0.0
  0
LINE
  8
L-ZISSEN
 10
214.0
 20
741.0
 30
0.0
 11
201.9
 21
741.0
 31
0.0
  0
LINE
  8
L-ZISSEN
 10
266.0
 20
731.5
 30
0.0
 11
214.0
 21
731.5
 31
0.0
  0
LINE
  8
L-ZISSEN
  6
CONTINUOUS
 62
     7
 10
258.5
 20
727.9
 30
0.0
 11
265.5
 21
727.9
 31
0.0
  0
LINE
  8
L-ZISSEN
  6
CONTINUOUS
 62
     7
 10
258.5
 20
731.5
 30
0.0
 11
258.5
 21
727.9
 31
0.0
  0
LINE
  8
L-ZISSEN
  6
CONTINUOUS
 62
     7
 10
265.5
 20
731.5
 30
0.0
 11
265.5
 21
727.9
 31
0.0
  0
LINE
  8
L-ZISSEN
  6
CONTINUOUS
 62
     7
 10
273.4
 20
742.5
 30
0.0
 11
273.4
 21
751.5
 31
0.0
  0
LINE
  8
L-ZISSEN
  6
CONTINUOUS
 62
     7
 10
270.1
 20
751.5
 30
0.0
 11
273.4
 21
751.5
 31
0.0
  0
LINE
  8
L-ZISSEN
  6
CONTINUOUS
 62
     7
 10
270.1
 20
742.5
 30
0.0
 11
273.4
 21
742.5
 31
0.0
  0
LINE
  8
L-ZISSEN
  6
CONTINUOUS
 62
     7
 10
201.9
 20
741.0
 30
0.0
 11
155.9
 21
742.606356
 31
0.0
  0
LINE
  8
L-ZISSEN
  6
CONTINUOUS
 62
     7
 10
154.9
 20
778.0
 30
0.0
 11
155.9
 21
778.0
 31
0.0
  0
LINE
  8
L-ZISSEN
  6
CONTINUOUS
 62
     7
 10
154.9
 20
756.0
 30
0.0
 11
154.9
 21
778.0
 31
0.0
  0
LINE
  8
L-ZISSEN
  6
CONTINUOUS
 62
     7
 10
154.9
 20
756.0
 30
0.0
 11
155.9
 21
756.0
 31
0.0
  0
LINE
  8
L-ZISSEN
  6
CONTINUOUS
 62
     7
 10
221.5
 20
731.5
 30
0.0
 11
221.5
 21
727.9
 31
0.0
  0
LINE
  8
L-ZISSEN
  6
CONTINUOUS
 62
     7
 10
214.5
 20
731.5
 30
0.0
 11
214.5
 21
727.9
 31
0.0
  0
LINE
  8
L-ZISSEN
  6
CONTINUOUS
 62
     7
 10
214.5
 20
727.9
 30
0.0
 11
221.5
 21
727.9
 31
0.0
  0
SOLID
  8
L-ZISSEN
 10
281.709577
 20
802.090165
 30
0.0
 11
281.2636
 21
802.585694
 31
0.0
 12
280.0
 22
801.0
 32
0.0
 13
280.0
 23
801.0
 33
0.0
  0
LINE
  8
L-ZISSEN
 10
281.486588
 20
802.337929
 30
0.0
 11
290.0
 21
810.0
 31
0.0
  0
LINE
  8
L-ZISSEN
 10
290.0
 20
810.0
 30
0.0
 11
292.0
 21
810.0
 31
0.0
  0
TEXT
  8
L-ZISSEN
 10
294.0
 20
807.75
 30
0.0
 40
4.5
  1
P.P
  0
LINE
  8
L-TYUSIN
 10
1310.0
 20
385.0
 30
0.0
 11
1330.0
 21
385.0
 31
0.0
  0
LINE
  8
L-ZISSEN
 10
333.0
 20
582.0
 30
0.0
 11
307.0
 21
582.0
 31
0.0
  0
LINE
  8
L-ZISSEN
 10
333.0
 20
584.0
 30
0.0
 11
333.0
 21
582.0
 31
0.0
  0
LINE
  8
L-ZISSEN
 10
333.0
 20
638.0
 30
0.0
 11
307.0
 21
638.0
 31
0.0
  0
LINE
  8
L-ZISSEN
 10
333.0
 20
638.0
 30
0.0
 11
333.0
 21
636.0
 31
0.0
  0
LINE
  8
L-ZISSEN
 10
307.0
 20
638.0
 30
0.0
 11
307.0
 21
636.0
 31
0.0
  0
LINE
  8
L-ZISSEN
 10
307.0
 20
584.0
 30
0.0
 11
307.0
 21
582.0
 31
0.0
  0
LINE
  8
L-ZISSEN
  6
CONTINUOUS
 62
     7
 10
291.9
 20
584.0
 30
0.0
 11
291.9
 21
636.0
 31
0.0
  0
LINE
  8
L-ZISSEN
  6
CONTINUOUS
 62
     7
 10
289.9
 20
636.0
 30
0.0
 11
289.9
 21
584.0
 31
0.0
  0
LINE
  8
L-ZISSEN
  6
CONTINUOUS
 62
     7
 10
286.6
 20
634.5
 30
0.0
 11
286.6
 21
625.5
 31
0.0
  0
LINE
  8
L-ZISSEN
  6
CONTINUOUS
 62
     7
 10
289.9
 20
625.5
 30
0.0
 11
286.6
 21
625.5
 31
0.0
  0
LINE
  8
L-ZISSEN
  6
CONTINUOUS
 62
     7
 10
289.9
 20
634.5
 30
0.0
 11
286.6
 21
634.5
 31
0.0
  0
LINE
  8
L-ZISSEN
  6
CONTINUOUS
 62
     7
 10
289.9
 20
594.5
 30
0.0
 11
286.6
 21
594.5
 31
0.0
  0
LINE
  8
L-ZISSEN
  6
CONTINUOUS
 62
     7
 10
289.9
 20
585.5
 30
0.0
 11
286.6
 21
585.5
 31
0.0
  0
LINE
  8
L-ZISSEN
  6
CONTINUOUS
 62
     7
 10
286.6
 20
594.5
 30
0.0
 11
286.6
 21
585.5
 31
0.0
  0
LINE
  8
L-ZISSEN
  6
CONTINUOUS
 62
     7
 10
348.1
 20
584.0
 30
0.0
 11
348.1
 21
636.0
 31
0.0
  0
LINE
  8
L-ZISSEN
  6
CONTINUOUS
 62
     7
 10
358.1
 20
636.0
 30
0.0
 11
404.1
 21
634.393644
 31
0.0
  0
LINE
  8
L-ZISSEN
  6
CONTINUOUS
 62
     7
 10
405.1
 20
599.0
 30
0.0
 11
404.1
 21
599.0
 31
0.0
  0
LINE
  8
L-ZISSEN
  6
CONTINUOUS
 62
     7
 10
405.1
 20
621.0
 30
0.0
 11
405.1
 21
599.0
 31
0.0
  0
LINE
  8
L-ZISSEN
  6
CONTINUOUS
 62
     7
 10
405.1
 20
621.0
 30
0.0
 11
404.1
 21
621.0
 31
0.0
  0
LINE
  8
L-ZISSEN
  6
CONTINUOUS
 62
     7
 10
404.1
 20
585.606356
 30
0.0
 11
404.1
 21
634.393644
 31
0.0
  0
LINE
  8
L-ZISSEN
  6
CONTINUOUS
 62
     7
 10
358.1
 20
584.0
 30
0.0
 11
404.1
 21
585.606356
 31
0.0
  0
LINE
  8
L-ZISSEN
 10
358.1
 20
636.0
 30
0.0
 11
289.9
 21
636.0
 31
0.0
  0
LINE
  8
L-ZISSEN
 10
358.1
 20
584.0
 30
0.0
 11
289.9
 21
584.0
 31
0.0
  0
LINE
  8
L-ZISSEN
 10
294.0
 20
584.0
 30
0.0
 11
294.0
 21
636.0
 31
0.0
  0
LINE
  8
L-ZISSEN
 10
346.0
 20
584.0
 30
0.0
 11
346.0
 21
636.0
 31
0.0
  0
CIRCLE
  8
L-ZISSEN
 10
342.0
 20
588.0
 30
0.0
 40
3.5
  0
CIRCLE
  8
L-ZISSEN
 10
342.0
 20
632.0
 30
0.0
 40
3.5
  0
CIRCLE
  8
L-ZISSEN
 10
298.0
 20
632.0
 30
0.0
 40
3.5
  0
CIRCLE
  8
L-ZISSEN
 10
298.0
 20
588.0
 30
0.0
 40
3.5
  0
LINE
  8
L-ZISSEN
 10
294.0
 20
598.5
 30
0.0
 11
294.0
 21
621.5
 31
0.0
  0
LINE
  8
L-TYUSIN
  6
CENTER
 62
     1
 10
308.0
 20
631.0
 30
0.0
 11
308.0
 21
641.0
 31
0.0
  0
LINE
  8
L-ZISSEN
 10
198.0
 20
635.863809
 30
0.0
 11
198.0
 21
665.0
 31
0.0
  0
LINE
  8
L-ZISSEN
  6
CONTINUOUS
 62
     7
 10
201.9
 20
427.0
 30
0.0
 11
155.9
 21
428.606356
 31
0.0
  0
LINE
  8
L-ZISSEN
 10
211.9
 20
479.0
 30
0.0
 11
211.9
 21
427.0
 31
0.0
  0
LINE
  8
L-ZISSEN
  6
CONTINUOUS
 62
     7
 10
201.9
 20
479.0
 30
0.0
 11
155.9
 21
477.393644
 31
0.0
  0
LINE
  8
L-ZISSEN
  6
CONTINUOUS
 62
     7
 10
154.9
 20
464.0
 30
0.0
 11
155.9
 21
464.0
 31
0.0
  0
LINE
  8
L-ZISSEN
  6
CONTINUOUS
 62
     7
 10
154.9
 20
464.0
 30
0.0
 11
154.9
 21
442.0
 31
0.0
  0
LINE
  8
L-ZISSEN
  6
CONTINUOUS
 62
     7
 10
154.9
 20
442.0
 30
0.0
 11
155.9
 21
442.0
 31
0.0
  0
LINE
  8
L-ZISSEN
  6
CONTINUOUS
 62
     7
 10
155.9
 20
428.606356
 30
0.0
 11
155.9
 21
477.393644
 31
0.0
  0
LINE
  8
L-ZISSEN
 10
214.0
 20
479.0
 30
0.0
 11
201.9
 21
479.0
 31
0.0
  0
LINE
  8
L-ZISSEN
  6
CONTINUOUS
 62
     7
 10
214.5
 20
492.1
 30
0.0
 11
221.5
 21
492.1
 31
0.0
  0
LINE
  8
L-ZISSEN
  6
CONTINUOUS
 62
     7
 10
214.5
 20
488.5
 30
0.0
 11
214.5
 21
492.1
 31
0.0
  0
LINE
  8
L-ZISSEN
  6
CONTINUOUS
 62
     7
 10
221.5
 20
488.5
 30
0.0
 11
221.5
 21
492.1
 31
0.0
  0
LINE
  8
L-ZISSEN
  6
CONTINUOUS
 62
     7
 10
270.1
 20
477.5
 30
0.0
 11
273.4
 21
477.5
 31
0.0
  0
LINE
  8
L-ZISSEN
  6
CONTINUOUS
 62
     7
 10
270.1
 20
468.5
 30
0.0
 11
273.4
 21
468.5
 31
0.0
  0
LINE
  8
L-ZISSEN
  6
CONTINUOUS
 62
     7
 10
273.4
 20
477.5
 30
0.0
 11
273.4
 21
468.5
 31
0.0
  0
LINE
  8
L-ZISSEN
  6
CONTINUOUS
 62
     7
 10
265.5
 20
488.5
 30
0.0
 11
265.5
 21
492.1
 31
0.0
  0
LINE
  8
L-ZISSEN
  6
CONTINUOUS
 62
     7
 10
258.5
 20
488.5
 30
0.0
 11
258.5
 21
492.1
 31
0.0
  0
LINE
  8
L-ZISSEN
  6
CONTINUOUS
 62
     7
 10
258.5
 20
492.1
 30
0.0
 11
265.5
 21
492.1
 31
0.0
  0
LINE
  8
L-ZISSEN
 10
266.0
 20
488.5
 30
0.0
 11
214.0
 21
488.5
 31
0.0
  0
LINE
  8
L-ZISSEN
 10
270.1
 20
479.0
 30
0.0
 11
266.0
 21
479.0
 31
0.0
  0
LINE
  8
L-ZISSEN
 10
266.0
 20
488.5
 30
0.0
 11
266.0
 21
479.0
 31
0.0
  0
LINE
  8
L-ZISSEN
 10
214.0
 20
488.5
 30
0.0
 11
214.0
 21
479.0
 31
0.0
  0
LINE
  8
L-ZISSEN
 10
247.5
 20
487.0
 30
0.0
 11
247.5
 21
484.618381
 31
0.0
  0
LINE
  8
L-ZISSEN
 10
232.5
 20
487.0
 30
0.0
 11
232.5
 21
484.618381
 31
0.0
  0
CIRCLE
  8
L-ZISSEN
 10
240.0
 20
474.0
 30
0.0
 40
9.3
  0
ARC
  8
L-ZISSEN
 10
240.0
 20
474.0
 30
0.0
 40
13.0
 50
125.234418
 51
54.765582
  0
LINE
  8
L-ZISSEN
 10
214.0
 20
487.0
 30
0.0
 11
266.0
 21
487.0
 31
0.0
  0
LINE
  8
L-ZISSEN
 10
268.1
 20
479.0
 30
0.0
 11
268.1
 21
427.0
 31
0.0
  0
LINE
  8
L-ZISSEN
 10
270.1
 20
479.0
 30
0.0
 11
270.1
 21
427.0
 31
0.0
  0
LINE
  8
L-ZISSEN
  6
CONTINUOUS
 62
     7
 10
273.4
 20
437.5
 30
0.0
 11
273.4
 21
428.5
 31
0.0
  0
LINE
  8
L-ZISSEN
  6
CONTINUOUS
 62
     7
 10
270.1
 20
428.5
 30
0.0
 11
273.4
 21
428.5
 31
0.0
  0
LINE
  8
L-ZISSEN
  6
CONTINUOUS
 62
     7
 10
270.1
 20
437.5
 30
0.0
 11
273.4
 21
437.5
 31
0.0
  0
LINE
  8
L-ZISSEN
 10
884.0
 20
142.0
 30
0.0
 11
910.0
 21
142.0
 31
0.0
  0
LINE
  8
L-ZISSEN
 10
884.0
 20
144.0
 30
0.0
 11
884.0
 21
142.0
 31
0.0
  0
LINE
  8
L-ZISSEN
 10
884.0
 20
198.0
 30
0.0
 11
910.0
 21
198.0
 31
0.0
  0
LINE
  8
L-ZISSEN
 10
884.0
 20
198.0
 30
0.0
 11
884.0
 21
196.0
 31
0.0
  0
LINE
  8
L-ZISSEN
 10
910.0
 20
198.0
 30
0.0
 11
910.0
 21
196.0
 31
0.0
  0
LINE
  8
L-ZISSEN
 10
910.0
 20
144.0
 30
0.0
 11
910.0
 21
142.0
 31
0.0
  0
LINE
  8
L-ZISSEN
  6
CONTINUOUS
 62
     7
 10
925.1
 20
144.0
 30
0.0
 11
925.1
 21
196.0
 31
0.0
  0
LINE
  8
L-ZISSEN
  6
CONTINUOUS
 62
     7
 10
927.1
 20
196.0
 30
0.0
 11
927.1
 21
144.0
 31
0.0
  0
LINE
  8
L-ZISSEN
  6
CONTINUOUS
 62
     7
 10
930.4
 20
194.5
 30
0.0
 11
930.4
 21
185.5
 31
0.0
  0
LINE
  8
L-ZISSEN
  6
CONTINUOUS
 62
     7
 10
927.1
 20
185.5
 30
0.0
 11
930.4
 21
185.5
 31
0.0
  0
LINE
  8
L-ZISSEN
  6
CONTINUOUS
 62
     7
 10
927.1
 20
194.5
 30
0.0
 11
930.4
 21
194.5
 31
0.0
  0
LINE
  8
L-ZISSEN
  6
CONTINUOUS
 62
     7
 10
927.1
 20
154.5
 30
0.0
 11
930.4
 21
154.5
 31
0.0
  0
LINE
  8
L-ZISSEN
  6
CONTINUOUS
 62
     7
 10
927.1
 20
145.5
 30
0.0
 11
930.4
 21
145.5
 31
0.0
  0
LINE
  8
L-ZISSEN
  6
CONTINUOUS
 62
     7
 10
930.4
 20
154.5
 30
0.0
 11
930.4
 21
145.5
 31
0.0
  0
LINE
  8
L-ZISSEN
  6
CONTINUOUS
 62
     7
 10
868.9
 20
144.0
 30
0.0
 11
868.9
 21
196.0
 31
0.0
  0
LINE
  8
L-ZISSEN
 10
923.0
 20
144.0
 30
0.0
 11
923.0
 21
196.0
 31
0.0
  0
LINE
  8
L-ZISSEN
 10
871.0
 20
144.0
 30
0.0
 11
871.0
 21
196.0
 31
0.0
  0
CIRCLE
  8
L-ZISSEN
 10
875.0
 20
148.0
 30
0.0
 40
3.5
  0
CIRCLE
  8
L-ZISSEN
 10
875.0
 20
192.0
 30
0.0
 40
3.5
  0
CIRCLE
  8
L-ZISSEN
 10
919.0
 20
192.0
 30
0.0
 40
3.5
  0
CIRCLE
  8
L-ZISSEN
 10
919.0
 20
148.0
 30
0.0
 40
3.5
  0
LINE
  8
L-ZISSEN
 10
923.0
 20
158.5
 30
0.0
 11
923.0
 21
181.5
 31
0.0
  0
LINE
  8
L-TYUSIN
  6
CENTER
 62
     1
 10
909.0
 20
149.0
 30
0.0
 11
909.0
 21
139.0
 31
0.0
  0
LINE
  8
L-ZISSEN
  6
CONTINUOUS
 62
     7
 10
927.1
 20
64.5
 30
0.0
 11
930.4
 21
64.5
 31
0.0
  0
LINE
  8
L-ZISSEN
  6
CONTINUOUS
 62
     7
 10
927.1
 20
55.5
 30
0.0
 11
930.4
 21
55.5
 31
0.0
  0
LINE
  8
L-ZISSEN
  6
CONTINUOUS
 62
     7
 10
930.4
 20
64.5
 30
0.0
 11
930.4
 21
55.5
 31
0.0
  0
LINE
  8
L-ZISSEN
 10
927.1
 20
106.0
 30
0.0
 11
927.1
 21
54.0
 31
0.0
  0
LINE
  8
L-ZISSEN
 10
925.1
 20
106.0
 30
0.0
 11
925.1
 21
54.0
 31
0.0
  0
LINE
  8
L-ZISSEN
 10
868.9
 20
106.0
 30
0.0
 11
868.9
 21
54.0
 31
0.0
  0
LINE
  8
L-ZISSEN
 10
871.0
 20
114.0
 30
0.0
 11
923.0
 21
114.0
 31
0.0
  0
ARC
  8
L-ZISSEN
 10
897.0
 20
101.0
 30
0.0
 40
13.0
 50
125.234418
 51
54.765582
  0
CIRCLE
  8
L-ZISSEN
 10
897.0
 20
101.0
 30
0.0
 40
9.3
  0
LINE
  8
L-ZISSEN
 10
889.5
 20
114.0
 30
0.0
 11
889.5
 21
111.618381
 31
0.0
  0
LINE
  8
L-ZISSEN
 10
904.5
 20
114.0
 30
0.0
 11
904.5
 21
111.618381
 31
0.0
  0
LINE
  8
L-ZISSEN
 10
871.0
 20
115.5
 30
0.0
 11
871.0
 21
106.0
 31
0.0
  0
LINE
  8
L-ZISSEN
 10
923.0
 20
115.5
 30
0.0
 11
923.0
 21
106.0
 31
0.0
  0
LINE
  8
L-ZISSEN
 10
927.1
 20
106.0
 30
0.0
 11
923.0
 21
106.0
 31
0.0
  0
LINE
  8
L-ZISSEN
 10
923.0
 20
115.5
 30
0.0
 11
871.0
 21
115.5
 31
0.0
  0
LINE
  8
L-ZISSEN
  6
CONTINUOUS
 62
     7
 10
915.5
 20
119.1
 30
0.0
 11
922.5
 21
119.1
 31
0.0
  0
LINE
  8
L-ZISSEN
  6
CONTINUOUS
 62
     7
 10
915.5
 20
115.5
 30
0.0
 11
915.5
 21
119.1
 31
0.0
  0
LINE
  8
L-ZISSEN
  6
CONTINUOUS
 62
     7
 10
922.5
 20
115.5
 30
0.0
 11
922.5
 21
119.1
 31
0.0
  0
LINE
  8
L-ZISSEN
  6
CONTINUOUS
 62
     7
 10
930.4
 20
104.5
 30
0.0
 11
930.4
 21
95.5
 31
0.0
  0
LINE
  8
L-ZISSEN
  6
CONTINUOUS
 62
     7
 10
927.1
 20
95.5
 30
0.0
 11
930.4
 21
95.5
 31
0.0
  0
LINE
  8
L-ZISSEN
  6
CONTINUOUS
 62
     7
 10
927.1
 20
104.5
 30
0.0
 11
930.4
 21
104.5
 31
0.0
  0
LINE
  8
L-ZISSEN
  6
CONTINUOUS
 62
     7
 10
878.5
 20
115.5
 30
0.0
 11
878.5
 21
119.1
 31
0.0
  0
LINE
  8
L-ZISSEN
  6
CONTINUOUS
 62
     7
 10
871.5
 20
115.5
 30
0.0
 11
871.5
 21
119.1
 31
0.0
  0
LINE
  8
L-ZISSEN
  6
CONTINUOUS
 62
     7
 10
871.5
 20
119.1
 30
0.0
 11
878.5
 21
119.1
 31
0.0
  0
LINE
  8
L-ZISSEN
 10
786.3
 20
189.0
 30
0.0
 11
786.3
 21
151.0
 31
0.0
  0
LINE
  8
L-ZISSEN
 10
796.9
 20
196.0
 30
0.0
 11
796.9
 21
144.0
 31
0.0
  0
LINE
  8
L-ZISSEN
 10
792.25718
 20
189.0
 30
0.0
 11
786.3
 21
189.0
 31
0.0
  0
LINE
  8
L-ZISSEN
 10
792.25718
 20
151.0
 30
0.0
 11
786.3
 21
151.0
 31
0.0
  0
LINE
  8
L-ZISSEN
 10
792.25718
 20
194.49995
 30
0.0
 11
796.9
 21
194.49995
 31
0.0
  0
LINE
  8
L-ZISSEN
 10
792.25718
 20
185.50005
 30
0.0
 11
792.25718
 21
194.49995
 31
0.0
  0
LINE
  8
L-ZISSEN
 10
792.25718
 20
185.50005
 30
0.0
 11
796.9
 21
185.50005
 31
0.0
  0
LINE
  8
L-ZISSEN
 10
792.25718
 20
154.49995
 30
0.0
 11
796.9
 21
154.49995
 31
0.0
  0
LINE
  8
L-ZISSEN
 10
792.25718
 20
154.49995
 30
0.0
 11
792.25718
 21
145.50005
 31
0.0
  0
LINE
  8
L-ZISSEN
 10
792.25718
 20
145.50005
 30
0.0
 11
796.9
 21
145.50005
 31
0.0
  0
LINE
  8
L-ZISSEN
 10
792.25718
 20
55.50005
 30
0.0
 11
796.9
 21
55.50005
 31
0.0
  0
LINE
  8
L-ZISSEN
 10
792.25718
 20
64.49995
 30
0.0
 11
792.25718
 21
55.50005
 31
0.0
  0
LINE
  8
L-ZISSEN
 10
792.25718
 20
64.49995
 30
0.0
 11
796.9
 21
64.49995
 31
0.0
  0
LINE
  8
L-ZISSEN
 10
792.25718
 20
95.50005
 30
0.0
 11
796.9
 21
95.50005
 31
0.0
  0
LINE
  8
L-ZISSEN
 10
792.25718
 20
95.50005
 30
0.0
 11
792.25718
 21
104.49995
 31
0.0
  0
LINE
  8
L-ZISSEN
 10
792.25718
 20
104.49995
 30
0.0
 11
796.9
 21
104.49995
 31
0.0
  0
LINE
  8
L-ZISSEN
 10
792.25718
 20
61.0
 30
0.0
 11
786.3
 21
61.0
 31
0.0
  0
LINE
  8
L-ZISSEN
 10
792.25718
 20
99.0
 30
0.0
 11
786.3
 21
99.0
 31
0.0
  0
LINE
  8
L-ZISSEN
 10
796.9
 20
106.0
 30
0.0
 11
796.9
 21
54.0
 31
0.0
  0
LINE
  8
L-ZISSEN
 10
786.3
 20
99.0
 30
0.0
 11
786.3
 21
61.0
 31
0.0
  0
LINE
  8
L-ZISSEN
  6
CONTINUOUS
 62
     7
 10
773.3
 20
181.0
 30
0.0
 11
773.3
 21
159.0
 31
0.0
  0
LINE
  8
L-ZISSEN
  6
CONTINUOUS
 62
     7
 10
760.0
 20
177.25
 30
0.0
 11
760.0
 21
162.75
 31
0.0
  0
LINE
  8
L-ZISSEN
  6
CONTINUOUS
 62
     7
 10
767.3
 20
162.75
 30
0.0
 11
760.0
 21
162.75
 31
0.0
  0
LINE
  8
L-ZISSEN
  6
CONTINUOUS
 62
     7
 10
773.3
 20
161.0
 30
0.0
 11
767.3
 21
161.0
 31
0.0
  0
LINE
  8
L-ZISSEN
  6
CONTINUOUS
 62
     7
 10
767.3
 20
179.0
 30
0.0
 11
767.3
 21
161.0
 31
0.0
  0
LINE
  8
L-ZISSEN
 10
786.3
 20
159.0
 30
0.0
 11
773.3
 21
159.0
 31
0.0
  0
LINE
  8
L-ZISSEN
  6
CONTINUOUS
 62
     7
 10
767.3
 20
177.25
 30
0.0
 11
760.0
 21
177.25
 31
0.0
  0
LINE
  8
L-ZISSEN
  6
CONTINUOUS
 62
     7
 10
773.3
 20
179.0
 30
0.0
 11
767.3
 21
179.0
 31
0.0
  0
LINE
  8
L-ZISSEN
 10
786.3
 20
181.0
 30
0.0
 11
773.3
 21
181.0
 31
0.0
  0
LINE
  8
L-ZISSEN
 10
786.3
 20
91.0
 30
0.0
 11
773.3
 21
91.0
 31
0.0
  0
LINE
  8
L-ZISSEN
  6
CONTINUOUS
 62
     7
 10
773.3
 20
89.0
 30
0.0
 11
767.3
 21
89.0
 31
0.0
  0
LINE
  8
L-ZISSEN
  6
CONTINUOUS
 62
     7
 10
767.3
 20
87.25
 30
0.0
 11
760.0
 21
87.25
 31
0.0
  0
LINE
  8
L-ZISSEN
 10
786.3
 20
69.0
 30
0.0
 11
773.3
 21
69.0
 31
0.0
  0
LINE
  8
L-ZISSEN
  6
CONTINUOUS
 62
     7
 10
767.3
 20
89.0
 30
0.0
 11
767.3
 21
71.0
 31
0.0
  0
LINE
  8
L-ZISSEN
  6
CONTINUOUS
 62
     7
 10
773.3
 20
71.0
 30
0.0
 11
767.3
 21
71.0
 31
0.0
  0
LINE
  8
L-ZISSEN
  6
CONTINUOUS
 62
     7
 10
767.3
 20
72.75
 30
0.0
 11
760.0
 21
72.75
 31
0.0
  0
LINE
  8
L-ZISSEN
  6
CONTINUOUS
 62
     7
 10
760.0
 20
87.25
 30
0.0
 11
760.0
 21
72.75
 31
0.0
  0
LINE
  8
L-ZISSEN
  6
CONTINUOUS
 62
     7
 10
773.3
 20
91.0
 30
0.0
 11
773.3
 21
69.0
 31
0.0
  0
LINE
  8
L-ZISSEN
 10
796.9
 20
196.0
 30
0.0
 11
927.1
 21
196.0
 31
0.0
  0
LINE
  8
L-ZISSEN
 10
796.9
 20
144.0
 30
0.0
 11
927.1
 21
144.0
 31
0.0
  0
LINE
  8
L-ZISSEN
 10
927.1
 20
54.0
 30
0.0
 11
796.9
 21
54.0
 31
0.0
  0
LINE
  8
L-ZISSEN
 10
871.0
 20
106.0
 30
0.0
 11
796.9
 21
106.0
 31
0.0
  0
CIRCLE
  8
L-ZISSEN
 10
252.0
 20
448.0
 30
0.0
 40
5.7225
  0
LINE
  8
L-TYUSIN
  6
CENTER
 62
     1
 10
261.0
 20
448.0
 30
0.0
 11
243.0
 21
448.0
 31
0.0
  0
LINE
  8
L-TYUSIN
  6
CENTER
 62
     1
 10
252.0
 20
439.0
 30
0.0
 11
252.0
 21
457.0
 31
0.0
  0
CIRCLE
  8
L-ZISSEN
 10
909.0
 20
75.0
 30
0.0
 40
5.7225
  0
LINE
  8
L-TYUSIN
  6
CENTER
 62
     1
 10
909.0
 20
66.0
 30
0.0
 11
909.0
 21
84.0
 31
0.0
  0
LINE
  8
L-TYUSIN
  6
CENTER
 62
     1
 10
918.0
 20
75.0
 30
0.0
 11
900.0
 21
75.0
 31
0.0
  0
LINE
  8
L-ZISSEN
 10
858.9
 20
354.0
 30
0.0
 11
927.1
 21
354.0
 31
0.0
  0
LINE
  8
L-ZISSEN
 10
858.9
 20
406.0
 30
0.0
 11
927.1
 21
406.0
 31
0.0
  0
LINE
  8
L-TYUSIN
  6
CENTER
 62
     1
 10
909.0
 20
359.0
 30
0.0
 11
909.0
 21
349.0
 31
0.0
  0
LINE
  8
L-ZISSEN
 10
923.0
 20
368.5
 30
0.0
 11
923.0
 21
391.5
 31
0.0
  0
CIRCLE
  8
L-ZISSEN
 10
919.0
 20
358.0
 30
0.0
 40
3.5
  0
CIRCLE
  8
L-ZISSEN
 10
919.0
 20
402.0
 30
0.0
 40
3.5
  0
CIRCLE
  8
L-ZISSEN
 10
875.0
 20
402.0
 30
0.0
 40
3.5
  0
CIRCLE
  8
L-ZISSEN
 10
875.0
 20
358.0
 30
0.0
 40
3.5
  0
LINE
  8
L-ZISSEN
 10
871.0
 20
354.0
 30
0.0
 11
871.0
 21
406.0
 31
0.0
  0
LINE
  8
L-ZISSEN
 10
923.0
 20
354.0
 30
0.0
 11
923.0
 21
406.0
 31
0.0
  0
LINE
  8
L-ZISSEN
  6
CONTINUOUS
 62
     7
 10
868.9
 20
354.0
 30
0.0
 11
868.9
 21
406.0
 31
0.0
  0
LINE
  8
L-ZISSEN
  6
CONTINUOUS
 62
     7
 10
930.4
 20
364.5
 30
0.0
 11
930.4
 21
355.5
 31
0.0
  0
LINE
  8
L-ZISSEN
  6
CONTINUOUS
 62
     7
 10
927.1
 20
355.5
 30
0.0
 11
930.4
 21
355.5
 31
0.0
  0
LINE
  8
L-ZISSEN
  6
CONTINUOUS
 62
     7
 10
927.1
 20
364.5
 30
0.0
 11
930.4
 21
364.5
 31
0.0
  0
LINE
  8
L-ZISSEN
  6
CONTINUOUS
 62
     7
 10
927.1
 20
404.5
 30
0.0
 11
930.4
 21
404.5
 31
0.0
  0
LINE
  8
L-ZISSEN
  6
CONTINUOUS
 62
     7
 10
927.1
 20
395.5
 30
0.0
 11
930.4
 21
395.5
 31
0.0
  0
LINE
  8
L-ZISSEN
  6
CONTINUOUS
 62
     7
 10
930.4
 20
404.5
 30
0.0
 11
930.4
 21
395.5
 31
0.0
  0
LINE
  8
L-ZISSEN
  6
CONTINUOUS
 62
     7
 10
927.1
 20
406.0
 30
0.0
 11
927.1
 21
354.0
 31
0.0
  0
LINE
  8
L-ZISSEN
  6
CONTINUOUS
 62
     7
 10
925.1
 20
354.0
 30
0.0
 11
925.1
 21
406.0
 31
0.0
  0
LINE
  8
L-ZISSEN
 10
910.0
 20
354.0
 30
0.0
 11
910.0
 21
352.0
 31
0.0
  0
LINE
  8
L-ZISSEN
 10
910.0
 20
408.0
 30
0.0
 11
910.0
 21
406.0
 31
0.0
  0
LINE
  8
L-ZISSEN
 10
884.0
 20
408.0
 30
0.0
 11
884.0
 21
406.0
 31
0.0
  0
LINE
  8
L-ZISSEN
 10
884.0
 20
408.0
 30
0.0
 11
910.0
 21
408.0
 31
0.0
  0
LINE
  8
L-ZISSEN
 10
884.0
 20
354.0
 30
0.0
 11
884.0
 21
352.0
 31
0.0
  0
LINE
  8
L-ZISSEN
 10
884.0
 20
352.0
 30
0.0
 11
910.0
 21
352.0
 31
0.0
  0
LINE
  8
L-ZISSEN
 10
871.0
 20
316.0
 30
0.0
 11
858.9
 21
316.0
 31
0.0
  0
LINE
  8
L-ZISSEN
 10
927.1
 20
264.0
 30
0.0
 11
858.9
 21
264.0
 31
0.0
  0
LINE
  8
L-ZISSEN
  6
CONTINUOUS
 62
     7
 10
871.5
 20
329.1
 30
0.0
 11
878.5
 21
329.1
 31
0.0
  0
LINE
  8
L-ZISSEN
  6
CONTINUOUS
 62
     7
 10
871.5
 20
325.5
 30
0.0
 11
871.5
 21
329.1
 31
0.0
  0
LINE
  8
L-ZISSEN
  6
CONTINUOUS
 62
     7
 10
878.5
 20
325.5
 30
0.0
 11
878.5
 21
329.1
 31
0.0
  0
LINE
  8
L-ZISSEN
  6
CONTINUOUS
 62
     7
 10
927.1
 20
314.5
 30
0.0
 11
930.4
 21
314.5
 31
0.0
  0
LINE
  8
L-ZISSEN
  6
CONTINUOUS
 62
     7
 10
927.1
 20
305.5
 30
0.0
 11
930.4
 21
305.5
 31
0.0
  0
LINE
  8
L-ZISSEN
  6
CONTINUOUS
 62
     7
 10
930.4
 20
314.5
 30
0.0
 11
930.4
 21
305.5
 31
0.0
  0
LINE
  8
L-ZISSEN
  6
CONTINUOUS
 62
     7
 10
922.5
 20
325.5
 30
0.0
 11
922.5
 21
329.1
 31
0.0
  0
LINE
  8
L-ZISSEN
  6
CONTINUOUS
 62
     7
 10
915.5
 20
325.5
 30
0.0
 11
915.5
 21
329.1
 31
0.0
  0
LINE
  8
L-ZISSEN
  6
CONTINUOUS
 62
     7
 10
915.5
 20
329.1
 30
0.0
 11
922.5
 21
329.1
 31
0.0
  0
LINE
  8
L-ZISSEN
 10
923.0
 20
325.5
 30
0.0
 11
871.0
 21
325.5
 31
0.0
  0
LINE
  8
L-ZISSEN
 10
927.1
 20
316.0
 30
0.0
 11
923.0
 21
316.0
 31
0.0
  0
LINE
  8
L-ZISSEN
 10
923.0
 20
325.5
 30
0.0
 11
923.0
 21
316.0
 31
0.0
  0
LINE
  8
L-ZISSEN
 10
871.0
 20
325.5
 30
0.0
 11
871.0
 21
316.0
 31
0.0
  0
LINE
  8
L-ZISSEN
 10
904.5
 20
324.0
 30
0.0
 11
904.5
 21
321.618381
 31
0.0
  0
LINE
  8
L-ZISSEN
 10
889.5
 20
324.0
 30
0.0
 11
889.5
 21
321.618381
 31
0.0
  0
CIRCLE
  8
L-ZISSEN
 10
897.0
 20
311.0
 30
0.0
 40
9.3
  0
ARC
  8
L-ZISSEN
 10
897.0
 20
311.0
 30
0.0
 40
13.0
 50
125.234418
 51
54.765582
  0
LINE
  8
L-ZISSEN
 10
871.0
 20
324.0
 30
0.0
 11
923.0
 21
324.0
 31
0.0
  0
LINE
  8
L-ZISSEN
 10
868.9
 20
316.0
 30
0.0
 11
868.9
 21
264.0
 31
0.0
  0
LINE
  8
L-ZISSEN
 10
925.1
 20
316.0
 30
0.0
 11
925.1
 21
264.0
 31
0.0
  0
LINE
  8
L-ZISSEN
 10
927.1
 20
316.0
 30
0.0
 11
927.1
 21
264.0
 31
0.0
  0
LINE
  8
L-ZISSEN
  6
CONTINUOUS
 62
     7
 10
930.4
 20
274.5
 30
0.0
 11
930.4
 21
265.5
 31
0.0
  0
LINE
  8
L-ZISSEN
  6
CONTINUOUS
 62
     7
 10
927.1
 20
265.5
 30
0.0
 11
930.4
 21
265.5
 31
0.0
  0
LINE
  8
L-ZISSEN
  6
CONTINUOUS
 62
     7
 10
927.1
 20
274.5
 30
0.0
 11
930.4
 21
274.5
 31
0.0
  0
LINE
  8
L-ZISSEN
 10
812.9
 20
301.0
 30
0.0
 11
799.9
 21
301.0
 31
0.0
  0
LINE
  8
L-ZISSEN
  6
CONTINUOUS
 62
     7
 10
799.9
 20
299.0
 30
0.0
 11
793.9
 21
299.0
 31
0.0
  0
LINE
  8
L-ZISSEN
  6
CONTINUOUS
 62
     7
 10
793.9
 20
297.25
 30
0.0
 11
786.9
 21
297.25
 31
0.0
  0
LINE
  8
L-ZISSEN
 10
812.9
 20
279.0
 30
0.0
 11
799.9
 21
279.0
 31
0.0
  0
LINE
  8
L-ZISSEN
  6
CONTINUOUS
 62
     7
 10
793.9
 20
299.0
 30
0.0
 11
793.9
 21
281.0
 31
0.0
  0
LINE
  8
L-ZISSEN
  6
CONTINUOUS
 62
     7
 10
799.9
 20
281.0
 30
0.0
 11
793.9
 21
281.0
 31
0.0
  0
LINE
  8
L-ZISSEN
  6
CONTINUOUS
 62
     7
 10
793.9
 20
282.75
 30
0.0
 11
786.9
 21
282.75
 31
0.0
  0
LINE
  8
L-ZISSEN
  6
CONTINUOUS
 62
     7
 10
786.9
 20
297.25
 30
0.0
 11
786.9
 21
282.75
 31
0.0
  0
LINE
  8
L-ZISSEN
  6
CONTINUOUS
 62
     7
 10
799.9
 20
301.0
 30
0.0
 11
799.9
 21
279.0
 31
0.0
  0
LINE
  8
L-ZISSEN
  6
CONTINUOUS
 62
     7
 10
799.9
 20
391.0
 30
0.0
 11
799.9
 21
369.0
 31
0.0
  0
LINE
  8
L-ZISSEN
  6
CONTINUOUS
 62
     7
 10
786.9
 20
387.25
 30
0.0
 11
786.9
 21
372.75
 31
0.0
  0
LINE
  8
L-ZISSEN
  6
CONTINUOUS
 62
     7
 10
793.9
 20
372.75
 30
0.0
 11
786.9
 21
372.75
 31
0.0
  0
LINE
  8
L-ZISSEN
  6
CONTINUOUS
 62
     7
 10
799.9
 20
371.0
 30
0.0
 11
793.9
 21
371.0
 31
0.0
  0
LINE
  8
L-ZISSEN
  6
CONTINUOUS
 62
     7
 10
793.9
 20
389.0
 30
0.0
 11
793.9
 21
371.0
 31
0.0
  0
LINE
  8
L-ZISSEN
 10
812.9
 20
369.0
 30
0.0
 11
799.9
 21
369.0
 31
0.0
  0
LINE
  8
L-ZISSEN
  6
CONTINUOUS
 62
     7
 10
793.9
 20
387.25
 30
0.0
 11
786.9
 21
387.25
 31
0.0
  0
LINE
  8
L-ZISSEN
  6
CONTINUOUS
 62
     7
 10
799.9
 20
389.0
 30
0.0
 11
793.9
 21
389.0
 31
0.0
  0
LINE
  8
L-ZISSEN
 10
812.9
 20
391.0
 30
0.0
 11
799.9
 21
391.0
 31
0.0
  0
LINE
  8
L-ZISSEN
  6
CONTINUOUS
 62
     7
 10
812.9
 20
265.606356
 30
0.0
 11
812.9
 21
314.393644
 31
0.0
  0
LINE
  8
L-ZISSEN
  6
CONTINUOUS
 62
     7
 10
858.9
 20
316.0
 30
0.0
 11
812.9
 21
314.393644
 31
0.0
  0
LINE
  8
L-ZISSEN
  6
CONTINUOUS
 62
     7
 10
858.9
 20
264.0
 30
0.0
 11
812.9
 21
265.606356
 31
0.0
  0
LINE
  8
L-ZISSEN
  6
CONTINUOUS
 62
     7
 10
858.9
 20
354.0
 30
0.0
 11
812.9
 21
355.606356
 31
0.0
  0
LINE
  8
L-ZISSEN
  6
CONTINUOUS
 62
     7
 10
812.9
 20
355.606356
 30
0.0
 11
812.9
 21
404.393644
 31
0.0
  0
LINE
  8
L-ZISSEN
  6
CONTINUOUS
 62
     7
 10
858.9
 20
406.0
 30
0.0
 11
812.9
 21
404.393644
 31
0.0
  0
LINE
  8
L-TYUSIN
  6
CENTER
 62
     1
 10
909.0
 20
569.0
 30
0.0
 11
909.0
 21
559.0
 31
0.0
  0
LINE
  8
L-ZISSEN
 10
923.0
 20
578.5
 30
0.0
 11
923.0
 21
601.5
 31
0.0
  0
CIRCLE
  8
L-ZISSEN
 10
919.0
 20
568.0
 30
0.0
 40
3.5
  0
CIRCLE
  8
L-ZISSEN
 10
919.0
 20
612.0
 30
0.0
 40
3.5
  0
CIRCLE
  8
L-ZISSEN
 10
875.0
 20
612.0
 30
0.0
 40
3.5
  0
CIRCLE
  8
L-ZISSEN
 10
875.0
 20
568.0
 30
0.0
 40
3.5
  0
LINE
  8
L-ZISSEN
 10
871.0
 20
564.0
 30
0.0
 11
871.0
 21
616.0
 31
0.0
  0
LINE
  8
L-ZISSEN
 10
923.0
 20
564.0
 30
0.0
 11
923.0
 21
616.0
 31
0.0
  0
LINE
  8
L-ZISSEN
  6
CONTINUOUS
 62
     7
 10
868.9
 20
564.0
 30
0.0
 11
868.9
 21
616.0
 31
0.0
  0
LINE
  8
L-ZISSEN
  6
CONTINUOUS
 62
     7
 10
930.4
 20
574.5
 30
0.0
 11
930.4
 21
565.5
 31
0.0
  0
LINE
  8
L-ZISSEN
  6
CONTINUOUS
 62
     7
 10
927.1
 20
565.5
 30
0.0
 11
930.4
 21
565.5
 31
0.0
  0
LINE
  8
L-ZISSEN
  6
CONTINUOUS
 62
     7
 10
927.1
 20
574.5
 30
0.0
 11
930.4
 21
574.5
 31
0.0
  0
LINE
  8
L-ZISSEN
  6
CONTINUOUS
 62
     7
 10
927.1
 20
614.5
 30
0.0
 11
930.4
 21
614.5
 31
0.0
  0
LINE
  8
L-ZISSEN
  6
CONTINUOUS
 62
     7
 10
927.1
 20
605.5
 30
0.0
 11
930.4
 21
605.5
 31
0.0
  0
LINE
  8
L-ZISSEN
  6
CONTINUOUS
 62
     7
 10
930.4
 20
614.5
 30
0.0
 11
930.4
 21
605.5
 31
0.0
  0
LINE
  8
L-ZISSEN
  6
CONTINUOUS
 62
     7
 10
927.1
 20
616.0
 30
0.0
 11
927.1
 21
564.0
 31
0.0
  0
LINE
  8
L-ZISSEN
  6
CONTINUOUS
 62
     7
 10
925.1
 20
564.0
 30
0.0
 11
925.1
 21
616.0
 31
0.0
  0
LINE
  8
L-ZISSEN
 10
910.0
 20
564.0
 30
0.0
 11
910.0
 21
562.0
 31
0.0
  0
LINE
  8
L-ZISSEN
 10
910.0
 20
618.0
 30
0.0
 11
910.0
 21
616.0
 31
0.0
  0
LINE
  8
L-ZISSEN
 10
884.0
 20
618.0
 30
0.0
 11
884.0
 21
616.0
 31
0.0
  0
LINE
  8
L-ZISSEN
 10
884.0
 20
618.0
 30
0.0
 11
910.0
 21
618.0
 31
0.0
  0
LINE
  8
L-ZISSEN
 10
884.0
 20
564.0
 30
0.0
 11
884.0
 21
562.0
 31
0.0
  0
LINE
  8
L-ZISSEN
 10
884.0
 20
562.0
 30
0.0
 11
910.0
 21
562.0
 31
0.0
  0
LINE
  8
L-ZISSEN
  6
CONTINUOUS
 62
     7
 10
871.5
 20
539.1
 30
0.0
 11
878.5
 21
539.1
 31
0.0
  0
LINE
  8
L-ZISSEN
  6
CONTINUOUS
 62
     7
 10
871.5
 20
535.5
 30
0.0
 11
871.5
 21
539.1
 31
0.0
  0
LINE
  8
L-ZISSEN
  6
CONTINUOUS
 62
     7
 10
878.5
 20
535.5
 30
0.0
 11
878.5
 21
539.1
 31
0.0
  0
LINE
  8
L-ZISSEN
  6
CONTINUOUS
 62
     7
 10
927.1
 20
524.5
 30
0.0
 11
930.4
 21
524.5
 31
0.0
  0
LINE
  8
L-ZISSEN
  6
CONTINUOUS
 62
     7
 10
927.1
 20
515.5
 30
0.0
 11
930.4
 21
515.5
 31
0.0
  0
LINE
  8
L-ZISSEN
  6
CONTINUOUS
 62
     7
 10
930.4
 20
524.5
 30
0.0
 11
930.4
 21
515.5
 31
0.0
  0
LINE
  8
L-ZISSEN
  6
CONTINUOUS
 62
     7
 10
922.5
 20
535.5
 30
0.0
 11
922.5
 21
539.1
 31
0.0
  0
LINE
  8
L-ZISSEN
  6
CONTINUOUS
 62
     7
 10
915.5
 20
535.5
 30
0.0
 11
915.5
 21
539.1
 31
0.0
  0
LINE
  8
L-ZISSEN
  6
CONTINUOUS
 62
     7
 10
915.5
 20
539.1
 30
0.0
 11
922.5
 21
539.1
 31
0.0
  0
LINE
  8
L-ZISSEN
 10
923.0
 20
535.5
 30
0.0
 11
871.0
 21
535.5
 31
0.0
  0
LINE
  8
L-ZISSEN
 10
927.1
 20
526.0
 30
0.0
 11
923.0
 21
526.0
 31
0.0
  0
LINE
  8
L-ZISSEN
 10
923.0
 20
535.5
 30
0.0
 11
923.0
 21
526.0
 31
0.0
  0
LINE
  8
L-ZISSEN
 10
871.0
 20
535.5
 30
0.0
 11
871.0
 21
526.0
 31
0.0
  0
LINE
  8
L-ZISSEN
 10
904.5
 20
534.0
 30
0.0
 11
904.5
 21
531.618381
 31
0.0
  0
LINE
  8
L-ZISSEN
 10
889.5
 20
534.0
 30
0.0
 11
889.5
 21
531.618381
 31
0.0
  0
CIRCLE
  8
L-ZISSEN
 10
897.0
 20
521.0
 30
0.0
 40
9.3
  0
ARC
  8
L-ZISSEN
 10
897.0
 20
521.0
 30
0.0
 40
13.0
 50
125.234418
 51
54.765582
  0
LINE
  8
L-ZISSEN
 10
871.0
 20
534.0
 30
0.0
 11
923.0
 21
534.0
 31
0.0
  0
LINE
  8
L-ZISSEN
 10
868.9
 20
526.0
 30
0.0
 11
868.9
 21
474.0
 31
0.0
  0
LINE
  8
L-ZISSEN
 10
925.1
 20
526.0
 30
0.0
 11
925.1
 21
474.0
 31
0.0
  0
LINE
  8
L-ZISSEN
 10
927.1
 20
526.0
 30
0.0
 11
927.1
 21
474.0
 31
0.0
  0
LINE
  8
L-ZISSEN
  6
CONTINUOUS
 62
     7
 10
930.4
 20
484.5
 30
0.0
 11
930.4
 21
475.5
 31
0.0
  0
LINE
  8
L-ZISSEN
  6
CONTINUOUS
 62
     7
 10
927.1
 20
475.5
 30
0.0
 11
930.4
 21
475.5
 31
0.0
  0
LINE
  8
L-ZISSEN
  6
CONTINUOUS
 62
     7
 10
927.1
 20
484.5
 30
0.0
 11
930.4
 21
484.5
 31
0.0
  0
LINE
  8
L-ZISSEN
 10
792.25718
 20
565.50005
 30
0.0
 11
796.9
 21
565.50005
 31
0.0
  0
LINE
  8
L-ZISSEN
 10
792.25718
 20
574.49995
 30
0.0
 11
792.25718
 21
565.50005
 31
0.0
  0
LINE
  8
L-ZISSEN
 10
792.25718
 20
574.49995
 30
0.0
 11
796.9
 21
574.49995
 31
0.0
  0
LINE
  8
L-ZISSEN
 10
792.25718
 20
605.50005
 30
0.0
 11
796.9
 21
605.50005
 31
0.0
  0
LINE
  8
L-ZISSEN
 10
792.25718
 20
605.50005
 30
0.0
 11
792.25718
 21
614.49995
 31
0.0
  0
LINE
  8
L-ZISSEN
 10
785.3
 20
601.0
 30
0.0
 11
785.3
 21
579.0
 31
0.0
  0
LINE
  8
L-ZISSEN
 10
785.3
 20
579.0
 30
0.0
 11
786.3
 21
579.0
 31
0.0
  0
LINE
  8
L-ZISSEN
 10
786.3
 20
601.0
 30
0.0
 11
785.3
 21
601.0
 31
0.0
  0
LINE
  8
L-ZISSEN
 10
792.25718
 20
614.49995
 30
0.0
 11
796.9
 21
614.49995
 31
0.0
  0
LINE
  8
L-ZISSEN
 10
792.25718
 20
571.0
 30
0.0
 11
786.3
 21
571.0
 31
0.0
  0
LINE
  8
L-ZISSEN
 10
792.25718
 20
609.0
 30
0.0
 11
786.3
 21
609.0
 31
0.0
  0
LINE
  8
L-ZISSEN
 10
796.9
 20
616.0
 30
0.0
 11
796.9
 21
564.0
 31
0.0
  0
LINE
  8
L-ZISSEN
 10
786.3
 20
609.0
 30
0.0
 11
786.3
 21
571.0
 31
0.0
  0
LINE
  8
L-ZISSEN
 10
786.3
 20
519.0
 30
0.0
 11
786.3
 21
481.0
 31
0.0
  0
LINE
  8
L-ZISSEN
 10
796.9
 20
526.0
 30
0.0
 11
796.9
 21
474.0
 31
0.0
  0
LINE
  8
L-ZISSEN
 10
792.25718
 20
519.0
 30
0.0
 11
786.3
 21
519.0
 31
0.0
  0
LINE
  8
L-ZISSEN
 10
792.25718
 20
481.0
 30
0.0
 11
786.3
 21
481.0
 31
0.0
  0
LINE
  8
L-ZISSEN
 10
792.25718
 20
524.49995
 30
0.0
 11
796.9
 21
524.49995
 31
0.0
  0
LINE
  8
L-ZISSEN
 10
786.3
 20
511.0
 30
0.0
 11
785.3
 21
511.0
 31
0.0
  0
LINE
  8
L-ZISSEN
 10
785.3
 20
489.0
 30
0.0
 11
786.3
 21
489.0
 31
0.0
  0
LINE
  8
L-ZISSEN
 10
785.3
 20
511.0
 30
0.0
 11
785.3
 21
489.0
 31
0.0
  0
LINE
  8
L-ZISSEN
 10
792.25718
 20
515.50005
 30
0.0
 11
792.25718
 21
524.49995
 31
0.0
  0
LINE
  8
L-ZISSEN
 10
792.25718
 20
515.50005
 30
0.0
 11
796.9
 21
515.50005
 31
0.0
  0
LINE
  8
L-ZISSEN
 10
792.25718
 20
484.49995
 30
0.0
 11
796.9
 21
484.49995
 31
0.0
  0
LINE
  8
L-ZISSEN
 10
792.25718
 20
484.49995
 30
0.0
 11
792.25718
 21
475.50005
 31
0.0
  0
LINE
  8
L-ZISSEN
 10
792.25718
 20
475.50005
 30
0.0
 11
796.9
 21
475.50005
 31
0.0
  0
LINE
  8
L-ZISSEN
 10
796.9
 20
616.0
 30
0.0
 11
927.1
 21
616.0
 31
0.0
  0
LINE
  8
L-ZISSEN
 10
796.9
 20
564.0
 30
0.0
 11
927.1
 21
564.0
 31
0.0
  0
LINE
  8
L-ZISSEN
 10
927.1
 20
474.0
 30
0.0
 11
796.9
 21
474.0
 31
0.0
  0
LINE
  8
L-ZISSEN
 10
871.0
 20
526.0
 30
0.0
 11
796.9
 21
526.0
 31
0.0
  0
LINE
  8
L-TYUSIN
  6
CENTER
 62
     1
 10
918.0
 20
285.0
 30
0.0
 11
900.0
 21
285.0
 31
0.0
  0
LINE
  8
L-TYUSIN
  6
CENTER
 62
     1
 10
909.0
 20
276.0
 30
0.0
 11
909.0
 21
294.0
 31
0.0
  0
CIRCLE
  8
L-ZISSEN
 10
909.0
 20
285.0
 30
0.0
 40
5.7225
  0
CIRCLE
  8
L-ZISSEN
 10
909.0
 20
495.0
 30
0.0
 40
5.7225
  0
LINE
  8
L-TYUSIN
  6
CENTER
 62
     1
 10
909.0
 20
486.0
 30
0.0
 11
909.0
 21
504.0
 31
0.0
  0
LINE
  8
L-TYUSIN
  6
CENTER
 62
     1
 10
918.0
 20
495.0
 30
0.0
 11
900.0
 21
495.0
 31
0.0
  0
SOLID
  8
L-ZISSEN
 10
937.120697
 20
167.976008
 30
0.0
 11
937.770602
 21
168.124558
 31
0.0
 12
937.0
 22
170.0
 32
0.0
 13
937.0
 23
170.0
 33
0.0
  0
LINE
  8
L-ZISSEN
 10
937.44565
 20
168.050283
 30
0.0
 11
945.0
 21
135.0
 31
0.0
  0
LINE
  8
L-ZISSEN
 10
945.0
 20
135.0
 30
0.0
 11
947.0
 21
135.0
 31
0.0
  0
TEXT
  8
L-ZISSEN
 10
949.0
 20
132.75
 30
0.0
 40
4.5
  1
P.P
  0
SOLID
  8
L-ZISSEN
 10
938.116638
 20
52.307596
 30
0.0
 11
938.605167
 21
52.76123
 31
0.0
 12
937.0
 22
54.0
 32
0.0
 13
937.0
 23
54.0
 33
0.0
  0
LINE
  8
L-ZISSEN
 10
938.360902
 20
52.534413
 30
0.0
 11
950.0
 21
40.0
 31
0.0
  0
LINE
  8
L-ZISSEN
 10
950.0
 20
40.0
 30
0.0
 11
952.0
 21
40.0
 31
0.0
  0
TEXT
  8
L-ZISSEN
 10
954.0
 20
37.75
 30
0.0
 40
4.5
  1
P.P
  0
SOLID
  8
L-ZISSEN
 10
938.116638
 20
262.307596
 30
0.0
 11
938.605167
 21
262.76123
 31
0.0
 12
937.0
 22
264.0
 32
0.0
 13
937.0
 23
264.0
 33
0.0
  0
LINE
  8
L-ZISSEN
 10
938.360902
 20
262.534413
 30
0.0
 11
950.0
 21
250.0
 31
0.0
  0
LINE
  8
L-ZISSEN
 10
950.0
 20
250.0
 30
0.0
 11
952.0
 21
250.0
 31
0.0
  0
TEXT
  8
L-ZISSEN
 10
954.0
 20
247.75
 30
0.0
 40
4.5
  1
P.P
  0
SOLID
  8
L-ZISSEN
 10
937.120697
 20
377.976008
 30
0.0
 11
937.770602
 21
378.124558
 31
0.0
 12
937.0
 22
380.0
 32
0.0
 13
937.0
 23
380.0
 33
0.0
  0
LINE
  8
L-ZISSEN
 10
937.44565
 20
378.050283
 30
0.0
 11
945.0
 21
345.0
 31
0.0
  0
TEXT
  8
L-ZISSEN
 10
949.0
 20
342.75
 30
0.0
 40
4.5
  1
P.P
  0
LINE
  8
L-ZISSEN
 10
945.0
 20
345.0
 30
0.0
 11
947.0
 21
345.0
 31
0.0
  0
TEXT
  8
L-ZISSEN
 10
954.0
 20
457.75
 30
0.0
 40
4.5
  1
P.P
  0
LINE
  8
L-ZISSEN
 10
950.0
 20
460.0
 30
0.0
 11
952.0
 21
460.0
 31
0.0
  0
LINE
  8
L-ZISSEN
 10
938.360902
 20
472.534413
 30
0.0
 11
950.0
 21
460.0
 31
0.0
  0
SOLID
  8
L-ZISSEN
 10
938.116638
 20
472.307596
 30
0.0
 11
938.605167
 21
472.76123
 31
0.0
 12
937.0
 22
474.0
 32
0.0
 13
937.0
 23
474.0
 33
0.0
  0
TEXT
  8
L-ZISSEN
 10
949.0
 20
552.75
 30
0.0
 40
4.5
  1
P.P
  0
LINE
  8
L-ZISSEN
 10
945.0
 20
555.0
 30
0.0
 11
947.0
 21
555.0
 31
0.0
  0
LINE
  8
L-ZISSEN
 10
937.44565
 20
588.050283
 30
0.0
 11
945.0
 21
555.0
 31
0.0
  0
SOLID
  8
L-ZISSEN
 10
937.120697
 20
587.976008
 30
0.0
 11
937.770602
 21
588.124558
 31
0.0
 12
937.0
 22
590.0
 32
0.0
 13
937.0
 23
590.0
 33
0.0
  0
SOLID
  8
L-ZISSEN
 10
279.95286
 20
607.972961
 30
0.0
 11
280.612826
 21
608.067241
 31
0.0
 12
280.0
 22
610.0
 32
0.0
 13
280.0
 23
610.0
 33
0.0
  0
LINE
  8
L-ZISSEN
 10
280.282843
 20
608.020101
 30
0.0
 11
285.0
 21
575.0
 31
0.0
  0
LINE
  8
L-ZISSEN
 10
285.0
 20
575.0
 30
0.0
 11
287.0
 21
575.0
 31
0.0
  0
TEXT
  8
L-ZISSEN
 10
289.0
 20
572.75
 30
0.0
 40
4.5
  1
P.P
  0
SOLID
  8
L-ZISSEN
 10
280.461538
 20
425.025641
 30
0.0
 11
281.076923
 21
425.282051
 31
0.0
 12
280.0
 22
427.0
 32
0.0
 13
280.0
 23
427.0
 33
0.0
  0
LINE
  8
L-ZISSEN
 10
280.769231
 20
425.153846
 30
0.0
 11
285.0
 21
415.0
 31
0.0
  0
LINE
  8
L-ZISSEN
 10
285.0
 20
415.0
 30
0.0
 11
287.0
 21
415.0
 31
0.0
  0
TEXT
  8
L-ZISSEN
 10
289.0
 20
412.75
 30
0.0
 40
4.5
  1
P.P
  0
TEXT
  8
L-ZISSEN
 10
1349.0
 20
552.75
 30
0.0
 40
4.5
  1
P.P
  0
LINE
  8
L-ZISSEN
 10
1337.44565
 20
588.050283
 30
0.0
 11
1345.0
 21
555.0
 31
0.0
  0
LINE
  8
L-ZISSEN
 10
1345.0
 20
555.0
 30
0.0
 11
1347.0
 21
555.0
 31
0.0
  0
SOLID
  8
L-ZISSEN
 10
1337.120697
 20
587.976008
 30
0.0
 11
1337.770602
 21
588.124558
 31
0.0
 12
1337.0
 22
590.0
 32
0.0
 13
1337.0
 23
590.0
 33
0.0
  0
SOLID
  8
L-ZISSEN
 10
1338.116638
 20
472.307596
 30
0.0
 11
1338.605167
 21
472.76123
 31
0.0
 12
1337.0
 22
474.0
 32
0.0
 13
1337.0
 23
474.0
 33
0.0
  0
LINE
  8
L-ZISSEN
 10
1338.360902
 20
472.534413
 30
0.0
 11
1350.0
 21
460.0
 31
0.0
  0
LINE
  8
L-ZISSEN
 10
1350.0
 20
460.0
 30
0.0
 11
1352.0
 21
460.0
 31
0.0
  0
TEXT
  8
L-ZISSEN
 10
1354.0
 20
457.75
 30
0.0
 40
4.5
  1
P.P
  0
LINE
  8
L-ZISSEN
 10
1278.0
 20
543.2
 30
0.0
 11
1278.0
 21
546.1
 31
0.0
  0
LINE
  8
L-ZISSEN
 10
1286.0
 20
546.1
 30
0.0
 11
1286.0
 21
539.6
 31
0.0
  0
LINE
  8
L-ZISSEN
  6
CONTINUOUS
 62
     7
 10
1286.0
 20
546.1
 30
0.0
 11
1278.0
 21
546.1
 31
0.0
  0
LINE
  8
L-ZISSEN
  6
CONTINUOUS
 62
     7
 10
1271.5
 20
543.2
 30
0.0
 11
1278.5
 21
543.2
 31
0.0
  0
LINE
  8
L-ZISSEN
  6
CONTINUOUS
 62
     7
 10
1271.5
 20
539.6
 30
0.0
 11
1271.5
 21
543.2
 31
0.0
  0
LINE
  8
L-ZISSEN
  6
CONTINUOUS
 62
     7
 10
1278.5
 20
539.6
 30
0.0
 11
1278.5
 21
543.2
 31
0.0
  0
LINE
  8
L-ZISSEN
  6
CONTINUOUS
 62
     7
 10
1322.5
 20
539.6
 30
0.0
 11
1322.5
 21
543.2
 31
0.0
  0
LINE
  8
L-ZISSEN
  6
CONTINUOUS
 62
     7
 10
1315.5
 20
539.6
 30
0.0
 11
1315.5
 21
543.2
 31
0.0
  0
LINE
  8
L-ZISSEN
  6
CONTINUOUS
 62
     7
 10
1315.5
 20
543.2
 30
0.0
 11
1322.5
 21
543.2
 31
0.0
  0
LINE
  8
L-ZISSEN
 10
1323.0
 20
539.6
 30
0.0
 11
1271.0
 21
539.6
 31
0.0
  0
LINE
  8
L-ZISSEN
 10
1323.0
 20
539.6
 30
0.0
 11
1323.0
 21
526.0
 31
0.0
  0
LINE
  8
L-ZISSEN
 10
1271.0
 20
539.6
 30
0.0
 11
1271.0
 21
526.0
 31
0.0
  0
LINE
  8
L-ZISSEN
 10
1271.0
 20
534.0
 30
0.0
 11
1323.0
 21
534.0
 31
0.0
  0
CIRCLE
  8
L-ZISSEN
 10
1282.0
 20
572.0
 30
0.0
 40
4.0
  0
LINE
  8
L-ZISSEN
 10
1466.0
 20
539.6
 30
0.0
 11
1466.0
 21
546.1
 31
0.0
  0
LINE
  8
L-ZISSEN
  6
CONTINUOUS
 62
     7
 10
1458.0
 20
546.1
 30
0.0
 11
1466.0
 21
546.1
 31
0.0
  0
LINE
  8
L-ZISSEN
 10
1458.0
 20
546.1
 30
0.0
 11
1458.0
 21
543.2
 31
0.0
  0
ARC
  8
L-ZISSEN
 10
562.0
 20
378.0
 30
0.0
 40
8.0
 50
90.0
 51
270.0
  0
LINE
  8
L-ZISSEN
 10
562.0
 20
386.0
 30
0.0
 11
562.851649
 21
386.0
 31
0.0
  0
LINE
  8
L-ZISSEN
 10
562.0
 20
370.0
 30
0.0
 11
562.851649
 21
370.0
 31
0.0
  0
LINE
  8
L-ZISSEN
 10
418.5
 20
386.0
 30
0.0
 11
461.5
 21
386.0
 31
0.0
  0
LINE
  8
L-ZISSEN
 10
418.5
 20
370.0
 30
0.0
 11
461.5
 21
370.0
 31
0.0
  0
LINE
  8
L-ZISSEN
 10
461.5
 20
564.0
 30
0.0
 11
418.5
 21
564.0
 31
0.0
  0
LINE
  8
L-ZISSEN
 10
461.5
 20
656.0
 30
0.0
 11
418.5
 21
656.0
 31
0.0
  0
LINE
  8
L-ZISSEN
 10
418.5
 20
386.0
 30
0.0
 11
418.5
 21
370.0
 31
0.0
  0
LINE
  8
L-ZISSEN
 10
461.5
 20
413.707142
 30
0.0
 11
461.5
 21
340.0
 31
0.0
  0
LINE
  8
L-ZISSEN
 10
469.5
 20
397.0
 30
0.0
 11
469.5
 21
384.5
 31
0.0
  0
LINE
  8
L-ZISSEN
 10
469.5
 20
359.0
 30
0.0
 11
461.5
 21
359.0
 31
0.0
  0
LINE
  8
L-ZISSEN
 10
469.5
 20
397.0
 30
0.0
 11
461.5
 21
397.0
 31
0.0
  0
CIRCLE
  8
L-ZISSEN
 10
600.0
 20
378.0
 30
0.0
 40
19.0
  0
LINE
  8
L-ZISSEN
 10
471.5
 20
384.5
 30
0.0
 11
471.5
 21
371.5
 31
0.0
  0
LINE
  8
L-ZISSEN
 10
471.5
 20
371.5
 30
0.0
 11
461.5
 21
371.5
 31
0.0
  0
LINE
  8
L-ZISSEN
 10
471.5
 20
384.5
 30
0.0
 11
461.5
 21
384.5
 31
0.0
  0
LINE
  8
L-ZISSEN
 10
469.5
 20
371.5
 30
0.0
 11
469.5
 21
359.0
 31
0.0
  0
CIRCLE
  8
L-ZISSEN
 10
562.0
 20
378.0
 30
0.0
 40
6.5
  0
CIRCLE
  8
L-ZISSEN
 10
638.0
 20
378.0
 30
0.0
 40
6.5
  0
LINE
  8
L-ZISSEN
 10
638.0
 20
370.0
 30
0.0
 11
637.148351
 21
370.0
 31
0.0
  0
LINE
  8
L-ZISSEN
 10
638.0
 20
386.0
 30
0.0
 11
637.148351
 21
386.0
 31
0.0
  0
ARC
  8
L-ZISSEN
 10
638.0
 20
378.0
 30
0.0
 40
8.0
 50
-90.0
 51
90.0
  0
ARC
  8
L-ZISSEN
 10
600.0
 20
378.0
 30
0.0
 40
38.0
 50
192.153197
 51
347.846803
  0
ARC
  8
L-ZISSEN
 10
600.0
 20
378.0
 30
0.0
 40
38.0
 50
12.153197
 51
167.846803
  0
LINE
  8
L-ZISSEN
 10
461.5
 20
564.0
 30
0.0
 11
461.5
 21
656.0
 31
0.0
  0
LINE
  8
L-ZISSEN
 10
469.5
 20
591.0
 30
0.0
 11
461.5
 21
591.0
 31
0.0
  0
LINE
  8
L-ZISSEN
 10
469.5
 20
629.0
 30
0.0
 11
469.5
 21
591.0
 31
0.0
  0
LINE
  8
L-ZISSEN
 10
469.5
 20
629.0
 30
0.0
 11
461.5
 21
629.0
 31
0.0
  0
LINE
  8
L-ZISSEN
 10
418.5
 20
572.0
 30
0.0
 11
418.5
 21
564.0
 31
0.0
  0
LINE
  8
L-ZISSEN
 10
418.5
 20
648.0
 30
0.0
 11
418.5
 21
656.0
 31
0.0
  0
LINE
  8
L-ZISSEN
 10
471.5
 20
578.5
 30
0.0
 11
461.5
 21
578.5
 31
0.0
  0
LINE
  8
L-ZISSEN
 10
471.5
 20
565.5
 30
0.0
 11
461.5
 21
565.5
 31
0.0
  0
LINE
  8
L-ZISSEN
 10
471.5
 20
578.5
 30
0.0
 11
471.5
 21
565.5
 31
0.0
  0
LINE
  8
L-ZISSEN
 10
471.5
 20
654.5
 30
0.0
 11
461.5
 21
654.5
 31
0.0
  0
LINE
  8
L-ZISSEN
 10
471.5
 20
641.5
 30
0.0
 11
461.5
 21
641.5
 31
0.0
  0
LINE
  8
L-ZISSEN
 10
471.5
 20
641.5
 30
0.0
 11
471.5
 21
654.5
 31
0.0
  0
LINE
  8
L-ZISSEN
 10
90.5
 20
371.5
 30
0.0
 11
90.5
 21
359.0
 31
0.0
  0
LINE
  8
L-ZISSEN
 10
88.5
 20
384.5
 30
0.0
 11
98.5
 21
384.5
 31
0.0
  0
LINE
  8
L-ZISSEN
 10
88.5
 20
371.5
 30
0.0
 11
98.5
 21
371.5
 31
0.0
  0
LINE
  8
L-ZISSEN
 10
88.5
 20
384.5
 30
0.0
 11
88.5
 21
371.5
 31
0.0
  0
LINE
  8
L-ZISSEN
 10
90.5
 20
397.0
 30
0.0
 11
98.5
 21
397.0
 31
0.0
  0
LINE
  8
L-ZISSEN
 10
90.5
 20
359.0
 30
0.0
 11
98.5
 21
359.0
 31
0.0
  0
LINE
  8
L-ZISSEN
 10
90.5
 20
397.0
 30
0.0
 11
90.5
 21
384.5
 31
0.0
  0
LINE
  8
L-ZISSEN
 10
98.5
 20
413.707142
 30
0.0
 11
98.5
 21
340.0
 31
0.0
  0
LINE
  8
L-ZISSEN
 10
141.5
 20
386.0
 30
0.0
 11
141.5
 21
370.0
 31
0.0
  0
LINE
  8
L-ZISSEN
 10
141.5
 20
370.0
 30
0.0
 11
98.5
 21
370.0
 31
0.0
  0
LINE
  8
L-ZISSEN
 10
141.5
 20
386.0
 30
0.0
 11
98.5
 21
386.0
 31
0.0
  0
LINE
  8
L-ZISSEN
 10
118.0
 20
426.0
 30
0.0
 11
118.0
 21
413.707142
 31
0.0
  0
LINE
  8
L-ZISSEN
 10
118.0
 20
426.0
 30
0.0
 11
198.0
 21
426.0
 31
0.0
  0
LINE
  8
L-ZISSEN
 10
98.5
 20
413.707142
 30
0.0
 11
171.5
 21
413.707142
 31
0.0
  0
LINE
  8
L-ZISSEN
 10
98.5
 20
340.0
 30
0.0
 11
181.0
 21
340.0
 31
0.0
  0
LINE
  8
L-ZISSEN
 10
461.5
 20
54.0
 30
0.0
 11
418.5
 21
54.0
 31
0.0
  0
LINE
  8
L-ZISSEN
 10
418.5
 20
62.0
 30
0.0
 11
418.5
 21
54.0
 31
0.0
  0
LINE
  8
L-ZISSEN
 10
461.5
 20
62.0
 30
0.0
 11
410.250803
 21
62.0
 31
0.0
  0
LINE
  8
L-ZISSEN
 10
471.5
 20
131.5
 30
0.0
 11
471.5
 21
144.5
 31
0.0
  0
LINE
  8
L-ZISSEN
 10
471.5
 20
131.5
 30
0.0
 11
461.5
 21
131.5
 31
0.0
  0
LINE
  8
L-ZISSEN
 10
471.5
 20
144.5
 30
0.0
 11
461.5
 21
144.5
 31
0.0
  0
LINE
  8
L-ZISSEN
 10
471.5
 20
68.5
 30
0.0
 11
471.5
 21
55.5
 31
0.0
  0
LINE
  8
L-ZISSEN
 10
471.5
 20
55.5
 30
0.0
 11
461.5
 21
55.5
 31
0.0
  0
LINE
  8
L-ZISSEN
 10
471.5
 20
68.5
 30
0.0
 11
461.5
 21
68.5
 31
0.0
  0
LINE
  8
L-ZISSEN
 10
469.5
 20
119.0
 30
0.0
 11
461.5
 21
119.0
 31
0.0
  0
LINE
  8
L-ZISSEN
 10
469.5
 20
119.0
 30
0.0
 11
469.5
 21
81.0
 31
0.0
  0
LINE
  8
L-ZISSEN
 10
469.5
 20
81.0
 30
0.0
 11
461.5
 21
81.0
 31
0.0
  0
LINE
  8
L-ZISSEN
 10
461.5
 20
54.0
 30
0.0
 11
461.5
 21
146.0
 31
0.0
  0
LINE
  8
L-ZISSEN
 10
461.5
 20
146.0
 30
0.0
 11
418.5
 21
146.0
 31
0.0
  0
LINE
  8
L-ZISSEN
 10
461.5
 20
138.0
 30
0.0
 11
410.250803
 21
138.0
 31
0.0
  0
LINE
  8
L-ZISSEN
 10
418.5
 20
138.0
 30
0.0
 11
418.5
 21
146.0
 31
0.0
  0
LINE
  8
L-ZISSEN
 10
141.5
 20
138.0
 30
0.0
 11
141.5
 21
146.0
 31
0.0
  0
LINE
  8
L-ZISSEN
 10
98.5
 20
146.0
 30
0.0
 11
141.5
 21
146.0
 31
0.0
  0
LINE
  8
L-ZISSEN
 10
98.5
 20
54.0
 30
0.0
 11
98.5
 21
146.0
 31
0.0
  0
LINE
  8
L-ZISSEN
 10
90.5
 20
81.0
 30
0.0
 11
98.5
 21
81.0
 31
0.0
  0
LINE
  8
L-ZISSEN
 10
90.5
 20
119.0
 30
0.0
 11
90.5
 21
81.0
 31
0.0
  0
LINE
  8
L-ZISSEN
 10
90.5
 20
119.0
 30
0.0
 11
98.5
 21
119.0
 31
0.0
  0
LINE
  8
L-ZISSEN
 10
88.5
 20
68.5
 30
0.0
 11
98.5
 21
68.5
 31
0.0
  0
LINE
  8
L-ZISSEN
 10
88.5
 20
55.5
 30
0.0
 11
98.5
 21
55.5
 31
0.0
  0
LINE
  8
L-ZISSEN
 10
88.5
 20
68.5
 30
0.0
 11
88.5
 21
55.5
 31
0.0
  0
LINE
  8
L-ZISSEN
 10
88.5
 20
144.5
 30
0.0
 11
98.5
 21
144.5
 31
0.0
  0
LINE
  8
L-ZISSEN
 10
88.5
 20
131.5
 30
0.0
 11
98.5
 21
131.5
 31
0.0
  0
LINE
  8
L-ZISSEN
 10
88.5
 20
131.5
 30
0.0
 11
88.5
 21
144.5
 31
0.0
  0
LINE
  8
L-ZISSEN
 10
141.5
 20
62.0
 30
0.0
 11
141.5
 21
54.0
 31
0.0
  0
LINE
  8
L-ZISSEN
 10
98.5
 20
54.0
 30
0.0
 11
141.5
 21
54.0
 31
0.0
  0
LINE
  8
L-ZISSEN
 10
98.5
 20
138.0
 30
0.0
 11
149.749197
 21
138.0
 31
0.0
  0
LINE
  8
L-ZISSEN
 10
98.5
 20
62.0
 30
0.0
 11
149.749197
 21
62.0
 31
0.0
  0
LINE
  8
L-ZISSEN
 10
88.5
 20
641.5
 30
0.0
 11
88.5
 21
654.5
 31
0.0
  0
LINE
  8
L-ZISSEN
 10
88.5
 20
641.5
 30
0.0
 11
98.5
 21
641.5
 31
0.0
  0
LINE
  8
L-ZISSEN
 10
88.5
 20
654.5
 30
0.0
 11
98.5
 21
654.5
 31
0.0
  0
LINE
  8
L-ZISSEN
 10
88.5
 20
578.5
 30
0.0
 11
88.5
 21
565.5
 31
0.0
  0
LINE
  8
L-ZISSEN
 10
88.5
 20
565.5
 30
0.0
 11
98.5
 21
565.5
 31
0.0
  0
LINE
  8
L-ZISSEN
 10
88.5
 20
578.5
 30
0.0
 11
98.5
 21
578.5
 31
0.0
  0
LINE
  8
L-ZISSEN
 10
141.5
 20
648.0
 30
0.0
 11
141.5
 21
656.0
 31
0.0
  0
LINE
  8
L-ZISSEN
 10
141.5
 20
572.0
 30
0.0
 11
141.5
 21
564.0
 31
0.0
  0
LINE
  8
L-ZISSEN
 10
90.5
 20
629.0
 30
0.0
 11
98.5
 21
629.0
 31
0.0
  0
LINE
  8
L-ZISSEN
 10
90.5
 20
629.0
 30
0.0
 11
90.5
 21
591.0
 31
0.0
  0
LINE
  8
L-ZISSEN
 10
90.5
 20
591.0
 30
0.0
 11
98.5
 21
591.0
 31
0.0
  0
LINE
  8
L-ZISSEN
 10
98.5
 20
564.0
 30
0.0
 11
98.5
 21
656.0
 31
0.0
  0
LINE
  8
L-ZISSEN
 10
98.5
 20
656.0
 30
0.0
 11
141.5
 21
656.0
 31
0.0
  0
LINE
  8
L-ZISSEN
 10
98.5
 20
564.0
 30
0.0
 11
141.5
 21
564.0
 31
0.0
  0
LINE
  8
L-ZISSEN
 10
118.0
 20
623.0
 30
0.0
 11
118.0
 21
597.0
 31
0.0
  0
LINE
  8
L-ZISSEN
 10
98.5
 20
648.0
 30
0.0
 11
171.5
 21
648.0
 31
0.0
  0
LINE
  8
L-ZISSEN
 10
155.9
 20
623.0
 30
0.0
 11
118.0
 21
623.0
 31
0.0
  0
LINE
  8
L-ZISSEN
 10
155.9
 20
597.0
 30
0.0
 11
118.0
 21
597.0
 31
0.0
  0
LINE
  8
L-ZISSEN
 10
98.5
 20
572.0
 30
0.0
 11
171.5
 21
572.0
 31
0.0
  0
LINE
  8
L-ZISSEN
 10
469.5
 20
848.5
 30
0.0
 11
469.5
 21
861.0
 31
0.0
  0
LINE
  8
L-ZISSEN
 10
471.5
 20
835.5
 30
0.0
 11
461.5
 21
835.5
 31
0.0
  0
LINE
  8
L-ZISSEN
 10
471.5
 20
848.5
 30
0.0
 11
461.5
 21
848.5
 31
0.0
  0
LINE
  8
L-ZISSEN
 10
471.5
 20
835.5
 30
0.0
 11
471.5
 21
848.5
 31
0.0
  0
LINE
  8
L-ZISSEN
 10
469.5
 20
823.0
 30
0.0
 11
461.5
 21
823.0
 31
0.0
  0
LINE
  8
L-ZISSEN
 10
469.5
 20
861.0
 30
0.0
 11
461.5
 21
861.0
 31
0.0
  0
LINE
  8
L-ZISSEN
 10
469.5
 20
823.0
 30
0.0
 11
469.5
 21
835.5
 31
0.0
  0
LINE
  8
L-ZISSEN
 10
461.5
 20
806.292858
 30
0.0
 11
461.5
 21
880.0
 31
0.0
  0
LINE
  8
L-ZISSEN
 10
418.5
 20
834.0
 30
0.0
 11
418.5
 21
850.0
 31
0.0
  0
LINE
  8
L-ZISSEN
 10
418.5
 20
850.0
 30
0.0
 11
461.5
 21
850.0
 31
0.0
  0
LINE
  8
L-ZISSEN
 10
418.5
 20
834.0
 30
0.0
 11
461.5
 21
834.0
 31
0.0
  0
LINE
  8
L-ZISSEN
 10
442.0
 20
794.0
 30
0.0
 11
442.0
 21
806.292858
 31
0.0
  0
LINE
  8
L-ZISSEN
 10
442.0
 20
794.0
 30
0.0
 11
362.0
 21
794.0
 31
0.0
  0
LINE
  8
L-ZISSEN
 10
461.5
 20
806.292858
 30
0.0
 11
388.5
 21
806.292858
 31
0.0
  0
LINE
  8
L-ZISSEN
 10
461.5
 20
880.0
 30
0.0
 11
379.0
 21
880.0
 31
0.0
  0
LINE
  8
L-ZISSEN
 10
98.5
 20
880.0
 30
0.0
 11
181.0
 21
880.0
 31
0.0
  0
LINE
  8
L-ZISSEN
 10
118.0
 20
794.0
 30
0.0
 11
118.0
 21
806.292858
 31
0.0
  0
LINE
  8
L-ZISSEN
 10
141.5
 20
834.0
 30
0.0
 11
98.5
 21
834.0
 31
0.0
  0
LINE
  8
L-ZISSEN
 10
141.5
 20
850.0
 30
0.0
 11
98.5
 21
850.0
 31
0.0
  0
LINE
  8
L-ZISSEN
 10
141.5
 20
834.0
 30
0.0
 11
141.5
 21
850.0
 31
0.0
  0
LINE
  8
L-ZISSEN
 10
98.5
 20
806.292858
 30
0.0
 11
98.5
 21
880.0
 31
0.0
  0
LINE
  8
L-ZISSEN
 10
90.5
 20
823.0
 30
0.0
 11
90.5
 21
835.5
 31
0.0
  0
LINE
  8
L-ZISSEN
 10
90.5
 20
861.0
 30
0.0
 11
98.5
 21
861.0
 31
0.0
  0
LINE
  8
L-ZISSEN
 10
90.5
 20
823.0
 30
0.0
 11
98.5
 21
823.0
 31
0.0
  0
LINE
  8
L-ZISSEN
 10
88.5
 20
835.5
 30
0.0
 11
88.5
 21
848.5
 31
0.0
  0
LINE
  8
L-ZISSEN
 10
88.5
 20
848.5
 30
0.0
 11
98.5
 21
848.5
 31
0.0
  0
LINE
  8
L-ZISSEN
 10
88.5
 20
835.5
 30
0.0
 11
98.5
 21
835.5
 31
0.0
  0
LINE
  8
L-ZISSEN
 10
90.5
 20
848.5
 30
0.0
 11
90.5
 21
861.0
 31
0.0
  0
LINE
  8
L-ZISSEN
 10
118.0
 20
794.0
 30
0.0
 11
198.0
 21
794.0
 31
0.0
  0
LINE
  8
L-ZISSEN
 10
98.5
 20
806.292858
 30
0.0
 11
171.5
 21
806.292858
 31
0.0
  0
TEXT
  8
L-ZISSEN
 10
144.0
 20
1020.0
 30
0.0
 40
4.5
  1
4
  0
TEXT
  8
L-ZISSEN
 10
144.0
 20
1027.0
 30
0.0
 40
4.5
  1
3
  0
TEXT
  8
L-ZISSEN
 10
144.0
 20
1013.0
 30
0.0
 40
4.5
  1
5
  0
ENDSEC
  0
EOF
