  0
SECTION
  2
HEADER
  9
$ACADVER
  1
AC1006
  9
$INSBASE
 10
0.0
 20
0.0
 30
0.0
  9
$EXTMIN
 10
20.0
 20
20.0
  9
$EXTMAX
 10
2055.0
 20
1219.5
  9
$LIMMIN
 10
0.0
 20
0.0
  9
$LIMMAX
 10
2100.0
 20
1485.0
  9
$ORTHOMODE
 70
     0
  9
$REGENMODE
 70
     1
  9
$FILLMODE
 70
     1
  9
$QTEXTMODE
 70
     0
  9
$MIRRTEXT
 70
     1
  9
$DRAGMODE
 70
     2
  9
$LTSCALE
 40
1.0
  9
$OSMODE
 70
     0
  9
$ATTMODE
 70
     1
  9
$TEXTSIZE
 40
4.5
  9
$TRACEWID
 40
0.05
  9
$TEXTSTYLE
  7
STANDARD
  9
$CLAYER
  8
L-ZISSEN
  9
$CELTYPE
  6
BYLAYER
  9
$CECOLOR
 62
   256
  9
$DIMSCALE
 40
1.0
  9
$DIMASZ
 40
2.0
  9
$DIMEXO
 40
2.0
  9
$DIMDLI
 40
0.38
  9
$DIMRND
 40
0.0
  9
$DIMDLE
 40
1.0
  9
$DIMEXE
 40
2.0
  9
$DIMTP
 40
0.0
  9
$DIMTM
 40
0.0
  9
$DIMTXT
 40
4.5
  9
$DIMCEN
 40
0.09
  9
$DIMTSZ
 40
0.0
  9
$DIMTOL
 70
     0
  9
$DIMLIM
 70
     0
  9
$DIMTIH
 70
     0
  9
$DIMTOH
 70
     0
  9
$DIMSE1
 70
     0
  9
$DIMSE2
 70
     0
  9
$DIMTAD
 70
     1
  9
$DIMZIN
 70
     0
  9
$DIMBLK
  1

  9
$DIMASO
 70
     0
  9
$DIMSHO
 70
     0
  9
$DIMPOST
  1

  9
$DIMAPOST
  1

  9
$DIMALT
 70
     0
  9
$DIMALTD
 70
     2
  9
$DIMALTF
 40
25.4
  9
$DIMLFAC
 40
1.0
  9
$DIMTOFL
 70
     1
  9
$DIMTVP
 40
0.0
  9
$DIMTIX
 70
     1
  9
$DIMSOXD
 70
     0
  9
$DIMSAH
 70
     0
  9
$DIMBLK1
  1

  9
$DIMBLK2
  1

  9
$LUNITS
 70
     2
  9
$LUPREC
 70
     4
  9
$AXISMODE
 70
     0
  9
$AXISUNIT
 10
0.0
 20
0.0
  9
$SKETCHINC
 40
0.1
  9
$FILLETRAD
 40
10.0
  9
$AUNITS
 70
     0
  9
$AUPREC
 70
     0
  9
$MENU
  1
acad
  9
$ELEVATION
 40
0.0
  9
$THICKNESS
 40
0.0
  9
$LIMCHECK
 70
     0
  9
$BLIPMODE
 70
     1
  9
$CHAMFERA
 40
0.0
  9
$CHAMFERB
 40
0.0
  9
$SKPOLY
 70
     0
  9
$TDCREATE
 40
2449002.8327116896
  9
$TDUPDATE
 40
2449002.8327116896
  9
$TDINDWG
 40
0.0000000000
  9
$TDUSRTIMER
 40
0.0000000000
  9
$USRTIMER
 70
     1
  9
$ANGBASE
 50
0.0
  9
$ANGDIR
 70
     0
  9
$PDMODE
 70
     0
  9
$PDSIZE
 40
0.0
  9
$PLINEWID
 40
0.0
  9
$COORDS
 70
     2
  9
$SPLFRAME
 70
     0
  9
$SPLINETYPE
 70
     6
  9
$SPLINESEGS
 70
     8
  9
$ATTDIA
 70
     0
  9
$ATTREQ
 70
     1
  9
$HANDLING
 70
     0
  9
$HANDSEED
  5
0
  9
$SURFTAB1
 70
     6
  9
$SURFTAB2
 70
     6
  9
$SURFTYPE
 70
     6
  9
$SURFU
 70
     6
  9
$SURFV
 70
     6
  9
$FLATLAND
 70
     0
  9
$UCSNAME
  2

  9
$UCSORG
 10
0.0
 20
0.0
 30
0.0
  9
$UCSXDIR
 10
1.0
 20
0.0
 30
0.0
  9
$UCSYDIR
 10
0.0
 20
1.0
 30
0.0
  9
$USERI1
 70
     0
  9
$USERI2
 70
     0
  9
$USERI3
 70
     0
  9
$USERI4
 70
     0
  9
$USERI5
 70
     0
  9
$USERR1
 40
0.0
  9
$USERR2
 40
0.0
  9
$USERR3
 40
0.0
  9
$USERR4
 40
0.0
  9
$USERR5
 40
0.0
  9
$WORLDVIEW
 70
     1
  0
ENDSEC
  0
SECTION
  2
TABLES
  0
TABLE
  2
VPORT
 70
     2
  0
VPORT
  2
*ACTIVE
 70
     0
 10
0.0
 20
0.0
 11
1.0
 21
1.0
 12
1191.139945
 22
769.122594
 13
0.0
 23
0.0
 14
5.0
 24
5.0
 15
0.0
 25
0.0
 16
0.0
 26
0.0
 36
1.0
 17
0.0
 27
0.0
 37
0.0
 40
1538.245188
 41
1.5487
 42
50.0
 43
0.0
 44
0.0
 50
0.0
 51
0.0
 71
     0
 72
   100
 73
     1
 74
     0
 75
     0
 76
     0
 77
     0
 78
     0
  0
ENDTAB
  0
TABLE
  2
LTYPE
 70
     2
  0
LTYPE
  2
CONTINUOUS
 70
    64
  3
Solid line
 72
    65
 73
     0
 40
0.0
  0
LTYPE
  2
CENTER
 70
    64
  3
____ _ ____ _ ____ _ ____ _ 
 72
    65
 73
     4
 40
60.0
 49
45.0
 49
-5.0
 49
5.0
 49
-5.0
  0
ENDTAB
  0
TABLE
  2
LAYER
 70
     3
  0
LAYER
  2
0
 70
     0
 62
     7
  6
CONTINUOUS
  0
LAYER
  2
L-ZISSEN
 70
    64
 62
     7
  6
CONTINUOUS
  0
LAYER
  2
L-TYUSIN
 70
    64
 62
     1
  6
CENTER
  0
ENDTAB
  0
TABLE
  2
STYLE
 70
     1
  0
STYLE
  2
STANDARD
 70
    64
 40
0.0
 41
1.0
 50
0.0
 71
     0
 42
4.5
  3
TXT
  4

  0
ENDTAB
  0
TABLE
  2
VIEW
 70
     0
  0
ENDTAB
  0
TABLE
  2
UCS
 70
     0
  0
ENDTAB
  0
TABLE
  2
DWGMGR
 70
     0
  0
ENDTAB
  0
ENDSEC
  0
SECTION
  2
BLOCKS
  0
ENDSEC
  0
SECTION
  2
ENTITIES
  0
LINE
  8
L-TYUSIN
  6
CENTER
 62
     1
 10
120.0
 20
935.000026
 30
0.0
 11
120.0
 21
1159.199986
 31
0.0
  0
LINE
  8
L-ZISSEN
  6
CONTINUOUS
 62
     7
 10
87.50001
 20
1067.499986
 30
0.0
 11
152.49999
 21
1067.499986
 31
0.0
  0
LINE
  8
L-ZISSEN
  6
CONTINUOUS
 62
     7
 10
152.49999
 20
972.500014
 30
0.0
 11
87.50001
 21
972.500014
 31
0.0
  0
LINE
  8
L-ZISSEN
  6
CONTINUOUS
 62
     7
 10
98.000007
 20
962.500017
 30
0.0
 11
98.000007
 21
1036.999995
 31
0.0
  0
LINE
  8
L-ZISSEN
  6
CONTINUOUS
 62
     7
 10
141.999993
 20
962.500017
 30
0.0
 11
141.999993
 21
1036.999995
 31
0.0
  0
LINE
  8
L-ZISSEN
  6
CONTINUOUS
 62
     7
 10
87.50001
 20
972.500014
 30
0.0
 11
87.50001
 21
998.017884
 31
0.0
  0
LINE
  8
L-ZISSEN
  6
CONTINUOUS
 62
     7
 10
152.49999
 20
972.500014
 30
0.0
 11
152.49999
 21
993.017886
 31
0.0
  0
LINE
  8
L-ZISSEN
  6
CONTINUOUS
 62
     7
 10
87.50001
 20
1011.982125
 30
0.0
 11
87.50001
 21
1028.017875
 31
0.0
  0
LINE
  8
L-ZISSEN
  6
CONTINUOUS
 62
     7
 10
152.49999
 20
1006.982126
 30
0.0
 11
152.49999
 21
1033.017874
 31
0.0
  0
LINE
  8
L-ZISSEN
  6
CONTINUOUS
 62
     7
 10
152.49999
 20
1046.982114
 30
0.0
 11
152.49999
 21
1067.499986
 31
0.0
  0
LINE
  8
L-ZISSEN
  6
CONTINUOUS
 62
     7
 10
98.000007
 20
1054.141411
 30
0.0
 11
98.000007
 21
1124.499986
 31
0.0
  0
LINE
  8
L-ZISSEN
  6
CONTINUOUS
 62
     7
 10
141.999993
 20
1036.999995
 30
0.0
 11
147.999992
 21
1036.999995
 31
0.0
  0
LINE
  8
L-ZISSEN
  6
CONTINUOUS
 62
     7
 10
147.999992
 20
1036.999995
 30
0.0
 11
147.999992
 21
1056.999989
 31
0.0
  0
LINE
  8
L-ZISSEN
  6
CONTINUOUS
 62
     7
 10
141.999993
 20
1056.999989
 30
0.0
 11
147.999992
 21
1056.999989
 31
0.0
  0
LINE
  8
L-ZISSEN
  6
CONTINUOUS
 62
     7
 10
141.999993
 20
1054.141411
 30
0.0
 11
141.999993
 21
1124.499986
 31
0.0
  0
LINE
  8
L-ZISSEN
  6
CONTINUOUS
 62
     7
 10
98.000007
 20
962.500017
 30
0.0
 11
141.999993
 21
962.500017
 31
0.0
  0
LINE
  8
L-ZISSEN
  6
CONTINUOUS
 62
     7
 10
132.749996
 20
956.200019
 30
0.0
 11
141.249994
 21
956.200019
 31
0.0
  0
LINE
  8
L-ZISSEN
  6
CONTINUOUS
 62
     7
 10
132.749996
 20
962.500017
 30
0.0
 11
132.749996
 21
956.200019
 31
0.0
  0
LINE
  8
L-ZISSEN
  6
CONTINUOUS
 62
     7
 10
141.249994
 20
962.500017
 30
0.0
 11
141.249994
 21
956.200019
 31
0.0
  0
LINE
  8
L-TYUSIN
  6
CENTER
 62
     1
 10
1185.000026
 20
1070.0
 30
0.0
 11
1384.499986
 21
1070.0
 31
0.0
  0
LINE
  8
L-ZISSEN
  6
CONTINUOUS
 62
     7
 10
1190.000024
 20
1086.5
 30
0.0
 11
1190.000024
 21
1053.5
 31
0.0
  0
LINE
  8
L-ZISSEN
  6
CONTINUOUS
 62
     7
 10
1222.500014
 20
1097.999992
 30
0.0
 11
1222.500014
 21
1047.000007
 31
0.0
  0
LINE
  8
L-ZISSEN
  6
CONTINUOUS
 62
     7
 10
1317.499986
 20
1097.999992
 30
0.0
 11
1317.499986
 21
1047.000007
 31
0.0
  0
LINE
  8
L-ZISSEN
  6
CONTINUOUS
 62
     7
 10
1212.500017
 20
1082.749996
 30
0.0
 11
1206.200019
 21
1082.749996
 31
0.0
  0
LINE
  8
L-ZISSEN
  6
CONTINUOUS
 62
     7
 10
1212.500017
 20
1091.249994
 30
0.0
 11
1206.200019
 21
1091.249994
 31
0.0
  0
LINE
  8
L-ZISSEN
  6
CONTINUOUS
 62
     7
 10
1206.200019
 20
1091.249994
 30
0.0
 11
1206.200019
 21
1082.749996
 31
0.0
  0
LINE
  8
L-ZISSEN
  6
CONTINUOUS
 62
     7
 10
1206.200019
 20
1057.250004
 30
0.0
 11
1206.200019
 21
1048.750006
 31
0.0
  0
LINE
  8
L-ZISSEN
  6
CONTINUOUS
 62
     7
 10
1212.500017
 20
1057.250004
 30
0.0
 11
1206.200019
 21
1057.250004
 31
0.0
  0
LINE
  8
L-ZISSEN
  6
CONTINUOUS
 62
     7
 10
1212.500017
 20
1048.750006
 30
0.0
 11
1206.200019
 21
1048.750006
 31
0.0
  0
LINE
  8
L-ZISSEN
  6
CONTINUOUS
 62
     7
 10
1212.500017
 20
1048.000007
 30
0.0
 11
1374.499986
 21
1048.000007
 31
0.0
  0
LINE
  8
L-ZISSEN
  6
CONTINUOUS
 62
     7
 10
1212.500017
 20
1097.999992
 30
0.0
 11
1325.499986
 21
1097.999992
 31
0.0
  0
LINE
  8
L-ZISSEN
  6
CONTINUOUS
 62
     7
 10
1212.500017
 20
1048.000007
 30
0.0
 11
1212.500017
 21
1097.999992
 31
0.0
  0
LINE
  8
L-ZISSEN
  6
CONTINUOUS
 62
     7
 10
1317.499986
 20
1057.000004
 30
0.0
 11
1222.500014
 21
1057.000004
 31
0.0
  0
CIRCLE
  8
L-ZISSEN
  6
CONTINUOUS
 62
     7
 10
1296.999992
 20
1084.999995
 30
0.0
 40
9.999997
  0
LINE
  8
L-ZISSEN
  6
CONTINUOUS
 62
     7
 10
1245.000008
 20
1064.500002
 30
0.0
 11
1255.000005
 21
1064.500002
 31
0.0
  0
LINE
  8
L-ZISSEN
  6
CONTINUOUS
 62
     7
 10
1245.000008
 20
1064.500002
 30
0.0
 11
1245.000008
 21
1057.000004
 31
0.0
  0
LINE
  8
L-ZISSEN
  6
CONTINUOUS
 62
     7
 10
1255.000005
 20
1064.500002
 30
0.0
 11
1255.000005
 21
1057.000004
 31
0.0
  0
LINE
  8
L-ZISSEN
  6
CONTINUOUS
 62
     7
 10
1294.999993
 20
1064.500002
 30
0.0
 11
1294.999993
 21
1057.000004
 31
0.0
  0
LINE
  8
L-ZISSEN
  6
CONTINUOUS
 62
     7
 10
1284.999996
 20
1064.500002
 30
0.0
 11
1284.999996
 21
1057.000004
 31
0.0
  0
LINE
  8
L-ZISSEN
  6
CONTINUOUS
 62
     7
 10
1284.999996
 20
1064.500002
 30
0.0
 11
1294.999993
 21
1064.500002
 31
0.0
  0
CIRCLE
  8
L-ZISSEN
  6
CONTINUOUS
 62
     7
 10
151.99999
 20
1000.000006
 30
0.0
 40
4.999999
  0
LINE
  8
L-TYUSIN
  6
CENTER
 62
     1
 10
1270.0
 20
1102.999992
 30
0.0
 11
1270.0
 21
963.000007
 31
0.0
  0
LINE
  8
L-ZISSEN
  6
CONTINUOUS
 62
     7
 10
98.750006
 20
962.500017
 30
0.0
 11
98.750006
 21
956.200019
 31
0.0
  0
LINE
  8
L-ZISSEN
  6
CONTINUOUS
 62
     7
 10
107.250004
 20
962.500017
 30
0.0
 11
107.250004
 21
956.200019
 31
0.0
  0
LINE
  8
L-ZISSEN
  6
CONTINUOUS
 62
     7
 10
107.250004
 20
956.200019
 30
0.0
 11
98.750006
 21
956.200019
 31
0.0
  0
ARC
  8
L-ZISSEN
  6
CONTINUOUS
 62
     7
 10
151.99999
 20
1039.999994
 30
0.0
 40
4.999999
 50
216.869898
 51
143.130102
  0
ARC
  8
L-ZISSEN
 10
88.00001
 20
1034.999996
 30
0.0
 40
5.0
 50
36.869921
 51
23.578171
  0
CIRCLE
  8
L-ZISSEN
 10
88.00001
 20
1005.000005
 30
0.0
 40
5.0
  0
ARC
  8
L-ZISSEN
 10
151.99999
 20
1000.000006
 30
0.0
 40
7.0
 50
274.096043
 51
85.903957
  0
ARC
  8
L-ZISSEN
 10
151.99999
 20
1039.999994
 30
0.0
 40
7.0
 50
274.096043
 51
85.903957
  0
ARC
  8
L-ZISSEN
 10
88.00001
 20
1005.000005
 30
0.0
 40
7.0
 50
94.096043
 51
265.903957
  0
ARC
  8
L-ZISSEN
 10
88.00001
 20
1034.999996
 30
0.0
 40
7.0
 50
94.096043
 51
265.903957
  0
LINE
  8
L-ZISSEN
  6
CONTINUOUS
 62
     7
 10
87.50001
 20
1041.982116
 30
0.0
 11
87.50001
 21
1067.499986
 31
0.0
  0
LINE
  8
L-ZISSEN
  6
CONTINUOUS
 62
     7
 10
92.000008
 20
1036.999995
 30
0.0
 11
92.000008
 21
1056.999989
 31
0.0
  0
LINE
  8
L-ZISSEN
  6
CONTINUOUS
 62
     7
 10
98.000007
 20
1036.999995
 30
0.0
 11
92.000008
 21
1036.999995
 31
0.0
  0
LINE
  8
L-ZISSEN
  6
CONTINUOUS
 62
     7
 10
98.000007
 20
1056.999989
 30
0.0
 11
92.000008
 21
1056.999989
 31
0.0
  0
LINE
  8
L-ZISSEN
 10
1243.017886
 20
1057.000004
 30
0.0
 11
1243.017886
 21
1048.000007
 31
0.0
  0
LINE
  8
L-ZISSEN
 10
1256.982126
 20
1057.000004
 30
0.0
 11
1256.982126
 21
1048.000007
 31
0.0
  0
LINE
  8
L-ZISSEN
 10
1296.982114
 20
1057.000004
 30
0.0
 11
1296.982114
 21
1048.000007
 31
0.0
  0
LINE
  8
L-ZISSEN
 10
1283.017874
 20
1057.000004
 30
0.0
 11
1283.017874
 21
1048.000007
 31
0.0
  0
LINE
  8
L-ZISSEN
 10
1236.500014
 20
1093.322848
 30
0.0
 11
1291.456521
 21
1093.322848
 31
0.0
  0
LINE
  8
L-ZISSEN
 10
114.147646
 20
972.500014
 30
0.0
 11
114.147646
 21
1067.499986
 31
0.0
  0
LINE
  8
L-ZISSEN
 10
125.852354
 20
972.500014
 30
0.0
 11
125.852354
 21
1067.499986
 31
0.0
  0
LINE
  8
L-ZISSEN
  6
CONTINUOUS
 62
     7
 10
141.999993
 20
986.500014
 30
0.0
 11
125.852354
 21
986.500014
 31
0.0
  0
LINE
  8
L-ZISSEN
  6
CONTINUOUS
 62
     7
 10
114.147646
 20
986.500014
 30
0.0
 11
98.000007
 21
986.500014
 31
0.0
  0
LINE
  8
L-ZISSEN
 10
1327.499986
 20
1092.0
 30
0.0
 11
1304.141411
 21
1092.0
 31
0.0
  0
LINE
  8
L-ZISSEN
  6
CONTINUOUS
 62
     7
 10
1236.500014
 20
1093.322848
 30
0.0
 11
1236.500014
 21
1084.0
 31
0.0
  0
LINE
  8
L-ZISSEN
 10
1236.500014
 20
1092.0
 30
0.0
 11
1212.500017
 21
1092.0
 31
0.0
  0
LINE
  8
L-ZISSEN
 10
1236.500014
 20
1084.0
 30
0.0
 11
1287.05012
 21
1084.0
 31
0.0
  0
LINE
  8
L-ZISSEN
 10
1190.000024
 20
1053.5
 30
0.0
 11
1206.200019
 21
1053.5
 31
0.0
  0
LINE
  8
L-ZISSEN
 10
1190.000024
 20
1086.5
 30
0.0
 11
1206.200019
 21
1086.5
 31
0.0
  0
LINE
  8
L-TYUSIN
  6
CENTER
 62
     1
 10
120.0
 20
838.4
 30
0.0
 11
120.0
 21
623.0
 31
0.0
  0
LINE
  8
L-TYUSIN
  6
CENTER
 62
     1
 10
93.0
 20
730.0
 30
0.0
 11
147.0
 21
730.0
 31
0.0
  0
CIRCLE
  8
L-ZISSEN
 10
120.0
 20
730.0
 30
0.0
 40
16.5
  0
LINE
  8
L-ZISSEN
 10
98.0
 20
752.0
 30
0.0
 11
98.0
 21
708.0
 31
0.0
  0
LINE
  8
L-ZISSEN
 10
80.5
 20
708.0
 30
0.0
 11
159.5
 21
708.0
 31
0.0
  0
LINE
  8
L-ZISSEN
 10
142.0
 20
708.0
 30
0.0
 11
142.0
 21
752.0
 31
0.0
  0
LINE
  8
L-ZISSEN
 10
142.0
 20
752.0
 30
0.0
 11
128.143594
 21
752.0
 31
0.0
  0
ARC
  8
L-ZISSEN
 10
120.0
 20
752.0
 30
0.0
 40
6.0
 50
12.736897
 51
167.263103
  0
CIRCLE
  8
L-ZISSEN
 10
137.0
 20
747.0
 30
0.0
 40
4.25
  0
CIRCLE
  8
L-ZISSEN
 10
137.0
 20
713.0
 30
0.0
 40
4.25
  0
CIRCLE
  8
L-ZISSEN
 10
103.0
 20
713.0
 30
0.0
 40
4.25
  0
CIRCLE
  8
L-ZISSEN
 10
103.0
 20
747.0
 30
0.0
 40
4.25
  0
LINE
  8
L-ZISSEN
 10
114.0
 20
962.500017
 30
0.0
 11
114.0
 21
972.500014
 31
0.0
  0
LINE
  8
L-ZISSEN
 10
126.0
 20
962.500017
 30
0.0
 11
126.0
 21
972.500014
 31
0.0
  0
LINE
  8
L-ZISSEN
  6
CONTINUOUS
 62
     7
 10
103.5
 20
940.000024
 30
0.0
 11
136.5
 21
940.000024
 31
0.0
  0
LINE
  8
L-ZISSEN
 10
136.5
 20
940.000024
 30
0.0
 11
136.5
 21
956.200019
 31
0.0
  0
LINE
  8
L-ZISSEN
 10
103.5
 20
940.000024
 30
0.0
 11
103.5
 21
956.200019
 31
0.0
  0
LINE
  8
L-ZISSEN
 10
80.5
 20
717.0
 30
0.0
 11
98.0
 21
717.0
 31
0.0
  0
LINE
  8
L-ZISSEN
 10
142.0
 20
717.0
 30
0.0
 11
159.5
 21
717.0
 31
0.0
  0
LINE
  8
L-ZISSEN
 10
148.0
 20
754.999992
 30
0.0
 11
125.196157
 21
754.999992
 31
0.0
  0
LINE
  8
L-ZISSEN
 10
148.0
 20
734.999992
 30
0.0
 11
142.0
 21
734.999992
 31
0.0
  0
LINE
  8
L-ZISSEN
 10
148.0
 20
754.999992
 30
0.0
 11
148.0
 21
734.999992
 31
0.0
  0
LINE
  8
L-ZISSEN
 10
92.0
 20
754.999992
 30
0.0
 11
92.0
 21
734.999992
 31
0.0
  0
LINE
  8
L-ZISSEN
 10
98.0
 20
734.999992
 30
0.0
 11
92.0
 21
734.999992
 31
0.0
  0
LINE
  8
L-ZISSEN
 10
114.803843
 20
754.999992
 30
0.0
 11
92.0
 21
754.999992
 31
0.0
  0
LINE
  8
L-TYUSIN
 10
1354.499986
 20
1038.0
 30
0.0
 11
1354.499986
 21
1053.000007
 31
0.0
  0
LINE
  8
L-ZISSEN
 10
133.777776
 20
115.000008
 30
0.0
 11
148.0
 21
115.000008
 31
0.0
  0
LINE
  8
L-ZISSEN
 10
142.0
 20
135.000008
 30
0.0
 11
148.0
 21
135.000008
 31
0.0
  0
LINE
  8
L-ZISSEN
 10
148.0
 20
115.000008
 30
0.0
 11
148.0
 21
135.000008
 31
0.0
  0
LINE
  8
L-ZISSEN
 10
92.0
 20
115.000008
 30
0.0
 11
92.0
 21
135.000008
 31
0.0
  0
LINE
  8
L-ZISSEN
 10
92.0
 20
135.000008
 30
0.0
 11
98.0
 21
135.000008
 31
0.0
  0
LINE
  8
L-ZISSEN
 10
92.0
 20
115.000008
 30
0.0
 11
110.0
 21
115.000008
 31
0.0
  0
LINE
  8
L-ZISSEN
 10
98.0
 20
153.0
 30
0.0
 11
80.5
 21
153.0
 31
0.0
  0
LINE
  8
L-ZISSEN
 10
159.5
 20
153.0
 30
0.0
 11
142.0
 21
153.0
 31
0.0
  0
CIRCLE
  8
L-ZISSEN
 10
137.0
 20
123.0
 30
0.0
 40
4.25
  0
CIRCLE
  8
L-ZISSEN
 10
137.0
 20
157.0
 30
0.0
 40
4.25
  0
CIRCLE
  8
L-ZISSEN
 10
103.0
 20
157.0
 30
0.0
 40
4.25
  0
CIRCLE
  8
L-ZISSEN
 10
103.0
 20
123.0
 30
0.0
 40
4.25
  0
LINE
  8
L-ZISSEN
 10
98.0
 20
118.0
 30
0.0
 11
110.0
 21
118.0
 31
0.0
  0
LINE
  8
L-ZISSEN
 10
98.0
 20
162.0
 30
0.0
 11
98.0
 21
118.0
 31
0.0
  0
LINE
  8
L-ZISSEN
 10
159.5
 20
162.0
 30
0.0
 11
80.5
 21
162.0
 31
0.0
  0
LINE
  8
L-ZISSEN
 10
142.0
 20
118.0
 30
0.0
 11
142.0
 21
162.0
 31
0.0
  0
LINE
  8
L-TYUSIN
  6
CENTER
 62
     1
 10
147.0
 20
140.0
 30
0.0
 11
93.0
 21
140.0
 31
0.0
  0
LINE
  8
L-ZISSEN
  6
CONTINUOUS
 62
     7
 10
1370.499986
 20
1115.0
 30
0.0
 11
1370.499986
 21
1048.000007
 31
0.0
  0
LINE
  8
L-ZISSEN
 10
1325.499986
 20
1115.0
 30
0.0
 11
1370.499986
 21
1115.0
 31
0.0
  0
LINE
  8
L-ZISSEN
 10
1363.499986
 20
1043.0
 30
0.0
 11
1345.499986
 21
1043.0
 31
0.0
  0
LINE
  8
L-ZISSEN
  6
CONTINUOUS
 62
     7
 10
1325.499986
 20
1115.0
 30
0.0
 11
1325.499986
 21
1092.0
 31
0.0
  0
LINE
  8
L-ZISSEN
  6
CONTINUOUS
 62
     7
 10
1327.499986
 20
1092.0
 30
0.0
 11
1327.499986
 21
1073.455844
 31
0.0
  0
LINE
  8
L-ZISSEN
 10
1345.499986
 20
1043.0
 30
0.0
 11
1345.499986
 21
1048.000007
 31
0.0
  0
LINE
  8
L-ZISSEN
 10
1363.499986
 20
1043.0
 30
0.0
 11
1363.499986
 21
1048.000007
 31
0.0
  0
LINE
  8
L-TYUSIN
  6
CENTER
 62
     1
 10
120.0
 20
514.999975
 30
0.0
 11
120.0
 21
290.800014
 31
0.0
  0
LINE
  8
L-TYUSIN
  6
CENTER
 62
     1
 10
167.0
 20
430.0
 30
0.0
 11
73.0
 21
430.0
 31
0.0
  0
LINE
  8
L-ZISSEN
  6
CONTINUOUS
 62
     7
 10
142.0
 20
372.500014
 30
0.0
 11
133.56774
 21
372.500014
 31
0.0
  0
LINE
  8
L-ZISSEN
  6
CONTINUOUS
 62
     7
 10
142.0
 20
329.500014
 30
0.0
 11
98.000003
 21
329.500014
 31
0.0
  0
LINE
  8
L-TYUSIN
 10
105.0
 20
345.500014
 30
0.0
 11
135.0
 21
345.500014
 31
0.0
  0
CIRCLE
  8
L-ZISSEN
 10
120.0
 20
345.500014
 30
0.0
 40
9.0
  0
LINE
  8
L-ZISSEN
 10
111.0
 20
345.500014
 30
0.0
 11
111.0
 21
364.588457
 31
0.0
  0
LINE
  8
L-ZISSEN
 10
129.0
 20
345.500014
 30
0.0
 11
129.0
 21
364.588457
 31
0.0
  0
LINE
  8
L-ZISSEN
  6
CONTINUOUS
 62
     7
 10
106.43226
 20
372.500014
 30
0.0
 11
98.0
 21
372.500014
 31
0.0
  0
LINE
  8
L-ZISSEN
 10
98.0
 20
136.544156
 30
0.0
 11
116.544156
 21
118.0
 31
0.0
  0
LINE
  8
L-ZISSEN
 10
123.455844
 20
118.0
 30
0.0
 11
142.0
 21
136.544156
 31
0.0
  0
LINE
  8
L-ZISSEN
 10
142.0
 20
143.455844
 30
0.0
 11
123.455844
 21
162.0
 31
0.0
  0
LINE
  8
L-ZISSEN
 10
116.544156
 20
162.0
 30
0.0
 11
98.0
 21
143.455844
 31
0.0
  0
LINE
  8
L-ZISSEN
 10
1374.499986
 20
1073.455844
 30
0.0
 11
1327.499986
 21
1073.455844
 31
0.0
  0
LINE
  8
L-ZISSEN
 10
1374.499986
 20
1066.544156
 30
0.0
 11
1327.499986
 21
1066.544156
 31
0.0
  0
LINE
  8
L-ZISSEN
  6
CONTINUOUS
 62
     7
 10
1327.499986
 20
1066.544156
 30
0.0
 11
1327.499986
 21
1048.000007
 31
0.0
  0
LINE
  8
L-ZISSEN
  6
CONTINUOUS
 62
     7
 10
1378.499986
 20
1087.838835
 30
0.0
 11
1378.499986
 21
1073.5
 31
0.0
  0
LINE
  8
L-ZISSEN
  6
CONTINUOUS
 62
     7
 10
1374.499986
 20
1077.617009
 30
0.0
 11
1374.499986
 21
1062.382991
 31
0.0
  0
ARC
  8
L-ZISSEN
 10
138.0
 20
140.0
 30
0.0
 40
5.5
 50
135.0
 51
225.0
  0
LINE
  8
L-ZISSEN
 10
134.110913
 20
136.110913
 30
0.0
 11
137.838835
 21
132.382991
 31
0.0
  0
LINE
  8
L-ZISSEN
 10
134.110913
 20
143.889087
 30
0.0
 11
137.838835
 21
147.617009
 31
0.0
  0
LINE
  8
L-ZISSEN
 10
1378.499986
 20
1062.382991
 30
0.0
 11
1374.499986
 21
1062.382991
 31
0.0
  0
LINE
  8
L-ZISSEN
 10
1378.499986
 20
1077.617009
 30
0.0
 11
1374.499986
 21
1077.617009
 31
0.0
  0
LINE
  8
L-ZISSEN
 10
116.110913
 20
125.889087
 30
0.0
 11
112.382991
 21
122.161165
 31
0.0
  0
ARC
  8
L-ZISSEN
 10
120.0
 20
122.0
 30
0.0
 40
5.5
 50
45.0
 51
135.0
  0
LINE
  8
L-ZISSEN
 10
123.889087
 20
125.889087
 30
0.0
 11
127.617009
 21
122.161165
 31
0.0
  0
LINE
  8
L-ZISSEN
 10
123.889087
 20
154.110913
 30
0.0
 11
127.617009
 21
157.838835
 31
0.0
  0
ARC
  8
L-ZISSEN
 10
120.0
 20
158.0
 30
0.0
 40
5.5
 50
225.0
 51
315.0
  0
LINE
  8
L-ZISSEN
 10
116.110913
 20
154.110913
 30
0.0
 11
112.382991
 21
157.838835
 31
0.0
  0
LINE
  8
L-ZISSEN
 10
105.889087
 20
143.889087
 30
0.0
 11
102.161165
 21
147.617009
 31
0.0
  0
ARC
  8
L-ZISSEN
 10
102.0
 20
140.0
 30
0.0
 40
5.5
 50
315.0
 51
45.0
  0
LINE
  8
L-ZISSEN
 10
105.889087
 20
136.110913
 30
0.0
 11
102.161165
 21
132.382991
 31
0.0
  0
LINE
  8
L-ZISSEN
 10
1378.499986
 20
1052.161165
 30
0.0
 11
1374.499986
 21
1052.161165
 31
0.0
  0
LINE
  8
L-ZISSEN
 10
1374.499986
 20
1052.161165
 30
0.0
 11
1374.499986
 21
1048.000007
 31
0.0
  0
LINE
  8
L-ZISSEN
 10
1378.499986
 20
1087.838835
 30
0.0
 11
1374.499986
 21
1087.838835
 31
0.0
  0
LINE
  8
L-ZISSEN
 10
1374.499986
 20
1087.838835
 30
0.0
 11
1374.499986
 21
1091.999993
 31
0.0
  0
LINE
  8
L-ZISSEN
  6
CONTINUOUS
 62
     7
 10
1370.499986
 20
1091.999993
 30
0.0
 11
1374.499986
 21
1091.999993
 31
0.0
  0
LINE
  8
L-ZISSEN
  6
CONTINUOUS
 62
     7
 10
1327.499986
 20
1048.750006
 30
0.0
 11
1333.799984
 21
1048.750006
 31
0.0
  0
LINE
  8
L-ZISSEN
  6
CONTINUOUS
 62
     7
 10
1327.499986
 20
1057.250004
 30
0.0
 11
1333.799984
 21
1057.250004
 31
0.0
  0
LINE
  8
L-ZISSEN
  6
CONTINUOUS
 62
     7
 10
1333.799984
 20
1057.250004
 30
0.0
 11
1333.799984
 21
1048.750006
 31
0.0
  0
LINE
  8
L-ZISSEN
  6
CONTINUOUS
 62
     7
 10
1327.499986
 20
1082.749996
 30
0.0
 11
1333.799984
 21
1082.749996
 31
0.0
  0
LINE
  8
L-ZISSEN
  6
CONTINUOUS
 62
     7
 10
1327.499986
 20
1091.249994
 30
0.0
 11
1333.799984
 21
1091.249994
 31
0.0
  0
LINE
  8
L-ZISSEN
  6
CONTINUOUS
 62
     7
 10
1333.799984
 20
1091.249994
 30
0.0
 11
1333.799984
 21
1082.749996
 31
0.0
  0
LINE
  8
L-ZISSEN
 10
116.544156
 20
325.500014
 30
0.0
 11
116.544156
 21
337.189952
 31
0.0
  0
LINE
  8
L-ZISSEN
 10
123.455844
 20
325.500014
 30
0.0
 11
123.455844
 21
337.189952
 31
0.0
  0
LINE
  8
L-ZISSEN
 10
137.838835
 20
325.500014
 30
0.0
 11
141.999993
 21
325.500014
 31
0.0
  0
LINE
  8
L-ZISSEN
 10
137.838835
 20
321.500014
 30
0.0
 11
137.838835
 21
325.500014
 31
0.0
  0
LINE
  8
L-ZISSEN
 10
102.161165
 20
325.500014
 30
0.0
 11
98.000007
 21
325.500014
 31
0.0
  0
LINE
  8
L-ZISSEN
 10
102.161165
 20
321.500014
 30
0.0
 11
102.161165
 21
325.500014
 31
0.0
  0
LINE
  8
L-ZISSEN
 10
127.617009
 20
321.500014
 30
0.0
 11
127.617009
 21
325.500014
 31
0.0
  0
LINE
  8
L-ZISSEN
 10
112.382991
 20
321.500014
 30
0.0
 11
112.382991
 21
325.500014
 31
0.0
  0
LINE
  8
L-ZISSEN
  6
CONTINUOUS
 62
     7
 10
127.617009
 20
325.500014
 30
0.0
 11
112.382991
 21
325.500014
 31
0.0
  0
LINE
  8
L-ZISSEN
  6
CONTINUOUS
 62
     7
 10
137.838835
 20
321.500014
 30
0.0
 11
102.161165
 21
321.500014
 31
0.0
  0
LINE
  8
L-ZISSEN
 10
136.0
 20
95.0
 30
0.0
 11
104.0
 21
95.0
 31
0.0
  0
LINE
  8
L-ZISSEN
 10
136.0
 20
95.0
 30
0.0
 11
136.0
 21
105.0
 31
0.0
  0
LINE
  8
L-ZISSEN
 10
136.0
 20
105.0
 30
0.0
 11
130.0
 21
105.0
 31
0.0
  0
LINE
  8
L-ZISSEN
 10
104.0
 20
105.0
 30
0.0
 11
104.0
 21
95.0
 31
0.0
  0
LINE
  8
L-ZISSEN
 10
110.0
 20
105.0
 30
0.0
 11
110.0
 21
124.544156
 31
0.0
  0
LINE
  8
L-ZISSEN
 10
130.0
 20
105.0
 30
0.0
 11
130.0
 21
124.544156
 31
0.0
  0
LINE
  8
L-ZISSEN
 10
116.544156
 20
118.0
 30
0.0
 11
123.455844
 21
118.0
 31
0.0
  0
LINE
  8
L-ZISSEN
 10
133.111111
 20
118.0
 30
0.0
 11
142.0
 21
118.0
 31
0.0
  0
LINE
  8
L-ZISSEN
  6
CONTINUOUS
 62
     7
 10
1337.499986
 20
1105.0
 30
0.0
 11
1337.499986
 21
1086.999995
 31
0.0
  0
LINE
  8
L-ZISSEN
 10
1370.499986
 20
1085.455844
 30
0.0
 11
1333.799984
 21
1085.455844
 31
0.0
  0
LINE
  8
L-ZISSEN
 10
132.0
 20
123.0
 30
0.0
 11
136.0
 21
105.0
 31
0.0
  0
LINE
  8
L-ZISSEN
 10
1325.499986
 20
1105.0
 30
0.0
 11
1370.499986
 21
1105.0
 31
0.0
  0
LINE
  8
L-ZISSEN
 10
111.0
 20
167.0
 30
0.0
 11
129.0
 21
167.0
 31
0.0
  0
LINE
  8
L-ZISSEN
 10
111.0
 20
167.0
 30
0.0
 11
111.0
 21
161.999993
 31
0.0
  0
LINE
  8
L-ZISSEN
 10
129.0
 20
167.0
 30
0.0
 11
129.0
 21
161.999993
 31
0.0
  0
LINE
  8
L-ZISSEN
 10
141.999993
 20
1054.141411
 30
0.0
 11
125.852354
 21
1054.141411
 31
0.0
  0
LINE
  8
L-ZISSEN
 10
128.143594
 20
752.0
 30
0.0
 11
125.852357
 21
753.322846
 31
0.0
  0
LINE
  8
L-ZISSEN
 10
111.856406
 20
752.0
 30
0.0
 11
114.147643
 21
753.322846
 31
0.0
  0
LINE
  8
L-ZISSEN
 10
111.856406
 20
752.0
 30
0.0
 11
98.0
 21
752.0
 31
0.0
  0
LINE
  8
L-ZISSEN
 10
98.000007
 20
1054.141411
 30
0.0
 11
114.147646
 21
1054.141411
 31
0.0
  0
LINE
  8
L-ZISSEN
  6
CONTINUOUS
 62
     7
 10
98.000007
 20
1120.499986
 30
0.0
 11
104.75
 21
1120.499986
 31
0.0
  0
LINE
  8
L-ZISSEN
 10
102.161165
 20
1124.499986
 30
0.0
 11
98.000007
 21
1124.499986
 31
0.0
  0
LINE
  8
L-ZISSEN
 10
102.161165
 20
1128.499986
 30
0.0
 11
102.161165
 21
1124.499986
 31
0.0
  0
LINE
  8
L-ZISSEN
 10
137.838835
 20
1124.499986
 30
0.0
 11
141.999993
 21
1124.499986
 31
0.0
  0
LINE
  8
L-ZISSEN
 10
137.838835
 20
1128.499986
 30
0.0
 11
137.838835
 21
1124.499986
 31
0.0
  0
LINE
  8
L-ZISSEN
  6
CONTINUOUS
 62
     7
 10
102.161165
 20
1128.499986
 30
0.0
 11
106.25
 21
1128.499986
 31
0.0
  0
LINE
  8
L-TYUSIN
 10
1795.0
 20
995.0
 30
0.0
 11
2035.0
 21
995.0
 31
0.0
  0
LINE
  8
L-ZISSEN
 10
2015.969655
 20
850.5
 30
0.0
 11
1994.030345
 21
850.5
 31
0.0
  0
LINE
  8
L-ZISSEN
 10
2015.969655
 20
850.5
 30
0.0
 11
2015.969655
 21
845.0
 31
0.0
  0
LINE
  8
L-ZISSEN
 10
1994.030345
 20
850.5
 30
0.0
 11
1994.030345
 21
845.0
 31
0.0
  0
LINE
  8
L-ZISSEN
 10
2015.969655
 20
845.0
 30
0.0
 11
1994.030345
 21
845.0
 31
0.0
  0
LINE
  8
L-ZISSEN
 10
2014.2
 20
835.5
 30
0.0
 11
2014.2
 21
842.65
 31
0.0
  0
LINE
  8
L-ZISSEN
 10
1995.8
 20
835.5
 30
0.0
 11
1995.8
 21
842.65
 31
0.0
  0
LINE
  8
L-ZISSEN
 10
2013.5
 20
842.65
 30
0.0
 11
2013.5
 21
845.0
 31
0.0
  0
LINE
  8
L-ZISSEN
 10
1996.5
 20
842.65
 30
0.0
 11
1996.5
 21
845.0
 31
0.0
  0
LINE
  8
L-ZISSEN
 10
2014.2
 20
842.65
 30
0.0
 11
1995.8
 21
842.65
 31
0.0
  0
CIRCLE
  8
L-ZISSEN
 10
1885.0
 20
950.0
 30
0.0
 40
6.5
  0
CIRCLE
  8
L-ZISSEN
 10
1885.0
 20
950.0
 30
0.0
 40
11.25
  0
LINE
  8
L-ZISSEN
 10
2018.0
 20
835.5
 30
0.0
 11
1992.0
 21
835.5
 31
0.0
  0
LINE
  8
L-ZISSEN
 10
2018.0
 20
808.5
 30
0.0
 11
2018.0
 21
835.5
 31
0.0
  0
LINE
  8
L-ZISSEN
 10
2020.0
 20
781.5
 30
0.0
 11
2020.0
 21
808.5
 31
0.0
  0
LINE
  8
L-ZISSEN
 10
1992.0
 20
835.5
 30
0.0
 11
1992.0
 21
820.5
 31
0.0
  0
LINE
  8
L-ZISSEN
 10
2020.0
 20
781.5
 30
0.0
 11
1998.0
 21
781.5
 31
0.0
  0
LINE
  8
L-ZISSEN
 10
2020.0
 20
808.5
 30
0.0
 11
1998.0
 21
808.5
 31
0.0
  0
LINE
  8
L-ZISSEN
 10
1995.5
 20
809.5
 30
0.0
 11
1995.5
 21
825.5
 31
0.0
  0
LINE
  8
L-ZISSEN
 10
1998.0
 20
780.5
 30
0.0
 11
1992.0
 21
780.5
 31
0.0
  0
LINE
  8
L-ZISSEN
 10
1998.0
 20
809.5
 30
0.0
 11
1992.0
 21
809.5
 31
0.0
  0
LINE
  8
L-ZISSEN
 10
1995.5
 20
825.5
 30
0.0
 11
1992.0
 21
825.5
 31
0.0
  0
LINE
  8
L-ZISSEN
 10
1998.0
 20
780.5
 30
0.0
 11
1998.0
 21
809.5
 31
0.0
  0
LINE
  8
L-ZISSEN
 10
1872.0
 20
808.5
 30
0.0
 11
1872.0
 21
835.5
 31
0.0
  0
LINE
  8
L-ZISSEN
 10
1898.0
 20
835.5
 30
0.0
 11
1898.0
 21
808.5
 31
0.0
  0
LINE
  8
L-ZISSEN
 10
1872.0
 20
835.5
 30
0.0
 11
1898.0
 21
835.5
 31
0.0
  0
LINE
  8
L-ZISSEN
 10
1875.8
 20
842.65
 30
0.0
 11
1894.2
 21
842.65
 31
0.0
  0
LINE
  8
L-ZISSEN
 10
1893.5
 20
842.65
 30
0.0
 11
1893.5
 21
845.0
 31
0.0
  0
LINE
  8
L-ZISSEN
 10
1876.5
 20
842.65
 30
0.0
 11
1876.5
 21
845.0
 31
0.0
  0
LINE
  8
L-ZISSEN
 10
1894.2
 20
835.5
 30
0.0
 11
1894.2
 21
842.65
 31
0.0
  0
LINE
  8
L-ZISSEN
 10
1875.8
 20
835.5
 30
0.0
 11
1875.8
 21
842.65
 31
0.0
  0
LINE
  8
L-ZISSEN
 10
1874.030345
 20
845.0
 30
0.0
 11
1895.969655
 21
845.0
 31
0.0
  0
LINE
  8
L-ZISSEN
 10
1895.969655
 20
850.5
 30
0.0
 11
1895.969655
 21
845.0
 31
0.0
  0
LINE
  8
L-ZISSEN
 10
1874.030345
 20
850.5
 30
0.0
 11
1874.030345
 21
845.0
 31
0.0
  0
LINE
  8
L-ZISSEN
 10
1874.030345
 20
850.5
 30
0.0
 11
1895.969655
 21
850.5
 31
0.0
  0
LINE
  8
L-ZISSEN
 10
1871.5
 20
808.5
 30
0.0
 11
1898.5
 21
808.5
 31
0.0
  0
LINE
  8
L-ZISSEN
 10
1871.5
 20
781.5
 30
0.0
 11
1898.5
 21
781.5
 31
0.0
  0
LINE
  8
L-ZISSEN
 10
1871.5
 20
781.5
 30
0.0
 11
1871.5
 21
808.5
 31
0.0
  0
LINE
  8
L-ZISSEN
 10
1898.5
 20
781.5
 30
0.0
 11
1898.5
 21
808.5
 31
0.0
  0
LINE
  8
L-ZISSEN
 10
1899.5
 20
780.5
 30
0.0
 11
1870.5
 21
780.5
 31
0.0
  0
LINE
  8
L-ZISSEN
 10
1870.5
 20
780.5
 30
0.0
 11
1870.5
 21
809.5
 31
0.0
  0
LINE
  8
L-ZISSEN
 10
1870.5
 20
809.5
 30
0.0
 11
1872.0
 21
809.5
 31
0.0
  0
LINE
  8
L-ZISSEN
 10
1899.5
 20
809.5
 30
0.0
 11
1899.5
 21
780.5
 31
0.0
  0
LINE
  8
L-ZISSEN
 10
1898.0
 20
809.5
 30
0.0
 11
1899.5
 21
809.5
 31
0.0
  0
LINE
  8
L-ZISSEN
 10
1870.5
 20
943.0
 30
0.0
 11
1872.0
 21
943.0
 31
0.0
  0
LINE
  8
L-ZISSEN
 10
1899.5
 20
943.0
 30
0.0
 11
1899.5
 21
937.0
 31
0.0
  0
LINE
  8
L-ZISSEN
 10
1870.5
 20
943.0
 30
0.0
 11
1870.5
 21
937.0
 31
0.0
  0
LINE
  8
L-ZISSEN
 10
1898.5
 20
965.0
 30
0.0
 11
1898.5
 21
943.0
 31
0.0
  0
LINE
  8
L-ZISSEN
 10
1871.5
 20
965.0
 30
0.0
 11
1871.5
 21
943.0
 31
0.0
  0
LINE
  8
L-ZISSEN
 10
1871.5
 20
965.0
 30
0.0
 11
1898.5
 21
965.0
 31
0.0
  0
LINE
  8
L-ZISSEN
 10
1870.5
 20
940.5
 30
0.0
 11
1876.12588
 21
940.5
 31
0.0
  0
LINE
  8
L-ZISSEN
 10
1896.5
 20
940.5
 30
0.0
 11
1896.5
 21
937.0
 31
0.0
  0
LINE
  8
L-ZISSEN
 10
1873.5
 20
940.5
 30
0.0
 11
1873.5
 21
937.0
 31
0.0
  0
LINE
  8
L-ZISSEN
 10
1893.87412
 20
940.5
 30
0.0
 11
1899.5
 21
940.5
 31
0.0
  0
CIRCLE
  8
L-ZISSEN
 10
1885.0
 20
950.0
 30
0.0
 40
13.0
  0
LINE
  8
L-ZISSEN
 10
1872.0
 20
950.0
 30
0.0
 11
1872.0
 21
940.5
 31
0.0
  0
LINE
  8
L-ZISSEN
 10
1898.0
 20
950.0
 30
0.0
 11
1898.0
 21
940.5
 31
0.0
  0
LINE
  8
L-ZISSEN
 10
1898.0
 20
943.0
 30
0.0
 11
1899.5
 21
943.0
 31
0.0
  0
TEXT
  8
L-ZISSEN
 10
1805.0
 20
980.0
 30
0.0
 40
4.5
  1
ELECTRICAL CONNECTION
  0
LINE
  8
L-ZISSEN
 10
1870.0
 20
820.5
 30
0.0
 11
1872.0
 21
820.5
 31
0.0
  0
LINE
  8
L-ZISSEN
 10
1898.0
 20
820.5
 30
0.0
 11
1900.0
 21
820.5
 31
0.0
  0
LINE
  8
L-TYUSIN
 10
1795.0
 20
1140.0
 30
0.0
 11
1955.0
 21
1140.0
 31
0.0
  0
TEXT
  8
L-ZISSEN
 10
1805.0
 20
1195.0
 30
0.0
 40
4.5
  1
EXTERNAL PILOT AIR SUPPLY
  0
TEXT
  8
L-ZISSEN
 10
1805.0
 20
1125.0
 30
0.0
 40
4.5
  1
LOCK TYPE MANUAL OPERATION BUTTON
  0
LINE
  8
L-ZISSEN
 10
1900.0
 20
1097.113249
 30
0.0
 11
1905.0
 21
1094.226497
 31
0.0
  0
LINE
  8
L-ZISSEN
 10
1905.0
 20
1094.226497
 30
0.0
 11
1910.0
 21
1097.113249
 31
0.0
  0
LINE
  8
L-ZISSEN
 10
1910.0
 20
1097.113249
 30
0.0
 11
1910.0
 21
1102.886751
 31
0.0
  0
LINE
  8
L-ZISSEN
 10
1910.0
 20
1102.886751
 30
0.0
 11
1905.0
 21
1105.773503
 31
0.0
  0
LINE
  8
L-ZISSEN
 10
1905.0
 20
1105.773503
 30
0.0
 11
1900.0
 21
1102.886751
 31
0.0
  0
LINE
  8
L-ZISSEN
 10
1900.0
 20
1102.886751
 30
0.0
 11
1900.0
 21
1097.113249
 31
0.0
  0
LINE
  8
L-ZISSEN
 10
1865.0
 20
1105.773503
 30
0.0
 11
1853.4
 21
1105.773503
 31
0.0
  0
LINE
  8
L-ZISSEN
 10
1865.0
 20
1094.226497
 30
0.0
 11
1853.4
 21
1094.226497
 31
0.0
  0
LINE
  8
L-ZISSEN
 10
1865.0
 20
1105.773503
 30
0.0
 11
1865.0
 21
1094.226497
 31
0.0
  0
LINE
  8
L-ZISSEN
 10
1900.0
 20
1086.6
 30
0.0
 11
1910.0
 21
1086.6
 31
0.0
  0
LINE
  8
L-ZISSEN
 10
1900.0
 20
1086.6
 30
0.0
 11
1900.0
 21
1075.0
 31
0.0
  0
LINE
  8
L-ZISSEN
 10
1910.0
 20
1086.6
 30
0.0
 11
1910.0
 21
1075.0
 31
0.0
  0
LINE
  8
L-ZISSEN
 10
1899.5
 20
939.0
 30
0.0
 11
1901.0
 21
939.0
 31
0.0
  0
LINE
  8
L-ZISSEN
 10
1869.0
 20
939.0
 30
0.0
 11
1870.5
 21
939.0
 31
0.0
  0
LINE
  8
L-ZISSEN
 10
1871.5
 20
760.0
 30
0.0
 11
1898.5
 21
760.0
 31
0.0
  0
LINE
  8
L-ZISSEN
 10
1871.5
 20
760.0
 30
0.0
 11
1871.5
 21
738.0
 31
0.0
  0
LINE
  8
L-ZISSEN
 10
1898.5
 20
760.0
 30
0.0
 11
1898.5
 21
738.0
 31
0.0
  0
LINE
  8
L-ZISSEN
 10
1819.030345
 20
850.5
 30
0.0
 11
1840.969655
 21
850.5
 31
0.0
  0
LINE
  8
L-ZISSEN
 10
1819.030345
 20
850.5
 30
0.0
 11
1819.030345
 21
845.0
 31
0.0
  0
LINE
  8
L-ZISSEN
 10
1840.969655
 20
850.5
 30
0.0
 11
1840.969655
 21
845.0
 31
0.0
  0
LINE
  8
L-ZISSEN
 10
1819.030345
 20
845.0
 30
0.0
 11
1840.969655
 21
845.0
 31
0.0
  0
LINE
  8
L-ZISSEN
 10
1820.8
 20
835.5
 30
0.0
 11
1820.8
 21
842.65
 31
0.0
  0
LINE
  8
L-ZISSEN
 10
1839.2
 20
835.5
 30
0.0
 11
1839.2
 21
842.65
 31
0.0
  0
LINE
  8
L-ZISSEN
 10
1821.5
 20
842.65
 30
0.0
 11
1821.5
 21
845.0
 31
0.0
  0
LINE
  8
L-ZISSEN
 10
1838.5
 20
842.65
 30
0.0
 11
1838.5
 21
845.0
 31
0.0
  0
LINE
  8
L-ZISSEN
 10
1820.8
 20
842.65
 30
0.0
 11
1839.2
 21
842.65
 31
0.0
  0
LINE
  8
L-ZISSEN
 10
1817.0
 20
835.5
 30
0.0
 11
1843.0
 21
835.5
 31
0.0
  0
LINE
  8
L-ZISSEN
 10
1843.0
 20
835.5
 30
0.0
 11
1843.0
 21
820.5
 31
0.0
  0
LINE
  8
L-ZISSEN
 10
1817.0
 20
820.5
 30
0.0
 11
1817.0
 21
835.5
 31
0.0
  0
LINE
  8
L-ZISSEN
 10
1843.0
 20
825.5
 30
0.0
 11
1840.0
 21
825.5
 31
0.0
  0
LINE
  8
L-ZISSEN
 10
1840.0
 20
825.5
 30
0.0
 11
1840.0
 21
822.5
 31
0.0
  0
LINE
  8
L-ZISSEN
 10
1820.0
 20
822.5
 30
0.0
 11
1821.5
 21
822.5
 31
0.0
  0
LINE
  8
L-ZISSEN
 10
1820.0
 20
825.5
 30
0.0
 11
1820.0
 21
822.5
 31
0.0
  0
LINE
  8
L-ZISSEN
 10
1817.0
 20
825.5
 30
0.0
 11
1820.0
 21
825.5
 31
0.0
  0
LINE
  8
L-ZISSEN
 10
1372.999986
 20
1118.15
 30
0.0
 11
1372.999986
 21
1148.65
 31
0.0
  0
LINE
  8
L-ZISSEN
 10
1372.999986
 20
1148.65
 30
0.0
 11
1368.499986
 21
1148.65
 31
0.0
  0
LINE
  8
L-ZISSEN
 10
1372.999986
 20
1118.15
 30
0.0
 11
1368.499986
 21
1118.15
 31
0.0
  0
LINE
  8
L-ZISSEN
 10
1402.149986
 20
1165.55
 30
0.0
 11
1383.749986
 21
1165.55
 31
0.0
  0
LINE
  8
L-ZISSEN
 10
1384.449986
 20
1165.55
 30
0.0
 11
1384.449986
 21
1167.9
 31
0.0
  0
LINE
  8
L-ZISSEN
 10
1401.449986
 20
1165.55
 30
0.0
 11
1401.449986
 21
1167.9
 31
0.0
  0
LINE
  8
L-ZISSEN
 10
1383.749986
 20
1162.65
 30
0.0
 11
1383.749986
 21
1165.55
 31
0.0
  0
LINE
  8
L-ZISSEN
 10
1402.149986
 20
1162.65
 30
0.0
 11
1402.149986
 21
1165.55
 31
0.0
  0
LINE
  8
L-ZISSEN
 10
1403.919641
 20
1167.9
 30
0.0
 11
1381.980331
 21
1167.9
 31
0.0
  0
LINE
  8
L-ZISSEN
 10
1381.980331
 20
1173.4
 30
0.0
 11
1381.980331
 21
1167.9
 31
0.0
  0
LINE
  8
L-ZISSEN
 10
1403.919641
 20
1173.4
 30
0.0
 11
1403.919641
 21
1167.9
 31
0.0
  0
LINE
  8
L-ZISSEN
 10
1403.919641
 20
1173.4
 30
0.0
 11
1381.980331
 21
1173.4
 31
0.0
  0
LINE
  8
L-ZISSEN
 10
1404.199986
 20
1147.15
 30
0.0
 11
1372.999986
 21
1147.15
 31
0.0
  0
LINE
  8
L-ZISSEN
 10
1404.199986
 20
1162.65
 30
0.0
 11
1381.699986
 21
1162.65
 31
0.0
  0
LINE
  8
L-ZISSEN
 10
1381.699986
 20
1147.15
 30
0.0
 11
1381.699986
 21
1162.65
 31
0.0
  0
LINE
  8
L-ZISSEN
 10
1404.199986
 20
1119.65
 30
0.0
 11
1404.199986
 21
1162.65
 31
0.0
  0
LINE
  8
L-ZISSEN
 10
1404.199986
 20
1119.65
 30
0.0
 11
1372.999986
 21
1119.65
 31
0.0
  0
LINE
  8
L-ZISSEN
 10
1354.31494
 20
1161.9
 30
0.0
 11
1334.685031
 21
1161.9
 31
0.0
  0
LINE
  8
L-ZISSEN
 10
1334.685031
 20
1161.9
 30
0.0
 11
1334.685031
 21
1158.9
 31
0.0
  0
LINE
  8
L-ZISSEN
 10
1354.31494
 20
1161.9
 30
0.0
 11
1354.31494
 21
1158.9
 31
0.0
  0
LINE
  8
L-ZISSEN
 10
1368.499986
 20
1158.9
 30
0.0
 11
1325.699986
 21
1158.9
 31
0.0
  0
LINE
  8
L-ZISSEN
 10
1325.699986
 20
1158.9
 30
0.0
 11
1325.699986
 21
1115.0
 31
0.0
  0
LINE
  8
L-ZISSEN
 10
1368.499986
 20
1115.0
 30
0.0
 11
1368.499986
 21
1158.9
 31
0.0
  0
LINE
  8
L-ZISSEN
 10
105.0
 20
51.1
 30
0.0
 11
108.75
 21
51.1
 31
0.0
  0
LINE
  8
L-ZISSEN
 10
135.0
 20
51.1
 30
0.0
 11
135.0
 21
95.0
 31
0.0
  0
LINE
  8
L-ZISSEN
 10
105.0
 20
51.1
 30
0.0
 11
105.0
 21
95.0
 31
0.0
  0
LINE
  8
L-ZISSEN
 10
109.030345
 20
36.6
 30
0.0
 11
130.969655
 21
36.6
 31
0.0
  0
LINE
  8
L-ZISSEN
 10
109.030345
 20
36.6
 30
0.0
 11
109.030345
 21
42.1
 31
0.0
  0
LINE
  8
L-ZISSEN
 10
130.969655
 20
36.6
 30
0.0
 11
130.969655
 21
42.1
 31
0.0
  0
LINE
  8
L-ZISSEN
 10
109.030345
 20
42.1
 30
0.0
 11
130.969655
 21
42.1
 31
0.0
  0
LINE
  8
L-ZISSEN
 10
110.8
 20
47.35
 30
0.0
 11
110.8
 21
44.45
 31
0.0
  0
LINE
  8
L-ZISSEN
 10
129.2
 20
47.35
 30
0.0
 11
129.2
 21
44.45
 31
0.0
  0
LINE
  8
L-ZISSEN
 10
111.5
 20
44.45
 30
0.0
 11
111.5
 21
42.1
 31
0.0
  0
LINE
  8
L-ZISSEN
 10
128.5
 20
44.45
 30
0.0
 11
128.5
 21
42.1
 31
0.0
  0
LINE
  8
L-ZISSEN
 10
110.8
 20
44.45
 30
0.0
 11
129.2
 21
44.45
 31
0.0
  0
LINE
  8
L-ZISSEN
 10
108.75
 20
62.85
 30
0.0
 11
108.75
 21
47.35
 31
0.0
  0
LINE
  8
L-ZISSEN
 10
108.75
 20
47.35
 30
0.0
 11
131.25
 21
47.35
 31
0.0
  0
LINE
  8
L-ZISSEN
 10
131.25
 20
62.85
 30
0.0
 11
131.25
 21
47.35
 31
0.0
  0
LINE
  8
L-ZISSEN
 10
131.25
 20
51.1
 30
0.0
 11
135.0
 21
51.1
 31
0.0
  0
LINE
  8
L-ZISSEN
 10
106.25
 20
90.35
 30
0.0
 11
133.75
 21
90.35
 31
0.0
  0
LINE
  8
L-ZISSEN
 10
106.25
 20
62.85
 30
0.0
 11
133.75
 21
62.85
 31
0.0
  0
LINE
  8
L-ZISSEN
 10
133.75
 20
90.35
 30
0.0
 11
133.75
 21
62.85
 31
0.0
  0
LINE
  8
L-ZISSEN
 10
106.25
 20
90.35
 30
0.0
 11
106.25
 21
62.85
 31
0.0
  0
LINE
  8
L-ZISSEN
 10
135.0
 20
61.35
 30
0.0
 11
131.25
 21
61.35
 31
0.0
  0
LINE
  8
L-ZISSEN
 10
135.0
 20
91.35
 30
0.0
 11
105.0
 21
91.35
 31
0.0
  0
LINE
  8
L-ZISSEN
 10
108.75
 20
61.35
 30
0.0
 11
105.0
 21
61.35
 31
0.0
  0
LINE
  8
L-ZISSEN
 10
135.0
 20
1075.699986
 30
0.0
 11
135.0
 21
1118.499986
 31
0.0
  0
LINE
  8
L-ZISSEN
 10
105.0
 20
1075.699986
 30
0.0
 11
105.0
 21
1118.499986
 31
0.0
  0
CIRCLE
  8
L-ZISSEN
 10
120.0
 20
1094.499986
 30
0.0
 40
2.067
  0
LINE
  8
L-ZISSEN
 10
106.25
 20
1154.199986
 30
0.0
 11
133.75
 21
1154.199986
 31
0.0
  0
CIRCLE
  8
L-ZISSEN
 10
120.0
 20
1142.949986
 30
0.0
 40
11.25
  0
LINE
  8
L-ZISSEN
 10
133.75
 20
1154.199986
 30
0.0
 11
133.75
 21
1122.999986
 31
0.0
  0
LINE
  8
L-ZISSEN
 10
106.25
 20
1154.199986
 30
0.0
 11
106.25
 21
1122.999986
 31
0.0
  0
CIRCLE
  8
L-ZISSEN
 10
120.0
 20
1142.949986
 30
0.0
 40
6.5
  0
LINE
  8
L-ZISSEN
 10
104.75
 20
1122.999986
 30
0.0
 11
104.75
 21
1118.499986
 31
0.0
  0
LINE
  8
L-ZISSEN
 10
135.25
 20
1122.999986
 30
0.0
 11
135.25
 21
1118.499986
 31
0.0
  0
LINE
  8
L-ZISSEN
 10
104.75
 20
1122.999986
 30
0.0
 11
135.25
 21
1122.999986
 31
0.0
  0
LINE
  8
L-ZISSEN
 10
104.75
 20
1118.499986
 30
0.0
 11
135.25
 21
1118.499986
 31
0.0
  0
LINE
  8
L-ZISSEN
 10
111.5
 20
1089.592508
 30
0.0
 11
120.0
 21
1084.685031
 31
0.0
  0
LINE
  8
L-ZISSEN
 10
120.0
 20
1084.685031
 30
0.0
 11
128.5
 21
1089.592508
 31
0.0
  0
LINE
  8
L-ZISSEN
 10
128.5
 20
1089.592508
 30
0.0
 11
128.5
 21
1099.407463
 31
0.0
  0
LINE
  8
L-ZISSEN
 10
128.5
 20
1099.407463
 30
0.0
 11
120.0
 21
1104.31494
 31
0.0
  0
LINE
  8
L-ZISSEN
 10
120.0
 20
1104.31494
 30
0.0
 11
111.5
 21
1099.407463
 31
0.0
  0
LINE
  8
L-ZISSEN
 10
111.5
 20
1099.407463
 30
0.0
 11
111.5
 21
1089.592508
 31
0.0
  0
LINE
  8
L-ZISSEN
  6
CONTINUOUS
 62
     7
 10
133.75
 20
1128.499986
 30
0.0
 11
137.838835
 21
1128.499986
 31
0.0
  0
LINE
  8
L-ZISSEN
  6
CONTINUOUS
 62
     7
 10
135.25
 20
1120.499986
 30
0.0
 11
141.999993
 21
1120.499986
 31
0.0
  0
LINE
  8
L-ZISSEN
 10
104.0
 20
1075.499986
 30
0.0
 11
104.0
 21
1120.499986
 31
0.0
  0
LINE
  8
L-ZISSEN
  6
CONTINUOUS
 62
     7
 10
136.0
 20
1075.499986
 30
0.0
 11
104.0
 21
1075.499986
 31
0.0
  0
LINE
  8
L-ZISSEN
 10
136.0
 20
1075.499986
 30
0.0
 11
136.0
 21
1120.499986
 31
0.0
  0
LINE
  8
L-ZISSEN
  6
CONTINUOUS
 62
     7
 10
141.999993
 20
1077.499986
 30
0.0
 11
136.0
 21
1077.499986
 31
0.0
  0
LINE
  8
L-ZISSEN
  6
CONTINUOUS
 62
     7
 10
104.0
 20
1077.499986
 30
0.0
 11
98.000007
 21
1077.499986
 31
0.0
  0
LINE
  8
L-ZISSEN
 10
114.0
 20
1075.499986
 30
0.0
 11
114.0
 21
1067.499986
 31
0.0
  0
LINE
  8
L-ZISSEN
 10
126.0
 20
1075.499986
 30
0.0
 11
126.0
 21
1067.499986
 31
0.0
  0
LINE
  8
L-ZISSEN
  6
CONTINUOUS
 62
     7
 10
98.750006
 20
1083.799984
 30
0.0
 11
104.0
 21
1083.799984
 31
0.0
  0
LINE
  8
L-ZISSEN
  6
CONTINUOUS
 62
     7
 10
98.750006
 20
1077.499986
 30
0.0
 11
98.750006
 21
1083.799984
 31
0.0
  0
LINE
  8
L-ZISSEN
  6
CONTINUOUS
 62
     7
 10
136.0
 20
1083.799984
 30
0.0
 11
141.249994
 21
1083.799984
 31
0.0
  0
LINE
  8
L-ZISSEN
  6
CONTINUOUS
 62
     7
 10
141.249994
 20
1077.499986
 30
0.0
 11
141.249994
 21
1083.799984
 31
0.0
  0
LINE
  8
L-ZISSEN
 10
110.0
 20
105.0
 30
0.0
 11
104.0
 21
105.0
 31
0.0
  0
LINE
  8
L-ZISSEN
 10
1377.599986
 20
1093.471797
 30
0.0
 11
1370.499986
 21
1093.471797
 31
0.0
  0
LINE
  8
L-ZISSEN
 10
1377.599986
 20
1107.328203
 30
0.0
 11
1370.499986
 21
1107.328203
 31
0.0
  0
LINE
  8
L-ZISSEN
 10
1377.599986
 20
1093.471797
 30
0.0
 11
1377.599986
 21
1107.328203
 31
0.0
  0
LINE
  8
L-ZISSEN
 10
114.0
 20
106.135898
 30
0.0
 11
120.0
 21
102.671797
 31
0.0
  0
LINE
  8
L-ZISSEN
 10
120.0
 20
116.528203
 30
0.0
 11
114.0
 21
113.064102
 31
0.0
  0
LINE
  8
L-ZISSEN
 10
126.0
 20
113.064102
 30
0.0
 11
120.0
 21
116.528203
 31
0.0
  0
LINE
  8
L-ZISSEN
 10
126.0
 20
106.135898
 30
0.0
 11
126.0
 21
113.064102
 31
0.0
  0
LINE
  8
L-ZISSEN
 10
114.0
 20
113.064102
 30
0.0
 11
114.0
 21
106.135898
 31
0.0
  0
LINE
  8
L-ZISSEN
 10
126.0
 20
106.135898
 30
0.0
 11
120.0
 21
102.671797
 31
0.0
  0
LINE
  8
L-ZISSEN
 10
110.0
 20
765.0
 30
0.0
 11
104.0
 21
765.0
 31
0.0
  0
LINE
  8
L-ZISSEN
 10
135.0
 20
818.9
 30
0.0
 11
105.0
 21
818.9
 31
0.0
  0
LINE
  8
L-ZISSEN
 10
108.75
 20
818.9
 30
0.0
 11
108.75
 21
822.65
 31
0.0
  0
LINE
  8
L-ZISSEN
 10
131.25
 20
822.65
 30
0.0
 11
108.75
 21
822.65
 31
0.0
  0
LINE
  8
L-ZISSEN
 10
131.25
 20
818.9
 30
0.0
 11
131.25
 21
822.65
 31
0.0
  0
LINE
  8
L-ZISSEN
 10
129.2
 20
825.55
 30
0.0
 11
110.8
 21
825.55
 31
0.0
  0
LINE
  8
L-ZISSEN
 10
111.5
 20
825.55
 30
0.0
 11
111.5
 21
827.9
 31
0.0
  0
LINE
  8
L-ZISSEN
 10
128.5
 20
825.55
 30
0.0
 11
128.5
 21
827.9
 31
0.0
  0
LINE
  8
L-ZISSEN
 10
110.8
 20
822.65
 30
0.0
 11
110.8
 21
825.55
 31
0.0
  0
LINE
  8
L-ZISSEN
 10
129.2
 20
822.65
 30
0.0
 11
129.2
 21
825.55
 31
0.0
  0
LINE
  8
L-ZISSEN
 10
130.969655
 20
827.9
 30
0.0
 11
109.030345
 21
827.9
 31
0.0
  0
LINE
  8
L-ZISSEN
 10
109.030345
 20
833.4
 30
0.0
 11
109.030345
 21
827.9
 31
0.0
  0
LINE
  8
L-ZISSEN
 10
130.969655
 20
833.4
 30
0.0
 11
130.969655
 21
827.9
 31
0.0
  0
LINE
  8
L-ZISSEN
 10
130.969655
 20
833.4
 30
0.0
 11
109.030345
 21
833.4
 31
0.0
  0
LINE
  8
L-ZISSEN
 10
135.0
 20
818.9
 30
0.0
 11
135.0
 21
775.0
 31
0.0
  0
LINE
  8
L-ZISSEN
 10
105.0
 20
818.9
 30
0.0
 11
105.0
 21
775.0
 31
0.0
  0
LINE
  8
L-ZISSEN
 10
136.0
 20
765.0
 30
0.0
 11
136.0
 21
775.0
 31
0.0
  0
LINE
  8
L-ZISSEN
 10
136.0
 20
765.0
 30
0.0
 11
130.0
 21
765.0
 31
0.0
  0
LINE
  8
L-ZISSEN
 10
104.0
 20
775.0
 30
0.0
 11
104.0
 21
765.0
 31
0.0
  0
LINE
  8
L-ZISSEN
 10
104.0
 20
775.0
 30
0.0
 11
136.0
 21
775.0
 31
0.0
  0
LINE
  8
L-ZISSEN
 10
110.0
 20
765.0
 30
0.0
 11
110.0
 21
754.999992
 31
0.0
  0
LINE
  8
L-ZISSEN
 10
130.0
 20
765.0
 30
0.0
 11
130.0
 21
754.999992
 31
0.0
  0
LINE
  8
L-ZISSEN
 10
133.777776
 20
754.999992
 30
0.0
 11
136.0
 21
765.0
 31
0.0
  0
LINE
  8
L-ZISSEN
 10
128.5
 20
821.9
 30
0.0
 11
111.5
 21
821.9
 31
0.0
  0
LINE
  8
L-ZISSEN
 10
128.5
 20
821.9
 30
0.0
 11
128.5
 21
818.9
 31
0.0
  0
LINE
  8
L-ZISSEN
 10
111.5
 20
821.9
 30
0.0
 11
111.5
 21
818.9
 31
0.0
  0
LINE
  8
L-ZISSEN
 10
106.25
 20
295.800014
 30
0.0
 11
106.25
 21
321.500014
 31
0.0
  0
LINE
  8
L-ZISSEN
 10
133.75
 20
295.800014
 30
0.0
 11
106.25
 21
295.800014
 31
0.0
  0
LINE
  8
L-ZISSEN
 10
133.75
 20
295.800014
 30
0.0
 11
133.75
 21
321.500014
 31
0.0
  0
SOLID
  8
L-ZISSEN
 10
1903.821489
 20
1101.649916
 30
0.0
 11
1903.350084
 21
1101.178511
 31
0.0
 12
1905.0
 22
1100.0
 32
0.0
 13
1905.0
 23
1100.0
 33
0.0
  0
LINE
  8
L-ZISSEN
 10
1903.585786
 20
1101.414214
 30
0.0
 11
1895.0
 21
1110.0
 31
0.0
  0
LINE
  8
L-ZISSEN
 10
1895.0
 20
1110.0
 30
0.0
 11
1893.0
 21
1110.0
 31
0.0
  0
TEXT
  8
L-ZISSEN
 10
1882.0
 20
1107.75
 30
0.0
 40
4.5
  1
P.P
  0
SOLID
  8
L-ZISSEN
 10
1851.51092
 20
1099.263463
 30
0.0
 11
1851.851909
 21
1098.690601
 31
0.0
 12
1853.4
 22
1100.0
 32
0.0
 13
1853.4
 23
1100.0
 33
0.0
  0
LINE
  8
L-ZISSEN
 10
1851.681414
 20
1098.977032
 30
0.0
 11
1845.0
 21
1095.0
 31
0.0
  0
LINE
  8
L-ZISSEN
 10
1845.0
 20
1095.0
 30
0.0
 11
1843.0
 21
1095.0
 31
0.0
  0
TEXT
  8
L-ZISSEN
 10
1832.0
 20
1092.75
 30
0.0
 40
4.5
  1
P.P
  0
SOLID
  8
L-ZISSEN
 10
1990.178787
 20
794.108768
 30
0.0
 11
1990.566279
 21
793.566279
 31
0.0
 12
1992.0
 22
795.0
 32
0.0
 13
1992.0
 23
795.0
 33
0.0
  0
LINE
  8
L-ZISSEN
 10
1990.372533
 20
793.837524
 30
0.0
 11
1985.0
 21
790.0
 31
0.0
  0
LINE
  8
L-ZISSEN
 10
1985.0
 20
790.0
 30
0.0
 11
1983.0
 21
790.0
 31
0.0
  0
TEXT
  8
L-ZISSEN
 10
1972.0
 20
787.75
 30
0.0
 40
4.5
  1
P.P
  0
SOLID
  8
L-ZISSEN
 10
1882.97887
 20
794.83831
 30
0.0
 11
1883.14056
 21
794.191548
 31
0.0
 12
1885.0
 22
795.0
 32
0.0
 13
1885.0
 23
795.0
 33
0.0
  0
LINE
  8
L-ZISSEN
 10
1883.059715
 20
794.514929
 30
0.0
 11
1865.0
 21
790.0
 31
0.0
  0
TEXT
  8
L-ZISSEN
 10
1854.0
 20
787.75
 30
0.0
 40
4.5
  1
P.P
  0
LINE
  8
L-ZISSEN
 10
1838.5
 20
822.5
 30
0.0
 11
1840.0
 21
822.5
 31
0.0
  0
SOLID
  8
L-ZISSEN
 10
1828.062074
 20
794.403715
 30
0.0
 11
1828.360217
 21
793.80743
 31
0.0
 12
1830.0
 22
795.0
 32
0.0
 13
1830.0
 23
795.0
 33
0.0
  0
LINE
  8
L-ZISSEN
 10
1828.211146
 20
794.105573
 30
0.0
 11
1820.0
 21
790.0
 31
0.0
  0
LINE
  8
L-ZISSEN
 10
1820.0
 20
790.0
 30
0.0
 11
1818.0
 21
790.0
 31
0.0
  0
TEXT
  8
L-ZISSEN
 10
1807.0
 20
787.75
 30
0.0
 40
4.5
  1
P.P
  0
CIRCLE
  8
L-ZISSEN
 10
1860.0
 20
1170.0
 30
0.0
 40
5.7225
  0
SOLID
  8
L-ZISSEN
 10
1861.178511
 20
1168.350084
 30
0.0
 11
1861.649916
 21
1168.821489
 31
0.0
 12
1860.0
 22
1170.0
 32
0.0
 13
1860.0
 23
1170.0
 33
0.0
  0
LINE
  8
L-ZISSEN
 10
1861.414214
 20
1168.585786
 30
0.0
 11
1870.0
 21
1160.0
 31
0.0
  0
LINE
  8
L-ZISSEN
 10
1870.0
 20
1160.0
 30
0.0
 11
1872.0
 21
1160.0
 31
0.0
  0
TEXT
  8
L-ZISSEN
 10
1874.0
 20
1157.75
 30
0.0
 40
4.5
  1
P.P
  0
LINE
  8
L-ZISSEN
  6
CONTINUOUS
 62
     7
 10
156.999999
 20
145.499998
 30
0.0
 11
147.000001
 21
145.499998
 31
0.0
  0
LINE
  8
L-ZISSEN
  6
CONTINUOUS
 62
     7
 10
156.999999
 20
145.499998
 30
0.0
 11
156.999999
 21
152.999996
 31
0.0
  0
LINE
  8
L-ZISSEN
  6
CONTINUOUS
 62
     7
 10
147.000001
 20
145.499998
 30
0.0
 11
147.000002
 21
152.999996
 31
0.0
  0
LINE
  8
L-ZISSEN
 10
159.5
 20
162.0
 30
0.0
 11
159.5
 21
153.0
 31
0.0
  0
LINE
  8
L-ZISSEN
 10
80.5
 20
162.0
 30
0.0
 11
80.5
 21
153.0
 31
0.0
  0
LINE
  8
L-ZISSEN
  6
CONTINUOUS
 62
     7
 10
92.999998
 20
145.499998
 30
0.0
 11
92.999998
 21
152.999996
 31
0.0
  0
LINE
  8
L-ZISSEN
  6
CONTINUOUS
 62
     7
 10
83.000002
 20
145.499998
 30
0.0
 11
83.000002
 21
152.999996
 31
0.0
  0
LINE
  8
L-ZISSEN
  6
CONTINUOUS
 62
     7
 10
83.000002
 20
145.499998
 30
0.0
 11
92.999998
 21
145.499998
 31
0.0
  0
LINE
  8
L-ZISSEN
  6
CONTINUOUS
 62
     7
 10
92.999999
 20
724.500002
 30
0.0
 11
92.999998
 21
717.000004
 31
0.0
  0
LINE
  8
L-ZISSEN
  6
CONTINUOUS
 62
     7
 10
83.000002
 20
724.500002
 30
0.0
 11
83.000002
 21
717.000004
 31
0.0
  0
LINE
  8
L-ZISSEN
  6
CONTINUOUS
 62
     7
 10
83.000002
 20
724.500002
 30
0.0
 11
92.999999
 21
724.500002
 31
0.0
  0
LINE
  8
L-ZISSEN
 10
80.5
 20
708.0
 30
0.0
 11
80.5
 21
717.0
 31
0.0
  0
LINE
  8
L-ZISSEN
  6
CONTINUOUS
 62
     7
 10
147.000002
 20
724.500002
 30
0.0
 11
147.000002
 21
717.000004
 31
0.0
  0
LINE
  8
L-ZISSEN
  6
CONTINUOUS
 62
     7
 10
156.999999
 20
724.500002
 30
0.0
 11
147.000002
 21
724.500002
 31
0.0
  0
LINE
  8
L-ZISSEN
  6
CONTINUOUS
 62
     7
 10
156.999999
 20
724.500002
 30
0.0
 11
156.999999
 21
717.000004
 31
0.0
  0
LINE
  8
L-ZISSEN
 10
159.5
 20
708.0
 30
0.0
 11
159.5
 21
717.0
 31
0.0
  0
LINE
  8
L-ZISSEN
 10
81.0
 20
707.0
 30
0.0
 11
159.0
 21
707.0
 31
0.0
  0
CIRCLE
  8
L-ZISSEN
 10
138.0
 20
140.0
 30
0.0
 40
3.5
  0
CIRCLE
  8
L-ZISSEN
 10
102.0
 20
140.0
 30
0.0
 40
3.5
  0
LINE
  8
L-ZISSEN
  6
CONTINUOUS
 62
     7
 10
1379.499986
 20
1073.5
 30
0.0
 11
1379.499986
 21
1066.5
 31
0.0
  0
LINE
  8
L-ZISSEN
 10
1379.499986
 20
1066.5
 30
0.0
 11
1374.499986
 21
1066.5
 31
0.0
  0
LINE
  8
L-ZISSEN
 10
1379.499986
 20
1073.5
 30
0.0
 11
1374.499986
 21
1073.5
 31
0.0
  0
LINE
  8
L-ZISSEN
  6
CONTINUOUS
 62
     7
 10
1378.499986
 20
1066.5
 30
0.0
 11
1378.499986
 21
1052.161165
 31
0.0
  0
LINE
  8
L-ZISSEN
 10
141.5
 20
1129.499986
 30
0.0
 11
141.5
 21
1124.499986
 31
0.0
  0
LINE
  8
L-ZISSEN
  6
CONTINUOUS
 62
     7
 10
134.5
 20
1129.499986
 30
0.0
 11
141.5
 21
1129.499986
 31
0.0
  0
LINE
  8
L-ZISSEN
 10
134.5
 20
1129.499986
 30
0.0
 11
134.5
 21
1128.499986
 31
0.0
  0
LINE
  8
L-ZISSEN
 10
98.5
 20
1129.499986
 30
0.0
 11
98.5
 21
1124.499986
 31
0.0
  0
LINE
  8
L-ZISSEN
  6
CONTINUOUS
 62
     7
 10
105.5
 20
1129.499986
 30
0.0
 11
98.5
 21
1129.499986
 31
0.0
  0
LINE
  8
L-ZISSEN
 10
105.5
 20
1129.499986
 30
0.0
 11
105.5
 21
1128.499986
 31
0.0
  0
LINE
  8
L-ZISSEN
 10
141.5
 20
320.500014
 30
0.0
 11
141.5
 21
325.500014
 31
0.0
  0
LINE
  8
L-ZISSEN
  6
CONTINUOUS
 62
     7
 10
134.5
 20
320.500014
 30
0.0
 11
141.5
 21
320.500014
 31
0.0
  0
LINE
  8
L-ZISSEN
 10
134.5
 20
320.500014
 30
0.0
 11
134.5
 21
321.500014
 31
0.0
  0
LINE
  8
L-ZISSEN
 10
105.5
 20
320.500014
 30
0.0
 11
105.5
 21
321.500014
 31
0.0
  0
LINE
  8
L-ZISSEN
  6
CONTINUOUS
 62
     7
 10
105.5
 20
320.500014
 30
0.0
 11
98.5
 21
320.500014
 31
0.0
  0
LINE
  8
L-ZISSEN
 10
98.5
 20
320.500014
 30
0.0
 11
98.5
 21
325.500014
 31
0.0
  0
CIRCLE
  8
L-ZISSEN
 10
120.0
 20
345.500014
 30
0.0
 40
4.283
  0
LINE
  8
L-ZISSEN
 10
142.0
 20
373.5
 30
0.0
 11
142.0
 21
325.500014
 31
0.0
  0
LINE
  8
L-ZISSEN
 10
98.0
 20
373.5
 30
0.0
 11
98.0
 21
325.500014
 31
0.0
  0
LINE
  8
L-ZISSEN
 10
136.5
 20
509.999976
 30
0.0
 11
136.5
 21
493.799981
 31
0.0
  0
LINE
  8
L-ZISSEN
 10
103.5
 20
509.999976
 30
0.0
 11
103.5
 21
493.799981
 31
0.0
  0
LINE
  8
L-ZISSEN
  6
CONTINUOUS
 62
     7
 10
107.250004
 20
488.916359
 30
0.0
 11
107.250004
 21
493.799981
 31
0.0
  0
LINE
  8
L-ZISSEN
  6
CONTINUOUS
 62
     7
 10
107.250004
 20
493.799981
 30
0.0
 11
98.750006
 21
493.799981
 31
0.0
  0
LINE
  8
L-ZISSEN
  6
CONTINUOUS
 62
     7
 10
141.249994
 20
493.799981
 30
0.0
 11
132.749996
 21
493.799981
 31
0.0
  0
LINE
  8
L-ZISSEN
  6
CONTINUOUS
 62
     7
 10
132.749996
 20
488.916359
 30
0.0
 11
132.749996
 21
493.799981
 31
0.0
  0
LINE
  8
L-ZISSEN
  6
CONTINUOUS
 62
     7
 10
136.5
 20
509.999976
 30
0.0
 11
103.5
 21
509.999976
 31
0.0
  0
LINE
  8
L-ZISSEN
  6
CONTINUOUS
 62
     7
 10
98.0
 20
487.499983
 30
0.0
 11
106.432259
 21
487.499983
 31
0.0
  0
CIRCLE
  8
L-ZISSEN
 10
93.0
 20
682.0
 30
0.0
 40
9.3155
  0
SOLID
  8
L-ZISSEN
 10
1296.653911
 20
1086.997829
 30
0.0
 11
1296.024672
 21
1086.777596
 31
0.0
 12
1296.999992
 22
1084.999995
 32
0.0
 13
1296.999992
 23
1084.999995
 33
0.0
  0
LINE
  8
L-ZISSEN
 10
1296.339292
 20
1086.887712
 30
0.0
 11
1290.0
 21
1105.0
 31
0.0
  0
LINE
  8
L-ZISSEN
 10
1290.0
 20
1105.0
 30
0.0
 11
1288.0
 21
1105.0
 31
0.0
  0
TEXT
  8
L-ZISSEN
 10
1277.0
 20
1102.75
 30
0.0
 40
4.5
  1
P.P
  0
SOLID
  8
L-ZISSEN
 10
1369.380111
 20
1131.573394
 30
0.0
 11
1369.924949
 21
1131.957575
 31
0.0
 12
1368.499986
 22
1133.4
 32
0.0
 13
1368.499986
 23
1133.4
 33
0.0
  0
LINE
  8
L-ZISSEN
 10
1369.65253
 20
1131.765484
 30
0.0
 11
1385.0
 21
1110.0
 31
0.0
  0
LINE
  8
L-ZISSEN
 10
1385.0
 20
1110.0
 30
0.0
 11
1387.0
 21
1110.0
 31
0.0
  0
TEXT
  8
L-ZISSEN
 10
1389.0
 20
1107.75
 30
0.0
 40
4.5
  1
P.P
  0
SOLID
  8
L-ZISSEN
 10
121.476001
 20
792.009845
 30
0.0
 11
121.847079
 21
792.563692
 31
0.0
 12
120.0
 22
793.4
 32
0.0
 13
120.0
 23
793.4
 33
0.0
  0
LINE
  8
L-ZISSEN
 10
121.66154
 20
792.286768
 30
0.0
 11
140.0
 21
780.0
 31
0.0
  0
LINE
  8
L-ZISSEN
 10
140.0
 20
780.0
 30
0.0
 11
142.0
 21
780.0
 31
0.0
  0
TEXT
  8
L-ZISSEN
 10
144.0
 20
777.75
 30
0.0
 40
4.5
  1
P.P
  0
SOLID
  8
L-ZISSEN
 10
1372.257901
 20
1099.389631
 30
0.0
 11
1372.490566
 21
1100.01438
 31
0.0
 12
1370.499986
 22
1100.4
 32
0.0
 13
1370.499986
 23
1100.4
 33
0.0
  0
LINE
  8
L-ZISSEN
 10
1372.374233
 20
1099.702005
 30
0.0
 11
1385.0
 21
1095.0
 31
0.0
  0
LINE
  8
L-ZISSEN
 10
1385.0
 20
1095.0
 30
0.0
 11
1387.0
 21
1095.0
 31
0.0
  0
TEXT
  8
L-ZISSEN
 10
1389.0
 20
1092.75
 30
0.0
 40
4.5
  1
P.P
  0
LINE
  8
L-ZISSEN
  6
CONTINUOUS
 62
     7
 10
107.250004
 20
366.200016
 30
0.0
 11
98.750006
 21
366.200016
 31
0.0
  0
LINE
  8
L-ZISSEN
  6
CONTINUOUS
 62
     7
 10
107.250004
 20
371.083641
 30
0.0
 11
107.250004
 21
366.200016
 31
0.0
  0
LINE
  8
L-ZISSEN
  6
CONTINUOUS
 62
     7
 10
132.749996
 20
366.200016
 30
0.0
 11
140.646916
 21
366.200016
 31
0.0
  0
LINE
  8
L-ZISSEN
  6
CONTINUOUS
 62
     7
 10
132.749996
 20
371.083641
 30
0.0
 11
132.749996
 21
366.200016
 31
0.0
  0
LINE
  8
L-TYUSIN
  6
CENTER
 62
     1
 10
270.0
 20
880.800014
 30
0.0
 11
270.0
 21
1159.199986
 31
0.0
  0
LINE
  8
L-ZISSEN
  6
CONTINUOUS
 62
     7
 10
237.50001
 20
1067.499986
 30
0.0
 11
302.49999
 21
1067.499986
 31
0.0
  0
LINE
  8
L-ZISSEN
  6
CONTINUOUS
 62
     7
 10
302.49999
 20
972.500014
 30
0.0
 11
237.50001
 21
972.500014
 31
0.0
  0
LINE
  8
L-ZISSEN
  6
CONTINUOUS
 62
     7
 10
248.000007
 20
917.500014
 30
0.0
 11
248.000007
 21
1036.999995
 31
0.0
  0
LINE
  8
L-ZISSEN
  6
CONTINUOUS
 62
     7
 10
291.999993
 20
917.500014
 30
0.0
 11
291.999993
 21
1036.999995
 31
0.0
  0
LINE
  8
L-ZISSEN
  6
CONTINUOUS
 62
     7
 10
237.50001
 20
972.500014
 30
0.0
 11
237.50001
 21
998.017884
 31
0.0
  0
LINE
  8
L-ZISSEN
  6
CONTINUOUS
 62
     7
 10
302.49999
 20
972.500014
 30
0.0
 11
302.49999
 21
993.017886
 31
0.0
  0
LINE
  8
L-ZISSEN
  6
CONTINUOUS
 62
     7
 10
237.50001
 20
1011.982125
 30
0.0
 11
237.50001
 21
1028.017875
 31
0.0
  0
LINE
  8
L-ZISSEN
  6
CONTINUOUS
 62
     7
 10
302.49999
 20
1006.982126
 30
0.0
 11
302.49999
 21
1033.017874
 31
0.0
  0
LINE
  8
L-ZISSEN
  6
CONTINUOUS
 62
     7
 10
302.49999
 20
1046.982114
 30
0.0
 11
302.49999
 21
1067.499986
 31
0.0
  0
LINE
  8
L-ZISSEN
  6
CONTINUOUS
 62
     7
 10
248.000007
 20
1054.141411
 30
0.0
 11
248.000007
 21
1122.499986
 31
0.0
  0
LINE
  8
L-ZISSEN
  6
CONTINUOUS
 62
     7
 10
291.999993
 20
1036.999995
 30
0.0
 11
297.999992
 21
1036.999995
 31
0.0
  0
LINE
  8
L-ZISSEN
  6
CONTINUOUS
 62
     7
 10
297.999992
 20
1036.999995
 30
0.0
 11
297.999992
 21
1056.999989
 31
0.0
  0
LINE
  8
L-ZISSEN
  6
CONTINUOUS
 62
     7
 10
291.999993
 20
1056.999989
 30
0.0
 11
297.999992
 21
1056.999989
 31
0.0
  0
LINE
  8
L-ZISSEN
  6
CONTINUOUS
 62
     7
 10
291.999993
 20
1054.141411
 30
0.0
 11
291.999993
 21
1122.499986
 31
0.0
  0
LINE
  8
L-TYUSIN
  6
CENTER
 62
     1
 10
1162.500014
 20
810.0
 30
0.0
 11
1377.499986
 21
810.0
 31
0.0
  0
LINE
  8
L-ZISSEN
  6
CONTINUOUS
 62
     7
 10
1222.500014
 20
837.999992
 30
0.0
 11
1222.500014
 21
787.000007
 31
0.0
  0
LINE
  8
L-ZISSEN
  6
CONTINUOUS
 62
     7
 10
1317.499986
 20
837.999992
 30
0.0
 11
1317.499986
 21
787.000007
 31
0.0
  0
LINE
  8
L-ZISSEN
  6
CONTINUOUS
 62
     7
 10
1167.500014
 20
788.000007
 30
0.0
 11
1372.499986
 21
788.000007
 31
0.0
  0
LINE
  8
L-ZISSEN
  6
CONTINUOUS
 62
     7
 10
1214.500014
 20
837.999992
 30
0.0
 11
1325.499986
 21
837.999992
 31
0.0
  0
LINE
  8
L-ZISSEN
  6
CONTINUOUS
 62
     7
 10
1317.499986
 20
797.000004
 30
0.0
 11
1222.500014
 21
797.000004
 31
0.0
  0
CIRCLE
  8
L-ZISSEN
  6
CONTINUOUS
 62
     7
 10
1296.999992
 20
824.999995
 30
0.0
 40
9.999997
  0
LINE
  8
L-ZISSEN
  6
CONTINUOUS
 62
     7
 10
1245.000008
 20
804.500002
 30
0.0
 11
1255.000005
 21
804.500002
 31
0.0
  0
LINE
  8
L-ZISSEN
  6
CONTINUOUS
 62
     7
 10
1245.000008
 20
804.500002
 30
0.0
 11
1245.000008
 21
797.000004
 31
0.0
  0
LINE
  8
L-ZISSEN
  6
CONTINUOUS
 62
     7
 10
1255.000005
 20
804.500002
 30
0.0
 11
1255.000005
 21
797.000004
 31
0.0
  0
LINE
  8
L-ZISSEN
  6
CONTINUOUS
 62
     7
 10
1294.999993
 20
804.500002
 30
0.0
 11
1294.999993
 21
797.000004
 31
0.0
  0
LINE
  8
L-ZISSEN
  6
CONTINUOUS
 62
     7
 10
1284.999996
 20
804.500002
 30
0.0
 11
1284.999996
 21
797.000004
 31
0.0
  0
LINE
  8
L-ZISSEN
  6
CONTINUOUS
 62
     7
 10
1284.999996
 20
804.500002
 30
0.0
 11
1294.999993
 21
804.500002
 31
0.0
  0
CIRCLE
  8
L-ZISSEN
  6
CONTINUOUS
 62
     7
 10
301.99999
 20
1000.000006
 30
0.0
 40
4.999999
  0
LINE
  8
L-TYUSIN
  6
CENTER
 62
     1
 10
1270.0
 20
842.999992
 30
0.0
 11
1270.0
 21
703.000007
 31
0.0
  0
ARC
  8
L-ZISSEN
  6
CONTINUOUS
 62
     7
 10
301.99999
 20
1039.999994
 30
0.0
 40
4.999999
 50
216.869898
 51
143.130102
  0
ARC
  8
L-ZISSEN
 10
238.00001
 20
1034.999996
 30
0.0
 40
5.0
 50
36.869921
 51
23.578171
  0
CIRCLE
  8
L-ZISSEN
 10
238.00001
 20
1005.000005
 30
0.0
 40
5.0
  0
ARC
  8
L-ZISSEN
 10
301.99999
 20
1000.000006
 30
0.0
 40
7.0
 50
274.096043
 51
85.903957
  0
ARC
  8
L-ZISSEN
 10
301.99999
 20
1039.999994
 30
0.0
 40
7.0
 50
274.096043
 51
85.903957
  0
ARC
  8
L-ZISSEN
 10
238.00001
 20
1005.000005
 30
0.0
 40
7.0
 50
94.096043
 51
265.903957
  0
ARC
  8
L-ZISSEN
 10
238.00001
 20
1034.999996
 30
0.0
 40
7.0
 50
94.096043
 51
265.903957
  0
LINE
  8
L-ZISSEN
  6
CONTINUOUS
 62
     7
 10
237.50001
 20
1041.982116
 30
0.0
 11
237.50001
 21
1067.499986
 31
0.0
  0
LINE
  8
L-ZISSEN
  6
CONTINUOUS
 62
     7
 10
242.000008
 20
1036.999995
 30
0.0
 11
242.000008
 21
1056.999989
 31
0.0
  0
LINE
  8
L-ZISSEN
  6
CONTINUOUS
 62
     7
 10
248.000007
 20
1036.999995
 30
0.0
 11
242.000008
 21
1036.999995
 31
0.0
  0
LINE
  8
L-ZISSEN
  6
CONTINUOUS
 62
     7
 10
248.000007
 20
1056.999989
 30
0.0
 11
242.000008
 21
1056.999989
 31
0.0
  0
LINE
  8
L-ZISSEN
 10
1243.017886
 20
797.000004
 30
0.0
 11
1243.017886
 21
788.000007
 31
0.0
  0
LINE
  8
L-ZISSEN
 10
1256.982126
 20
797.000004
 30
0.0
 11
1256.982126
 21
788.000007
 31
0.0
  0
LINE
  8
L-ZISSEN
 10
1296.982114
 20
797.000004
 30
0.0
 11
1296.982114
 21
788.000007
 31
0.0
  0
LINE
  8
L-ZISSEN
 10
1283.017874
 20
797.000004
 30
0.0
 11
1283.017874
 21
788.000007
 31
0.0
  0
LINE
  8
L-ZISSEN
 10
1236.500014
 20
833.322848
 30
0.0
 11
1291.456521
 21
833.322848
 31
0.0
  0
LINE
  8
L-ZISSEN
 10
264.147646
 20
972.500014
 30
0.0
 11
264.147646
 21
1067.499986
 31
0.0
  0
LINE
  8
L-ZISSEN
 10
275.852354
 20
972.500014
 30
0.0
 11
275.852354
 21
1067.499986
 31
0.0
  0
LINE
  8
L-ZISSEN
  6
CONTINUOUS
 62
     7
 10
291.999993
 20
986.500014
 30
0.0
 11
275.852354
 21
986.500014
 31
0.0
  0
LINE
  8
L-ZISSEN
  6
CONTINUOUS
 62
     7
 10
264.147646
 20
986.500014
 30
0.0
 11
248.000007
 21
986.500014
 31
0.0
  0
LINE
  8
L-ZISSEN
 10
1327.499986
 20
832.0
 30
0.0
 11
1304.141411
 21
832.0
 31
0.0
  0
LINE
  8
L-ZISSEN
  6
CONTINUOUS
 62
     7
 10
1236.500014
 20
833.322848
 30
0.0
 11
1236.500014
 21
824.0
 31
0.0
  0
LINE
  8
L-ZISSEN
 10
1236.500014
 20
832.0
 30
0.0
 11
1212.500014
 21
832.0
 31
0.0
  0
LINE
  8
L-ZISSEN
 10
1236.500014
 20
824.0
 30
0.0
 11
1287.05012
 21
824.0
 31
0.0
  0
LINE
  8
L-ZISSEN
 10
256.222224
 20
754.999992
 30
0.0
 11
242.0
 21
754.999992
 31
0.0
  0
LINE
  8
L-ZISSEN
 10
248.0
 20
734.999992
 30
0.0
 11
242.0
 21
734.999992
 31
0.0
  0
LINE
  8
L-ZISSEN
 10
242.0
 20
754.999992
 30
0.0
 11
242.0
 21
734.999992
 31
0.0
  0
LINE
  8
L-ZISSEN
 10
298.0
 20
754.999992
 30
0.0
 11
298.0
 21
734.999992
 31
0.0
  0
LINE
  8
L-ZISSEN
 10
298.0
 20
734.999992
 30
0.0
 11
292.0
 21
734.999992
 31
0.0
  0
LINE
  8
L-ZISSEN
 10
298.0
 20
754.999992
 30
0.0
 11
280.0
 21
754.999992
 31
0.0
  0
LINE
  8
L-ZISSEN
 10
292.0
 20
717.0
 30
0.0
 11
309.5
 21
717.0
 31
0.0
  0
LINE
  8
L-ZISSEN
 10
230.5
 20
717.0
 30
0.0
 11
248.0
 21
717.0
 31
0.0
  0
CIRCLE
  8
L-ZISSEN
 10
253.0
 20
747.0
 30
0.0
 40
4.25
  0
CIRCLE
  8
L-ZISSEN
 10
253.0
 20
713.0
 30
0.0
 40
4.25
  0
CIRCLE
  8
L-ZISSEN
 10
287.0
 20
713.0
 30
0.0
 40
4.25
  0
CIRCLE
  8
L-ZISSEN
 10
287.0
 20
747.0
 30
0.0
 40
4.25
  0
LINE
  8
L-ZISSEN
 10
292.0
 20
752.0
 30
0.0
 11
280.0
 21
752.0
 31
0.0
  0
LINE
  8
L-ZISSEN
 10
292.0
 20
708.0
 30
0.0
 11
292.0
 21
752.0
 31
0.0
  0
LINE
  8
L-ZISSEN
 10
230.5
 20
708.0
 30
0.0
 11
309.5
 21
708.0
 31
0.0
  0
LINE
  8
L-ZISSEN
 10
248.0
 20
752.0
 30
0.0
 11
248.0
 21
708.0
 31
0.0
  0
LINE
  8
L-TYUSIN
  6
CENTER
 62
     1
 10
243.0
 20
730.0
 30
0.0
 11
297.0
 21
730.0
 31
0.0
  0
LINE
  8
L-TYUSIN
  6
CENTER
 62
     1
 10
270.0
 20
838.4
 30
0.0
 11
270.0
 21
623.0
 31
0.0
  0
LINE
  8
L-ZISSEN
  6
CONTINUOUS
 62
     7
 10
1370.499986
 20
855.0
 30
0.0
 11
1370.499986
 21
825.455844
 31
0.0
  0
LINE
  8
L-ZISSEN
 10
1325.499986
 20
855.0
 30
0.0
 11
1370.499986
 21
855.0
 31
0.0
  0
LINE
  8
L-ZISSEN
 10
1363.499986
 20
783.0
 30
0.0
 11
1345.499986
 21
783.0
 31
0.0
  0
LINE
  8
L-ZISSEN
  6
CONTINUOUS
 62
     7
 10
1325.499986
 20
855.0
 30
0.0
 11
1325.499986
 21
832.0
 31
0.0
  0
LINE
  8
L-ZISSEN
  6
CONTINUOUS
 62
     7
 10
1327.499986
 20
832.0
 30
0.0
 11
1327.499986
 21
813.455844
 31
0.0
  0
LINE
  8
L-ZISSEN
 10
1345.499986
 20
783.0
 30
0.0
 11
1345.499986
 21
788.000007
 31
0.0
  0
LINE
  8
L-ZISSEN
 10
1363.499986
 20
783.0
 30
0.0
 11
1363.499986
 21
788.000007
 31
0.0
  0
LINE
  8
L-TYUSIN
  6
CENTER
 62
     1
 10
270.0
 20
569.199986
 30
0.0
 11
270.0
 21
290.800014
 31
0.0
  0
LINE
  8
L-ZISSEN
  6
CONTINUOUS
 62
     7
 10
292.0
 20
372.500014
 30
0.0
 11
283.56774
 21
372.500014
 31
0.0
  0
CIRCLE
  8
L-ZISSEN
 10
270.0
 20
345.500014
 30
0.0
 40
9.0
  0
LINE
  8
L-ZISSEN
 10
261.0
 20
345.500014
 30
0.0
 11
261.0
 21
364.588457
 31
0.0
  0
LINE
  8
L-ZISSEN
 10
279.0
 20
345.500014
 30
0.0
 11
279.0
 21
364.588457
 31
0.0
  0
LINE
  8
L-ZISSEN
  6
CONTINUOUS
 62
     7
 10
256.43226
 20
372.500014
 30
0.0
 11
248.0
 21
372.500014
 31
0.0
  0
LINE
  8
L-ZISSEN
 10
292.0
 20
733.455844
 30
0.0
 11
273.455844
 21
752.0
 31
0.0
  0
LINE
  8
L-ZISSEN
 10
266.544156
 20
752.0
 30
0.0
 11
248.0
 21
733.455844
 31
0.0
  0
LINE
  8
L-ZISSEN
 10
248.0
 20
726.544156
 30
0.0
 11
266.544156
 21
708.0
 31
0.0
  0
LINE
  8
L-ZISSEN
 10
273.455844
 20
708.0
 30
0.0
 11
292.0
 21
726.544156
 31
0.0
  0
LINE
  8
L-ZISSEN
 10
1372.499986
 20
813.455844
 30
0.0
 11
1327.499986
 21
813.455844
 31
0.0
  0
LINE
  8
L-ZISSEN
 10
1372.499986
 20
806.544156
 30
0.0
 11
1327.499986
 21
806.544156
 31
0.0
  0
LINE
  8
L-ZISSEN
  6
CONTINUOUS
 62
     7
 10
1327.499986
 20
806.544156
 30
0.0
 11
1327.499986
 21
788.000007
 31
0.0
  0
LINE
  8
L-ZISSEN
  6
CONTINUOUS
 62
     7
 10
1327.499986
 20
788.750006
 30
0.0
 11
1333.799984
 21
788.750006
 31
0.0
  0
LINE
  8
L-ZISSEN
  6
CONTINUOUS
 62
     7
 10
1327.499986
 20
797.250004
 30
0.0
 11
1333.799984
 21
797.250004
 31
0.0
  0
LINE
  8
L-ZISSEN
  6
CONTINUOUS
 62
     7
 10
1333.799984
 20
797.250004
 30
0.0
 11
1333.799984
 21
788.750006
 31
0.0
  0
LINE
  8
L-ZISSEN
  6
CONTINUOUS
 62
     7
 10
1327.499986
 20
822.749996
 30
0.0
 11
1333.799984
 21
822.749996
 31
0.0
  0
LINE
  8
L-ZISSEN
  6
CONTINUOUS
 62
     7
 10
1327.499986
 20
831.249994
 30
0.0
 11
1333.799984
 21
831.249994
 31
0.0
  0
LINE
  8
L-ZISSEN
  6
CONTINUOUS
 62
     7
 10
1333.799984
 20
831.249994
 30
0.0
 11
1333.799984
 21
822.749996
 31
0.0
  0
LINE
  8
L-ZISSEN
 10
266.544156
 20
327.500014
 30
0.0
 11
266.544156
 21
337.189952
 31
0.0
  0
LINE
  8
L-ZISSEN
 10
273.455844
 20
327.500014
 30
0.0
 11
273.455844
 21
337.189952
 31
0.0
  0
LINE
  8
L-ZISSEN
 10
254.0
 20
775.0
 30
0.0
 11
286.0
 21
775.0
 31
0.0
  0
LINE
  8
L-ZISSEN
 10
254.0
 20
775.0
 30
0.0
 11
254.0
 21
765.0
 31
0.0
  0
LINE
  8
L-ZISSEN
 10
254.0
 20
765.0
 30
0.0
 11
260.0
 21
765.0
 31
0.0
  0
LINE
  8
L-ZISSEN
 10
286.0
 20
765.0
 30
0.0
 11
286.0
 21
775.0
 31
0.0
  0
LINE
  8
L-ZISSEN
 10
280.0
 20
765.0
 30
0.0
 11
280.0
 21
745.455844
 31
0.0
  0
LINE
  8
L-ZISSEN
 10
260.0
 20
765.0
 30
0.0
 11
260.0
 21
745.455844
 31
0.0
  0
LINE
  8
L-ZISSEN
 10
273.455844
 20
752.0
 30
0.0
 11
266.544156
 21
752.0
 31
0.0
  0
LINE
  8
L-ZISSEN
 10
256.888889
 20
752.0
 30
0.0
 11
248.0
 21
752.0
 31
0.0
  0
LINE
  8
L-ZISSEN
  6
CONTINUOUS
 62
     7
 10
1337.499986
 20
845.0
 30
0.0
 11
1337.499986
 21
826.999995
 31
0.0
  0
LINE
  8
L-ZISSEN
 10
1370.499986
 20
825.455844
 30
0.0
 11
1333.799984
 21
825.455844
 31
0.0
  0
LINE
  8
L-ZISSEN
 10
258.0
 20
747.0
 30
0.0
 11
254.0
 21
765.0
 31
0.0
  0
LINE
  8
L-ZISSEN
 10
1325.499986
 20
845.0
 30
0.0
 11
1370.499986
 21
845.0
 31
0.0
  0
LINE
  8
L-ZISSEN
 10
279.0
 20
703.0
 30
0.0
 11
261.0
 21
703.0
 31
0.0
  0
LINE
  8
L-ZISSEN
 10
279.0
 20
703.0
 30
0.0
 11
279.0
 21
708.000007
 31
0.0
  0
LINE
  8
L-ZISSEN
 10
261.0
 20
703.0
 30
0.0
 11
261.0
 21
708.000007
 31
0.0
  0
LINE
  8
L-ZISSEN
 10
291.999993
 20
1054.141411
 30
0.0
 11
275.852354
 21
1054.141411
 31
0.0
  0
LINE
  8
L-ZISSEN
 10
248.000007
 20
1054.141411
 30
0.0
 11
264.147646
 21
1054.141411
 31
0.0
  0
LINE
  8
L-ZISSEN
 10
1372.999986
 20
858.15
 30
0.0
 11
1372.999986
 21
888.65
 31
0.0
  0
LINE
  8
L-ZISSEN
 10
1372.999986
 20
888.65
 30
0.0
 11
1368.499986
 21
888.65
 31
0.0
  0
LINE
  8
L-ZISSEN
 10
1372.999986
 20
858.15
 30
0.0
 11
1368.499986
 21
858.15
 31
0.0
  0
LINE
  8
L-ZISSEN
 10
1402.149986
 20
905.55
 30
0.0
 11
1383.749986
 21
905.55
 31
0.0
  0
LINE
  8
L-ZISSEN
 10
1384.449986
 20
905.55
 30
0.0
 11
1384.449986
 21
907.9
 31
0.0
  0
LINE
  8
L-ZISSEN
 10
1401.449986
 20
905.55
 30
0.0
 11
1401.449986
 21
907.9
 31
0.0
  0
LINE
  8
L-ZISSEN
 10
1383.749986
 20
902.65
 30
0.0
 11
1383.749986
 21
905.55
 31
0.0
  0
LINE
  8
L-ZISSEN
 10
1402.149986
 20
902.65
 30
0.0
 11
1402.149986
 21
905.55
 31
0.0
  0
LINE
  8
L-ZISSEN
 10
1403.919641
 20
907.9
 30
0.0
 11
1381.980331
 21
907.9
 31
0.0
  0
LINE
  8
L-ZISSEN
 10
1381.980331
 20
913.4
 30
0.0
 11
1381.980331
 21
907.9
 31
0.0
  0
LINE
  8
L-ZISSEN
 10
1403.919641
 20
913.4
 30
0.0
 11
1403.919641
 21
907.9
 31
0.0
  0
LINE
  8
L-ZISSEN
 10
1403.919641
 20
913.4
 30
0.0
 11
1381.980331
 21
913.4
 31
0.0
  0
LINE
  8
L-ZISSEN
 10
1404.199986
 20
887.15
 30
0.0
 11
1372.999986
 21
887.15
 31
0.0
  0
LINE
  8
L-ZISSEN
 10
1404.199986
 20
902.65
 30
0.0
 11
1381.699986
 21
902.65
 31
0.0
  0
LINE
  8
L-ZISSEN
 10
1381.699986
 20
887.15
 30
0.0
 11
1381.699986
 21
902.65
 31
0.0
  0
LINE
  8
L-ZISSEN
 10
1404.199986
 20
859.65
 30
0.0
 11
1404.199986
 21
902.65
 31
0.0
  0
LINE
  8
L-ZISSEN
 10
1404.199986
 20
859.65
 30
0.0
 11
1372.999986
 21
859.65
 31
0.0
  0
LINE
  8
L-ZISSEN
 10
1354.31494
 20
901.9
 30
0.0
 11
1334.685031
 21
901.9
 31
0.0
  0
LINE
  8
L-ZISSEN
 10
1334.685031
 20
901.9
 30
0.0
 11
1334.685031
 21
898.9
 31
0.0
  0
LINE
  8
L-ZISSEN
 10
1354.31494
 20
901.9
 30
0.0
 11
1354.31494
 21
898.9
 31
0.0
  0
LINE
  8
L-ZISSEN
 10
1368.499986
 20
898.9
 30
0.0
 11
1325.699986
 21
898.9
 31
0.0
  0
LINE
  8
L-ZISSEN
 10
1325.699986
 20
898.9
 30
0.0
 11
1325.699986
 21
855.0
 31
0.0
  0
LINE
  8
L-ZISSEN
 10
1368.499986
 20
855.0
 30
0.0
 11
1368.499986
 21
898.9
 31
0.0
  0
LINE
  8
L-ZISSEN
 10
285.0
 20
818.9
 30
0.0
 11
281.25
 21
818.9
 31
0.0
  0
LINE
  8
L-ZISSEN
 10
255.0
 20
818.9
 30
0.0
 11
255.0
 21
775.0
 31
0.0
  0
LINE
  8
L-ZISSEN
 10
285.0
 20
818.9
 30
0.0
 11
285.0
 21
775.0
 31
0.0
  0
LINE
  8
L-ZISSEN
 10
280.969655
 20
833.4
 30
0.0
 11
259.030345
 21
833.4
 31
0.0
  0
LINE
  8
L-ZISSEN
 10
280.969655
 20
833.4
 30
0.0
 11
280.969655
 21
827.9
 31
0.0
  0
LINE
  8
L-ZISSEN
 10
259.030345
 20
833.4
 30
0.0
 11
259.030345
 21
827.9
 31
0.0
  0
LINE
  8
L-ZISSEN
 10
280.969655
 20
827.9
 30
0.0
 11
259.030345
 21
827.9
 31
0.0
  0
LINE
  8
L-ZISSEN
 10
279.2
 20
822.65
 30
0.0
 11
279.2
 21
825.55
 31
0.0
  0
LINE
  8
L-ZISSEN
 10
260.8
 20
822.65
 30
0.0
 11
260.8
 21
825.55
 31
0.0
  0
LINE
  8
L-ZISSEN
 10
278.5
 20
825.55
 30
0.0
 11
278.5
 21
827.9
 31
0.0
  0
LINE
  8
L-ZISSEN
 10
261.5
 20
825.55
 30
0.0
 11
261.5
 21
827.9
 31
0.0
  0
LINE
  8
L-ZISSEN
 10
279.2
 20
825.55
 30
0.0
 11
260.8
 21
825.55
 31
0.0
  0
LINE
  8
L-ZISSEN
 10
281.25
 20
807.15
 30
0.0
 11
281.25
 21
822.65
 31
0.0
  0
LINE
  8
L-ZISSEN
 10
281.25
 20
822.65
 30
0.0
 11
258.75
 21
822.65
 31
0.0
  0
LINE
  8
L-ZISSEN
 10
258.75
 20
807.15
 30
0.0
 11
258.75
 21
822.65
 31
0.0
  0
LINE
  8
L-ZISSEN
 10
258.75
 20
818.9
 30
0.0
 11
255.0
 21
818.9
 31
0.0
  0
LINE
  8
L-ZISSEN
 10
283.75
 20
779.65
 30
0.0
 11
256.25
 21
779.65
 31
0.0
  0
LINE
  8
L-ZISSEN
 10
283.75
 20
807.15
 30
0.0
 11
256.25
 21
807.15
 31
0.0
  0
LINE
  8
L-ZISSEN
 10
256.25
 20
779.65
 30
0.0
 11
256.25
 21
807.15
 31
0.0
  0
LINE
  8
L-ZISSEN
 10
283.75
 20
779.65
 30
0.0
 11
283.75
 21
807.15
 31
0.0
  0
LINE
  8
L-ZISSEN
 10
255.0
 20
808.65
 30
0.0
 11
258.75
 21
808.65
 31
0.0
  0
LINE
  8
L-ZISSEN
 10
255.0
 20
778.65
 30
0.0
 11
285.0
 21
778.65
 31
0.0
  0
LINE
  8
L-ZISSEN
 10
281.25
 20
808.65
 30
0.0
 11
285.0
 21
808.65
 31
0.0
  0
LINE
  8
L-ZISSEN
 10
285.0
 20
1075.699986
 30
0.0
 11
285.0
 21
1118.499986
 31
0.0
  0
LINE
  8
L-ZISSEN
 10
255.0
 20
1075.699986
 30
0.0
 11
255.0
 21
1118.499986
 31
0.0
  0
CIRCLE
  8
L-ZISSEN
 10
270.0
 20
1094.499986
 30
0.0
 40
2.067
  0
LINE
  8
L-ZISSEN
 10
256.25
 20
1154.199986
 30
0.0
 11
283.75
 21
1154.199986
 31
0.0
  0
CIRCLE
  8
L-ZISSEN
 10
270.0
 20
1142.949986
 30
0.0
 40
11.25
  0
LINE
  8
L-ZISSEN
 10
283.75
 20
1154.199986
 30
0.0
 11
283.75
 21
1122.999986
 31
0.0
  0
LINE
  8
L-ZISSEN
 10
256.25
 20
1154.199986
 30
0.0
 11
256.25
 21
1122.999986
 31
0.0
  0
CIRCLE
  8
L-ZISSEN
 10
270.0
 20
1142.949986
 30
0.0
 40
6.5
  0
LINE
  8
L-ZISSEN
 10
254.75
 20
1122.999986
 30
0.0
 11
254.75
 21
1118.499986
 31
0.0
  0
LINE
  8
L-ZISSEN
 10
285.25
 20
1122.999986
 30
0.0
 11
285.25
 21
1118.499986
 31
0.0
  0
LINE
  8
L-ZISSEN
 10
254.75
 20
1122.999986
 30
0.0
 11
285.25
 21
1122.999986
 31
0.0
  0
LINE
  8
L-ZISSEN
 10
254.75
 20
1118.499986
 30
0.0
 11
285.25
 21
1118.499986
 31
0.0
  0
LINE
  8
L-ZISSEN
 10
261.5
 20
1089.592508
 30
0.0
 11
270.0
 21
1084.685031
 31
0.0
  0
LINE
  8
L-ZISSEN
 10
270.0
 20
1084.685031
 30
0.0
 11
278.5
 21
1089.592508
 31
0.0
  0
LINE
  8
L-ZISSEN
 10
278.5
 20
1089.592508
 30
0.0
 11
278.5
 21
1099.407463
 31
0.0
  0
LINE
  8
L-ZISSEN
 10
278.5
 20
1099.407463
 30
0.0
 11
270.0
 21
1104.31494
 31
0.0
  0
LINE
  8
L-ZISSEN
 10
270.0
 20
1104.31494
 30
0.0
 11
261.5
 21
1099.407463
 31
0.0
  0
LINE
  8
L-ZISSEN
 10
261.5
 20
1099.407463
 30
0.0
 11
261.5
 21
1089.592508
 31
0.0
  0
LINE
  8
L-ZISSEN
 10
254.0
 20
1075.499986
 30
0.0
 11
254.0
 21
1120.499986
 31
0.0
  0
LINE
  8
L-ZISSEN
  6
CONTINUOUS
 62
     7
 10
286.0
 20
1075.499986
 30
0.0
 11
254.0
 21
1075.499986
 31
0.0
  0
LINE
  8
L-ZISSEN
 10
286.0
 20
1075.499986
 30
0.0
 11
286.0
 21
1120.499986
 31
0.0
  0
LINE
  8
L-ZISSEN
  6
CONTINUOUS
 62
     7
 10
291.999993
 20
1077.499986
 30
0.0
 11
286.0
 21
1077.499986
 31
0.0
  0
LINE
  8
L-ZISSEN
  6
CONTINUOUS
 62
     7
 10
254.0
 20
1077.499986
 30
0.0
 11
248.000007
 21
1077.499986
 31
0.0
  0
LINE
  8
L-ZISSEN
 10
264.0
 20
1075.499986
 30
0.0
 11
264.0
 21
1067.499986
 31
0.0
  0
LINE
  8
L-ZISSEN
 10
276.0
 20
1075.499986
 30
0.0
 11
276.0
 21
1067.499986
 31
0.0
  0
LINE
  8
L-ZISSEN
  6
CONTINUOUS
 62
     7
 10
248.750006
 20
1083.799984
 30
0.0
 11
254.0
 21
1083.799984
 31
0.0
  0
LINE
  8
L-ZISSEN
  6
CONTINUOUS
 62
     7
 10
248.750006
 20
1077.499986
 30
0.0
 11
248.750006
 21
1083.799984
 31
0.0
  0
LINE
  8
L-ZISSEN
  6
CONTINUOUS
 62
     7
 10
286.0
 20
1083.799984
 30
0.0
 11
291.249994
 21
1083.799984
 31
0.0
  0
LINE
  8
L-ZISSEN
  6
CONTINUOUS
 62
     7
 10
291.249994
 20
1077.499986
 30
0.0
 11
291.249994
 21
1083.799984
 31
0.0
  0
LINE
  8
L-ZISSEN
 10
280.0
 20
765.0
 30
0.0
 11
286.0
 21
765.0
 31
0.0
  0
LINE
  8
L-ZISSEN
 10
1377.599986
 20
833.471797
 30
0.0
 11
1370.499986
 21
833.471797
 31
0.0
  0
LINE
  8
L-ZISSEN
 10
1377.599986
 20
847.328203
 30
0.0
 11
1370.499986
 21
847.328203
 31
0.0
  0
LINE
  8
L-ZISSEN
 10
1377.599986
 20
833.471797
 30
0.0
 11
1377.599986
 21
847.328203
 31
0.0
  0
LINE
  8
L-ZISSEN
 10
276.0
 20
763.864102
 30
0.0
 11
270.0
 21
767.328203
 31
0.0
  0
LINE
  8
L-ZISSEN
 10
270.0
 20
753.471797
 30
0.0
 11
276.0
 21
756.935898
 31
0.0
  0
LINE
  8
L-ZISSEN
 10
264.0
 20
756.935898
 30
0.0
 11
270.0
 21
753.471797
 31
0.0
  0
LINE
  8
L-ZISSEN
 10
264.0
 20
763.864102
 30
0.0
 11
264.0
 21
756.935898
 31
0.0
  0
LINE
  8
L-ZISSEN
 10
276.0
 20
756.935898
 30
0.0
 11
276.0
 21
763.864102
 31
0.0
  0
LINE
  8
L-ZISSEN
 10
264.0
 20
763.864102
 30
0.0
 11
270.0
 21
767.328203
 31
0.0
  0
LINE
  8
L-ZISSEN
 10
256.25
 20
295.800014
 30
0.0
 11
256.25
 21
327.000014
 31
0.0
  0
LINE
  8
L-ZISSEN
 10
283.75
 20
295.800014
 30
0.0
 11
256.25
 21
295.800014
 31
0.0
  0
LINE
  8
L-ZISSEN
 10
283.75
 20
295.800014
 30
0.0
 11
283.75
 21
327.000014
 31
0.0
  0
LINE
  8
L-ZISSEN
  6
CONTINUOUS
 62
     7
 10
1222.500014
 20
787.000007
 30
0.0
 11
1317.499986
 21
787.000007
 31
0.0
  0
LINE
  8
L-ZISSEN
 10
231.0
 20
707.0
 30
0.0
 11
261.0
 21
707.0
 31
0.0
  0
LINE
  8
L-ZISSEN
 10
279.0
 20
707.0
 30
0.0
 11
309.0
 21
707.0
 31
0.0
  0
LINE
  8
L-ZISSEN
  6
CONTINUOUS
 62
     7
 10
233.000002
 20
724.500002
 30
0.0
 11
242.999999
 21
724.500002
 31
0.0
  0
LINE
  8
L-ZISSEN
  6
CONTINUOUS
 62
     7
 10
233.000002
 20
724.500002
 30
0.0
 11
233.000002
 21
717.000004
 31
0.0
  0
LINE
  8
L-ZISSEN
  6
CONTINUOUS
 62
     7
 10
242.999999
 20
724.500002
 30
0.0
 11
242.999999
 21
717.000004
 31
0.0
  0
LINE
  8
L-ZISSEN
 10
230.5
 20
708.0
 30
0.0
 11
230.5
 21
717.0
 31
0.0
  0
LINE
  8
L-ZISSEN
 10
309.5
 20
708.0
 30
0.0
 11
309.5
 21
717.0
 31
0.0
  0
LINE
  8
L-ZISSEN
  6
CONTINUOUS
 62
     7
 10
297.000002
 20
724.500002
 30
0.0
 11
297.000002
 21
717.000004
 31
0.0
  0
LINE
  8
L-ZISSEN
  6
CONTINUOUS
 62
     7
 10
306.999999
 20
724.500002
 30
0.0
 11
306.999999
 21
717.000004
 31
0.0
  0
LINE
  8
L-ZISSEN
  6
CONTINUOUS
 62
     7
 10
306.999999
 20
724.500002
 30
0.0
 11
297.000002
 21
724.500002
 31
0.0
  0
LINE
  8
L-ZISSEN
 10
292.0
 20
373.5
 30
0.0
 11
292.0
 21
327.500014
 31
0.0
  0
SOLID
  8
L-ZISSEN
 10
1296.653911
 20
826.997829
 30
0.0
 11
1296.024672
 21
826.777596
 31
0.0
 12
1296.999992
 22
824.999995
 32
0.0
 13
1296.999992
 23
824.999995
 33
0.0
  0
LINE
  8
L-ZISSEN
 10
1296.339292
 20
826.887712
 30
0.0
 11
1290.0
 21
845.0
 31
0.0
  0
LINE
  8
L-ZISSEN
 10
1290.0
 20
845.0
 30
0.0
 11
1288.0
 21
845.0
 31
0.0
  0
TEXT
  8
L-ZISSEN
 10
1277.0
 20
842.75
 30
0.0
 40
4.5
  1
P.P
  0
SOLID
  8
L-ZISSEN
 10
1369.380111
 20
871.573394
 30
0.0
 11
1369.924949
 21
871.957575
 31
0.0
 12
1368.499986
 22
873.4
 32
0.0
 13
1368.499986
 23
873.4
 33
0.0
  0
LINE
  8
L-ZISSEN
 10
1369.65253
 20
871.765484
 30
0.0
 11
1385.0
 21
850.0
 31
0.0
  0
LINE
  8
L-ZISSEN
 10
1385.0
 20
850.0
 30
0.0
 11
1387.0
 21
850.0
 31
0.0
  0
TEXT
  8
L-ZISSEN
 10
1389.0
 20
847.75
 30
0.0
 40
4.5
  1
P.P
  0
SOLID
  8
L-ZISSEN
 10
271.476001
 20
792.009845
 30
0.0
 11
271.847079
 21
792.563692
 31
0.0
 12
270.0
 22
793.4
 32
0.0
 13
270.0
 23
793.4
 33
0.0
  0
LINE
  8
L-ZISSEN
 10
271.66154
 20
792.286768
 30
0.0
 11
290.0
 21
780.0
 31
0.0
  0
LINE
  8
L-ZISSEN
 10
290.0
 20
780.0
 30
0.0
 11
292.0
 21
780.0
 31
0.0
  0
TEXT
  8
L-ZISSEN
 10
294.0
 20
777.75
 30
0.0
 40
4.5
  1
P.P
  0
SOLID
  8
L-ZISSEN
 10
1372.257901
 20
839.389631
 30
0.0
 11
1372.490566
 21
840.01438
 31
0.0
 12
1370.499986
 22
840.4
 32
0.0
 13
1370.499986
 23
840.4
 33
0.0
  0
LINE
  8
L-ZISSEN
 10
1372.374233
 20
839.702005
 30
0.0
 11
1385.0
 21
835.0
 31
0.0
  0
LINE
  8
L-ZISSEN
 10
1385.0
 20
835.0
 30
0.0
 11
1387.0
 21
835.0
 31
0.0
  0
TEXT
  8
L-ZISSEN
 10
1389.0
 20
832.75
 30
0.0
 40
4.5
  1
P.P
  0
SOLID
  8
L-ZISSEN
 10
271.94729
 20
760.964954
 30
0.0
 11
271.658802
 21
761.56597
 31
0.0
 12
270.0
 22
760.4
 32
0.0
 13
270.0
 23
760.4
 33
0.0
  0
LINE
  8
L-ZISSEN
 10
271.803046
 20
761.265462
 30
0.0
 11
290.0
 21
770.0
 31
0.0
  0
LINE
  8
L-ZISSEN
 10
290.0
 20
770.0
 30
0.0
 11
292.0
 21
770.0
 31
0.0
  0
TEXT
  8
L-ZISSEN
 10
294.0
 20
767.75
 30
0.0
 40
4.5
  1
P.P
  0
LINE
  8
L-ZISSEN
 10
1162.400014
 20
833.471797
 30
0.0
 11
1162.400014
 21
847.328203
 31
0.0
  0
LINE
  8
L-ZISSEN
 10
1162.400014
 20
847.328203
 30
0.0
 11
1169.500014
 21
847.328203
 31
0.0
  0
LINE
  8
L-ZISSEN
 10
1162.400014
 20
833.471797
 30
0.0
 11
1169.500014
 21
833.471797
 31
0.0
  0
LINE
  8
L-ZISSEN
 10
1171.500014
 20
855.0
 30
0.0
 11
1171.500014
 21
898.9
 31
0.0
  0
LINE
  8
L-ZISSEN
 10
1214.300014
 20
898.9
 30
0.0
 11
1214.300014
 21
855.0
 31
0.0
  0
LINE
  8
L-ZISSEN
 10
1171.500014
 20
898.9
 30
0.0
 11
1214.300014
 21
898.9
 31
0.0
  0
LINE
  8
L-ZISSEN
 10
1185.68506
 20
901.9
 30
0.0
 11
1185.68506
 21
898.9
 31
0.0
  0
LINE
  8
L-ZISSEN
 10
1205.314969
 20
901.9
 30
0.0
 11
1205.314969
 21
898.9
 31
0.0
  0
LINE
  8
L-ZISSEN
 10
1185.68506
 20
901.9
 30
0.0
 11
1205.314969
 21
901.9
 31
0.0
  0
LINE
  8
L-ZISSEN
 10
1135.800014
 20
859.65
 30
0.0
 11
1167.000014
 21
859.65
 31
0.0
  0
LINE
  8
L-ZISSEN
 10
1135.800014
 20
859.65
 30
0.0
 11
1135.800014
 21
902.65
 31
0.0
  0
LINE
  8
L-ZISSEN
 10
1158.300014
 20
887.15
 30
0.0
 11
1158.300014
 21
902.65
 31
0.0
  0
LINE
  8
L-ZISSEN
 10
1135.800014
 20
902.65
 30
0.0
 11
1158.300014
 21
902.65
 31
0.0
  0
LINE
  8
L-ZISSEN
 10
1135.800014
 20
887.15
 30
0.0
 11
1167.000014
 21
887.15
 31
0.0
  0
LINE
  8
L-ZISSEN
 10
1136.080359
 20
913.4
 30
0.0
 11
1158.019669
 21
913.4
 31
0.0
  0
LINE
  8
L-ZISSEN
 10
1136.080359
 20
913.4
 30
0.0
 11
1136.080359
 21
907.9
 31
0.0
  0
LINE
  8
L-ZISSEN
 10
1158.019669
 20
913.4
 30
0.0
 11
1158.019669
 21
907.9
 31
0.0
  0
LINE
  8
L-ZISSEN
 10
1136.080359
 20
907.9
 30
0.0
 11
1158.019669
 21
907.9
 31
0.0
  0
LINE
  8
L-ZISSEN
 10
1137.850014
 20
902.65
 30
0.0
 11
1137.850014
 21
905.55
 31
0.0
  0
LINE
  8
L-ZISSEN
 10
1156.250014
 20
902.65
 30
0.0
 11
1156.250014
 21
905.55
 31
0.0
  0
LINE
  8
L-ZISSEN
 10
1138.550014
 20
905.55
 30
0.0
 11
1138.550014
 21
907.9
 31
0.0
  0
LINE
  8
L-ZISSEN
 10
1155.550014
 20
905.55
 30
0.0
 11
1155.550014
 21
907.9
 31
0.0
  0
LINE
  8
L-ZISSEN
 10
1137.850014
 20
905.55
 30
0.0
 11
1156.250014
 21
905.55
 31
0.0
  0
LINE
  8
L-ZISSEN
 10
1167.000014
 20
858.15
 30
0.0
 11
1171.500014
 21
858.15
 31
0.0
  0
LINE
  8
L-ZISSEN
 10
1167.000014
 20
888.65
 30
0.0
 11
1171.500014
 21
888.65
 31
0.0
  0
LINE
  8
L-ZISSEN
 10
1167.000014
 20
858.15
 30
0.0
 11
1167.000014
 21
888.65
 31
0.0
  0
LINE
  8
L-ZISSEN
 10
1214.500014
 20
845.0
 30
0.0
 11
1169.500014
 21
845.0
 31
0.0
  0
LINE
  8
L-ZISSEN
 10
1169.500014
 20
825.455844
 30
0.0
 11
1206.200016
 21
825.455844
 31
0.0
  0
LINE
  8
L-ZISSEN
  6
CONTINUOUS
 62
     7
 10
1206.200016
 20
831.249994
 30
0.0
 11
1206.200016
 21
822.749996
 31
0.0
  0
LINE
  8
L-ZISSEN
  6
CONTINUOUS
 62
     7
 10
1212.500014
 20
831.249994
 30
0.0
 11
1206.200016
 21
831.249994
 31
0.0
  0
LINE
  8
L-ZISSEN
  6
CONTINUOUS
 62
     7
 10
1212.500014
 20
822.749996
 30
0.0
 11
1206.200016
 21
822.749996
 31
0.0
  0
LINE
  8
L-ZISSEN
  6
CONTINUOUS
 62
     7
 10
1206.200016
 20
797.250004
 30
0.0
 11
1206.200016
 21
788.750006
 31
0.0
  0
LINE
  8
L-ZISSEN
  6
CONTINUOUS
 62
     7
 10
1212.500014
 20
797.250004
 30
0.0
 11
1206.200016
 21
797.250004
 31
0.0
  0
LINE
  8
L-ZISSEN
  6
CONTINUOUS
 62
     7
 10
1212.500014
 20
788.750006
 30
0.0
 11
1206.200016
 21
788.750006
 31
0.0
  0
LINE
  8
L-ZISSEN
  6
CONTINUOUS
 62
     7
 10
1212.500014
 20
806.544156
 30
0.0
 11
1212.500014
 21
788.000007
 31
0.0
  0
LINE
  8
L-ZISSEN
 10
1167.500014
 20
806.544156
 30
0.0
 11
1212.500014
 21
806.544156
 31
0.0
  0
LINE
  8
L-ZISSEN
 10
1167.500014
 20
813.455844
 30
0.0
 11
1212.500014
 21
813.455844
 31
0.0
  0
LINE
  8
L-ZISSEN
 10
1176.500014
 20
783.0
 30
0.0
 11
1176.500014
 21
788.000007
 31
0.0
  0
LINE
  8
L-ZISSEN
 10
1194.500014
 20
783.0
 30
0.0
 11
1194.500014
 21
788.000007
 31
0.0
  0
LINE
  8
L-ZISSEN
  6
CONTINUOUS
 62
     7
 10
1212.500014
 20
832.0
 30
0.0
 11
1212.500014
 21
813.455844
 31
0.0
  0
LINE
  8
L-ZISSEN
  6
CONTINUOUS
 62
     7
 10
1214.500014
 20
855.0
 30
0.0
 11
1214.500014
 21
832.0
 31
0.0
  0
LINE
  8
L-ZISSEN
 10
1176.500014
 20
783.0
 30
0.0
 11
1194.500014
 21
783.0
 31
0.0
  0
LINE
  8
L-ZISSEN
 10
1214.500014
 20
855.0
 30
0.0
 11
1169.500014
 21
855.0
 31
0.0
  0
LINE
  8
L-ZISSEN
  6
CONTINUOUS
 62
     7
 10
1169.500014
 20
855.0
 30
0.0
 11
1169.500014
 21
825.455844
 31
0.0
  0
LINE
  8
L-ZISSEN
  6
CONTINUOUS
 62
     7
 10
291.249994
 20
962.500014
 30
0.0
 11
291.249994
 21
956.200016
 31
0.0
  0
LINE
  8
L-ZISSEN
  6
CONTINUOUS
 62
     7
 10
286.0
 20
956.200016
 30
0.0
 11
291.249994
 21
956.200016
 31
0.0
  0
LINE
  8
L-ZISSEN
  6
CONTINUOUS
 62
     7
 10
248.750006
 20
962.500014
 30
0.0
 11
248.750006
 21
956.200016
 31
0.0
  0
LINE
  8
L-ZISSEN
  6
CONTINUOUS
 62
     7
 10
248.750006
 20
956.200016
 30
0.0
 11
254.0
 21
956.200016
 31
0.0
  0
LINE
  8
L-ZISSEN
 10
276.0
 20
964.500014
 30
0.0
 11
276.0
 21
972.500014
 31
0.0
  0
LINE
  8
L-ZISSEN
 10
264.0
 20
964.500014
 30
0.0
 11
264.0
 21
972.500014
 31
0.0
  0
LINE
  8
L-ZISSEN
  6
CONTINUOUS
 62
     7
 10
254.0
 20
962.500014
 30
0.0
 11
248.000007
 21
962.500014
 31
0.0
  0
LINE
  8
L-ZISSEN
  6
CONTINUOUS
 62
     7
 10
291.999993
 20
962.500014
 30
0.0
 11
286.0
 21
962.500014
 31
0.0
  0
LINE
  8
L-ZISSEN
 10
286.0
 20
964.500014
 30
0.0
 11
286.0
 21
919.500014
 31
0.0
  0
LINE
  8
L-ZISSEN
  6
CONTINUOUS
 62
     7
 10
286.0
 20
964.500014
 30
0.0
 11
254.0
 21
964.500014
 31
0.0
  0
LINE
  8
L-ZISSEN
 10
254.0
 20
964.500014
 30
0.0
 11
254.0
 21
919.500014
 31
0.0
  0
LINE
  8
L-ZISSEN
 10
261.5
 20
940.592537
 30
0.0
 11
261.5
 21
950.407492
 31
0.0
  0
LINE
  8
L-ZISSEN
 10
270.0
 20
935.68506
 30
0.0
 11
261.5
 21
940.592537
 31
0.0
  0
LINE
  8
L-ZISSEN
 10
278.5
 20
940.592537
 30
0.0
 11
270.0
 21
935.68506
 31
0.0
  0
LINE
  8
L-ZISSEN
 10
278.5
 20
950.407492
 30
0.0
 11
278.5
 21
940.592537
 31
0.0
  0
LINE
  8
L-ZISSEN
 10
270.0
 20
955.314969
 30
0.0
 11
278.5
 21
950.407492
 31
0.0
  0
LINE
  8
L-ZISSEN
 10
261.5
 20
950.407492
 30
0.0
 11
270.0
 21
955.314969
 31
0.0
  0
LINE
  8
L-ZISSEN
 10
254.75
 20
921.500014
 30
0.0
 11
285.25
 21
921.500014
 31
0.0
  0
LINE
  8
L-ZISSEN
 10
254.75
 20
917.000014
 30
0.0
 11
285.25
 21
917.000014
 31
0.0
  0
LINE
  8
L-ZISSEN
 10
285.25
 20
917.000014
 30
0.0
 11
285.25
 21
921.500014
 31
0.0
  0
LINE
  8
L-ZISSEN
 10
254.75
 20
917.000014
 30
0.0
 11
254.75
 21
921.500014
 31
0.0
  0
CIRCLE
  8
L-ZISSEN
 10
270.0
 20
897.050014
 30
0.0
 40
6.5
  0
LINE
  8
L-ZISSEN
 10
256.25
 20
885.800014
 30
0.0
 11
256.25
 21
917.000014
 31
0.0
  0
LINE
  8
L-ZISSEN
 10
283.75
 20
885.800014
 30
0.0
 11
283.75
 21
917.000014
 31
0.0
  0
CIRCLE
  8
L-ZISSEN
 10
270.0
 20
897.050014
 30
0.0
 40
11.25
  0
LINE
  8
L-ZISSEN
 10
256.25
 20
885.800014
 30
0.0
 11
283.75
 21
885.800014
 31
0.0
  0
CIRCLE
  8
L-ZISSEN
 10
270.0
 20
945.500014
 30
0.0
 40
2.067
  0
LINE
  8
L-ZISSEN
 10
255.0
 20
964.300014
 30
0.0
 11
255.0
 21
921.500014
 31
0.0
  0
LINE
  8
L-ZISSEN
 10
285.0
 20
964.300014
 30
0.0
 11
285.0
 21
921.500014
 31
0.0
  0
LINE
  8
L-ZISSEN
 10
292.0
 20
486.5
 30
0.0
 11
292.0
 21
532.499986
 31
0.0
  0
LINE
  8
L-ZISSEN
 10
273.455844
 20
532.499986
 30
0.0
 11
273.455844
 21
522.810048
 31
0.0
  0
LINE
  8
L-ZISSEN
 10
266.544156
 20
532.499986
 30
0.0
 11
266.544156
 21
522.810048
 31
0.0
  0
LINE
  8
L-ZISSEN
  6
CONTINUOUS
 62
     7
 10
256.43226
 20
487.499986
 30
0.0
 11
248.0
 21
487.499986
 31
0.0
  0
LINE
  8
L-ZISSEN
 10
279.0
 20
514.499986
 30
0.0
 11
279.0
 21
495.411543
 31
0.0
  0
LINE
  8
L-ZISSEN
 10
261.0
 20
514.499986
 30
0.0
 11
261.0
 21
495.411543
 31
0.0
  0
CIRCLE
  8
L-ZISSEN
 10
270.0
 20
514.499986
 30
0.0
 40
9.0
  0
LINE
  8
L-ZISSEN
  6
CONTINUOUS
 62
     7
 10
292.0
 20
487.499986
 30
0.0
 11
283.56774
 21
487.499986
 31
0.0
  0
SOLID
  8
L-ZISSEN
 10
1167.509434
 20
840.01438
 30
0.0
 11
1167.742099
 21
839.389631
 31
0.0
 12
1169.500014
 22
840.4
 32
0.0
 13
1169.500014
 23
840.4
 33
0.0
  0
LINE
  8
L-ZISSEN
 10
1167.625767
 20
839.702005
 30
0.0
 11
1155.0
 21
835.0
 31
0.0
  0
LINE
  8
L-ZISSEN
 10
1155.0
 20
835.0
 30
0.0
 11
1153.0
 21
835.0
 31
0.0
  0
TEXT
  8
L-ZISSEN
 10
1142.0
 20
832.75
 30
0.0
 40
4.5
  1
P.P
  0
SOLID
  8
L-ZISSEN
 10
1170.075051
 20
871.957575
 30
0.0
 11
1170.619889
 21
871.573394
 31
0.0
 12
1171.500014
 22
873.4
 32
0.0
 13
1171.500014
 23
873.4
 33
0.0
  0
LINE
  8
L-ZISSEN
 10
1170.34747
 20
871.765484
 30
0.0
 11
1155.0
 21
850.0
 31
0.0
  0
LINE
  8
L-ZISSEN
 10
1155.0
 20
850.0
 30
0.0
 11
1153.0
 21
850.0
 31
0.0
  0
TEXT
  8
L-ZISSEN
 10
1142.0
 20
847.75
 30
0.0
 40
4.5
  1
P.P
  0
LINE
  8
L-ZISSEN
  6
CONTINUOUS
 62
     7
 10
1372.499986
 20
832.0
 30
0.0
 11
1372.499986
 21
788.000007
 31
0.0
  0
LINE
  8
L-ZISSEN
 10
1372.499986
 20
832.0
 30
0.0
 11
1370.499986
 21
832.0
 31
0.0
  0
LINE
  8
L-ZISSEN
  6
CONTINUOUS
 62
     7
 10
292.0
 20
327.500014
 30
0.0
 11
248.000007
 21
327.500014
 31
0.0
  0
LINE
  8
L-ZISSEN
 10
248.0
 20
373.5
 30
0.0
 11
248.0
 21
327.500014
 31
0.0
  0
LINE
  8
L-ZISSEN
 10
264.0
 20
322.400014
 30
0.0
 11
276.0
 21
322.400014
 31
0.0
  0
LINE
  8
L-ZISSEN
 10
264.0
 20
322.400014
 30
0.0
 11
264.0
 21
327.500014
 31
0.0
  0
LINE
  8
L-ZISSEN
 10
276.0
 20
322.400014
 30
0.0
 11
276.0
 21
327.500014
 31
0.0
  0
LINE
  8
L-ZISSEN
  6
CONTINUOUS
 62
     7
 10
1167.500014
 20
832.0
 30
0.0
 11
1167.500014
 21
788.000007
 31
0.0
  0
LINE
  8
L-ZISSEN
 10
1167.500014
 20
832.0
 30
0.0
 11
1169.500014
 21
832.0
 31
0.0
  0
LINE
  8
L-ZISSEN
 10
286.0
 20
1120.499986
 30
0.0
 11
285.25
 21
1120.499986
 31
0.0
  0
LINE
  8
L-ZISSEN
 10
254.75
 20
1120.499986
 30
0.0
 11
254.0
 21
1120.499986
 31
0.0
  0
LINE
  8
L-ZISSEN
 10
291.999993
 20
1122.499986
 30
0.0
 11
285.25
 21
1122.499986
 31
0.0
  0
LINE
  8
L-ZISSEN
 10
254.75
 20
1122.499986
 30
0.0
 11
248.000007
 21
1122.499986
 31
0.0
  0
LINE
  8
L-ZISSEN
 10
291.999993
 20
917.500014
 30
0.0
 11
285.25
 21
917.500014
 31
0.0
  0
LINE
  8
L-ZISSEN
 10
254.75
 20
917.500014
 30
0.0
 11
248.000007
 21
917.500014
 31
0.0
  0
LINE
  8
L-ZISSEN
 10
286.0
 20
919.500014
 30
0.0
 11
285.25
 21
919.500014
 31
0.0
  0
LINE
  8
L-ZISSEN
 10
254.75
 20
919.500014
 30
0.0
 11
254.0
 21
919.500014
 31
0.0
  0
LINE
  8
L-ZISSEN
 10
254.75
 20
327.000014
 30
0.0
 11
254.75
 21
327.500014
 31
0.0
  0
LINE
  8
L-ZISSEN
 10
285.25
 20
327.000014
 30
0.0
 11
276.0
 21
327.000014
 31
0.0
  0
LINE
  8
L-ZISSEN
 10
285.25
 20
327.000014
 30
0.0
 11
285.25
 21
327.500014
 31
0.0
  0
LINE
  8
L-ZISSEN
 10
264.0
 20
327.000014
 30
0.0
 11
254.75
 21
327.000014
 31
0.0
  0
LINE
  8
L-ZISSEN
 10
264.0
 20
532.999986
 30
0.0
 11
254.75
 21
532.999986
 31
0.0
  0
LINE
  8
L-ZISSEN
 10
285.25
 20
532.999986
 30
0.0
 11
285.25
 21
532.499986
 31
0.0
  0
LINE
  8
L-ZISSEN
 10
285.25
 20
532.999986
 30
0.0
 11
276.0
 21
532.999986
 31
0.0
  0
LINE
  8
L-ZISSEN
 10
254.75
 20
532.999986
 30
0.0
 11
254.75
 21
532.499986
 31
0.0
  0
LINE
  8
L-ZISSEN
 10
276.0
 20
537.599986
 30
0.0
 11
276.0
 21
532.499986
 31
0.0
  0
LINE
  8
L-ZISSEN
 10
264.0
 20
537.599986
 30
0.0
 11
264.0
 21
532.499986
 31
0.0
  0
LINE
  8
L-ZISSEN
 10
264.0
 20
537.599986
 30
0.0
 11
276.0
 21
537.599986
 31
0.0
  0
LINE
  8
L-ZISSEN
  6
CONTINUOUS
 62
     7
 10
292.0
 20
532.499986
 30
0.0
 11
248.000007
 21
532.499986
 31
0.0
  0
LINE
  8
L-ZISSEN
 10
283.75
 20
564.199986
 30
0.0
 11
283.75
 21
532.999986
 31
0.0
  0
LINE
  8
L-ZISSEN
 10
256.25
 20
564.199986
 30
0.0
 11
256.25
 21
532.999986
 31
0.0
  0
LINE
  8
L-ZISSEN
 10
283.75
 20
564.199986
 30
0.0
 11
256.25
 21
564.199986
 31
0.0
  0
LINE
  8
L-ZISSEN
 10
248.0
 20
486.5
 30
0.0
 11
248.0
 21
532.499986
 31
0.0
  0
LINE
  8
L-TYUSIN
  6
CENTER
 62
     1
 10
420.0
 20
880.800014
 30
0.0
 11
420.0
 21
1159.199986
 31
0.0
  0
LINE
  8
L-ZISSEN
  6
CONTINUOUS
 62
     7
 10
387.50001
 20
1067.499986
 30
0.0
 11
452.49999
 21
1067.499986
 31
0.0
  0
LINE
  8
L-ZISSEN
  6
CONTINUOUS
 62
     7
 10
452.49999
 20
972.500014
 30
0.0
 11
387.50001
 21
972.500014
 31
0.0
  0
LINE
  8
L-ZISSEN
  6
CONTINUOUS
 62
     7
 10
398.000007
 20
916.500014
 30
0.0
 11
398.000007
 21
1036.999995
 31
0.0
  0
LINE
  8
L-ZISSEN
  6
CONTINUOUS
 62
     7
 10
441.999993
 20
916.500014
 30
0.0
 11
441.999993
 21
1036.999995
 31
0.0
  0
LINE
  8
L-ZISSEN
  6
CONTINUOUS
 62
     7
 10
387.50001
 20
972.500014
 30
0.0
 11
387.50001
 21
998.017884
 31
0.0
  0
LINE
  8
L-ZISSEN
  6
CONTINUOUS
 62
     7
 10
452.49999
 20
972.500014
 30
0.0
 11
452.49999
 21
993.017886
 31
0.0
  0
LINE
  8
L-ZISSEN
  6
CONTINUOUS
 62
     7
 10
387.50001
 20
1011.982125
 30
0.0
 11
387.50001
 21
1028.017875
 31
0.0
  0
LINE
  8
L-ZISSEN
  6
CONTINUOUS
 62
     7
 10
452.49999
 20
1006.982126
 30
0.0
 11
452.49999
 21
1033.017874
 31
0.0
  0
LINE
  8
L-ZISSEN
  6
CONTINUOUS
 62
     7
 10
452.49999
 20
1046.982114
 30
0.0
 11
452.49999
 21
1067.499986
 31
0.0
  0
LINE
  8
L-ZISSEN
  6
CONTINUOUS
 62
     7
 10
398.000007
 20
1054.141411
 30
0.0
 11
398.000007
 21
1123.499986
 31
0.0
  0
LINE
  8
L-ZISSEN
  6
CONTINUOUS
 62
     7
 10
441.999993
 20
1036.999995
 30
0.0
 11
447.999992
 21
1036.999995
 31
0.0
  0
LINE
  8
L-ZISSEN
  6
CONTINUOUS
 62
     7
 10
447.999992
 20
1036.999995
 30
0.0
 11
447.999992
 21
1056.999989
 31
0.0
  0
LINE
  8
L-ZISSEN
  6
CONTINUOUS
 62
     7
 10
441.999993
 20
1056.999989
 30
0.0
 11
447.999992
 21
1056.999989
 31
0.0
  0
LINE
  8
L-ZISSEN
  6
CONTINUOUS
 62
     7
 10
441.999993
 20
1054.141411
 30
0.0
 11
441.999993
 21
1123.499986
 31
0.0
  0
LINE
  8
L-TYUSIN
  6
CENTER
 62
     1
 10
1156.500014
 20
550.0
 30
0.0
 11
1383.499986
 21
550.0
 31
0.0
  0
LINE
  8
L-ZISSEN
  6
CONTINUOUS
 62
     7
 10
1222.500014
 20
577.999992
 30
0.0
 11
1222.500014
 21
527.000007
 31
0.0
  0
LINE
  8
L-ZISSEN
  6
CONTINUOUS
 62
     7
 10
1317.499986
 20
577.999992
 30
0.0
 11
1317.499986
 21
527.000007
 31
0.0
  0
LINE
  8
L-ZISSEN
  6
CONTINUOUS
 62
     7
 10
1166.500014
 20
528.000007
 30
0.0
 11
1373.499986
 21
528.000007
 31
0.0
  0
LINE
  8
L-ZISSEN
  6
CONTINUOUS
 62
     7
 10
1214.500014
 20
577.999992
 30
0.0
 11
1325.499986
 21
577.999992
 31
0.0
  0
LINE
  8
L-ZISSEN
  6
CONTINUOUS
 62
     7
 10
1317.499986
 20
537.000004
 30
0.0
 11
1222.500014
 21
537.000004
 31
0.0
  0
CIRCLE
  8
L-ZISSEN
  6
CONTINUOUS
 62
     7
 10
1296.999992
 20
564.999995
 30
0.0
 40
9.999997
  0
LINE
  8
L-ZISSEN
  6
CONTINUOUS
 62
     7
 10
1245.000008
 20
544.500002
 30
0.0
 11
1255.000005
 21
544.500002
 31
0.0
  0
LINE
  8
L-ZISSEN
  6
CONTINUOUS
 62
     7
 10
1245.000008
 20
544.500002
 30
0.0
 11
1245.000008
 21
537.000004
 31
0.0
  0
LINE
  8
L-ZISSEN
  6
CONTINUOUS
 62
     7
 10
1255.000005
 20
544.500002
 30
0.0
 11
1255.000005
 21
537.000004
 31
0.0
  0
LINE
  8
L-ZISSEN
  6
CONTINUOUS
 62
     7
 10
1294.999993
 20
544.500002
 30
0.0
 11
1294.999993
 21
537.000004
 31
0.0
  0
LINE
  8
L-ZISSEN
  6
CONTINUOUS
 62
     7
 10
1284.999996
 20
544.500002
 30
0.0
 11
1284.999996
 21
537.000004
 31
0.0
  0
LINE
  8
L-ZISSEN
  6
CONTINUOUS
 62
     7
 10
1284.999996
 20
544.500002
 30
0.0
 11
1294.999993
 21
544.500002
 31
0.0
  0
CIRCLE
  8
L-ZISSEN
  6
CONTINUOUS
 62
     7
 10
451.99999
 20
1000.000006
 30
0.0
 40
4.999999
  0
LINE
  8
L-TYUSIN
  6
CENTER
 62
     1
 10
1270.0
 20
582.999992
 30
0.0
 11
1270.0
 21
443.000007
 31
0.0
  0
ARC
  8
L-ZISSEN
  6
CONTINUOUS
 62
     7
 10
451.99999
 20
1039.999994
 30
0.0
 40
4.999999
 50
216.869898
 51
143.130102
  0
ARC
  8
L-ZISSEN
 10
388.00001
 20
1034.999996
 30
0.0
 40
5.0
 50
36.869921
 51
23.578171
  0
CIRCLE
  8
L-ZISSEN
 10
388.00001
 20
1005.000005
 30
0.0
 40
5.0
  0
ARC
  8
L-ZISSEN
 10
451.99999
 20
1000.000006
 30
0.0
 40
7.0
 50
274.096043
 51
85.903957
  0
ARC
  8
L-ZISSEN
 10
451.99999
 20
1039.999994
 30
0.0
 40
7.0
 50
274.096043
 51
85.903957
  0
ARC
  8
L-ZISSEN
 10
388.00001
 20
1005.000005
 30
0.0
 40
7.0
 50
94.096043
 51
265.903957
  0
ARC
  8
L-ZISSEN
 10
388.00001
 20
1034.999996
 30
0.0
 40
7.0
 50
94.096043
 51
265.903957
  0
LINE
  8
L-ZISSEN
  6
CONTINUOUS
 62
     7
 10
387.50001
 20
1041.982116
 30
0.0
 11
387.50001
 21
1067.499986
 31
0.0
  0
LINE
  8
L-ZISSEN
  6
CONTINUOUS
 62
     7
 10
392.000008
 20
1036.999995
 30
0.0
 11
392.000008
 21
1056.999989
 31
0.0
  0
LINE
  8
L-ZISSEN
  6
CONTINUOUS
 62
     7
 10
398.000007
 20
1036.999995
 30
0.0
 11
392.000008
 21
1036.999995
 31
0.0
  0
LINE
  8
L-ZISSEN
  6
CONTINUOUS
 62
     7
 10
398.000007
 20
1056.999989
 30
0.0
 11
392.000008
 21
1056.999989
 31
0.0
  0
LINE
  8
L-ZISSEN
 10
1243.017886
 20
537.000004
 30
0.0
 11
1243.017886
 21
528.000007
 31
0.0
  0
LINE
  8
L-ZISSEN
 10
1256.982126
 20
537.000004
 30
0.0
 11
1256.982126
 21
528.000007
 31
0.0
  0
LINE
  8
L-ZISSEN
 10
1296.982114
 20
537.000004
 30
0.0
 11
1296.982114
 21
528.000007
 31
0.0
  0
LINE
  8
L-ZISSEN
 10
1283.017874
 20
537.000004
 30
0.0
 11
1283.017874
 21
528.000007
 31
0.0
  0
LINE
  8
L-ZISSEN
 10
1236.500014
 20
573.322848
 30
0.0
 11
1291.456521
 21
573.322848
 31
0.0
  0
LINE
  8
L-ZISSEN
 10
414.147646
 20
972.500014
 30
0.0
 11
414.147646
 21
1067.499986
 31
0.0
  0
LINE
  8
L-ZISSEN
 10
425.852354
 20
972.500014
 30
0.0
 11
425.852354
 21
1067.499986
 31
0.0
  0
LINE
  8
L-ZISSEN
  6
CONTINUOUS
 62
     7
 10
441.999993
 20
986.500014
 30
0.0
 11
425.852354
 21
986.500014
 31
0.0
  0
LINE
  8
L-ZISSEN
  6
CONTINUOUS
 62
     7
 10
414.147646
 20
986.500014
 30
0.0
 11
398.000007
 21
986.500014
 31
0.0
  0
LINE
  8
L-ZISSEN
 10
1327.499986
 20
572.0
 30
0.0
 11
1304.141411
 21
572.0
 31
0.0
  0
LINE
  8
L-ZISSEN
  6
CONTINUOUS
 62
     7
 10
1236.500014
 20
573.322848
 30
0.0
 11
1236.500014
 21
564.0
 31
0.0
  0
LINE
  8
L-ZISSEN
 10
1236.500014
 20
572.0
 30
0.0
 11
1212.500017
 21
572.0
 31
0.0
  0
LINE
  8
L-ZISSEN
 10
1236.500014
 20
564.0
 30
0.0
 11
1287.05012
 21
564.0
 31
0.0
  0
LINE
  8
L-TYUSIN
 10
1354.499986
 20
518.0
 30
0.0
 11
1354.499986
 21
533.000007
 31
0.0
  0
LINE
  8
L-ZISSEN
 10
406.222224
 20
754.999992
 30
0.0
 11
392.0
 21
754.999992
 31
0.0
  0
LINE
  8
L-ZISSEN
 10
398.0
 20
734.999992
 30
0.0
 11
392.0
 21
734.999992
 31
0.0
  0
LINE
  8
L-ZISSEN
 10
392.0
 20
754.999992
 30
0.0
 11
392.0
 21
734.999992
 31
0.0
  0
LINE
  8
L-ZISSEN
 10
448.0
 20
754.999992
 30
0.0
 11
448.0
 21
734.999992
 31
0.0
  0
LINE
  8
L-ZISSEN
 10
448.0
 20
734.999992
 30
0.0
 11
442.0
 21
734.999992
 31
0.0
  0
LINE
  8
L-ZISSEN
 10
448.0
 20
754.999992
 30
0.0
 11
430.0
 21
754.999992
 31
0.0
  0
LINE
  8
L-ZISSEN
 10
442.0
 20
717.0
 30
0.0
 11
459.5
 21
717.0
 31
0.0
  0
LINE
  8
L-ZISSEN
 10
380.5
 20
717.0
 30
0.0
 11
398.0
 21
717.0
 31
0.0
  0
CIRCLE
  8
L-ZISSEN
 10
403.0
 20
747.0
 30
0.0
 40
4.25
  0
CIRCLE
  8
L-ZISSEN
 10
403.0
 20
713.0
 30
0.0
 40
4.25
  0
CIRCLE
  8
L-ZISSEN
 10
437.0
 20
713.0
 30
0.0
 40
4.25
  0
CIRCLE
  8
L-ZISSEN
 10
437.0
 20
747.0
 30
0.0
 40
4.25
  0
LINE
  8
L-ZISSEN
 10
442.0
 20
752.0
 30
0.0
 11
430.0
 21
752.0
 31
0.0
  0
LINE
  8
L-ZISSEN
 10
442.0
 20
708.0
 30
0.0
 11
442.0
 21
752.0
 31
0.0
  0
LINE
  8
L-ZISSEN
 10
380.5
 20
708.0
 30
0.0
 11
459.5
 21
708.0
 31
0.0
  0
LINE
  8
L-ZISSEN
 10
398.0
 20
752.0
 30
0.0
 11
398.0
 21
708.0
 31
0.0
  0
LINE
  8
L-TYUSIN
  6
CENTER
 62
     1
 10
393.0
 20
730.0
 30
0.0
 11
447.0
 21
730.0
 31
0.0
  0
LINE
  8
L-TYUSIN
  6
CENTER
 62
     1
 10
420.0
 20
838.4
 30
0.0
 11
420.0
 21
623.0
 31
0.0
  0
LINE
  8
L-ZISSEN
  6
CONTINUOUS
 62
     7
 10
1370.499986
 20
595.0
 30
0.0
 11
1370.499986
 21
571.999993
 31
0.0
  0
LINE
  8
L-ZISSEN
 10
1325.499986
 20
595.0
 30
0.0
 11
1370.499986
 21
595.0
 31
0.0
  0
LINE
  8
L-ZISSEN
 10
1363.499986
 20
523.0
 30
0.0
 11
1345.499986
 21
523.0
 31
0.0
  0
LINE
  8
L-ZISSEN
  6
CONTINUOUS
 62
     7
 10
1325.499986
 20
595.0
 30
0.0
 11
1325.499986
 21
572.0
 31
0.0
  0
LINE
  8
L-ZISSEN
  6
CONTINUOUS
 62
     7
 10
1327.499986
 20
572.0
 30
0.0
 11
1327.499986
 21
553.455844
 31
0.0
  0
LINE
  8
L-ZISSEN
 10
1345.499986
 20
523.0
 30
0.0
 11
1345.499986
 21
528.000007
 31
0.0
  0
LINE
  8
L-ZISSEN
 10
1363.499986
 20
523.0
 30
0.0
 11
1363.499986
 21
528.000007
 31
0.0
  0
LINE
  8
L-TYUSIN
  6
CENTER
 62
     1
 10
420.0
 20
569.199986
 30
0.0
 11
420.0
 21
290.800014
 31
0.0
  0
LINE
  8
L-ZISSEN
  6
CONTINUOUS
 62
     7
 10
442.0
 20
330.500014
 30
0.0
 11
398.000003
 21
330.500014
 31
0.0
  0
LINE
  8
L-TYUSIN
 10
405.0
 20
345.500014
 30
0.0
 11
435.0
 21
345.500014
 31
0.0
  0
CIRCLE
  8
L-ZISSEN
 10
420.0
 20
345.500014
 30
0.0
 40
9.0
  0
LINE
  8
L-ZISSEN
 10
411.0
 20
345.500014
 30
0.0
 11
411.0
 21
364.588457
 31
0.0
  0
LINE
  8
L-ZISSEN
 10
429.0
 20
345.500014
 30
0.0
 11
429.0
 21
364.588457
 31
0.0
  0
LINE
  8
L-ZISSEN
 10
442.0
 20
733.455844
 30
0.0
 11
423.455844
 21
752.0
 31
0.0
  0
LINE
  8
L-ZISSEN
 10
416.544156
 20
752.0
 30
0.0
 11
398.0
 21
733.455844
 31
0.0
  0
LINE
  8
L-ZISSEN
 10
398.0
 20
726.544156
 30
0.0
 11
416.544156
 21
708.0
 31
0.0
  0
LINE
  8
L-ZISSEN
 10
423.455844
 20
708.0
 30
0.0
 11
442.0
 21
726.544156
 31
0.0
  0
LINE
  8
L-ZISSEN
 10
1373.499986
 20
553.455844
 30
0.0
 11
1327.499986
 21
553.455844
 31
0.0
  0
LINE
  8
L-ZISSEN
 10
1373.499986
 20
546.544156
 30
0.0
 11
1327.499986
 21
546.544156
 31
0.0
  0
LINE
  8
L-ZISSEN
  6
CONTINUOUS
 62
     7
 10
1327.499986
 20
546.544156
 30
0.0
 11
1327.499986
 21
528.000007
 31
0.0
  0
LINE
  8
L-ZISSEN
  6
CONTINUOUS
 62
     7
 10
1377.499986
 20
567.838835
 30
0.0
 11
1377.499986
 21
553.5
 31
0.0
  0
LINE
  8
L-ZISSEN
  6
CONTINUOUS
 62
     7
 10
1373.499986
 20
557.617009
 30
0.0
 11
1373.499986
 21
542.382991
 31
0.0
  0
ARC
  8
L-ZISSEN
 10
402.0
 20
730.0
 30
0.0
 40
5.5
 50
315.0
 51
45.0
  0
LINE
  8
L-ZISSEN
 10
405.889087
 20
733.889087
 30
0.0
 11
402.161165
 21
737.617009
 31
0.0
  0
LINE
  8
L-ZISSEN
 10
405.889087
 20
726.110913
 30
0.0
 11
402.161165
 21
722.382991
 31
0.0
  0
LINE
  8
L-ZISSEN
 10
1377.499986
 20
542.382991
 30
0.0
 11
1373.499986
 21
542.382991
 31
0.0
  0
LINE
  8
L-ZISSEN
 10
1377.499986
 20
557.617009
 30
0.0
 11
1373.499986
 21
557.617009
 31
0.0
  0
LINE
  8
L-ZISSEN
 10
423.889087
 20
744.110913
 30
0.0
 11
427.617009
 21
747.838835
 31
0.0
  0
ARC
  8
L-ZISSEN
 10
420.0
 20
748.0
 30
0.0
 40
5.5
 50
225.0
 51
315.0
  0
LINE
  8
L-ZISSEN
 10
416.110913
 20
744.110913
 30
0.0
 11
412.382991
 21
747.838835
 31
0.0
  0
LINE
  8
L-ZISSEN
 10
416.110913
 20
715.889087
 30
0.0
 11
412.382991
 21
712.161165
 31
0.0
  0
ARC
  8
L-ZISSEN
 10
420.0
 20
712.0
 30
0.0
 40
5.5
 50
45.0
 51
135.0
  0
LINE
  8
L-ZISSEN
 10
423.889087
 20
715.889087
 30
0.0
 11
427.617009
 21
712.161165
 31
0.0
  0
LINE
  8
L-ZISSEN
 10
434.110913
 20
726.110913
 30
0.0
 11
437.838835
 21
722.382991
 31
0.0
  0
ARC
  8
L-ZISSEN
 10
438.0
 20
730.0
 30
0.0
 40
5.5
 50
135.0
 51
225.0
  0
LINE
  8
L-ZISSEN
 10
434.110913
 20
733.889087
 30
0.0
 11
437.838835
 21
737.617009
 31
0.0
  0
LINE
  8
L-ZISSEN
 10
1377.499986
 20
532.161165
 30
0.0
 11
1373.499986
 21
532.161165
 31
0.0
  0
LINE
  8
L-ZISSEN
 10
1373.499986
 20
532.161165
 30
0.0
 11
1373.499986
 21
528.000007
 31
0.0
  0
LINE
  8
L-ZISSEN
 10
1377.499986
 20
567.838835
 30
0.0
 11
1373.499986
 21
567.838835
 31
0.0
  0
LINE
  8
L-ZISSEN
 10
1373.499986
 20
567.838835
 30
0.0
 11
1373.499986
 21
571.999993
 31
0.0
  0
LINE
  8
L-ZISSEN
  6
CONTINUOUS
 62
     7
 10
1369.499986
 20
571.999993
 30
0.0
 11
1373.499986
 21
571.999993
 31
0.0
  0
LINE
  8
L-ZISSEN
  6
CONTINUOUS
 62
     7
 10
1327.499986
 20
528.750006
 30
0.0
 11
1333.799984
 21
528.750006
 31
0.0
  0
LINE
  8
L-ZISSEN
  6
CONTINUOUS
 62
     7
 10
1327.499986
 20
537.250004
 30
0.0
 11
1333.799984
 21
537.250004
 31
0.0
  0
LINE
  8
L-ZISSEN
  6
CONTINUOUS
 62
     7
 10
1333.799984
 20
537.250004
 30
0.0
 11
1333.799984
 21
528.750006
 31
0.0
  0
LINE
  8
L-ZISSEN
  6
CONTINUOUS
 62
     7
 10
1327.499986
 20
562.749996
 30
0.0
 11
1333.799984
 21
562.749996
 31
0.0
  0
LINE
  8
L-ZISSEN
  6
CONTINUOUS
 62
     7
 10
1327.499986
 20
571.249994
 30
0.0
 11
1333.799984
 21
571.249994
 31
0.0
  0
LINE
  8
L-ZISSEN
  6
CONTINUOUS
 62
     7
 10
1333.799984
 20
571.249994
 30
0.0
 11
1333.799984
 21
562.749996
 31
0.0
  0
LINE
  8
L-ZISSEN
 10
416.544156
 20
326.500014
 30
0.0
 11
416.544156
 21
337.189952
 31
0.0
  0
LINE
  8
L-ZISSEN
 10
423.455844
 20
326.500014
 30
0.0
 11
423.455844
 21
337.189952
 31
0.0
  0
LINE
  8
L-ZISSEN
 10
437.838835
 20
326.500014
 30
0.0
 11
441.999993
 21
326.500014
 31
0.0
  0
LINE
  8
L-ZISSEN
 10
437.838835
 20
322.500014
 30
0.0
 11
437.838835
 21
326.500014
 31
0.0
  0
LINE
  8
L-ZISSEN
 10
402.161165
 20
326.500014
 30
0.0
 11
398.000007
 21
326.500014
 31
0.0
  0
LINE
  8
L-ZISSEN
 10
402.161165
 20
322.500014
 30
0.0
 11
402.161165
 21
326.500014
 31
0.0
  0
LINE
  8
L-ZISSEN
 10
427.617009
 20
322.500014
 30
0.0
 11
427.617009
 21
326.500014
 31
0.0
  0
LINE
  8
L-ZISSEN
 10
412.382991
 20
322.500014
 30
0.0
 11
412.382991
 21
326.500014
 31
0.0
  0
LINE
  8
L-ZISSEN
  6
CONTINUOUS
 62
     7
 10
427.617009
 20
326.500014
 30
0.0
 11
412.382991
 21
326.500014
 31
0.0
  0
LINE
  8
L-ZISSEN
  6
CONTINUOUS
 62
     7
 10
437.838835
 20
322.500014
 30
0.0
 11
423.5
 21
322.500014
 31
0.0
  0
LINE
  8
L-ZISSEN
 10
404.0
 20
775.0
 30
0.0
 11
436.0
 21
775.0
 31
0.0
  0
LINE
  8
L-ZISSEN
 10
404.0
 20
775.0
 30
0.0
 11
404.0
 21
765.0
 31
0.0
  0
LINE
  8
L-ZISSEN
 10
404.0
 20
765.0
 30
0.0
 11
410.0
 21
765.0
 31
0.0
  0
LINE
  8
L-ZISSEN
 10
436.0
 20
765.0
 30
0.0
 11
436.0
 21
775.0
 31
0.0
  0
LINE
  8
L-ZISSEN
 10
430.0
 20
765.0
 30
0.0
 11
430.0
 21
745.455844
 31
0.0
  0
LINE
  8
L-ZISSEN
 10
410.0
 20
765.0
 30
0.0
 11
410.0
 21
745.455844
 31
0.0
  0
LINE
  8
L-ZISSEN
 10
423.455844
 20
752.0
 30
0.0
 11
416.544156
 21
752.0
 31
0.0
  0
LINE
  8
L-ZISSEN
 10
406.888889
 20
752.0
 30
0.0
 11
398.0
 21
752.0
 31
0.0
  0
LINE
  8
L-ZISSEN
  6
CONTINUOUS
 62
     7
 10
1337.499986
 20
585.0
 30
0.0
 11
1337.499986
 21
566.999995
 31
0.0
  0
LINE
  8
L-ZISSEN
 10
1369.499986
 20
565.455844
 30
0.0
 11
1333.799984
 21
565.455844
 31
0.0
  0
LINE
  8
L-ZISSEN
 10
408.0
 20
747.0
 30
0.0
 11
404.0
 21
765.0
 31
0.0
  0
LINE
  8
L-ZISSEN
 10
1325.499986
 20
585.0
 30
0.0
 11
1370.499986
 21
585.0
 31
0.0
  0
LINE
  8
L-ZISSEN
 10
429.0
 20
703.0
 30
0.0
 11
411.0
 21
703.0
 31
0.0
  0
LINE
  8
L-ZISSEN
 10
429.0
 20
703.0
 30
0.0
 11
429.0
 21
708.000007
 31
0.0
  0
LINE
  8
L-ZISSEN
 10
411.0
 20
703.0
 30
0.0
 11
411.0
 21
708.000007
 31
0.0
  0
LINE
  8
L-ZISSEN
 10
441.999993
 20
1054.141411
 30
0.0
 11
425.852354
 21
1054.141411
 31
0.0
  0
LINE
  8
L-ZISSEN
 10
398.000007
 20
1054.141411
 30
0.0
 11
414.147646
 21
1054.141411
 31
0.0
  0
LINE
  8
L-ZISSEN
  6
CONTINUOUS
 62
     7
 10
398.000007
 20
1120.499986
 30
0.0
 11
404.75
 21
1120.499986
 31
0.0
  0
LINE
  8
L-ZISSEN
 10
402.161165
 20
1123.499986
 30
0.0
 11
398.000007
 21
1123.499986
 31
0.0
  0
LINE
  8
L-ZISSEN
 10
402.161165
 20
1127.499986
 30
0.0
 11
402.161165
 21
1123.499986
 31
0.0
  0
LINE
  8
L-ZISSEN
 10
437.838835
 20
1123.499986
 30
0.0
 11
441.999993
 21
1123.499986
 31
0.0
  0
LINE
  8
L-ZISSEN
 10
437.838835
 20
1127.499986
 30
0.0
 11
437.838835
 21
1123.499986
 31
0.0
  0
LINE
  8
L-ZISSEN
  6
CONTINUOUS
 62
     7
 10
402.161165
 20
1127.499986
 30
0.0
 11
406.25
 21
1127.499986
 31
0.0
  0
LINE
  8
L-ZISSEN
 10
1372.999986
 20
598.15
 30
0.0
 11
1372.999986
 21
628.65
 31
0.0
  0
LINE
  8
L-ZISSEN
 10
1372.999986
 20
628.65
 30
0.0
 11
1368.499986
 21
628.65
 31
0.0
  0
LINE
  8
L-ZISSEN
 10
1372.999986
 20
598.15
 30
0.0
 11
1368.499986
 21
598.15
 31
0.0
  0
LINE
  8
L-ZISSEN
 10
1402.149986
 20
645.55
 30
0.0
 11
1383.749986
 21
645.55
 31
0.0
  0
LINE
  8
L-ZISSEN
 10
1384.449986
 20
645.55
 30
0.0
 11
1384.449986
 21
647.9
 31
0.0
  0
LINE
  8
L-ZISSEN
 10
1401.449986
 20
645.55
 30
0.0
 11
1401.449986
 21
647.9
 31
0.0
  0
LINE
  8
L-ZISSEN
 10
1383.749986
 20
642.65
 30
0.0
 11
1383.749986
 21
645.55
 31
0.0
  0
LINE
  8
L-ZISSEN
 10
1402.149986
 20
642.65
 30
0.0
 11
1402.149986
 21
645.55
 31
0.0
  0
LINE
  8
L-ZISSEN
 10
1403.919641
 20
647.9
 30
0.0
 11
1381.980331
 21
647.9
 31
0.0
  0
LINE
  8
L-ZISSEN
 10
1381.980331
 20
653.4
 30
0.0
 11
1381.980331
 21
647.9
 31
0.0
  0
LINE
  8
L-ZISSEN
 10
1403.919641
 20
653.4
 30
0.0
 11
1403.919641
 21
647.9
 31
0.0
  0
LINE
  8
L-ZISSEN
 10
1403.919641
 20
653.4
 30
0.0
 11
1381.980331
 21
653.4
 31
0.0
  0
LINE
  8
L-ZISSEN
 10
1404.199986
 20
627.15
 30
0.0
 11
1372.999986
 21
627.15
 31
0.0
  0
LINE
  8
L-ZISSEN
 10
1404.199986
 20
642.65
 30
0.0
 11
1381.699986
 21
642.65
 31
0.0
  0
LINE
  8
L-ZISSEN
 10
1381.699986
 20
627.15
 30
0.0
 11
1381.699986
 21
642.65
 31
0.0
  0
LINE
  8
L-ZISSEN
 10
1404.199986
 20
599.65
 30
0.0
 11
1404.199986
 21
642.65
 31
0.0
  0
LINE
  8
L-ZISSEN
 10
1404.199986
 20
599.65
 30
0.0
 11
1372.999986
 21
599.65
 31
0.0
  0
LINE
  8
L-ZISSEN
 10
1354.31494
 20
641.9
 30
0.0
 11
1334.685031
 21
641.9
 31
0.0
  0
LINE
  8
L-ZISSEN
 10
1334.685031
 20
641.9
 30
0.0
 11
1334.685031
 21
638.9
 31
0.0
  0
LINE
  8
L-ZISSEN
 10
1354.31494
 20
641.9
 30
0.0
 11
1354.31494
 21
638.9
 31
0.0
  0
LINE
  8
L-ZISSEN
 10
1368.499986
 20
638.9
 30
0.0
 11
1325.699986
 21
638.9
 31
0.0
  0
LINE
  8
L-ZISSEN
 10
1325.699986
 20
638.9
 30
0.0
 11
1325.699986
 21
595.0
 31
0.0
  0
LINE
  8
L-ZISSEN
 10
1368.499986
 20
595.0
 30
0.0
 11
1368.499986
 21
638.9
 31
0.0
  0
LINE
  8
L-ZISSEN
 10
435.0
 20
818.9
 30
0.0
 11
431.25
 21
818.9
 31
0.0
  0
LINE
  8
L-ZISSEN
 10
405.0
 20
818.9
 30
0.0
 11
405.0
 21
775.0
 31
0.0
  0
LINE
  8
L-ZISSEN
 10
435.0
 20
818.9
 30
0.0
 11
435.0
 21
775.0
 31
0.0
  0
LINE
  8
L-ZISSEN
 10
430.969655
 20
833.4
 30
0.0
 11
409.030345
 21
833.4
 31
0.0
  0
LINE
  8
L-ZISSEN
 10
430.969655
 20
833.4
 30
0.0
 11
430.969655
 21
827.9
 31
0.0
  0
LINE
  8
L-ZISSEN
 10
409.030345
 20
833.4
 30
0.0
 11
409.030345
 21
827.9
 31
0.0
  0
LINE
  8
L-ZISSEN
 10
430.969655
 20
827.9
 30
0.0
 11
409.030345
 21
827.9
 31
0.0
  0
LINE
  8
L-ZISSEN
 10
429.2
 20
822.65
 30
0.0
 11
429.2
 21
825.55
 31
0.0
  0
LINE
  8
L-ZISSEN
 10
410.8
 20
822.65
 30
0.0
 11
410.8
 21
825.55
 31
0.0
  0
LINE
  8
L-ZISSEN
 10
428.5
 20
825.55
 30
0.0
 11
428.5
 21
827.9
 31
0.0
  0
LINE
  8
L-ZISSEN
 10
411.5
 20
825.55
 30
0.0
 11
411.5
 21
827.9
 31
0.0
  0
LINE
  8
L-ZISSEN
 10
429.2
 20
825.55
 30
0.0
 11
410.8
 21
825.55
 31
0.0
  0
LINE
  8
L-ZISSEN
 10
431.25
 20
807.15
 30
0.0
 11
431.25
 21
822.65
 31
0.0
  0
LINE
  8
L-ZISSEN
 10
431.25
 20
822.65
 30
0.0
 11
408.75
 21
822.65
 31
0.0
  0
LINE
  8
L-ZISSEN
 10
408.75
 20
807.15
 30
0.0
 11
408.75
 21
822.65
 31
0.0
  0
LINE
  8
L-ZISSEN
 10
408.75
 20
818.9
 30
0.0
 11
405.0
 21
818.9
 31
0.0
  0
LINE
  8
L-ZISSEN
 10
433.75
 20
779.65
 30
0.0
 11
406.25
 21
779.65
 31
0.0
  0
LINE
  8
L-ZISSEN
 10
433.75
 20
807.15
 30
0.0
 11
406.25
 21
807.15
 31
0.0
  0
LINE
  8
L-ZISSEN
 10
406.25
 20
779.65
 30
0.0
 11
406.25
 21
807.15
 31
0.0
  0
LINE
  8
L-ZISSEN
 10
433.75
 20
779.65
 30
0.0
 11
433.75
 21
807.15
 31
0.0
  0
LINE
  8
L-ZISSEN
 10
405.0
 20
808.65
 30
0.0
 11
408.75
 21
808.65
 31
0.0
  0
LINE
  8
L-ZISSEN
 10
405.0
 20
778.65
 30
0.0
 11
435.0
 21
778.65
 31
0.0
  0
LINE
  8
L-ZISSEN
 10
431.25
 20
808.65
 30
0.0
 11
435.0
 21
808.65
 31
0.0
  0
LINE
  8
L-ZISSEN
 10
435.0
 20
1075.699986
 30
0.0
 11
435.0
 21
1118.499986
 31
0.0
  0
LINE
  8
L-ZISSEN
 10
405.0
 20
1075.699986
 30
0.0
 11
405.0
 21
1118.499986
 31
0.0
  0
CIRCLE
  8
L-ZISSEN
 10
420.0
 20
1094.499986
 30
0.0
 40
2.067
  0
LINE
  8
L-ZISSEN
 10
406.25
 20
1154.199986
 30
0.0
 11
433.75
 21
1154.199986
 31
0.0
  0
CIRCLE
  8
L-ZISSEN
 10
420.0
 20
1142.949986
 30
0.0
 40
11.25
  0
LINE
  8
L-ZISSEN
 10
433.75
 20
1154.199986
 30
0.0
 11
433.75
 21
1122.999986
 31
0.0
  0
LINE
  8
L-ZISSEN
 10
406.25
 20
1154.199986
 30
0.0
 11
406.25
 21
1122.999986
 31
0.0
  0
CIRCLE
  8
L-ZISSEN
 10
420.0
 20
1142.949986
 30
0.0
 40
6.5
  0
LINE
  8
L-ZISSEN
 10
404.75
 20
1122.999986
 30
0.0
 11
404.75
 21
1118.499986
 31
0.0
  0
LINE
  8
L-ZISSEN
 10
435.25
 20
1122.999986
 30
0.0
 11
435.25
 21
1118.499986
 31
0.0
  0
LINE
  8
L-ZISSEN
 10
404.75
 20
1122.999986
 30
0.0
 11
435.25
 21
1122.999986
 31
0.0
  0
LINE
  8
L-ZISSEN
 10
404.75
 20
1118.499986
 30
0.0
 11
435.25
 21
1118.499986
 31
0.0
  0
LINE
  8
L-ZISSEN
 10
411.5
 20
1089.592508
 30
0.0
 11
420.0
 21
1084.685031
 31
0.0
  0
LINE
  8
L-ZISSEN
 10
420.0
 20
1084.685031
 30
0.0
 11
428.5
 21
1089.592508
 31
0.0
  0
LINE
  8
L-ZISSEN
 10
428.5
 20
1089.592508
 30
0.0
 11
428.5
 21
1099.407463
 31
0.0
  0
LINE
  8
L-ZISSEN
 10
428.5
 20
1099.407463
 30
0.0
 11
420.0
 21
1104.31494
 31
0.0
  0
LINE
  8
L-ZISSEN
 10
420.0
 20
1104.31494
 30
0.0
 11
411.5
 21
1099.407463
 31
0.0
  0
LINE
  8
L-ZISSEN
 10
411.5
 20
1099.407463
 30
0.0
 11
411.5
 21
1089.592508
 31
0.0
  0
LINE
  8
L-ZISSEN
  6
CONTINUOUS
 62
     7
 10
433.75
 20
1127.499986
 30
0.0
 11
437.838835
 21
1127.499986
 31
0.0
  0
LINE
  8
L-ZISSEN
  6
CONTINUOUS
 62
     7
 10
435.25
 20
1120.499986
 30
0.0
 11
441.999993
 21
1120.499986
 31
0.0
  0
LINE
  8
L-ZISSEN
 10
404.0
 20
1075.499986
 30
0.0
 11
404.0
 21
1120.499986
 31
0.0
  0
LINE
  8
L-ZISSEN
  6
CONTINUOUS
 62
     7
 10
436.0
 20
1075.499986
 30
0.0
 11
404.0
 21
1075.499986
 31
0.0
  0
LINE
  8
L-ZISSEN
 10
436.0
 20
1075.499986
 30
0.0
 11
436.0
 21
1120.499986
 31
0.0
  0
LINE
  8
L-ZISSEN
  6
CONTINUOUS
 62
     7
 10
441.999993
 20
1077.499986
 30
0.0
 11
436.0
 21
1077.499986
 31
0.0
  0
LINE
  8
L-ZISSEN
  6
CONTINUOUS
 62
     7
 10
404.0
 20
1077.499986
 30
0.0
 11
398.000007
 21
1077.499986
 31
0.0
  0
LINE
  8
L-ZISSEN
 10
414.0
 20
1075.499986
 30
0.0
 11
414.0
 21
1067.499986
 31
0.0
  0
LINE
  8
L-ZISSEN
 10
426.0
 20
1075.499986
 30
0.0
 11
426.0
 21
1067.499986
 31
0.0
  0
LINE
  8
L-ZISSEN
  6
CONTINUOUS
 62
     7
 10
398.750006
 20
1083.799984
 30
0.0
 11
404.0
 21
1083.799984
 31
0.0
  0
LINE
  8
L-ZISSEN
  6
CONTINUOUS
 62
     7
 10
398.750006
 20
1077.499986
 30
0.0
 11
398.750006
 21
1083.799984
 31
0.0
  0
LINE
  8
L-ZISSEN
  6
CONTINUOUS
 62
     7
 10
436.0
 20
1083.799984
 30
0.0
 11
441.249994
 21
1083.799984
 31
0.0
  0
LINE
  8
L-ZISSEN
  6
CONTINUOUS
 62
     7
 10
441.249994
 20
1077.499986
 30
0.0
 11
441.249994
 21
1083.799984
 31
0.0
  0
LINE
  8
L-ZISSEN
 10
430.0
 20
765.0
 30
0.0
 11
436.0
 21
765.0
 31
0.0
  0
LINE
  8
L-ZISSEN
 10
1377.599986
 20
573.471797
 30
0.0
 11
1370.499986
 21
573.471797
 31
0.0
  0
LINE
  8
L-ZISSEN
 10
1377.599986
 20
587.328203
 30
0.0
 11
1370.499986
 21
587.328203
 31
0.0
  0
LINE
  8
L-ZISSEN
 10
1377.599986
 20
573.471797
 30
0.0
 11
1377.599986
 21
587.328203
 31
0.0
  0
LINE
  8
L-ZISSEN
 10
426.0
 20
763.864102
 30
0.0
 11
420.0
 21
767.328203
 31
0.0
  0
LINE
  8
L-ZISSEN
 10
420.0
 20
753.471797
 30
0.0
 11
426.0
 21
756.935898
 31
0.0
  0
LINE
  8
L-ZISSEN
 10
414.0
 20
756.935898
 30
0.0
 11
420.0
 21
753.471797
 31
0.0
  0
LINE
  8
L-ZISSEN
 10
414.0
 20
763.864102
 30
0.0
 11
414.0
 21
756.935898
 31
0.0
  0
LINE
  8
L-ZISSEN
 10
426.0
 20
756.935898
 30
0.0
 11
426.0
 21
763.864102
 31
0.0
  0
LINE
  8
L-ZISSEN
 10
414.0
 20
763.864102
 30
0.0
 11
420.0
 21
767.328203
 31
0.0
  0
LINE
  8
L-ZISSEN
 10
406.25
 20
295.800014
 30
0.0
 11
406.25
 21
322.500014
 31
0.0
  0
LINE
  8
L-ZISSEN
 10
433.75
 20
295.800014
 30
0.0
 11
406.25
 21
295.800014
 31
0.0
  0
LINE
  8
L-ZISSEN
 10
433.75
 20
295.800014
 30
0.0
 11
433.75
 21
322.500014
 31
0.0
  0
LINE
  8
L-ZISSEN
  6
CONTINUOUS
 62
     7
 10
1222.500014
 20
527.000007
 30
0.0
 11
1317.499986
 21
527.000007
 31
0.0
  0
LINE
  8
L-ZISSEN
 10
381.0
 20
707.0
 30
0.0
 11
411.0
 21
707.0
 31
0.0
  0
LINE
  8
L-ZISSEN
 10
429.0
 20
707.0
 30
0.0
 11
459.0
 21
707.0
 31
0.0
  0
LINE
  8
L-ZISSEN
  6
CONTINUOUS
 62
     7
 10
383.000002
 20
724.500002
 30
0.0
 11
392.999999
 21
724.500002
 31
0.0
  0
LINE
  8
L-ZISSEN
  6
CONTINUOUS
 62
     7
 10
383.000002
 20
724.500002
 30
0.0
 11
383.000002
 21
717.000004
 31
0.0
  0
LINE
  8
L-ZISSEN
  6
CONTINUOUS
 62
     7
 10
392.999999
 20
724.500002
 30
0.0
 11
392.999999
 21
717.000004
 31
0.0
  0
LINE
  8
L-ZISSEN
 10
380.5
 20
708.0
 30
0.0
 11
380.5
 21
717.0
 31
0.0
  0
LINE
  8
L-ZISSEN
 10
459.5
 20
708.0
 30
0.0
 11
459.5
 21
717.0
 31
0.0
  0
LINE
  8
L-ZISSEN
  6
CONTINUOUS
 62
     7
 10
447.000002
 20
724.500002
 30
0.0
 11
447.000002
 21
717.000004
 31
0.0
  0
LINE
  8
L-ZISSEN
  6
CONTINUOUS
 62
     7
 10
456.999999
 20
724.500002
 30
0.0
 11
456.999999
 21
717.000004
 31
0.0
  0
LINE
  8
L-ZISSEN
  6
CONTINUOUS
 62
     7
 10
456.999999
 20
724.500002
 30
0.0
 11
447.000002
 21
724.500002
 31
0.0
  0
CIRCLE
  8
L-ZISSEN
 10
402.0
 20
730.0
 30
0.0
 40
3.5
  0
CIRCLE
  8
L-ZISSEN
 10
420.0
 20
748.0
 30
0.0
 40
3.5
  0
LINE
  8
L-ZISSEN
  6
CONTINUOUS
 62
     7
 10
1378.499986
 20
553.5
 30
0.0
 11
1378.499986
 21
546.5
 31
0.0
  0
LINE
  8
L-ZISSEN
 10
1378.499986
 20
546.5
 30
0.0
 11
1373.499986
 21
546.5
 31
0.0
  0
LINE
  8
L-ZISSEN
 10
1378.499986
 20
553.5
 30
0.0
 11
1373.499986
 21
553.5
 31
0.0
  0
LINE
  8
L-ZISSEN
  6
CONTINUOUS
 62
     7
 10
1377.499986
 20
546.5
 30
0.0
 11
1377.499986
 21
532.161165
 31
0.0
  0
LINE
  8
L-ZISSEN
 10
441.5
 20
1128.499986
 30
0.0
 11
441.5
 21
1123.499986
 31
0.0
  0
LINE
  8
L-ZISSEN
  6
CONTINUOUS
 62
     7
 10
434.5
 20
1128.499986
 30
0.0
 11
441.5
 21
1128.499986
 31
0.0
  0
LINE
  8
L-ZISSEN
 10
434.5
 20
1128.499986
 30
0.0
 11
434.5
 21
1127.499986
 31
0.0
  0
LINE
  8
L-ZISSEN
 10
398.5
 20
1128.499986
 30
0.0
 11
398.5
 21
1123.499986
 31
0.0
  0
LINE
  8
L-ZISSEN
  6
CONTINUOUS
 62
     7
 10
405.5
 20
1128.499986
 30
0.0
 11
398.5
 21
1128.499986
 31
0.0
  0
LINE
  8
L-ZISSEN
 10
405.5
 20
1128.499986
 30
0.0
 11
405.5
 21
1127.499986
 31
0.0
  0
LINE
  8
L-ZISSEN
 10
441.5
 20
321.500014
 30
0.0
 11
441.5
 21
326.500014
 31
0.0
  0
LINE
  8
L-ZISSEN
  6
CONTINUOUS
 62
     7
 10
434.5
 20
321.500014
 30
0.0
 11
441.5
 21
321.500014
 31
0.0
  0
LINE
  8
L-ZISSEN
 10
434.5
 20
321.500014
 30
0.0
 11
434.5
 21
322.500014
 31
0.0
  0
LINE
  8
L-ZISSEN
 10
405.5
 20
321.500014
 30
0.0
 11
405.5
 21
322.500014
 31
0.0
  0
LINE
  8
L-ZISSEN
  6
CONTINUOUS
 62
     7
 10
405.5
 20
321.500014
 30
0.0
 11
398.5
 21
321.500014
 31
0.0
  0
LINE
  8
L-ZISSEN
 10
398.5
 20
321.500014
 30
0.0
 11
398.5
 21
326.500014
 31
0.0
  0
CIRCLE
  8
L-ZISSEN
 10
420.0
 20
345.500014
 30
0.0
 40
4.283
  0
SOLID
  8
L-ZISSEN
 10
1296.653911
 20
566.997829
 30
0.0
 11
1296.024672
 21
566.777596
 31
0.0
 12
1296.999992
 22
564.999995
 32
0.0
 13
1296.999992
 23
564.999995
 33
0.0
  0
LINE
  8
L-ZISSEN
 10
1296.339292
 20
566.887712
 30
0.0
 11
1290.0
 21
585.0
 31
0.0
  0
LINE
  8
L-ZISSEN
 10
1290.0
 20
585.0
 30
0.0
 11
1288.0
 21
585.0
 31
0.0
  0
TEXT
  8
L-ZISSEN
 10
1277.0
 20
582.75
 30
0.0
 40
4.5
  1
P.P
  0
SOLID
  8
L-ZISSEN
 10
1369.380111
 20
611.573394
 30
0.0
 11
1369.924949
 21
611.957575
 31
0.0
 12
1368.499986
 22
613.4
 32
0.0
 13
1368.499986
 23
613.4
 33
0.0
  0
LINE
  8
L-ZISSEN
 10
1369.65253
 20
611.765484
 30
0.0
 11
1385.0
 21
590.0
 31
0.0
  0
LINE
  8
L-ZISSEN
 10
1385.0
 20
590.0
 30
0.0
 11
1387.0
 21
590.0
 31
0.0
  0
TEXT
  8
L-ZISSEN
 10
1389.0
 20
587.75
 30
0.0
 40
4.5
  1
P.P
  0
SOLID
  8
L-ZISSEN
 10
421.476001
 20
792.009845
 30
0.0
 11
421.847079
 21
792.563692
 31
0.0
 12
420.0
 22
793.4
 32
0.0
 13
420.0
 23
793.4
 33
0.0
  0
LINE
  8
L-ZISSEN
 10
421.66154
 20
792.286768
 30
0.0
 11
440.0
 21
780.0
 31
0.0
  0
LINE
  8
L-ZISSEN
 10
440.0
 20
780.0
 30
0.0
 11
442.0
 21
780.0
 31
0.0
  0
TEXT
  8
L-ZISSEN
 10
444.0
 20
777.75
 30
0.0
 40
4.5
  1
P.P
  0
SOLID
  8
L-ZISSEN
 10
1372.257901
 20
579.389631
 30
0.0
 11
1372.490566
 21
580.01438
 31
0.0
 12
1370.499986
 22
580.4
 32
0.0
 13
1370.499986
 23
580.4
 33
0.0
  0
LINE
  8
L-ZISSEN
 10
1372.374233
 20
579.702005
 30
0.0
 11
1385.0
 21
575.0
 31
0.0
  0
LINE
  8
L-ZISSEN
 10
1385.0
 20
575.0
 30
0.0
 11
1387.0
 21
575.0
 31
0.0
  0
TEXT
  8
L-ZISSEN
 10
1389.0
 20
572.75
 30
0.0
 40
4.5
  1
P.P
  0
SOLID
  8
L-ZISSEN
 10
421.94729
 20
760.964954
 30
0.0
 11
421.658802
 21
761.56597
 31
0.0
 12
420.0
 22
760.4
 32
0.0
 13
420.0
 23
760.4
 33
0.0
  0
LINE
  8
L-ZISSEN
 10
421.803046
 20
761.265462
 30
0.0
 11
440.0
 21
770.0
 31
0.0
  0
LINE
  8
L-ZISSEN
 10
440.0
 20
770.0
 30
0.0
 11
442.0
 21
770.0
 31
0.0
  0
TEXT
  8
L-ZISSEN
 10
444.0
 20
767.75
 30
0.0
 40
4.5
  1
P.P
  0
ARC
  8
L-ZISSEN
 10
420.0
 20
730.0
 30
0.0
 40
24.0
 50
65.375682
 51
114.624318
  0
LINE
  8
L-ZISSEN
  6
CONTINUOUS
 62
     7
 10
1369.499986
 20
571.999993
 30
0.0
 11
1369.499986
 21
528.000007
 31
0.0
  0
CIRCLE
  8
L-ZISSEN
 10
438.0
 20
730.0
 30
0.0
 40
3.5
  0
CIRCLE
  8
L-ZISSEN
 10
420.0
 20
712.0
 30
0.0
 40
3.5
  0
LINE
  8
L-ZISSEN
 10
1378.499986
 20
528.5
 30
0.0
 11
1373.499986
 21
528.5
 31
0.0
  0
LINE
  8
L-ZISSEN
  6
CONTINUOUS
 62
     7
 10
1378.499986
 20
535.5
 30
0.0
 11
1378.499986
 21
528.5
 31
0.0
  0
LINE
  8
L-ZISSEN
 10
1378.499986
 20
535.5
 30
0.0
 11
1377.499986
 21
535.5
 31
0.0
  0
LINE
  8
L-ZISSEN
  6
CONTINUOUS
 62
     7
 10
1378.499986
 20
564.5
 30
0.0
 11
1378.499986
 21
571.5
 31
0.0
  0
LINE
  8
L-ZISSEN
 10
1378.499986
 20
564.5
 30
0.0
 11
1377.499986
 21
564.5
 31
0.0
  0
LINE
  8
L-ZISSEN
 10
1378.499986
 20
571.5
 30
0.0
 11
1373.499986
 21
571.5
 31
0.0
  0
LINE
  8
L-ZISSEN
 10
1161.500014
 20
571.5
 30
0.0
 11
1166.500014
 21
571.5
 31
0.0
  0
LINE
  8
L-ZISSEN
 10
1161.500014
 20
564.5
 30
0.0
 11
1162.500014
 21
564.5
 31
0.0
  0
LINE
  8
L-ZISSEN
  6
CONTINUOUS
 62
     7
 10
1161.500014
 20
564.5
 30
0.0
 11
1161.500014
 21
571.5
 31
0.0
  0
LINE
  8
L-ZISSEN
 10
1161.500014
 20
535.5
 30
0.0
 11
1162.500014
 21
535.5
 31
0.0
  0
LINE
  8
L-ZISSEN
  6
CONTINUOUS
 62
     7
 10
1161.500014
 20
535.5
 30
0.0
 11
1161.500014
 21
528.5
 31
0.0
  0
LINE
  8
L-ZISSEN
 10
1161.500014
 20
528.5
 30
0.0
 11
1166.500014
 21
528.5
 31
0.0
  0
LINE
  8
L-ZISSEN
  6
CONTINUOUS
 62
     7
 10
1170.500014
 20
571.999993
 30
0.0
 11
1170.500014
 21
528.000007
 31
0.0
  0
LINE
  8
L-ZISSEN
  6
CONTINUOUS
 62
     7
 10
1162.500014
 20
546.5
 30
0.0
 11
1162.500014
 21
532.161165
 31
0.0
  0
LINE
  8
L-ZISSEN
 10
1161.500014
 20
553.5
 30
0.0
 11
1166.500014
 21
553.5
 31
0.0
  0
LINE
  8
L-ZISSEN
 10
1161.500014
 20
546.5
 30
0.0
 11
1166.500014
 21
546.5
 31
0.0
  0
LINE
  8
L-ZISSEN
  6
CONTINUOUS
 62
     7
 10
1161.500014
 20
553.5
 30
0.0
 11
1161.500014
 21
546.5
 31
0.0
  0
LINE
  8
L-ZISSEN
 10
1162.400014
 20
573.471797
 30
0.0
 11
1162.400014
 21
587.328203
 31
0.0
  0
LINE
  8
L-ZISSEN
 10
1162.400014
 20
587.328203
 30
0.0
 11
1169.500014
 21
587.328203
 31
0.0
  0
LINE
  8
L-ZISSEN
 10
1162.400014
 20
573.471797
 30
0.0
 11
1169.500014
 21
573.471797
 31
0.0
  0
LINE
  8
L-ZISSEN
 10
1171.500014
 20
595.0
 30
0.0
 11
1171.500014
 21
638.9
 31
0.0
  0
LINE
  8
L-ZISSEN
 10
1214.300014
 20
638.9
 30
0.0
 11
1214.300014
 21
595.0
 31
0.0
  0
LINE
  8
L-ZISSEN
 10
1171.500014
 20
638.9
 30
0.0
 11
1214.300014
 21
638.9
 31
0.0
  0
LINE
  8
L-ZISSEN
 10
1185.68506
 20
641.9
 30
0.0
 11
1185.68506
 21
638.9
 31
0.0
  0
LINE
  8
L-ZISSEN
 10
1205.314969
 20
641.9
 30
0.0
 11
1205.314969
 21
638.9
 31
0.0
  0
LINE
  8
L-ZISSEN
 10
1185.68506
 20
641.9
 30
0.0
 11
1205.314969
 21
641.9
 31
0.0
  0
LINE
  8
L-ZISSEN
 10
1135.800014
 20
599.65
 30
0.0
 11
1167.000014
 21
599.65
 31
0.0
  0
LINE
  8
L-ZISSEN
 10
1135.800014
 20
599.65
 30
0.0
 11
1135.800014
 21
642.65
 31
0.0
  0
LINE
  8
L-ZISSEN
 10
1158.300014
 20
627.15
 30
0.0
 11
1158.300014
 21
642.65
 31
0.0
  0
LINE
  8
L-ZISSEN
 10
1135.800014
 20
642.65
 30
0.0
 11
1158.300014
 21
642.65
 31
0.0
  0
LINE
  8
L-ZISSEN
 10
1135.800014
 20
627.15
 30
0.0
 11
1167.000014
 21
627.15
 31
0.0
  0
LINE
  8
L-ZISSEN
 10
1136.080359
 20
653.4
 30
0.0
 11
1158.019669
 21
653.4
 31
0.0
  0
LINE
  8
L-ZISSEN
 10
1136.080359
 20
653.4
 30
0.0
 11
1136.080359
 21
647.9
 31
0.0
  0
LINE
  8
L-ZISSEN
 10
1158.019669
 20
653.4
 30
0.0
 11
1158.019669
 21
647.9
 31
0.0
  0
LINE
  8
L-ZISSEN
 10
1136.080359
 20
647.9
 30
0.0
 11
1158.019669
 21
647.9
 31
0.0
  0
LINE
  8
L-ZISSEN
 10
1137.850014
 20
642.65
 30
0.0
 11
1137.850014
 21
645.55
 31
0.0
  0
LINE
  8
L-ZISSEN
 10
1156.250014
 20
642.65
 30
0.0
 11
1156.250014
 21
645.55
 31
0.0
  0
LINE
  8
L-ZISSEN
 10
1138.550014
 20
645.55
 30
0.0
 11
1138.550014
 21
647.9
 31
0.0
  0
LINE
  8
L-ZISSEN
 10
1155.550014
 20
645.55
 30
0.0
 11
1155.550014
 21
647.9
 31
0.0
  0
LINE
  8
L-ZISSEN
 10
1137.850014
 20
645.55
 30
0.0
 11
1156.250014
 21
645.55
 31
0.0
  0
LINE
  8
L-ZISSEN
 10
1167.000014
 20
598.15
 30
0.0
 11
1171.500014
 21
598.15
 31
0.0
  0
LINE
  8
L-ZISSEN
 10
1167.000014
 20
628.65
 30
0.0
 11
1171.500014
 21
628.65
 31
0.0
  0
LINE
  8
L-ZISSEN
 10
1167.000014
 20
598.15
 30
0.0
 11
1167.000014
 21
628.65
 31
0.0
  0
LINE
  8
L-ZISSEN
 10
1214.500014
 20
585.0
 30
0.0
 11
1169.500014
 21
585.0
 31
0.0
  0
LINE
  8
L-ZISSEN
 10
1170.500014
 20
565.455844
 30
0.0
 11
1206.200016
 21
565.455844
 31
0.0
  0
LINE
  8
L-ZISSEN
  6
CONTINUOUS
 62
     7
 10
1206.200016
 20
571.249994
 30
0.0
 11
1206.200016
 21
562.749996
 31
0.0
  0
LINE
  8
L-ZISSEN
  6
CONTINUOUS
 62
     7
 10
1212.500014
 20
571.249994
 30
0.0
 11
1206.200016
 21
571.249994
 31
0.0
  0
LINE
  8
L-ZISSEN
  6
CONTINUOUS
 62
     7
 10
1212.500014
 20
562.749996
 30
0.0
 11
1206.200016
 21
562.749996
 31
0.0
  0
LINE
  8
L-ZISSEN
  6
CONTINUOUS
 62
     7
 10
1206.200016
 20
537.250004
 30
0.0
 11
1206.200016
 21
528.750006
 31
0.0
  0
LINE
  8
L-ZISSEN
  6
CONTINUOUS
 62
     7
 10
1212.500014
 20
537.250004
 30
0.0
 11
1206.200016
 21
537.250004
 31
0.0
  0
LINE
  8
L-ZISSEN
  6
CONTINUOUS
 62
     7
 10
1212.500014
 20
528.750006
 30
0.0
 11
1206.200016
 21
528.750006
 31
0.0
  0
LINE
  8
L-ZISSEN
  6
CONTINUOUS
 62
     7
 10
1170.500014
 20
571.999993
 30
0.0
 11
1166.500014
 21
571.999993
 31
0.0
  0
LINE
  8
L-ZISSEN
 10
1166.500014
 20
567.838835
 30
0.0
 11
1166.500014
 21
571.999993
 31
0.0
  0
LINE
  8
L-ZISSEN
 10
1162.500014
 20
567.838835
 30
0.0
 11
1166.500014
 21
567.838835
 31
0.0
  0
LINE
  8
L-ZISSEN
 10
1166.500014
 20
532.161165
 30
0.0
 11
1166.500014
 21
528.000007
 31
0.0
  0
LINE
  8
L-ZISSEN
 10
1162.500014
 20
532.161165
 30
0.0
 11
1166.500014
 21
532.161165
 31
0.0
  0
LINE
  8
L-ZISSEN
 10
1162.500014
 20
557.617009
 30
0.0
 11
1166.500014
 21
557.617009
 31
0.0
  0
LINE
  8
L-ZISSEN
 10
1162.500014
 20
542.382991
 30
0.0
 11
1166.500014
 21
542.382991
 31
0.0
  0
LINE
  8
L-ZISSEN
  6
CONTINUOUS
 62
     7
 10
1166.500014
 20
557.617009
 30
0.0
 11
1166.500014
 21
542.382991
 31
0.0
  0
LINE
  8
L-ZISSEN
  6
CONTINUOUS
 62
     7
 10
1162.500014
 20
567.838835
 30
0.0
 11
1162.500014
 21
553.5
 31
0.0
  0
LINE
  8
L-ZISSEN
  6
CONTINUOUS
 62
     7
 10
1212.500014
 20
546.544156
 30
0.0
 11
1212.500014
 21
528.000007
 31
0.0
  0
LINE
  8
L-ZISSEN
 10
1166.500014
 20
546.544156
 30
0.0
 11
1212.500014
 21
546.544156
 31
0.0
  0
LINE
  8
L-ZISSEN
 10
1166.500014
 20
553.455844
 30
0.0
 11
1212.500014
 21
553.455844
 31
0.0
  0
LINE
  8
L-ZISSEN
 10
1176.500014
 20
523.0
 30
0.0
 11
1176.500014
 21
528.000007
 31
0.0
  0
LINE
  8
L-ZISSEN
 10
1194.500014
 20
523.0
 30
0.0
 11
1194.500014
 21
528.000007
 31
0.0
  0
LINE
  8
L-ZISSEN
  6
CONTINUOUS
 62
     7
 10
1212.500014
 20
572.0
 30
0.0
 11
1212.500014
 21
553.455844
 31
0.0
  0
LINE
  8
L-ZISSEN
  6
CONTINUOUS
 62
     7
 10
1214.500014
 20
595.0
 30
0.0
 11
1214.500014
 21
572.0
 31
0.0
  0
LINE
  8
L-ZISSEN
 10
1176.500014
 20
523.0
 30
0.0
 11
1194.500014
 21
523.0
 31
0.0
  0
LINE
  8
L-ZISSEN
 10
1214.500014
 20
595.0
 30
0.0
 11
1169.500014
 21
595.0
 31
0.0
  0
LINE
  8
L-ZISSEN
  6
CONTINUOUS
 62
     7
 10
1169.500014
 20
595.0
 30
0.0
 11
1169.500014
 21
571.999993
 31
0.0
  0
LINE
  8
L-TYUSIN
 10
1185.500014
 20
518.0
 30
0.0
 11
1185.500014
 21
533.000007
 31
0.0
  0
SOLID
  8
L-ZISSEN
 10
1167.509434
 20
580.01438
 30
0.0
 11
1167.742099
 21
579.389631
 31
0.0
 12
1169.500014
 22
580.4
 32
0.0
 13
1169.500014
 23
580.4
 33
0.0
  0
LINE
  8
L-ZISSEN
 10
1167.625767
 20
579.702005
 30
0.0
 11
1155.0
 21
575.0
 31
0.0
  0
LINE
  8
L-ZISSEN
 10
1155.0
 20
575.0
 30
0.0
 11
1153.0
 21
575.0
 31
0.0
  0
TEXT
  8
L-ZISSEN
 10
1142.0
 20
572.75
 30
0.0
 40
4.5
  1
P.P
  0
SOLID
  8
L-ZISSEN
 10
1170.075051
 20
611.957575
 30
0.0
 11
1170.619889
 21
611.573394
 31
0.0
 12
1171.500014
 22
613.4
 32
0.0
 13
1171.500014
 23
613.4
 33
0.0
  0
LINE
  8
L-ZISSEN
 10
1170.34747
 20
611.765484
 30
0.0
 11
1155.0
 21
590.0
 31
0.0
  0
LINE
  8
L-ZISSEN
 10
1155.0
 20
590.0
 30
0.0
 11
1153.0
 21
590.0
 31
0.0
  0
TEXT
  8
L-ZISSEN
 10
1142.0
 20
587.75
 30
0.0
 40
4.5
  1
P.P
  0
LINE
  8
L-ZISSEN
 10
405.5
 20
911.500014
 30
0.0
 11
405.5
 21
912.500014
 31
0.0
  0
LINE
  8
L-ZISSEN
  6
CONTINUOUS
 62
     7
 10
405.5
 20
911.500014
 30
0.0
 11
398.5
 21
911.500014
 31
0.0
  0
LINE
  8
L-ZISSEN
 10
398.5
 20
911.500014
 30
0.0
 11
398.5
 21
916.500014
 31
0.0
  0
LINE
  8
L-ZISSEN
 10
434.5
 20
911.500014
 30
0.0
 11
434.5
 21
912.500014
 31
0.0
  0
LINE
  8
L-ZISSEN
  6
CONTINUOUS
 62
     7
 10
434.5
 20
911.500014
 30
0.0
 11
441.5
 21
911.500014
 31
0.0
  0
LINE
  8
L-ZISSEN
 10
441.5
 20
911.500014
 30
0.0
 11
441.5
 21
916.500014
 31
0.0
  0
LINE
  8
L-ZISSEN
  6
CONTINUOUS
 62
     7
 10
441.249994
 20
962.500014
 30
0.0
 11
441.249994
 21
956.200016
 31
0.0
  0
LINE
  8
L-ZISSEN
  6
CONTINUOUS
 62
     7
 10
436.0
 20
956.200016
 30
0.0
 11
441.249994
 21
956.200016
 31
0.0
  0
LINE
  8
L-ZISSEN
  6
CONTINUOUS
 62
     7
 10
398.750006
 20
962.500014
 30
0.0
 11
398.750006
 21
956.200016
 31
0.0
  0
LINE
  8
L-ZISSEN
  6
CONTINUOUS
 62
     7
 10
398.750006
 20
956.200016
 30
0.0
 11
404.0
 21
956.200016
 31
0.0
  0
LINE
  8
L-ZISSEN
 10
426.0
 20
964.500014
 30
0.0
 11
426.0
 21
972.500014
 31
0.0
  0
LINE
  8
L-ZISSEN
 10
414.0
 20
964.500014
 30
0.0
 11
414.0
 21
972.500014
 31
0.0
  0
LINE
  8
L-ZISSEN
  6
CONTINUOUS
 62
     7
 10
404.0
 20
962.500014
 30
0.0
 11
398.000007
 21
962.500014
 31
0.0
  0
LINE
  8
L-ZISSEN
  6
CONTINUOUS
 62
     7
 10
441.999993
 20
962.500014
 30
0.0
 11
436.0
 21
962.500014
 31
0.0
  0
LINE
  8
L-ZISSEN
 10
436.0
 20
964.500014
 30
0.0
 11
436.0
 21
919.500014
 31
0.0
  0
LINE
  8
L-ZISSEN
  6
CONTINUOUS
 62
     7
 10
436.0
 20
964.500014
 30
0.0
 11
404.0
 21
964.500014
 31
0.0
  0
LINE
  8
L-ZISSEN
 10
404.0
 20
964.500014
 30
0.0
 11
404.0
 21
919.500014
 31
0.0
  0
LINE
  8
L-ZISSEN
  6
CONTINUOUS
 62
     7
 10
435.25
 20
919.500014
 30
0.0
 11
441.999993
 21
919.500014
 31
0.0
  0
LINE
  8
L-ZISSEN
  6
CONTINUOUS
 62
     7
 10
433.75
 20
912.500014
 30
0.0
 11
437.838835
 21
912.500014
 31
0.0
  0
LINE
  8
L-ZISSEN
 10
411.5
 20
940.592537
 30
0.0
 11
411.5
 21
950.407492
 31
0.0
  0
LINE
  8
L-ZISSEN
 10
420.0
 20
935.68506
 30
0.0
 11
411.5
 21
940.592537
 31
0.0
  0
LINE
  8
L-ZISSEN
 10
428.5
 20
940.592537
 30
0.0
 11
420.0
 21
935.68506
 31
0.0
  0
LINE
  8
L-ZISSEN
 10
428.5
 20
950.407492
 30
0.0
 11
428.5
 21
940.592537
 31
0.0
  0
LINE
  8
L-ZISSEN
 10
420.0
 20
955.314969
 30
0.0
 11
428.5
 21
950.407492
 31
0.0
  0
LINE
  8
L-ZISSEN
 10
411.5
 20
950.407492
 30
0.0
 11
420.0
 21
955.314969
 31
0.0
  0
LINE
  8
L-ZISSEN
 10
404.75
 20
921.500014
 30
0.0
 11
435.25
 21
921.500014
 31
0.0
  0
LINE
  8
L-ZISSEN
 10
404.75
 20
917.000014
 30
0.0
 11
435.25
 21
917.000014
 31
0.0
  0
LINE
  8
L-ZISSEN
 10
435.25
 20
917.000014
 30
0.0
 11
435.25
 21
921.500014
 31
0.0
  0
LINE
  8
L-ZISSEN
 10
404.75
 20
917.000014
 30
0.0
 11
404.75
 21
921.500014
 31
0.0
  0
CIRCLE
  8
L-ZISSEN
 10
420.0
 20
897.050014
 30
0.0
 40
6.5
  0
LINE
  8
L-ZISSEN
 10
406.25
 20
885.800014
 30
0.0
 11
406.25
 21
917.000014
 31
0.0
  0
LINE
  8
L-ZISSEN
 10
433.75
 20
885.800014
 30
0.0
 11
433.75
 21
917.000014
 31
0.0
  0
CIRCLE
  8
L-ZISSEN
 10
420.0
 20
897.050014
 30
0.0
 40
11.25
  0
LINE
  8
L-ZISSEN
 10
406.25
 20
885.800014
 30
0.0
 11
433.75
 21
885.800014
 31
0.0
  0
CIRCLE
  8
L-ZISSEN
 10
420.0
 20
945.500014
 30
0.0
 40
2.067
  0
LINE
  8
L-ZISSEN
 10
405.0
 20
964.300014
 30
0.0
 11
405.0
 21
921.500014
 31
0.0
  0
LINE
  8
L-ZISSEN
 10
435.0
 20
964.300014
 30
0.0
 11
435.0
 21
921.500014
 31
0.0
  0
LINE
  8
L-ZISSEN
  6
CONTINUOUS
 62
     7
 10
402.161165
 20
912.500014
 30
0.0
 11
406.25
 21
912.500014
 31
0.0
  0
LINE
  8
L-ZISSEN
 10
437.838835
 20
912.500014
 30
0.0
 11
437.838835
 21
916.500014
 31
0.0
  0
LINE
  8
L-ZISSEN
 10
437.838835
 20
916.500014
 30
0.0
 11
441.999993
 21
916.500014
 31
0.0
  0
LINE
  8
L-ZISSEN
 10
402.161165
 20
912.500014
 30
0.0
 11
402.161165
 21
916.500014
 31
0.0
  0
LINE
  8
L-ZISSEN
 10
402.161165
 20
916.500014
 30
0.0
 11
398.000007
 21
916.500014
 31
0.0
  0
LINE
  8
L-ZISSEN
  6
CONTINUOUS
 62
     7
 10
398.000007
 20
919.500014
 30
0.0
 11
404.75
 21
919.500014
 31
0.0
  0
LINE
  8
L-ZISSEN
 10
398.000007
 20
326.500014
 30
0.0
 11
398.000007
 21
373.5
 31
0.0
  0
LINE
  8
L-ZISSEN
 10
441.999993
 20
326.500014
 30
0.0
 11
441.999993
 21
373.5
 31
0.0
  0
LINE
  8
L-ZISSEN
 10
423.5
 20
321.500014
 30
0.0
 11
423.5
 21
326.500014
 31
0.0
  0
LINE
  8
L-ZISSEN
  6
CONTINUOUS
 62
     7
 10
416.5
 20
321.500014
 30
0.0
 11
423.5
 21
321.500014
 31
0.0
  0
LINE
  8
L-ZISSEN
 10
416.5
 20
321.500014
 30
0.0
 11
416.5
 21
326.500014
 31
0.0
  0
LINE
  8
L-ZISSEN
  6
CONTINUOUS
 62
     7
 10
416.5
 20
322.500014
 30
0.0
 11
402.161165
 21
322.500014
 31
0.0
  0
LINE
  8
L-ZISSEN
  6
CONTINUOUS
 62
     7
 10
416.5
 20
537.499986
 30
0.0
 11
402.161165
 21
537.499986
 31
0.0
  0
LINE
  8
L-ZISSEN
 10
416.5
 20
538.499986
 30
0.0
 11
416.5
 21
533.499986
 31
0.0
  0
LINE
  8
L-ZISSEN
  6
CONTINUOUS
 62
     7
 10
416.5
 20
538.499986
 30
0.0
 11
423.5
 21
538.499986
 31
0.0
  0
LINE
  8
L-ZISSEN
 10
423.5
 20
538.499986
 30
0.0
 11
423.5
 21
533.499986
 31
0.0
  0
LINE
  8
L-ZISSEN
 10
441.999993
 20
533.499986
 30
0.0
 11
441.999993
 21
486.5
 31
0.0
  0
LINE
  8
L-ZISSEN
 10
398.000007
 20
533.499986
 30
0.0
 11
398.000007
 21
486.5
 31
0.0
  0
CIRCLE
  8
L-ZISSEN
 10
420.0
 20
514.499986
 30
0.0
 40
4.283
  0
LINE
  8
L-ZISSEN
 10
398.5
 20
538.499986
 30
0.0
 11
398.5
 21
533.499986
 31
0.0
  0
LINE
  8
L-ZISSEN
  6
CONTINUOUS
 62
     7
 10
405.5
 20
538.499986
 30
0.0
 11
398.5
 21
538.499986
 31
0.0
  0
LINE
  8
L-ZISSEN
 10
405.5
 20
538.499986
 30
0.0
 11
405.5
 21
537.499986
 31
0.0
  0
LINE
  8
L-ZISSEN
 10
434.5
 20
538.499986
 30
0.0
 11
434.5
 21
537.499986
 31
0.0
  0
LINE
  8
L-ZISSEN
  6
CONTINUOUS
 62
     7
 10
434.5
 20
538.499986
 30
0.0
 11
441.5
 21
538.499986
 31
0.0
  0
LINE
  8
L-ZISSEN
 10
441.5
 20
538.499986
 30
0.0
 11
441.5
 21
533.499986
 31
0.0
  0
LINE
  8
L-ZISSEN
 10
433.75
 20
564.199986
 30
0.0
 11
433.75
 21
537.499986
 31
0.0
  0
LINE
  8
L-ZISSEN
 10
433.75
 20
564.199986
 30
0.0
 11
406.25
 21
564.199986
 31
0.0
  0
LINE
  8
L-ZISSEN
 10
406.25
 20
564.199986
 30
0.0
 11
406.25
 21
537.499986
 31
0.0
  0
LINE
  8
L-ZISSEN
  6
CONTINUOUS
 62
     7
 10
437.838835
 20
537.499986
 30
0.0
 11
423.5
 21
537.499986
 31
0.0
  0
LINE
  8
L-ZISSEN
  6
CONTINUOUS
 62
     7
 10
427.617009
 20
533.499986
 30
0.0
 11
412.382991
 21
533.499986
 31
0.0
  0
LINE
  8
L-ZISSEN
 10
412.382991
 20
537.499986
 30
0.0
 11
412.382991
 21
533.499986
 31
0.0
  0
LINE
  8
L-ZISSEN
 10
427.617009
 20
537.499986
 30
0.0
 11
427.617009
 21
533.499986
 31
0.0
  0
LINE
  8
L-ZISSEN
 10
402.161165
 20
537.499986
 30
0.0
 11
402.161165
 21
533.499986
 31
0.0
  0
LINE
  8
L-ZISSEN
 10
402.161165
 20
533.499986
 30
0.0
 11
398.000007
 21
533.499986
 31
0.0
  0
LINE
  8
L-ZISSEN
 10
437.838835
 20
537.499986
 30
0.0
 11
437.838835
 21
533.499986
 31
0.0
  0
LINE
  8
L-ZISSEN
 10
437.838835
 20
533.499986
 30
0.0
 11
441.999993
 21
533.499986
 31
0.0
  0
LINE
  8
L-ZISSEN
 10
423.455844
 20
533.499986
 30
0.0
 11
423.455844
 21
522.810048
 31
0.0
  0
LINE
  8
L-ZISSEN
 10
416.544156
 20
533.499986
 30
0.0
 11
416.544156
 21
522.810048
 31
0.0
  0
LINE
  8
L-ZISSEN
 10
429.0
 20
514.499986
 30
0.0
 11
429.0
 21
495.411543
 31
0.0
  0
LINE
  8
L-ZISSEN
 10
411.0
 20
514.499986
 30
0.0
 11
411.0
 21
495.411543
 31
0.0
  0
CIRCLE
  8
L-ZISSEN
 10
420.0
 20
514.499986
 30
0.0
 40
9.0
  0
LINE
  8
L-TYUSIN
 10
405.0
 20
514.499986
 30
0.0
 11
435.0
 21
514.499986
 31
0.0
  0
LINE
  8
L-ZISSEN
  6
CONTINUOUS
 62
     7
 10
442.0
 20
529.499986
 30
0.0
 11
398.000003
 21
529.499986
 31
0.0
  0
LINE
  8
L-TYUSIN
  6
CENTER
 62
     1
 10
570.0
 20
935.000026
 30
0.0
 11
570.0
 21
1120.499986
 31
0.0
  0
LINE
  8
L-ZISSEN
  6
CONTINUOUS
 62
     7
 10
537.50001
 20
1067.499986
 30
0.0
 11
602.49999
 21
1067.499986
 31
0.0
  0
LINE
  8
L-ZISSEN
  6
CONTINUOUS
 62
     7
 10
602.49999
 20
972.500014
 30
0.0
 11
537.50001
 21
972.500014
 31
0.0
  0
LINE
  8
L-ZISSEN
  6
CONTINUOUS
 62
     7
 10
548.000007
 20
962.500017
 30
0.0
 11
548.000007
 21
1036.999995
 31
0.0
  0
LINE
  8
L-ZISSEN
  6
CONTINUOUS
 62
     7
 10
591.999993
 20
962.500017
 30
0.0
 11
591.999993
 21
1036.999995
 31
0.0
  0
LINE
  8
L-ZISSEN
  6
CONTINUOUS
 62
     7
 10
537.50001
 20
972.500014
 30
0.0
 11
537.50001
 21
998.017884
 31
0.0
  0
LINE
  8
L-ZISSEN
  6
CONTINUOUS
 62
     7
 10
602.49999
 20
972.500014
 30
0.0
 11
602.49999
 21
993.017886
 31
0.0
  0
LINE
  8
L-ZISSEN
  6
CONTINUOUS
 62
     7
 10
537.50001
 20
1011.982125
 30
0.0
 11
537.50001
 21
1028.017875
 31
0.0
  0
LINE
  8
L-ZISSEN
  6
CONTINUOUS
 62
     7
 10
602.49999
 20
1006.982126
 30
0.0
 11
602.49999
 21
1033.017874
 31
0.0
  0
LINE
  8
L-ZISSEN
  6
CONTINUOUS
 62
     7
 10
602.49999
 20
1046.982114
 30
0.0
 11
602.49999
 21
1067.499986
 31
0.0
  0
LINE
  8
L-ZISSEN
  6
CONTINUOUS
 62
     7
 10
548.000007
 20
1054.141411
 30
0.0
 11
548.000007
 21
1077.499986
 31
0.0
  0
LINE
  8
L-ZISSEN
  6
CONTINUOUS
 62
     7
 10
591.999993
 20
1036.999995
 30
0.0
 11
597.999992
 21
1036.999995
 31
0.0
  0
LINE
  8
L-ZISSEN
  6
CONTINUOUS
 62
     7
 10
597.999992
 20
1036.999995
 30
0.0
 11
597.999992
 21
1056.999989
 31
0.0
  0
LINE
  8
L-ZISSEN
  6
CONTINUOUS
 62
     7
 10
591.999993
 20
1056.999989
 30
0.0
 11
597.999992
 21
1056.999989
 31
0.0
  0
LINE
  8
L-ZISSEN
  6
CONTINUOUS
 62
     7
 10
591.999993
 20
1054.141411
 30
0.0
 11
591.999993
 21
1077.499986
 31
0.0
  0
LINE
  8
L-ZISSEN
  6
CONTINUOUS
 62
     7
 10
548.000007
 20
962.500017
 30
0.0
 11
591.999993
 21
962.500017
 31
0.0
  0
LINE
  8
L-ZISSEN
  6
CONTINUOUS
 62
     7
 10
582.749996
 20
956.200019
 30
0.0
 11
591.249994
 21
956.200019
 31
0.0
  0
LINE
  8
L-ZISSEN
  6
CONTINUOUS
 62
     7
 10
582.749996
 20
962.500017
 30
0.0
 11
582.749996
 21
956.200019
 31
0.0
  0
LINE
  8
L-ZISSEN
  6
CONTINUOUS
 62
     7
 10
591.249994
 20
962.500017
 30
0.0
 11
591.249994
 21
956.200019
 31
0.0
  0
LINE
  8
L-TYUSIN
  6
CENTER
 62
     1
 10
1535.000026
 20
1070.0
 30
0.0
 11
1720.499986
 21
1070.0
 31
0.0
  0
LINE
  8
L-ZISSEN
  6
CONTINUOUS
 62
     7
 10
1540.000024
 20
1086.5
 30
0.0
 11
1540.000024
 21
1053.5
 31
0.0
  0
LINE
  8
L-ZISSEN
  6
CONTINUOUS
 62
     7
 10
1572.500014
 20
1097.999992
 30
0.0
 11
1572.500014
 21
1047.000007
 31
0.0
  0
LINE
  8
L-ZISSEN
  6
CONTINUOUS
 62
     7
 10
1667.499986
 20
1097.999992
 30
0.0
 11
1667.499986
 21
1047.000007
 31
0.0
  0
LINE
  8
L-ZISSEN
  6
CONTINUOUS
 62
     7
 10
1562.500017
 20
1082.749996
 30
0.0
 11
1556.200019
 21
1082.749996
 31
0.0
  0
LINE
  8
L-ZISSEN
  6
CONTINUOUS
 62
     7
 10
1562.500017
 20
1091.249994
 30
0.0
 11
1556.200019
 21
1091.249994
 31
0.0
  0
LINE
  8
L-ZISSEN
  6
CONTINUOUS
 62
     7
 10
1556.200019
 20
1091.249994
 30
0.0
 11
1556.200019
 21
1082.749996
 31
0.0
  0
LINE
  8
L-ZISSEN
  6
CONTINUOUS
 62
     7
 10
1556.200019
 20
1057.250004
 30
0.0
 11
1556.200019
 21
1048.750006
 31
0.0
  0
LINE
  8
L-ZISSEN
  6
CONTINUOUS
 62
     7
 10
1562.500017
 20
1057.250004
 30
0.0
 11
1556.200019
 21
1057.250004
 31
0.0
  0
LINE
  8
L-ZISSEN
  6
CONTINUOUS
 62
     7
 10
1562.500017
 20
1048.750006
 30
0.0
 11
1556.200019
 21
1048.750006
 31
0.0
  0
LINE
  8
L-ZISSEN
  6
CONTINUOUS
 62
     7
 10
1562.500017
 20
1048.000007
 30
0.0
 11
1677.499986
 21
1048.000007
 31
0.0
  0
LINE
  8
L-ZISSEN
  6
CONTINUOUS
 62
     7
 10
1562.500017
 20
1097.999992
 30
0.0
 11
1677.499986
 21
1097.999992
 31
0.0
  0
LINE
  8
L-ZISSEN
  6
CONTINUOUS
 62
     7
 10
1562.500017
 20
1048.000007
 30
0.0
 11
1562.500017
 21
1097.999992
 31
0.0
  0
LINE
  8
L-ZISSEN
  6
CONTINUOUS
 62
     7
 10
1667.499986
 20
1057.000004
 30
0.0
 11
1572.500014
 21
1057.000004
 31
0.0
  0
CIRCLE
  8
L-ZISSEN
  6
CONTINUOUS
 62
     7
 10
1646.999992
 20
1084.999995
 30
0.0
 40
9.999997
  0
LINE
  8
L-ZISSEN
  6
CONTINUOUS
 62
     7
 10
1595.000008
 20
1064.500002
 30
0.0
 11
1605.000005
 21
1064.500002
 31
0.0
  0
LINE
  8
L-ZISSEN
  6
CONTINUOUS
 62
     7
 10
1595.000008
 20
1064.500002
 30
0.0
 11
1595.000008
 21
1057.000004
 31
0.0
  0
LINE
  8
L-ZISSEN
  6
CONTINUOUS
 62
     7
 10
1605.000005
 20
1064.500002
 30
0.0
 11
1605.000005
 21
1057.000004
 31
0.0
  0
LINE
  8
L-ZISSEN
  6
CONTINUOUS
 62
     7
 10
1644.999993
 20
1064.500002
 30
0.0
 11
1644.999993
 21
1057.000004
 31
0.0
  0
LINE
  8
L-ZISSEN
  6
CONTINUOUS
 62
     7
 10
1634.999996
 20
1064.500002
 30
0.0
 11
1634.999996
 21
1057.000004
 31
0.0
  0
LINE
  8
L-ZISSEN
  6
CONTINUOUS
 62
     7
 10
1634.999996
 20
1064.500002
 30
0.0
 11
1644.999993
 21
1064.500002
 31
0.0
  0
CIRCLE
  8
L-ZISSEN
  6
CONTINUOUS
 62
     7
 10
601.99999
 20
1000.000006
 30
0.0
 40
4.999999
  0
LINE
  8
L-TYUSIN
  6
CENTER
 62
     1
 10
1620.0
 20
1102.999992
 30
0.0
 11
1620.0
 21
963.000007
 31
0.0
  0
LINE
  8
L-ZISSEN
  6
CONTINUOUS
 62
     7
 10
548.750006
 20
962.500017
 30
0.0
 11
548.750006
 21
956.200019
 31
0.0
  0
LINE
  8
L-ZISSEN
  6
CONTINUOUS
 62
     7
 10
557.250004
 20
962.500017
 30
0.0
 11
557.250004
 21
956.200019
 31
0.0
  0
LINE
  8
L-ZISSEN
  6
CONTINUOUS
 62
     7
 10
557.250004
 20
956.200019
 30
0.0
 11
548.750006
 21
956.200019
 31
0.0
  0
ARC
  8
L-ZISSEN
  6
CONTINUOUS
 62
     7
 10
601.99999
 20
1039.999994
 30
0.0
 40
4.999999
 50
216.869898
 51
143.130102
  0
ARC
  8
L-ZISSEN
 10
538.00001
 20
1034.999996
 30
0.0
 40
5.0
 50
36.869921
 51
23.578171
  0
CIRCLE
  8
L-ZISSEN
 10
538.00001
 20
1005.000005
 30
0.0
 40
5.0
  0
ARC
  8
L-ZISSEN
 10
601.99999
 20
1000.000006
 30
0.0
 40
7.0
 50
274.096043
 51
85.903957
  0
ARC
  8
L-ZISSEN
 10
601.99999
 20
1039.999994
 30
0.0
 40
7.0
 50
274.096043
 51
85.903957
  0
ARC
  8
L-ZISSEN
 10
538.00001
 20
1005.000005
 30
0.0
 40
7.0
 50
94.096043
 51
265.903957
  0
ARC
  8
L-ZISSEN
 10
538.00001
 20
1034.999996
 30
0.0
 40
7.0
 50
94.096043
 51
265.903957
  0
LINE
  8
L-ZISSEN
  6
CONTINUOUS
 62
     7
 10
537.50001
 20
1041.982116
 30
0.0
 11
537.50001
 21
1067.499986
 31
0.0
  0
LINE
  8
L-ZISSEN
  6
CONTINUOUS
 62
     7
 10
542.000008
 20
1036.999995
 30
0.0
 11
542.000008
 21
1056.999989
 31
0.0
  0
LINE
  8
L-ZISSEN
  6
CONTINUOUS
 62
     7
 10
548.000007
 20
1036.999995
 30
0.0
 11
542.000008
 21
1036.999995
 31
0.0
  0
LINE
  8
L-ZISSEN
  6
CONTINUOUS
 62
     7
 10
548.000007
 20
1056.999989
 30
0.0
 11
542.000008
 21
1056.999989
 31
0.0
  0
LINE
  8
L-ZISSEN
 10
1593.017886
 20
1057.000004
 30
0.0
 11
1593.017886
 21
1048.000007
 31
0.0
  0
LINE
  8
L-ZISSEN
 10
1606.982126
 20
1057.000004
 30
0.0
 11
1606.982126
 21
1048.000007
 31
0.0
  0
LINE
  8
L-ZISSEN
 10
1646.982114
 20
1057.000004
 30
0.0
 11
1646.982114
 21
1048.000007
 31
0.0
  0
LINE
  8
L-ZISSEN
 10
1633.017874
 20
1057.000004
 30
0.0
 11
1633.017874
 21
1048.000007
 31
0.0
  0
LINE
  8
L-ZISSEN
 10
1586.500014
 20
1093.322848
 30
0.0
 11
1641.456521
 21
1093.322848
 31
0.0
  0
LINE
  8
L-ZISSEN
 10
564.147646
 20
972.500014
 30
0.0
 11
564.147646
 21
1067.499986
 31
0.0
  0
LINE
  8
L-ZISSEN
 10
575.852354
 20
972.500014
 30
0.0
 11
575.852354
 21
1067.499986
 31
0.0
  0
LINE
  8
L-ZISSEN
  6
CONTINUOUS
 62
     7
 10
591.999993
 20
986.500014
 30
0.0
 11
575.852354
 21
986.500014
 31
0.0
  0
LINE
  8
L-ZISSEN
  6
CONTINUOUS
 62
     7
 10
564.147646
 20
986.500014
 30
0.0
 11
548.000007
 21
986.500014
 31
0.0
  0
LINE
  8
L-ZISSEN
 10
1677.499986
 20
1092.0
 30
0.0
 11
1654.141411
 21
1092.0
 31
0.0
  0
LINE
  8
L-ZISSEN
  6
CONTINUOUS
 62
     7
 10
1586.500014
 20
1093.322848
 30
0.0
 11
1586.500014
 21
1084.0
 31
0.0
  0
LINE
  8
L-ZISSEN
 10
1586.500014
 20
1092.0
 30
0.0
 11
1562.500017
 21
1092.0
 31
0.0
  0
LINE
  8
L-ZISSEN
 10
1586.500014
 20
1084.0
 30
0.0
 11
1637.05012
 21
1084.0
 31
0.0
  0
LINE
  8
L-ZISSEN
 10
1540.000024
 20
1053.5
 30
0.0
 11
1556.200019
 21
1053.5
 31
0.0
  0
LINE
  8
L-ZISSEN
 10
1540.000024
 20
1086.5
 30
0.0
 11
1556.200019
 21
1086.5
 31
0.0
  0
LINE
  8
L-TYUSIN
  6
CENTER
 62
     1
 10
570.0
 20
763.0
 30
0.0
 11
570.0
 21
623.0
 31
0.0
  0
LINE
  8
L-TYUSIN
  6
CENTER
 62
     1
 10
543.0
 20
730.0
 30
0.0
 11
597.0
 21
730.0
 31
0.0
  0
CIRCLE
  8
L-ZISSEN
 10
570.0
 20
730.0
 30
0.0
 40
16.5
  0
LINE
  8
L-ZISSEN
 10
548.0
 20
752.0
 30
0.0
 11
548.0
 21
708.0
 31
0.0
  0
LINE
  8
L-ZISSEN
 10
530.5
 20
708.0
 30
0.0
 11
609.5
 21
708.0
 31
0.0
  0
LINE
  8
L-ZISSEN
 10
592.0
 20
708.0
 30
0.0
 11
592.0
 21
752.0
 31
0.0
  0
LINE
  8
L-ZISSEN
 10
592.0
 20
752.0
 30
0.0
 11
576.0
 21
752.0
 31
0.0
  0
ARC
  8
L-ZISSEN
 10
570.0
 20
752.0
 30
0.0
 40
6.0
 50
0.0
 51
180.0
  0
CIRCLE
  8
L-ZISSEN
 10
587.0
 20
747.0
 30
0.0
 40
4.25
  0
CIRCLE
  8
L-ZISSEN
 10
587.0
 20
713.0
 30
0.0
 40
4.25
  0
CIRCLE
  8
L-ZISSEN
 10
553.0
 20
713.0
 30
0.0
 40
4.25
  0
CIRCLE
  8
L-ZISSEN
 10
553.0
 20
747.0
 30
0.0
 40
4.25
  0
LINE
  8
L-ZISSEN
 10
564.0
 20
962.500017
 30
0.0
 11
564.0
 21
972.500014
 31
0.0
  0
LINE
  8
L-ZISSEN
 10
576.0
 20
962.500017
 30
0.0
 11
576.0
 21
972.500014
 31
0.0
  0
LINE
  8
L-ZISSEN
  6
CONTINUOUS
 62
     7
 10
553.5
 20
940.000024
 30
0.0
 11
586.5
 21
940.000024
 31
0.0
  0
LINE
  8
L-ZISSEN
 10
586.5
 20
940.000024
 30
0.0
 11
586.5
 21
956.200019
 31
0.0
  0
LINE
  8
L-ZISSEN
 10
553.5
 20
940.000024
 30
0.0
 11
553.5
 21
956.200019
 31
0.0
  0
LINE
  8
L-ZISSEN
 10
530.5
 20
717.0
 30
0.0
 11
548.0
 21
717.0
 31
0.0
  0
LINE
  8
L-ZISSEN
 10
592.0
 20
717.0
 30
0.0
 11
609.5
 21
717.0
 31
0.0
  0
LINE
  8
L-ZISSEN
 10
598.0
 20
754.999992
 30
0.0
 11
575.196157
 21
754.999992
 31
0.0
  0
LINE
  8
L-ZISSEN
 10
598.0
 20
734.999992
 30
0.0
 11
592.0
 21
734.999992
 31
0.0
  0
LINE
  8
L-ZISSEN
 10
598.0
 20
754.999992
 30
0.0
 11
598.0
 21
734.999992
 31
0.0
  0
LINE
  8
L-ZISSEN
 10
542.0
 20
754.999992
 30
0.0
 11
542.0
 21
734.999992
 31
0.0
  0
LINE
  8
L-ZISSEN
 10
548.0
 20
734.999992
 30
0.0
 11
542.0
 21
734.999992
 31
0.0
  0
LINE
  8
L-ZISSEN
 10
564.803843
 20
754.999992
 30
0.0
 11
542.0
 21
754.999992
 31
0.0
  0
LINE
  8
L-ZISSEN
 10
564.803843
 20
114.000008
 30
0.0
 11
542.0
 21
114.000008
 31
0.0
  0
LINE
  8
L-ZISSEN
 10
548.0
 20
134.000008
 30
0.0
 11
542.0
 21
134.000008
 31
0.0
  0
LINE
  8
L-ZISSEN
 10
542.0
 20
114.000008
 30
0.0
 11
542.0
 21
134.000008
 31
0.0
  0
LINE
  8
L-ZISSEN
 10
598.0
 20
114.000008
 30
0.0
 11
598.0
 21
134.000008
 31
0.0
  0
LINE
  8
L-ZISSEN
 10
598.0
 20
134.000008
 30
0.0
 11
592.0
 21
134.000008
 31
0.0
  0
LINE
  8
L-ZISSEN
 10
598.0
 20
114.000008
 30
0.0
 11
575.196157
 21
114.000008
 31
0.0
  0
LINE
  8
L-ZISSEN
 10
592.0
 20
152.0
 30
0.0
 11
609.5
 21
152.0
 31
0.0
  0
LINE
  8
L-ZISSEN
 10
530.5
 20
152.0
 30
0.0
 11
548.0
 21
152.0
 31
0.0
  0
CIRCLE
  8
L-ZISSEN
 10
553.0
 20
122.0
 30
0.0
 40
4.25
  0
CIRCLE
  8
L-ZISSEN
 10
553.0
 20
156.0
 30
0.0
 40
4.25
  0
CIRCLE
  8
L-ZISSEN
 10
587.0
 20
156.0
 30
0.0
 40
4.25
  0
CIRCLE
  8
L-ZISSEN
 10
587.0
 20
122.0
 30
0.0
 40
4.25
  0
LINE
  8
L-ZISSEN
 10
592.0
 20
161.0
 30
0.0
 11
592.0
 21
117.0
 31
0.0
  0
LINE
  8
L-ZISSEN
 10
530.5
 20
161.0
 30
0.0
 11
609.5
 21
161.0
 31
0.0
  0
LINE
  8
L-ZISSEN
 10
548.0
 20
117.0
 30
0.0
 11
548.0
 21
161.0
 31
0.0
  0
LINE
  8
L-TYUSIN
  6
CENTER
 62
     1
 10
543.0
 20
139.0
 30
0.0
 11
597.0
 21
139.0
 31
0.0
  0
LINE
  8
L-ZISSEN
  6
CONTINUOUS
 62
     7
 10
1677.499986
 20
1097.999992
 30
0.0
 11
1677.499986
 21
1048.000007
 31
0.0
  0
LINE
  8
L-TYUSIN
  6
CENTER
 62
     1
 10
570.0
 20
514.999975
 30
0.0
 11
570.0
 21
329.500014
 31
0.0
  0
LINE
  8
L-ZISSEN
  6
CONTINUOUS
 62
     7
 10
1677.499986
 20
1048.750006
 30
0.0
 11
1683.799984
 21
1048.750006
 31
0.0
  0
LINE
  8
L-ZISSEN
  6
CONTINUOUS
 62
     7
 10
1677.499986
 20
1057.250004
 30
0.0
 11
1683.799984
 21
1057.250004
 31
0.0
  0
LINE
  8
L-ZISSEN
  6
CONTINUOUS
 62
     7
 10
1683.799984
 20
1057.250004
 30
0.0
 11
1683.799984
 21
1048.750006
 31
0.0
  0
LINE
  8
L-ZISSEN
  6
CONTINUOUS
 62
     7
 10
1677.499986
 20
1082.749996
 30
0.0
 11
1683.799984
 21
1082.749996
 31
0.0
  0
LINE
  8
L-ZISSEN
  6
CONTINUOUS
 62
     7
 10
1677.499986
 20
1091.249994
 30
0.0
 11
1683.799984
 21
1091.249994
 31
0.0
  0
LINE
  8
L-ZISSEN
  6
CONTINUOUS
 62
     7
 10
1683.799984
 20
1091.249994
 30
0.0
 11
1683.799984
 21
1082.749996
 31
0.0
  0
LINE
  8
L-ZISSEN
 10
592.0
 20
117.0
 30
0.0
 11
576.0
 21
117.0
 31
0.0
  0
LINE
  8
L-ZISSEN
 10
591.999993
 20
1054.141411
 30
0.0
 11
575.852354
 21
1054.141411
 31
0.0
  0
LINE
  8
L-ZISSEN
 10
564.0
 20
752.0
 30
0.0
 11
548.0
 21
752.0
 31
0.0
  0
LINE
  8
L-ZISSEN
 10
548.000007
 20
1054.141411
 30
0.0
 11
564.147646
 21
1054.141411
 31
0.0
  0
LINE
  8
L-ZISSEN
 10
564.0
 20
1077.499986
 30
0.0
 11
564.0
 21
1067.499986
 31
0.0
  0
LINE
  8
L-ZISSEN
 10
576.0
 20
1077.499986
 30
0.0
 11
576.0
 21
1067.499986
 31
0.0
  0
LINE
  8
L-ZISSEN
  6
CONTINUOUS
 62
     7
 10
533.000002
 20
144.499998
 30
0.0
 11
542.999999
 21
144.499998
 31
0.0
  0
LINE
  8
L-ZISSEN
  6
CONTINUOUS
 62
     7
 10
533.000002
 20
144.499998
 30
0.0
 11
533.000002
 21
151.999996
 31
0.0
  0
LINE
  8
L-ZISSEN
  6
CONTINUOUS
 62
     7
 10
542.999999
 20
144.499998
 30
0.0
 11
542.999999
 21
151.999996
 31
0.0
  0
LINE
  8
L-ZISSEN
 10
530.5
 20
162.0
 30
0.0
 11
530.5
 21
152.0
 31
0.0
  0
LINE
  8
L-ZISSEN
 10
609.5
 20
162.0
 30
0.0
 11
609.5
 21
152.0
 31
0.0
  0
LINE
  8
L-ZISSEN
  6
CONTINUOUS
 62
     7
 10
597.000002
 20
144.499998
 30
0.0
 11
597.000002
 21
151.999996
 31
0.0
  0
LINE
  8
L-ZISSEN
  6
CONTINUOUS
 62
     7
 10
606.999999
 20
144.499998
 30
0.0
 11
606.999999
 21
151.999996
 31
0.0
  0
LINE
  8
L-ZISSEN
  6
CONTINUOUS
 62
     7
 10
606.999999
 20
144.499998
 30
0.0
 11
597.000002
 21
144.499998
 31
0.0
  0
LINE
  8
L-ZISSEN
  6
CONTINUOUS
 62
     7
 10
542.999999
 20
724.500002
 30
0.0
 11
542.999999
 21
717.000004
 31
0.0
  0
LINE
  8
L-ZISSEN
  6
CONTINUOUS
 62
     7
 10
533.000002
 20
724.500002
 30
0.0
 11
533.000002
 21
717.000004
 31
0.0
  0
LINE
  8
L-ZISSEN
  6
CONTINUOUS
 62
     7
 10
533.000002
 20
724.500002
 30
0.0
 11
542.999999
 21
724.500002
 31
0.0
  0
LINE
  8
L-ZISSEN
 10
530.5
 20
708.0
 30
0.0
 11
530.5
 21
717.0
 31
0.0
  0
LINE
  8
L-ZISSEN
  6
CONTINUOUS
 62
     7
 10
597.000002
 20
724.500002
 30
0.0
 11
597.000002
 21
717.000004
 31
0.0
  0
LINE
  8
L-ZISSEN
  6
CONTINUOUS
 62
     7
 10
606.999999
 20
724.500002
 30
0.0
 11
597.000002
 21
724.500002
 31
0.0
  0
LINE
  8
L-ZISSEN
  6
CONTINUOUS
 62
     7
 10
606.999999
 20
724.500002
 30
0.0
 11
606.999999
 21
717.000004
 31
0.0
  0
LINE
  8
L-ZISSEN
 10
609.5
 20
708.0
 30
0.0
 11
609.5
 21
717.0
 31
0.0
  0
LINE
  8
L-ZISSEN
 10
531.0
 20
707.0
 30
0.0
 11
609.0
 21
707.0
 31
0.0
  0
LINE
  8
L-ZISSEN
 10
586.5
 20
509.999976
 30
0.0
 11
586.5
 21
493.799981
 31
0.0
  0
LINE
  8
L-ZISSEN
 10
553.5
 20
509.999976
 30
0.0
 11
553.5
 21
493.799981
 31
0.0
  0
LINE
  8
L-ZISSEN
  6
CONTINUOUS
 62
     7
 10
586.5
 20
509.999976
 30
0.0
 11
553.5
 21
509.999976
 31
0.0
  0
LINE
  8
L-ZISSEN
  6
CONTINUOUS
 62
     7
 10
1715.499986
 20
1088.5
 30
0.0
 11
1715.499986
 21
1051.5
 31
0.0
  0
LINE
  8
L-ZISSEN
 10
1715.499986
 20
1051.5
 30
0.0
 11
1683.799984
 21
1051.5
 31
0.0
  0
LINE
  8
L-ZISSEN
 10
1715.499986
 20
1088.5
 30
0.0
 11
1683.799984
 21
1088.5
 31
0.0
  0
CIRCLE
  8
L-ZISSEN
 10
570.0
 20
139.0
 30
0.0
 40
18.5
  0
ARC
  8
L-ZISSEN
 10
570.0
 20
117.0
 30
0.0
 40
6.0
 50
180.0
 51
0.0
  0
LINE
  8
L-ZISSEN
 10
564.0
 20
117.0
 30
0.0
 11
548.0
 21
117.0
 31
0.0
  0
LINE
  8
L-ZISSEN
 10
551.5
 20
1115.499986
 30
0.0
 11
551.5
 21
1083.799984
 31
0.0
  0
LINE
  8
L-ZISSEN
 10
588.5
 20
1115.499986
 30
0.0
 11
588.5
 21
1083.799984
 31
0.0
  0
LINE
  8
L-ZISSEN
  6
CONTINUOUS
 62
     7
 10
551.5
 20
1115.499986
 30
0.0
 11
588.5
 21
1115.499986
 31
0.0
  0
LINE
  8
L-ZISSEN
  6
CONTINUOUS
 62
     7
 10
548.750006
 20
1083.799984
 30
0.0
 11
557.250004
 21
1083.799984
 31
0.0
  0
LINE
  8
L-ZISSEN
  6
CONTINUOUS
 62
     7
 10
548.750006
 20
1077.499986
 30
0.0
 11
548.750006
 21
1083.799984
 31
0.0
  0
LINE
  8
L-ZISSEN
  6
CONTINUOUS
 62
     7
 10
557.250004
 20
1077.499986
 30
0.0
 11
557.250004
 21
1083.799984
 31
0.0
  0
LINE
  8
L-ZISSEN
  6
CONTINUOUS
 62
     7
 10
582.749996
 20
1083.799984
 30
0.0
 11
591.249994
 21
1083.799984
 31
0.0
  0
LINE
  8
L-ZISSEN
  6
CONTINUOUS
 62
     7
 10
582.749996
 20
1077.499986
 30
0.0
 11
582.749996
 21
1083.799984
 31
0.0
  0
LINE
  8
L-ZISSEN
  6
CONTINUOUS
 62
     7
 10
591.249994
 20
1077.499986
 30
0.0
 11
591.249994
 21
1083.799984
 31
0.0
  0
LINE
  8
L-ZISSEN
  6
CONTINUOUS
 62
     7
 10
548.000007
 20
1077.499986
 30
0.0
 11
591.999993
 21
1077.499986
 31
0.0
  0
LINE
  8
L-ZISSEN
 10
551.5
 20
334.500014
 30
0.0
 11
551.5
 21
366.200016
 31
0.0
  0
LINE
  8
L-ZISSEN
 10
588.5
 20
334.500014
 30
0.0
 11
588.5
 21
366.200016
 31
0.0
  0
LINE
  8
L-ZISSEN
  6
CONTINUOUS
 62
     7
 10
588.5
 20
334.500014
 30
0.0
 11
551.5
 21
334.500014
 31
0.0
  0
CIRCLE
  8
L-ZISSEN
 10
570.0
 20
139.0
 30
0.0
 40
5.7225
  0
LINE
  8
L-TYUSIN
  6
CENTER
 62
     1
 10
720.0
 20
919.500014
 30
0.0
 11
720.0
 21
1120.499986
 31
0.0
  0
LINE
  8
L-ZISSEN
  6
CONTINUOUS
 62
     7
 10
687.50001
 20
1067.499986
 30
0.0
 11
752.49999
 21
1067.499986
 31
0.0
  0
LINE
  8
L-ZISSEN
  6
CONTINUOUS
 62
     7
 10
752.49999
 20
972.500014
 30
0.0
 11
687.50001
 21
972.500014
 31
0.0
  0
LINE
  8
L-ZISSEN
  6
CONTINUOUS
 62
     7
 10
698.000007
 20
962.500017
 30
0.0
 11
698.000007
 21
1036.999995
 31
0.0
  0
LINE
  8
L-ZISSEN
  6
CONTINUOUS
 62
     7
 10
741.999993
 20
962.500017
 30
0.0
 11
741.999993
 21
1036.999995
 31
0.0
  0
LINE
  8
L-ZISSEN
  6
CONTINUOUS
 62
     7
 10
687.50001
 20
972.500014
 30
0.0
 11
687.50001
 21
998.017884
 31
0.0
  0
LINE
  8
L-ZISSEN
  6
CONTINUOUS
 62
     7
 10
752.49999
 20
972.500014
 30
0.0
 11
752.49999
 21
993.017886
 31
0.0
  0
LINE
  8
L-ZISSEN
  6
CONTINUOUS
 62
     7
 10
687.50001
 20
1011.982125
 30
0.0
 11
687.50001
 21
1028.017875
 31
0.0
  0
LINE
  8
L-ZISSEN
  6
CONTINUOUS
 62
     7
 10
752.49999
 20
1006.982126
 30
0.0
 11
752.49999
 21
1033.017874
 31
0.0
  0
LINE
  8
L-ZISSEN
  6
CONTINUOUS
 62
     7
 10
752.49999
 20
1046.982114
 30
0.0
 11
752.49999
 21
1067.499986
 31
0.0
  0
LINE
  8
L-ZISSEN
  6
CONTINUOUS
 62
     7
 10
698.000007
 20
1054.141411
 30
0.0
 11
698.000007
 21
1077.499986
 31
0.0
  0
LINE
  8
L-ZISSEN
  6
CONTINUOUS
 62
     7
 10
741.999993
 20
1036.999995
 30
0.0
 11
747.999992
 21
1036.999995
 31
0.0
  0
LINE
  8
L-ZISSEN
  6
CONTINUOUS
 62
     7
 10
747.999992
 20
1036.999995
 30
0.0
 11
747.999992
 21
1056.999989
 31
0.0
  0
LINE
  8
L-ZISSEN
  6
CONTINUOUS
 62
     7
 10
741.999993
 20
1056.999989
 30
0.0
 11
747.999992
 21
1056.999989
 31
0.0
  0
LINE
  8
L-ZISSEN
  6
CONTINUOUS
 62
     7
 10
741.999993
 20
1054.141411
 30
0.0
 11
741.999993
 21
1077.499986
 31
0.0
  0
LINE
  8
L-ZISSEN
  6
CONTINUOUS
 62
     7
 10
698.000007
 20
962.500017
 30
0.0
 11
741.999993
 21
962.500017
 31
0.0
  0
LINE
  8
L-ZISSEN
  6
CONTINUOUS
 62
     7
 10
732.749996
 20
956.200019
 30
0.0
 11
741.249994
 21
956.200019
 31
0.0
  0
LINE
  8
L-ZISSEN
  6
CONTINUOUS
 62
     7
 10
732.749996
 20
962.500017
 30
0.0
 11
732.749996
 21
956.200019
 31
0.0
  0
LINE
  8
L-ZISSEN
  6
CONTINUOUS
 62
     7
 10
741.249994
 20
962.500017
 30
0.0
 11
741.249994
 21
956.200019
 31
0.0
  0
LINE
  8
L-TYUSIN
  6
CENTER
 62
     1
 10
1519.500014
 20
810.0
 30
0.0
 11
1720.499986
 21
810.0
 31
0.0
  0
LINE
  8
L-ZISSEN
  6
CONTINUOUS
 62
     7
 10
1572.500014
 20
837.999992
 30
0.0
 11
1572.500014
 21
787.000007
 31
0.0
  0
LINE
  8
L-ZISSEN
  6
CONTINUOUS
 62
     7
 10
1667.499986
 20
837.999992
 30
0.0
 11
1667.499986
 21
787.000007
 31
0.0
  0
LINE
  8
L-ZISSEN
  6
CONTINUOUS
 62
     7
 10
1562.500017
 20
822.749996
 30
0.0
 11
1556.200019
 21
822.749996
 31
0.0
  0
LINE
  8
L-ZISSEN
  6
CONTINUOUS
 62
     7
 10
1562.500017
 20
831.249994
 30
0.0
 11
1556.200019
 21
831.249994
 31
0.0
  0
LINE
  8
L-ZISSEN
  6
CONTINUOUS
 62
     7
 10
1556.200019
 20
831.249994
 30
0.0
 11
1556.200019
 21
822.749996
 31
0.0
  0
LINE
  8
L-ZISSEN
  6
CONTINUOUS
 62
     7
 10
1556.200019
 20
797.250004
 30
0.0
 11
1556.200019
 21
788.750006
 31
0.0
  0
LINE
  8
L-ZISSEN
  6
CONTINUOUS
 62
     7
 10
1562.500017
 20
797.250004
 30
0.0
 11
1556.200019
 21
797.250004
 31
0.0
  0
LINE
  8
L-ZISSEN
  6
CONTINUOUS
 62
     7
 10
1562.500017
 20
788.750006
 30
0.0
 11
1556.200019
 21
788.750006
 31
0.0
  0
LINE
  8
L-ZISSEN
  6
CONTINUOUS
 62
     7
 10
1562.500017
 20
788.000007
 30
0.0
 11
1677.499986
 21
788.000007
 31
0.0
  0
LINE
  8
L-ZISSEN
  6
CONTINUOUS
 62
     7
 10
1562.500017
 20
837.999992
 30
0.0
 11
1677.499986
 21
837.999992
 31
0.0
  0
LINE
  8
L-ZISSEN
  6
CONTINUOUS
 62
     7
 10
1562.500017
 20
788.000007
 30
0.0
 11
1562.500017
 21
837.999992
 31
0.0
  0
LINE
  8
L-ZISSEN
  6
CONTINUOUS
 62
     7
 10
1667.499986
 20
797.000004
 30
0.0
 11
1572.500014
 21
797.000004
 31
0.0
  0
CIRCLE
  8
L-ZISSEN
  6
CONTINUOUS
 62
     7
 10
1646.999992
 20
824.999995
 30
0.0
 40
9.999997
  0
LINE
  8
L-ZISSEN
  6
CONTINUOUS
 62
     7
 10
1595.000008
 20
804.500002
 30
0.0
 11
1605.000005
 21
804.500002
 31
0.0
  0
LINE
  8
L-ZISSEN
  6
CONTINUOUS
 62
     7
 10
1595.000008
 20
804.500002
 30
0.0
 11
1595.000008
 21
797.000004
 31
0.0
  0
LINE
  8
L-ZISSEN
  6
CONTINUOUS
 62
     7
 10
1605.000005
 20
804.500002
 30
0.0
 11
1605.000005
 21
797.000004
 31
0.0
  0
LINE
  8
L-ZISSEN
  6
CONTINUOUS
 62
     7
 10
1644.999993
 20
804.500002
 30
0.0
 11
1644.999993
 21
797.000004
 31
0.0
  0
LINE
  8
L-ZISSEN
  6
CONTINUOUS
 62
     7
 10
1634.999996
 20
804.500002
 30
0.0
 11
1634.999996
 21
797.000004
 31
0.0
  0
LINE
  8
L-ZISSEN
  6
CONTINUOUS
 62
     7
 10
1634.999996
 20
804.500002
 30
0.0
 11
1644.999993
 21
804.500002
 31
0.0
  0
CIRCLE
  8
L-ZISSEN
  6
CONTINUOUS
 62
     7
 10
751.99999
 20
1000.000006
 30
0.0
 40
4.999999
  0
LINE
  8
L-TYUSIN
  6
CENTER
 62
     1
 10
1620.0
 20
842.999992
 30
0.0
 11
1620.0
 21
703.000007
 31
0.0
  0
LINE
  8
L-ZISSEN
  6
CONTINUOUS
 62
     7
 10
698.750006
 20
962.500017
 30
0.0
 11
698.750006
 21
956.200019
 31
0.0
  0
LINE
  8
L-ZISSEN
  6
CONTINUOUS
 62
     7
 10
707.250004
 20
962.500017
 30
0.0
 11
707.250004
 21
956.200019
 31
0.0
  0
LINE
  8
L-ZISSEN
  6
CONTINUOUS
 62
     7
 10
707.250004
 20
956.200019
 30
0.0
 11
698.750006
 21
956.200019
 31
0.0
  0
ARC
  8
L-ZISSEN
  6
CONTINUOUS
 62
     7
 10
751.99999
 20
1039.999994
 30
0.0
 40
4.999999
 50
216.869898
 51
143.130102
  0
ARC
  8
L-ZISSEN
 10
688.00001
 20
1034.999996
 30
0.0
 40
5.0
 50
36.869921
 51
23.578171
  0
CIRCLE
  8
L-ZISSEN
 10
688.00001
 20
1005.000005
 30
0.0
 40
5.0
  0
ARC
  8
L-ZISSEN
 10
751.99999
 20
1000.000006
 30
0.0
 40
7.0
 50
274.096043
 51
85.903957
  0
ARC
  8
L-ZISSEN
 10
751.99999
 20
1039.999994
 30
0.0
 40
7.0
 50
274.096043
 51
85.903957
  0
ARC
  8
L-ZISSEN
 10
688.00001
 20
1005.000005
 30
0.0
 40
7.0
 50
94.096043
 51
265.903957
  0
ARC
  8
L-ZISSEN
 10
688.00001
 20
1034.999996
 30
0.0
 40
7.0
 50
94.096043
 51
265.903957
  0
LINE
  8
L-ZISSEN
  6
CONTINUOUS
 62
     7
 10
687.50001
 20
1041.982116
 30
0.0
 11
687.50001
 21
1067.499986
 31
0.0
  0
LINE
  8
L-ZISSEN
  6
CONTINUOUS
 62
     7
 10
692.000008
 20
1036.999995
 30
0.0
 11
692.000008
 21
1056.999989
 31
0.0
  0
LINE
  8
L-ZISSEN
  6
CONTINUOUS
 62
     7
 10
698.000007
 20
1036.999995
 30
0.0
 11
692.000008
 21
1036.999995
 31
0.0
  0
LINE
  8
L-ZISSEN
  6
CONTINUOUS
 62
     7
 10
698.000007
 20
1056.999989
 30
0.0
 11
692.000008
 21
1056.999989
 31
0.0
  0
LINE
  8
L-ZISSEN
 10
1593.017886
 20
797.000004
 30
0.0
 11
1593.017886
 21
788.000007
 31
0.0
  0
LINE
  8
L-ZISSEN
 10
1606.982126
 20
797.000004
 30
0.0
 11
1606.982126
 21
788.000007
 31
0.0
  0
LINE
  8
L-ZISSEN
 10
1646.982114
 20
797.000004
 30
0.0
 11
1646.982114
 21
788.000007
 31
0.0
  0
LINE
  8
L-ZISSEN
 10
1633.017874
 20
797.000004
 30
0.0
 11
1633.017874
 21
788.000007
 31
0.0
  0
LINE
  8
L-ZISSEN
 10
1586.500014
 20
833.322848
 30
0.0
 11
1641.456521
 21
833.322848
 31
0.0
  0
LINE
  8
L-ZISSEN
 10
714.147646
 20
972.500014
 30
0.0
 11
714.147646
 21
1067.499986
 31
0.0
  0
LINE
  8
L-ZISSEN
 10
725.852354
 20
972.500014
 30
0.0
 11
725.852354
 21
1067.499986
 31
0.0
  0
LINE
  8
L-ZISSEN
  6
CONTINUOUS
 62
     7
 10
741.999993
 20
986.500014
 30
0.0
 11
725.852354
 21
986.500014
 31
0.0
  0
LINE
  8
L-ZISSEN
  6
CONTINUOUS
 62
     7
 10
714.147646
 20
986.500014
 30
0.0
 11
698.000007
 21
986.500014
 31
0.0
  0
LINE
  8
L-ZISSEN
 10
1677.499986
 20
832.0
 30
0.0
 11
1654.141411
 21
832.0
 31
0.0
  0
LINE
  8
L-ZISSEN
  6
CONTINUOUS
 62
     7
 10
1586.500014
 20
833.322848
 30
0.0
 11
1586.500014
 21
824.0
 31
0.0
  0
LINE
  8
L-ZISSEN
 10
1586.500014
 20
832.0
 30
0.0
 11
1562.500017
 21
832.0
 31
0.0
  0
LINE
  8
L-ZISSEN
 10
1586.500014
 20
824.0
 30
0.0
 11
1637.05012
 21
824.0
 31
0.0
  0
LINE
  8
L-ZISSEN
 10
714.0
 20
962.500017
 30
0.0
 11
714.0
 21
972.500014
 31
0.0
  0
LINE
  8
L-ZISSEN
 10
726.0
 20
962.500017
 30
0.0
 11
726.0
 21
972.500014
 31
0.0
  0
LINE
  8
L-ZISSEN
 10
714.803843
 20
754.999992
 30
0.0
 11
692.0
 21
754.999992
 31
0.0
  0
LINE
  8
L-ZISSEN
 10
698.0
 20
734.999992
 30
0.0
 11
692.0
 21
734.999992
 31
0.0
  0
LINE
  8
L-ZISSEN
 10
692.0
 20
754.999992
 30
0.0
 11
692.0
 21
734.999992
 31
0.0
  0
LINE
  8
L-ZISSEN
 10
748.0
 20
754.999992
 30
0.0
 11
748.0
 21
734.999992
 31
0.0
  0
LINE
  8
L-ZISSEN
 10
748.0
 20
734.999992
 30
0.0
 11
742.0
 21
734.999992
 31
0.0
  0
LINE
  8
L-ZISSEN
 10
748.0
 20
754.999992
 30
0.0
 11
725.196157
 21
754.999992
 31
0.0
  0
LINE
  8
L-ZISSEN
 10
742.0
 20
717.0
 30
0.0
 11
759.5
 21
717.0
 31
0.0
  0
LINE
  8
L-ZISSEN
 10
680.5
 20
717.0
 30
0.0
 11
698.0
 21
717.0
 31
0.0
  0
CIRCLE
  8
L-ZISSEN
 10
703.0
 20
747.0
 30
0.0
 40
4.25
  0
CIRCLE
  8
L-ZISSEN
 10
703.0
 20
713.0
 30
0.0
 40
4.25
  0
CIRCLE
  8
L-ZISSEN
 10
737.0
 20
713.0
 30
0.0
 40
4.25
  0
CIRCLE
  8
L-ZISSEN
 10
737.0
 20
747.0
 30
0.0
 40
4.25
  0
LINE
  8
L-ZISSEN
 10
742.0
 20
708.0
 30
0.0
 11
742.0
 21
752.0
 31
0.0
  0
LINE
  8
L-ZISSEN
 10
680.5
 20
708.0
 30
0.0
 11
759.5
 21
708.0
 31
0.0
  0
LINE
  8
L-ZISSEN
 10
698.0
 20
752.0
 30
0.0
 11
698.0
 21
708.0
 31
0.0
  0
LINE
  8
L-TYUSIN
  6
CENTER
 62
     1
 10
693.0
 20
730.0
 30
0.0
 11
747.0
 21
730.0
 31
0.0
  0
LINE
  8
L-TYUSIN
  6
CENTER
 62
     1
 10
720.0
 20
763.0
 30
0.0
 11
720.0
 21
623.0
 31
0.0
  0
LINE
  8
L-ZISSEN
  6
CONTINUOUS
 62
     7
 10
1677.499986
 20
837.999992
 30
0.0
 11
1677.499986
 21
788.000007
 31
0.0
  0
LINE
  8
L-TYUSIN
  6
CENTER
 62
     1
 10
720.0
 20
530.499986
 30
0.0
 11
720.0
 21
329.500014
 31
0.0
  0
LINE
  8
L-ZISSEN
  6
CONTINUOUS
 62
     7
 10
742.0
 20
372.500014
 30
0.0
 11
733.56774
 21
372.500014
 31
0.0
  0
LINE
  8
L-ZISSEN
  6
CONTINUOUS
 62
     7
 10
1677.499986
 20
788.750006
 30
0.0
 11
1683.799984
 21
788.750006
 31
0.0
  0
LINE
  8
L-ZISSEN
  6
CONTINUOUS
 62
     7
 10
1677.499986
 20
797.250004
 30
0.0
 11
1683.799984
 21
797.250004
 31
0.0
  0
LINE
  8
L-ZISSEN
  6
CONTINUOUS
 62
     7
 10
1683.799984
 20
797.250004
 30
0.0
 11
1683.799984
 21
788.750006
 31
0.0
  0
LINE
  8
L-ZISSEN
  6
CONTINUOUS
 62
     7
 10
1677.499986
 20
822.749996
 30
0.0
 11
1683.799984
 21
822.749996
 31
0.0
  0
LINE
  8
L-ZISSEN
  6
CONTINUOUS
 62
     7
 10
1677.499986
 20
831.249994
 30
0.0
 11
1683.799984
 21
831.249994
 31
0.0
  0
LINE
  8
L-ZISSEN
  6
CONTINUOUS
 62
     7
 10
1683.799984
 20
831.249994
 30
0.0
 11
1683.799984
 21
822.749996
 31
0.0
  0
LINE
  8
L-ZISSEN
 10
742.0
 20
752.0
 30
0.0
 11
726.0
 21
752.0
 31
0.0
  0
LINE
  8
L-ZISSEN
 10
741.999993
 20
1054.141411
 30
0.0
 11
725.852354
 21
1054.141411
 31
0.0
  0
LINE
  8
L-ZISSEN
 10
698.000007
 20
1054.141411
 30
0.0
 11
714.147646
 21
1054.141411
 31
0.0
  0
LINE
  8
L-ZISSEN
 10
714.0
 20
1077.499986
 30
0.0
 11
714.0
 21
1067.499986
 31
0.0
  0
LINE
  8
L-ZISSEN
 10
726.0
 20
1077.499986
 30
0.0
 11
726.0
 21
1067.499986
 31
0.0
  0
LINE
  8
L-ZISSEN
  6
CONTINUOUS
 62
     7
 10
683.000002
 20
724.500002
 30
0.0
 11
692.999999
 21
724.500002
 31
0.0
  0
LINE
  8
L-ZISSEN
  6
CONTINUOUS
 62
     7
 10
683.000002
 20
724.500002
 30
0.0
 11
683.000002
 21
717.000004
 31
0.0
  0
LINE
  8
L-ZISSEN
  6
CONTINUOUS
 62
     7
 10
692.999999
 20
724.500002
 30
0.0
 11
692.999999
 21
717.000004
 31
0.0
  0
LINE
  8
L-ZISSEN
 10
680.5
 20
708.0
 30
0.0
 11
680.5
 21
717.0
 31
0.0
  0
LINE
  8
L-ZISSEN
 10
759.5
 20
708.0
 30
0.0
 11
759.5
 21
717.0
 31
0.0
  0
LINE
  8
L-ZISSEN
  6
CONTINUOUS
 62
     7
 10
747.000002
 20
724.500002
 30
0.0
 11
747.000002
 21
717.000004
 31
0.0
  0
LINE
  8
L-ZISSEN
  6
CONTINUOUS
 62
     7
 10
756.999999
 20
724.500002
 30
0.0
 11
756.999999
 21
717.000004
 31
0.0
  0
LINE
  8
L-ZISSEN
  6
CONTINUOUS
 62
     7
 10
756.999999
 20
724.500002
 30
0.0
 11
747.000002
 21
724.500002
 31
0.0
  0
LINE
  8
L-ZISSEN
  6
CONTINUOUS
 62
     7
 10
707.250004
 20
366.200016
 30
0.0
 11
698.750006
 21
366.200016
 31
0.0
  0
LINE
  8
L-ZISSEN
  6
CONTINUOUS
 62
     7
 10
707.250004
 20
371.083641
 30
0.0
 11
707.250004
 21
366.200016
 31
0.0
  0
LINE
  8
L-ZISSEN
  6
CONTINUOUS
 62
     7
 10
732.749996
 20
366.200016
 30
0.0
 11
741.249994
 21
366.200016
 31
0.0
  0
LINE
  8
L-ZISSEN
  6
CONTINUOUS
 62
     7
 10
732.749996
 20
371.083641
 30
0.0
 11
732.749996
 21
366.200016
 31
0.0
  0
LINE
  8
L-ZISSEN
  6
CONTINUOUS
 62
     7
 10
1715.499986
 20
828.5
 30
0.0
 11
1715.499986
 21
791.5
 31
0.0
  0
LINE
  8
L-ZISSEN
 10
1715.499986
 20
791.5
 30
0.0
 11
1683.799984
 21
791.5
 31
0.0
  0
LINE
  8
L-ZISSEN
 10
1715.499986
 20
828.5
 30
0.0
 11
1683.799984
 21
828.5
 31
0.0
  0
CIRCLE
  8
L-ZISSEN
 10
720.0
 20
730.0
 30
0.0
 40
18.5
  0
ARC
  8
L-ZISSEN
 10
720.0
 20
752.0
 30
0.0
 40
6.0
 50
0.0
 51
180.0
  0
LINE
  8
L-ZISSEN
 10
714.0
 20
752.0
 30
0.0
 11
698.0
 21
752.0
 31
0.0
  0
LINE
  8
L-ZISSEN
 10
701.5
 20
1115.499986
 30
0.0
 11
701.5
 21
1083.799984
 31
0.0
  0
LINE
  8
L-ZISSEN
 10
738.5
 20
1115.499986
 30
0.0
 11
738.5
 21
1083.799984
 31
0.0
  0
LINE
  8
L-ZISSEN
  6
CONTINUOUS
 62
     7
 10
701.5
 20
1115.499986
 30
0.0
 11
738.5
 21
1115.499986
 31
0.0
  0
LINE
  8
L-ZISSEN
  6
CONTINUOUS
 62
     7
 10
698.750006
 20
1083.799984
 30
0.0
 11
707.250004
 21
1083.799984
 31
0.0
  0
LINE
  8
L-ZISSEN
  6
CONTINUOUS
 62
     7
 10
698.750006
 20
1077.499986
 30
0.0
 11
698.750006
 21
1083.799984
 31
0.0
  0
LINE
  8
L-ZISSEN
  6
CONTINUOUS
 62
     7
 10
707.250004
 20
1077.499986
 30
0.0
 11
707.250004
 21
1083.799984
 31
0.0
  0
LINE
  8
L-ZISSEN
  6
CONTINUOUS
 62
     7
 10
732.749996
 20
1083.799984
 30
0.0
 11
741.249994
 21
1083.799984
 31
0.0
  0
LINE
  8
L-ZISSEN
  6
CONTINUOUS
 62
     7
 10
732.749996
 20
1077.499986
 30
0.0
 11
732.749996
 21
1083.799984
 31
0.0
  0
LINE
  8
L-ZISSEN
  6
CONTINUOUS
 62
     7
 10
741.249994
 20
1077.499986
 30
0.0
 11
741.249994
 21
1083.799984
 31
0.0
  0
LINE
  8
L-ZISSEN
  6
CONTINUOUS
 62
     7
 10
698.000007
 20
1077.499986
 30
0.0
 11
741.999993
 21
1077.499986
 31
0.0
  0
LINE
  8
L-ZISSEN
 10
701.5
 20
334.500014
 30
0.0
 11
701.5
 21
366.200016
 31
0.0
  0
LINE
  8
L-ZISSEN
 10
738.5
 20
334.500014
 30
0.0
 11
738.5
 21
366.200016
 31
0.0
  0
LINE
  8
L-ZISSEN
  6
CONTINUOUS
 62
     7
 10
738.5
 20
334.500014
 30
0.0
 11
701.5
 21
334.500014
 31
0.0
  0
LINE
  8
L-ZISSEN
 10
1524.500014
 20
791.5
 30
0.0
 11
1556.200016
 21
791.5
 31
0.0
  0
LINE
  8
L-ZISSEN
 10
1524.500014
 20
828.5
 30
0.0
 11
1556.200016
 21
828.5
 31
0.0
  0
LINE
  8
L-ZISSEN
  6
CONTINUOUS
 62
     7
 10
1524.500014
 20
828.5
 30
0.0
 11
1524.500014
 21
791.5
 31
0.0
  0
LINE
  8
L-ZISSEN
 10
701.5
 20
525.499986
 30
0.0
 11
701.5
 21
493.799984
 31
0.0
  0
LINE
  8
L-ZISSEN
 10
738.5
 20
525.499986
 30
0.0
 11
738.5
 21
493.799984
 31
0.0
  0
LINE
  8
L-ZISSEN
  6
CONTINUOUS
 62
     7
 10
738.5
 20
525.499986
 30
0.0
 11
701.5
 21
525.499986
 31
0.0
  0
LINE
  8
L-ZISSEN
 10
701.5
 20
924.500014
 30
0.0
 11
701.5
 21
956.200016
 31
0.0
  0
LINE
  8
L-ZISSEN
  6
CONTINUOUS
 62
     7
 10
701.5
 20
924.500014
 30
0.0
 11
738.5
 21
924.500014
 31
0.0
  0
LINE
  8
L-ZISSEN
 10
738.5
 20
924.500014
 30
0.0
 11
738.5
 21
956.200016
 31
0.0
  0
CIRCLE
  8
L-ZISSEN
 10
720.0
 20
730.0
 30
0.0
 40
5.7225
  0
LINE
  8
L-TYUSIN
  6
CENTER
 62
     1
 10
870.0
 20
906.500014
 30
0.0
 11
870.0
 21
1133.499986
 31
0.0
  0
LINE
  8
L-TYUSIN
  6
CENTER
 62
     1
 10
812.0
 20
1020.0
 30
0.0
 11
928.0
 21
1020.0
 31
0.0
  0
LINE
  8
L-ZISSEN
  6
CONTINUOUS
 62
     7
 10
837.50001
 20
1067.499986
 30
0.0
 11
902.49999
 21
1067.499986
 31
0.0
  0
LINE
  8
L-ZISSEN
  6
CONTINUOUS
 62
     7
 10
902.49999
 20
972.500014
 30
0.0
 11
837.50001
 21
972.500014
 31
0.0
  0
LINE
  8
L-ZISSEN
  6
CONTINUOUS
 62
     7
 10
848.000007
 20
916.500014
 30
0.0
 11
848.000007
 21
1036.999995
 31
0.0
  0
LINE
  8
L-ZISSEN
  6
CONTINUOUS
 62
     7
 10
891.999993
 20
916.500014
 30
0.0
 11
891.999993
 21
1036.999995
 31
0.0
  0
LINE
  8
L-ZISSEN
  6
CONTINUOUS
 62
     7
 10
837.50001
 20
972.500014
 30
0.0
 11
837.50001
 21
998.017884
 31
0.0
  0
LINE
  8
L-ZISSEN
  6
CONTINUOUS
 62
     7
 10
902.49999
 20
972.500014
 30
0.0
 11
902.49999
 21
993.017886
 31
0.0
  0
LINE
  8
L-ZISSEN
  6
CONTINUOUS
 62
     7
 10
837.50001
 20
1011.982125
 30
0.0
 11
837.50001
 21
1028.017875
 31
0.0
  0
LINE
  8
L-ZISSEN
  6
CONTINUOUS
 62
     7
 10
902.49999
 20
1006.982126
 30
0.0
 11
902.49999
 21
1033.017874
 31
0.0
  0
LINE
  8
L-ZISSEN
  6
CONTINUOUS
 62
     7
 10
902.49999
 20
1046.982114
 30
0.0
 11
902.49999
 21
1067.499986
 31
0.0
  0
LINE
  8
L-ZISSEN
  6
CONTINUOUS
 62
     7
 10
848.000007
 20
1054.141411
 30
0.0
 11
848.000007
 21
1123.499986
 31
0.0
  0
LINE
  8
L-ZISSEN
  6
CONTINUOUS
 62
     7
 10
891.999993
 20
1036.999995
 30
0.0
 11
897.999992
 21
1036.999995
 31
0.0
  0
LINE
  8
L-ZISSEN
  6
CONTINUOUS
 62
     7
 10
897.999992
 20
1036.999995
 30
0.0
 11
897.999992
 21
1056.999989
 31
0.0
  0
LINE
  8
L-ZISSEN
  6
CONTINUOUS
 62
     7
 10
891.999993
 20
1056.999989
 30
0.0
 11
897.999992
 21
1056.999989
 31
0.0
  0
LINE
  8
L-ZISSEN
  6
CONTINUOUS
 62
     7
 10
891.999993
 20
1054.141411
 30
0.0
 11
891.999993
 21
1123.499986
 31
0.0
  0
LINE
  8
L-ZISSEN
  6
CONTINUOUS
 62
     7
 10
848.000007
 20
962.500017
 30
0.0
 11
864.0
 21
962.500017
 31
0.0
  0
LINE
  8
L-ZISSEN
  6
CONTINUOUS
 62
     7
 10
882.749996
 20
956.200019
 30
0.0
 11
891.249994
 21
956.200019
 31
0.0
  0
LINE
  8
L-ZISSEN
  6
CONTINUOUS
 62
     7
 10
882.749996
 20
962.500017
 30
0.0
 11
882.749996
 21
956.200019
 31
0.0
  0
LINE
  8
L-ZISSEN
  6
CONTINUOUS
 62
     7
 10
891.249994
 20
962.500017
 30
0.0
 11
891.249994
 21
956.200019
 31
0.0
  0
LINE
  8
L-TYUSIN
  6
CENTER
 62
     1
 10
1506.500014
 20
550.0
 30
0.0
 11
1733.499986
 21
550.0
 31
0.0
  0
LINE
  8
L-ZISSEN
  6
CONTINUOUS
 62
     7
 10
1572.500014
 20
577.999992
 30
0.0
 11
1572.500014
 21
527.000007
 31
0.0
  0
LINE
  8
L-ZISSEN
  6
CONTINUOUS
 62
     7
 10
1667.499986
 20
577.999992
 30
0.0
 11
1667.499986
 21
527.000007
 31
0.0
  0
LINE
  8
L-ZISSEN
  6
CONTINUOUS
 62
     7
 10
1516.500014
 20
528.000007
 30
0.0
 11
1723.499986
 21
528.000007
 31
0.0
  0
LINE
  8
L-ZISSEN
  6
CONTINUOUS
 62
     7
 10
1555.500014
 20
577.999992
 30
0.0
 11
1684.499986
 21
577.999992
 31
0.0
  0
LINE
  8
L-ZISSEN
  6
CONTINUOUS
 62
     7
 10
1667.499986
 20
537.000004
 30
0.0
 11
1572.500014
 21
537.000004
 31
0.0
  0
CIRCLE
  8
L-ZISSEN
  6
CONTINUOUS
 62
     7
 10
1646.999992
 20
564.999995
 30
0.0
 40
9.999997
  0
LINE
  8
L-ZISSEN
  6
CONTINUOUS
 62
     7
 10
1595.000008
 20
544.500002
 30
0.0
 11
1605.000005
 21
544.500002
 31
0.0
  0
LINE
  8
L-ZISSEN
  6
CONTINUOUS
 62
     7
 10
1595.000008
 20
544.500002
 30
0.0
 11
1595.000008
 21
537.000004
 31
0.0
  0
LINE
  8
L-ZISSEN
  6
CONTINUOUS
 62
     7
 10
1605.000005
 20
544.500002
 30
0.0
 11
1605.000005
 21
537.000004
 31
0.0
  0
LINE
  8
L-ZISSEN
  6
CONTINUOUS
 62
     7
 10
1644.999993
 20
544.500002
 30
0.0
 11
1644.999993
 21
537.000004
 31
0.0
  0
LINE
  8
L-ZISSEN
  6
CONTINUOUS
 62
     7
 10
1634.999996
 20
544.500002
 30
0.0
 11
1634.999996
 21
537.000004
 31
0.0
  0
LINE
  8
L-ZISSEN
  6
CONTINUOUS
 62
     7
 10
1634.999996
 20
544.500002
 30
0.0
 11
1644.999993
 21
544.500002
 31
0.0
  0
CIRCLE
  8
L-ZISSEN
  6
CONTINUOUS
 62
     7
 10
901.99999
 20
1000.000006
 30
0.0
 40
4.999999
  0
LINE
  8
L-TYUSIN
  6
CENTER
 62
     1
 10
1620.0
 20
582.999992
 30
0.0
 11
1620.0
 21
443.000007
 31
0.0
  0
LINE
  8
L-ZISSEN
  6
CONTINUOUS
 62
     7
 10
848.750006
 20
962.500017
 30
0.0
 11
848.750006
 21
956.200019
 31
0.0
  0
LINE
  8
L-ZISSEN
  6
CONTINUOUS
 62
     7
 10
857.250004
 20
962.500017
 30
0.0
 11
857.250004
 21
956.200019
 31
0.0
  0
LINE
  8
L-ZISSEN
  6
CONTINUOUS
 62
     7
 10
857.250004
 20
956.200019
 30
0.0
 11
848.750006
 21
956.200019
 31
0.0
  0
ARC
  8
L-ZISSEN
  6
CONTINUOUS
 62
     7
 10
901.99999
 20
1039.999994
 30
0.0
 40
4.999999
 50
216.869898
 51
143.130102
  0
ARC
  8
L-ZISSEN
 10
838.00001
 20
1034.999996
 30
0.0
 40
5.0
 50
36.869921
 51
23.578171
  0
CIRCLE
  8
L-ZISSEN
 10
838.00001
 20
1005.000005
 30
0.0
 40
5.0
  0
ARC
  8
L-ZISSEN
 10
901.99999
 20
1000.000006
 30
0.0
 40
7.0
 50
274.096043
 51
85.903957
  0
ARC
  8
L-ZISSEN
 10
901.99999
 20
1039.999994
 30
0.0
 40
7.0
 50
274.096043
 51
85.903957
  0
ARC
  8
L-ZISSEN
 10
838.00001
 20
1005.000005
 30
0.0
 40
7.0
 50
94.096043
 51
265.903957
  0
ARC
  8
L-ZISSEN
 10
838.00001
 20
1034.999996
 30
0.0
 40
7.0
 50
94.096043
 51
265.903957
  0
LINE
  8
L-ZISSEN
  6
CONTINUOUS
 62
     7
 10
837.50001
 20
1041.982116
 30
0.0
 11
837.50001
 21
1067.499986
 31
0.0
  0
LINE
  8
L-ZISSEN
  6
CONTINUOUS
 62
     7
 10
842.000008
 20
1036.999995
 30
0.0
 11
842.000008
 21
1056.999989
 31
0.0
  0
LINE
  8
L-ZISSEN
  6
CONTINUOUS
 62
     7
 10
848.000007
 20
1036.999995
 30
0.0
 11
842.000008
 21
1036.999995
 31
0.0
  0
LINE
  8
L-ZISSEN
  6
CONTINUOUS
 62
     7
 10
848.000007
 20
1056.999989
 30
0.0
 11
842.000008
 21
1056.999989
 31
0.0
  0
LINE
  8
L-ZISSEN
 10
1593.017886
 20
537.000004
 30
0.0
 11
1593.017886
 21
528.000007
 31
0.0
  0
LINE
  8
L-ZISSEN
 10
1606.982126
 20
537.000004
 30
0.0
 11
1606.982126
 21
528.000007
 31
0.0
  0
LINE
  8
L-ZISSEN
 10
1646.982114
 20
537.000004
 30
0.0
 11
1646.982114
 21
528.000007
 31
0.0
  0
LINE
  8
L-ZISSEN
 10
1633.017874
 20
537.000004
 30
0.0
 11
1633.017874
 21
528.000007
 31
0.0
  0
LINE
  8
L-ZISSEN
 10
1586.500014
 20
573.322848
 30
0.0
 11
1641.456521
 21
573.322848
 31
0.0
  0
LINE
  8
L-ZISSEN
 10
864.147646
 20
972.500014
 30
0.0
 11
864.147646
 21
1067.499986
 31
0.0
  0
LINE
  8
L-ZISSEN
 10
875.852354
 20
972.500014
 30
0.0
 11
875.852354
 21
1067.499986
 31
0.0
  0
LINE
  8
L-ZISSEN
  6
CONTINUOUS
 62
     7
 10
891.999993
 20
986.500014
 30
0.0
 11
875.852354
 21
986.500014
 31
0.0
  0
LINE
  8
L-ZISSEN
  6
CONTINUOUS
 62
     7
 10
864.147646
 20
986.500014
 30
0.0
 11
848.000007
 21
986.500014
 31
0.0
  0
LINE
  8
L-ZISSEN
 10
1677.499986
 20
572.0
 30
0.0
 11
1654.141411
 21
572.0
 31
0.0
  0
LINE
  8
L-ZISSEN
  6
CONTINUOUS
 62
     7
 10
1586.500014
 20
573.322848
 30
0.0
 11
1586.500014
 21
564.0
 31
0.0
  0
LINE
  8
L-ZISSEN
 10
1586.500014
 20
572.0
 30
0.0
 11
1562.500017
 21
572.0
 31
0.0
  0
LINE
  8
L-ZISSEN
 10
1586.500014
 20
564.0
 30
0.0
 11
1637.05012
 21
564.0
 31
0.0
  0
LINE
  8
L-ZISSEN
 10
864.0
 20
955.500014
 30
0.0
 11
864.0
 21
972.500014
 31
0.0
  0
LINE
  8
L-ZISSEN
 10
876.0
 20
955.500014
 30
0.0
 11
876.0
 21
972.500014
 31
0.0
  0
LINE
  8
L-ZISSEN
 10
858.0
 20
754.999992
 30
0.0
 11
842.0
 21
754.999992
 31
0.0
  0
LINE
  8
L-ZISSEN
 10
848.0
 20
734.999992
 30
0.0
 11
842.0
 21
734.999992
 31
0.0
  0
LINE
  8
L-ZISSEN
 10
842.0
 20
754.999992
 30
0.0
 11
842.0
 21
734.999992
 31
0.0
  0
LINE
  8
L-ZISSEN
 10
898.0
 20
754.999992
 30
0.0
 11
898.0
 21
734.999992
 31
0.0
  0
LINE
  8
L-ZISSEN
 10
898.0
 20
734.999992
 30
0.0
 11
892.0
 21
734.999992
 31
0.0
  0
LINE
  8
L-ZISSEN
 10
898.0
 20
754.999992
 30
0.0
 11
882.0
 21
754.999992
 31
0.0
  0
LINE
  8
L-ZISSEN
 10
892.0
 20
717.0
 30
0.0
 11
909.5
 21
717.0
 31
0.0
  0
LINE
  8
L-ZISSEN
 10
830.5
 20
717.0
 30
0.0
 11
848.0
 21
717.0
 31
0.0
  0
CIRCLE
  8
L-ZISSEN
 10
853.0
 20
747.0
 30
0.0
 40
4.25
  0
CIRCLE
  8
L-ZISSEN
 10
853.0
 20
713.0
 30
0.0
 40
4.25
  0
CIRCLE
  8
L-ZISSEN
 10
887.0
 20
713.0
 30
0.0
 40
4.25
  0
CIRCLE
  8
L-ZISSEN
 10
887.0
 20
747.0
 30
0.0
 40
4.25
  0
LINE
  8
L-ZISSEN
 10
892.0
 20
708.0
 30
0.0
 11
892.0
 21
752.0
 31
0.0
  0
LINE
  8
L-ZISSEN
 10
830.5
 20
708.0
 30
0.0
 11
909.5
 21
708.0
 31
0.0
  0
LINE
  8
L-ZISSEN
 10
848.0
 20
752.0
 30
0.0
 11
848.0
 21
708.0
 31
0.0
  0
LINE
  8
L-TYUSIN
  6
CENTER
 62
     1
 10
843.0
 20
730.0
 30
0.0
 11
897.0
 21
730.0
 31
0.0
  0
LINE
  8
L-TYUSIN
  6
CENTER
 62
     1
 10
870.0
 20
780.000007
 30
0.0
 11
870.0
 21
623.0
 31
0.0
  0
LINE
  8
L-ZISSEN
  6
CONTINUOUS
 62
     7
 10
1677.499986
 20
572.0
 30
0.0
 11
1677.499986
 21
553.455844
 31
0.0
  0
LINE
  8
L-TYUSIN
  6
CENTER
 62
     1
 10
870.0
 20
543.499986
 30
0.0
 11
870.0
 21
316.500014
 31
0.0
  0
LINE
  8
L-TYUSIN
  6
CENTER
 62
     1
 10
928.0
 20
430.0
 30
0.0
 11
812.0
 21
430.0
 31
0.0
  0
LINE
  8
L-ZISSEN
  6
CONTINUOUS
 62
     7
 10
891.999993
 20
372.500014
 30
0.0
 11
883.56774
 21
372.500014
 31
0.0
  0
LINE
  8
L-ZISSEN
  6
CONTINUOUS
 62
     7
 10
1677.499986
 20
528.750006
 30
0.0
 11
1683.799984
 21
528.750006
 31
0.0
  0
LINE
  8
L-ZISSEN
  6
CONTINUOUS
 62
     7
 10
1677.499986
 20
537.250004
 30
0.0
 11
1683.799984
 21
537.250004
 31
0.0
  0
LINE
  8
L-ZISSEN
  6
CONTINUOUS
 62
     7
 10
1683.799984
 20
537.250004
 30
0.0
 11
1683.799984
 21
528.750006
 31
0.0
  0
LINE
  8
L-ZISSEN
  6
CONTINUOUS
 62
     7
 10
1677.499986
 20
562.749996
 30
0.0
 11
1683.799984
 21
562.749996
 31
0.0
  0
LINE
  8
L-ZISSEN
  6
CONTINUOUS
 62
     7
 10
1677.499986
 20
571.249994
 30
0.0
 11
1683.799984
 21
571.249994
 31
0.0
  0
LINE
  8
L-ZISSEN
  6
CONTINUOUS
 62
     7
 10
1683.799984
 20
571.249994
 30
0.0
 11
1683.799984
 21
562.749996
 31
0.0
  0
LINE
  8
L-ZISSEN
 10
891.999993
 20
1054.141411
 30
0.0
 11
875.852354
 21
1054.141411
 31
0.0
  0
LINE
  8
L-ZISSEN
 10
848.000007
 20
1054.141411
 30
0.0
 11
864.147646
 21
1054.141411
 31
0.0
  0
LINE
  8
L-ZISSEN
 10
864.0
 20
1084.499986
 30
0.0
 11
864.0
 21
1067.499986
 31
0.0
  0
LINE
  8
L-ZISSEN
 10
876.0
 20
1084.499986
 30
0.0
 11
876.0
 21
1067.499986
 31
0.0
  0
LINE
  8
L-ZISSEN
 10
831.0
 20
707.0
 30
0.0
 11
909.0
 21
707.0
 31
0.0
  0
LINE
  8
L-ZISSEN
  6
CONTINUOUS
 62
     7
 10
833.000002
 20
724.500002
 30
0.0
 11
842.999999
 21
724.500002
 31
0.0
  0
LINE
  8
L-ZISSEN
  6
CONTINUOUS
 62
     7
 10
833.000002
 20
724.500002
 30
0.0
 11
833.000002
 21
717.000004
 31
0.0
  0
LINE
  8
L-ZISSEN
  6
CONTINUOUS
 62
     7
 10
842.999999
 20
724.500002
 30
0.0
 11
842.999999
 21
717.000004
 31
0.0
  0
LINE
  8
L-ZISSEN
 10
909.5
 20
708.0
 30
0.0
 11
909.5
 21
717.0
 31
0.0
  0
LINE
  8
L-ZISSEN
  6
CONTINUOUS
 62
     7
 10
897.000002
 20
724.500002
 30
0.0
 11
897.000002
 21
717.000004
 31
0.0
  0
LINE
  8
L-ZISSEN
  6
CONTINUOUS
 62
     7
 10
906.999999
 20
724.500002
 30
0.0
 11
906.999999
 21
717.000004
 31
0.0
  0
LINE
  8
L-ZISSEN
  6
CONTINUOUS
 62
     7
 10
906.999999
 20
724.500002
 30
0.0
 11
897.000002
 21
724.500002
 31
0.0
  0
LINE
  8
L-ZISSEN
  6
CONTINUOUS
 62
     7
 10
857.250004
 20
488.916359
 30
0.0
 11
857.250004
 21
493.799981
 31
0.0
  0
LINE
  8
L-ZISSEN
  6
CONTINUOUS
 62
     7
 10
857.250004
 20
493.799981
 30
0.0
 11
848.750006
 21
493.799981
 31
0.0
  0
LINE
  8
L-ZISSEN
  6
CONTINUOUS
 62
     7
 10
882.749996
 20
488.916359
 30
0.0
 11
882.749996
 21
493.799981
 31
0.0
  0
LINE
  8
L-ZISSEN
  6
CONTINUOUS
 62
     7
 10
857.250004
 20
366.200016
 30
0.0
 11
848.750006
 21
366.200016
 31
0.0
  0
LINE
  8
L-ZISSEN
  6
CONTINUOUS
 62
     7
 10
857.250004
 20
371.083641
 30
0.0
 11
857.250004
 21
366.200016
 31
0.0
  0
LINE
  8
L-ZISSEN
 10
892.0
 20
752.0
 30
0.0
 11
848.0
 21
752.0
 31
0.0
  0
LINE
  8
L-ZISSEN
  6
CONTINUOUS
 62
     7
 10
848.750006
 20
1083.799984
 30
0.0
 11
857.250004
 21
1083.799984
 31
0.0
  0
LINE
  8
L-ZISSEN
  6
CONTINUOUS
 62
     7
 10
848.750006
 20
1077.499986
 30
0.0
 11
848.750006
 21
1083.799984
 31
0.0
  0
LINE
  8
L-ZISSEN
  6
CONTINUOUS
 62
     7
 10
857.250004
 20
1077.499986
 30
0.0
 11
857.250004
 21
1083.799984
 31
0.0
  0
LINE
  8
L-ZISSEN
  6
CONTINUOUS
 62
     7
 10
882.749996
 20
1083.799984
 30
0.0
 11
891.249994
 21
1083.799984
 31
0.0
  0
LINE
  8
L-ZISSEN
  6
CONTINUOUS
 62
     7
 10
882.749996
 20
1077.499986
 30
0.0
 11
882.749996
 21
1083.799984
 31
0.0
  0
LINE
  8
L-ZISSEN
  6
CONTINUOUS
 62
     7
 10
891.249994
 20
1077.499986
 30
0.0
 11
891.249994
 21
1083.799984
 31
0.0
  0
LINE
  8
L-ZISSEN
  6
CONTINUOUS
 62
     7
 10
848.000007
 20
1077.499986
 30
0.0
 11
864.0
 21
1077.499986
 31
0.0
  0
LINE
  8
L-ZISSEN
  6
CONTINUOUS
 62
     7
 10
1719.499986
 20
572.000007
 30
0.0
 11
1719.499986
 21
528.000007
 31
0.0
  0
LINE
  8
L-TYUSIN
 10
1696.499986
 20
572.999992
 30
0.0
 11
1696.499986
 21
600.000007
 31
0.0
  0
LINE
  8
L-ZISSEN
  6
CONTINUOUS
 62
     7
 10
1684.499986
 20
595.000007
 30
0.0
 11
1708.499986
 21
595.000007
 31
0.0
  0
LINE
  8
L-ZISSEN
 10
1708.499986
 20
569.455844
 30
0.0
 11
1708.499986
 21
595.000007
 31
0.0
  0
LINE
  8
L-ZISSEN
 10
1684.499986
 20
572.000007
 30
0.0
 11
1684.499986
 21
595.000007
 31
0.0
  0
LINE
  8
L-ZISSEN
 10
873.455844
 20
708.0
 30
0.0
 11
892.0
 21
726.544156
 31
0.0
  0
LINE
  8
L-ZISSEN
 10
892.0
 20
733.455844
 30
0.0
 11
873.455844
 21
752.0
 31
0.0
  0
LINE
  8
L-ZISSEN
 10
866.544156
 20
752.0
 30
0.0
 11
848.0
 21
733.455844
 31
0.0
  0
LINE
  8
L-ZISSEN
 10
848.0
 20
726.544156
 30
0.0
 11
866.544156
 21
708.0
 31
0.0
  0
LINE
  8
L-ZISSEN
  6
CONTINUOUS
 62
     7
 10
858.0
 20
775.000007
 30
0.0
 11
882.0
 21
775.000007
 31
0.0
  0
LINE
  8
L-ZISSEN
 10
858.0
 20
743.455844
 30
0.0
 11
858.0
 21
775.000007
 31
0.0
  0
LINE
  8
L-ZISSEN
 10
882.0
 20
743.455844
 30
0.0
 11
882.0
 21
775.000007
 31
0.0
  0
LINE
  8
L-ZISSEN
 10
876.0
 20
752.0
 30
0.0
 11
876.0
 21
749.455844
 31
0.0
  0
LINE
  8
L-ZISSEN
 10
864.0
 20
752.0
 30
0.0
 11
864.0
 21
749.455844
 31
0.0
  0
LINE
  8
L-ZISSEN
 10
1699.499986
 20
563.455844
 30
0.0
 11
1693.499986
 21
563.455844
 31
0.0
  0
LINE
  8
L-ZISSEN
 10
1699.499986
 20
572.000007
 30
0.0
 11
1699.499986
 21
563.455844
 31
0.0
  0
LINE
  8
L-ZISSEN
 10
1693.499986
 20
572.000007
 30
0.0
 11
1693.499986
 21
563.455844
 31
0.0
  0
LINE
  8
L-ZISSEN
 10
1708.499986
 20
569.455844
 30
0.0
 11
1699.499986
 21
569.455844
 31
0.0
  0
LINE
  8
L-ZISSEN
  6
CONTINUOUS
 62
     7
 10
1684.499986
 20
572.000007
 30
0.0
 11
1693.499986
 21
572.000007
 31
0.0
  0
LINE
  8
L-ZISSEN
 10
1693.499986
 20
569.455844
 30
0.0
 11
1683.799984
 21
569.455844
 31
0.0
  0
LINE
  8
L-ZISSEN
  6
CONTINUOUS
 62
     7
 10
1699.499986
 20
572.000007
 30
0.0
 11
1723.499986
 21
572.000007
 31
0.0
  0
LINE
  8
L-ZISSEN
  6
CONTINUOUS
 62
     7
 10
1727.499986
 20
567.838835
 30
0.0
 11
1727.499986
 21
553.5
 31
0.0
  0
LINE
  8
L-ZISSEN
  6
CONTINUOUS
 62
     7
 10
1723.499986
 20
572.000007
 30
0.0
 11
1723.499986
 21
567.838835
 31
0.0
  0
LINE
  8
L-ZISSEN
 10
1723.499986
 20
553.455844
 30
0.0
 11
1677.499986
 21
553.455844
 31
0.0
  0
LINE
  8
L-ZISSEN
 10
1723.499986
 20
546.544156
 30
0.0
 11
1677.499986
 21
546.544156
 31
0.0
  0
CIRCLE
  8
L-ZISSEN
 10
852.0
 20
730.0
 30
0.0
 40
3.5
  0
ARC
  8
L-ZISSEN
 10
852.0
 20
730.0
 30
0.0
 40
5.5
 50
315.0
 51
45.0
  0
LINE
  8
L-ZISSEN
 10
855.889087
 20
726.110913
 30
0.0
 11
852.161165
 21
722.382991
 31
0.0
  0
LINE
  8
L-ZISSEN
 10
855.889087
 20
733.889087
 30
0.0
 11
852.161165
 21
737.617009
 31
0.0
  0
ARC
  8
L-ZISSEN
 10
870.0
 20
748.0
 30
0.0
 40
5.5
 50
225.0
 51
315.0
  0
LINE
  8
L-ZISSEN
 10
873.889087
 20
744.110913
 30
0.0
 11
877.617009
 21
747.838835
 31
0.0
  0
LINE
  8
L-ZISSEN
 10
866.110913
 20
744.110913
 30
0.0
 11
862.382991
 21
747.838835
 31
0.0
  0
CIRCLE
  8
L-ZISSEN
 10
870.0
 20
748.0
 30
0.0
 40
3.5
  0
ARC
  8
L-ZISSEN
 10
888.0
 20
730.0
 30
0.0
 40
5.5
 50
135.0
 51
225.0
  0
LINE
  8
L-ZISSEN
 10
884.110913
 20
733.889087
 30
0.0
 11
887.838835
 21
737.617009
 31
0.0
  0
CIRCLE
  8
L-ZISSEN
 10
888.0
 20
730.0
 30
0.0
 40
3.5
  0
LINE
  8
L-ZISSEN
 10
884.110913
 20
726.110913
 30
0.0
 11
887.838835
 21
722.382991
 31
0.0
  0
CIRCLE
  8
L-ZISSEN
 10
870.0
 20
712.0
 30
0.0
 40
3.5
  0
LINE
  8
L-ZISSEN
 10
866.110913
 20
715.889087
 30
0.0
 11
862.382991
 21
712.161165
 31
0.0
  0
ARC
  8
L-ZISSEN
 10
870.0
 20
712.0
 30
0.0
 40
5.5
 50
45.0
 51
135.0
  0
LINE
  8
L-ZISSEN
 10
873.889087
 20
715.889087
 30
0.0
 11
877.617009
 21
712.161165
 31
0.0
  0
LINE
  8
L-ZISSEN
 10
1727.499986
 20
557.617009
 30
0.0
 11
1723.499986
 21
557.617009
 31
0.0
  0
LINE
  8
L-ZISSEN
 10
1727.499986
 20
567.838835
 30
0.0
 11
1723.499986
 21
567.838835
 31
0.0
  0
LINE
  8
L-ZISSEN
 10
1727.499986
 20
532.161165
 30
0.0
 11
1723.499986
 21
532.161165
 31
0.0
  0
LINE
  8
L-ZISSEN
 10
1727.499986
 20
542.382991
 30
0.0
 11
1723.499986
 21
542.382991
 31
0.0
  0
LINE
  8
L-ZISSEN
  6
CONTINUOUS
 62
     7
 10
1727.499986
 20
546.5
 30
0.0
 11
1727.499986
 21
532.161165
 31
0.0
  0
LINE
  8
L-ZISSEN
  6
CONTINUOUS
 62
     7
 10
1723.499986
 20
557.617009
 30
0.0
 11
1723.499986
 21
542.382991
 31
0.0
  0
LINE
  8
L-ZISSEN
  6
CONTINUOUS
 62
     7
 10
1723.499986
 20
532.161165
 30
0.0
 11
1723.499986
 21
528.000007
 31
0.0
  0
LINE
  8
L-ZISSEN
  6
CONTINUOUS
 62
     7
 10
1728.499986
 20
553.5
 30
0.0
 11
1728.499986
 21
546.5
 31
0.0
  0
LINE
  8
L-ZISSEN
 10
1728.499986
 20
546.5
 30
0.0
 11
1723.499986
 21
546.5
 31
0.0
  0
LINE
  8
L-ZISSEN
 10
1728.499986
 20
553.5
 30
0.0
 11
1723.499986
 21
553.5
 31
0.0
  0
LINE
  8
L-ZISSEN
 10
1728.499986
 20
571.5
 30
0.0
 11
1723.499986
 21
571.5
 31
0.0
  0
LINE
  8
L-ZISSEN
  6
CONTINUOUS
 62
     7
 10
1728.499986
 20
571.5
 30
0.0
 11
1728.499986
 21
564.5
 31
0.0
  0
LINE
  8
L-ZISSEN
 10
1728.499986
 20
564.5
 30
0.0
 11
1727.499986
 21
564.5
 31
0.0
  0
LINE
  8
L-ZISSEN
 10
1728.499986
 20
528.5
 30
0.0
 11
1723.499986
 21
528.5
 31
0.0
  0
LINE
  8
L-ZISSEN
  6
CONTINUOUS
 62
     7
 10
1728.499986
 20
528.5
 30
0.0
 11
1728.499986
 21
535.5
 31
0.0
  0
LINE
  8
L-ZISSEN
 10
1728.499986
 20
535.5
 30
0.0
 11
1727.499986
 21
535.5
 31
0.0
  0
LINE
  8
L-ZISSEN
 10
1511.500014
 20
535.5
 30
0.0
 11
1512.500014
 21
535.5
 31
0.0
  0
LINE
  8
L-ZISSEN
  6
CONTINUOUS
 62
     7
 10
1511.500014
 20
528.5
 30
0.0
 11
1511.500014
 21
535.5
 31
0.0
  0
LINE
  8
L-ZISSEN
 10
1511.500014
 20
528.5
 30
0.0
 11
1516.500014
 21
528.5
 31
0.0
  0
LINE
  8
L-ZISSEN
 10
1511.500014
 20
564.5
 30
0.0
 11
1512.500014
 21
564.5
 31
0.0
  0
LINE
  8
L-ZISSEN
  6
CONTINUOUS
 62
     7
 10
1511.500014
 20
571.5
 30
0.0
 11
1511.500014
 21
564.5
 31
0.0
  0
LINE
  8
L-ZISSEN
 10
1511.500014
 20
571.5
 30
0.0
 11
1516.500014
 21
571.5
 31
0.0
  0
LINE
  8
L-ZISSEN
 10
1511.500014
 20
553.5
 30
0.0
 11
1516.500014
 21
553.5
 31
0.0
  0
LINE
  8
L-ZISSEN
 10
1511.500014
 20
546.5
 30
0.0
 11
1516.500014
 21
546.5
 31
0.0
  0
LINE
  8
L-ZISSEN
  6
CONTINUOUS
 62
     7
 10
1511.500014
 20
553.5
 30
0.0
 11
1511.500014
 21
546.5
 31
0.0
  0
LINE
  8
L-ZISSEN
  6
CONTINUOUS
 62
     7
 10
1516.500014
 20
532.161165
 30
0.0
 11
1516.500014
 21
528.000007
 31
0.0
  0
LINE
  8
L-ZISSEN
  6
CONTINUOUS
 62
     7
 10
1516.500014
 20
557.617009
 30
0.0
 11
1516.500014
 21
542.382991
 31
0.0
  0
LINE
  8
L-ZISSEN
  6
CONTINUOUS
 62
     7
 10
1512.500014
 20
546.5
 30
0.0
 11
1512.500014
 21
532.161165
 31
0.0
  0
LINE
  8
L-ZISSEN
 10
1512.500014
 20
542.382991
 30
0.0
 11
1516.500014
 21
542.382991
 31
0.0
  0
LINE
  8
L-ZISSEN
 10
1512.500014
 20
532.161165
 30
0.0
 11
1516.500014
 21
532.161165
 31
0.0
  0
LINE
  8
L-ZISSEN
 10
1512.500014
 20
567.838835
 30
0.0
 11
1516.500014
 21
567.838835
 31
0.0
  0
LINE
  8
L-ZISSEN
 10
1512.500014
 20
557.617009
 30
0.0
 11
1516.500014
 21
557.617009
 31
0.0
  0
LINE
  8
L-ZISSEN
 10
1516.500014
 20
546.544156
 30
0.0
 11
1562.500014
 21
546.544156
 31
0.0
  0
LINE
  8
L-ZISSEN
 10
1516.500014
 20
553.455844
 30
0.0
 11
1562.500014
 21
553.455844
 31
0.0
  0
LINE
  8
L-ZISSEN
  6
CONTINUOUS
 62
     7
 10
1516.500014
 20
572.000007
 30
0.0
 11
1516.500014
 21
567.838835
 31
0.0
  0
LINE
  8
L-ZISSEN
  6
CONTINUOUS
 62
     7
 10
1512.500014
 20
567.838835
 30
0.0
 11
1512.500014
 21
553.5
 31
0.0
  0
LINE
  8
L-ZISSEN
  6
CONTINUOUS
 62
     7
 10
1540.500014
 20
572.000007
 30
0.0
 11
1516.500014
 21
572.000007
 31
0.0
  0
LINE
  8
L-ZISSEN
 10
1546.500014
 20
569.455844
 30
0.0
 11
1556.200016
 21
569.455844
 31
0.0
  0
LINE
  8
L-ZISSEN
  6
CONTINUOUS
 62
     7
 10
1555.500014
 20
572.000007
 30
0.0
 11
1546.500014
 21
572.000007
 31
0.0
  0
LINE
  8
L-ZISSEN
 10
1531.500014
 20
569.455844
 30
0.0
 11
1540.500014
 21
569.455844
 31
0.0
  0
LINE
  8
L-ZISSEN
 10
1546.500014
 20
572.000007
 30
0.0
 11
1546.500014
 21
563.455844
 31
0.0
  0
LINE
  8
L-ZISSEN
 10
1540.500014
 20
572.000007
 30
0.0
 11
1540.500014
 21
563.455844
 31
0.0
  0
LINE
  8
L-ZISSEN
 10
1540.500014
 20
563.455844
 30
0.0
 11
1546.500014
 21
563.455844
 31
0.0
  0
LINE
  8
L-ZISSEN
 10
1555.500014
 20
572.000007
 30
0.0
 11
1555.500014
 21
595.000007
 31
0.0
  0
LINE
  8
L-ZISSEN
 10
1531.500014
 20
569.455844
 30
0.0
 11
1531.500014
 21
595.000007
 31
0.0
  0
LINE
  8
L-ZISSEN
  6
CONTINUOUS
 62
     7
 10
1555.500014
 20
595.000007
 30
0.0
 11
1531.500014
 21
595.000007
 31
0.0
  0
LINE
  8
L-TYUSIN
 10
1543.500014
 20
572.999992
 30
0.0
 11
1543.500014
 21
600.000007
 31
0.0
  0
LINE
  8
L-ZISSEN
  6
CONTINUOUS
 62
     7
 10
1520.500014
 20
572.000007
 30
0.0
 11
1520.500014
 21
528.000007
 31
0.0
  0
LINE
  8
L-ZISSEN
  6
CONTINUOUS
 62
     7
 10
1556.200016
 20
571.249994
 30
0.0
 11
1556.200016
 21
562.749996
 31
0.0
  0
LINE
  8
L-ZISSEN
  6
CONTINUOUS
 62
     7
 10
1562.500014
 20
571.249994
 30
0.0
 11
1556.200016
 21
571.249994
 31
0.0
  0
LINE
  8
L-ZISSEN
  6
CONTINUOUS
 62
     7
 10
1562.500014
 20
562.749996
 30
0.0
 11
1556.200016
 21
562.749996
 31
0.0
  0
LINE
  8
L-ZISSEN
  6
CONTINUOUS
 62
     7
 10
1556.200016
 20
537.250004
 30
0.0
 11
1556.200016
 21
528.750006
 31
0.0
  0
LINE
  8
L-ZISSEN
  6
CONTINUOUS
 62
     7
 10
1562.500014
 20
537.250004
 30
0.0
 11
1556.200016
 21
537.250004
 31
0.0
  0
LINE
  8
L-ZISSEN
  6
CONTINUOUS
 62
     7
 10
1562.500014
 20
528.750006
 30
0.0
 11
1556.200016
 21
528.750006
 31
0.0
  0
LINE
  8
L-ZISSEN
  6
CONTINUOUS
 62
     7
 10
1562.500014
 20
572.0
 30
0.0
 11
1562.500014
 21
553.455844
 31
0.0
  0
LINE
  8
L-ZISSEN
 10
855.5
 20
321.500014
 30
0.0
 11
855.5
 21
322.500014
 31
0.0
  0
LINE
  8
L-ZISSEN
  6
CONTINUOUS
 62
     7
 10
848.5
 20
321.500014
 30
0.0
 11
855.5
 21
321.500014
 31
0.0
  0
LINE
  8
L-ZISSEN
 10
848.5
 20
321.500014
 30
0.0
 11
848.5
 21
326.500014
 31
0.0
  0
LINE
  8
L-ZISSEN
 10
884.5
 20
321.500014
 30
0.0
 11
884.5
 21
322.500014
 31
0.0
  0
LINE
  8
L-ZISSEN
  6
CONTINUOUS
 62
     7
 10
891.5
 20
321.500014
 30
0.0
 11
884.5
 21
321.500014
 31
0.0
  0
LINE
  8
L-ZISSEN
 10
891.5
 20
321.500014
 30
0.0
 11
891.5
 21
326.500014
 31
0.0
  0
LINE
  8
L-ZISSEN
 10
873.5
 20
321.500014
 30
0.0
 11
873.5
 21
326.500014
 31
0.0
  0
LINE
  8
L-ZISSEN
 10
866.5
 20
321.500014
 30
0.0
 11
866.5
 21
326.500014
 31
0.0
  0
LINE
  8
L-ZISSEN
  6
CONTINUOUS
 62
     7
 10
873.5
 20
321.500014
 30
0.0
 11
866.5
 21
321.500014
 31
0.0
  0
LINE
  8
L-ZISSEN
  6
CONTINUOUS
 62
     7
 10
852.161165
 20
326.500014
 30
0.0
 11
848.000007
 21
326.500014
 31
0.0
  0
LINE
  8
L-ZISSEN
  6
CONTINUOUS
 62
     7
 10
877.617009
 20
326.500014
 30
0.0
 11
862.382991
 21
326.500014
 31
0.0
  0
LINE
  8
L-ZISSEN
  6
CONTINUOUS
 62
     7
 10
866.5
 20
322.500014
 30
0.0
 11
852.161165
 21
322.500014
 31
0.0
  0
LINE
  8
L-ZISSEN
 10
862.382991
 20
322.500014
 30
0.0
 11
862.382991
 21
326.500014
 31
0.0
  0
LINE
  8
L-ZISSEN
 10
852.161165
 20
322.500014
 30
0.0
 11
852.161165
 21
326.500014
 31
0.0
  0
LINE
  8
L-ZISSEN
 10
887.838835
 20
322.500014
 30
0.0
 11
887.838835
 21
326.500014
 31
0.0
  0
LINE
  8
L-ZISSEN
 10
877.617009
 20
322.500014
 30
0.0
 11
877.617009
 21
326.500014
 31
0.0
  0
LINE
  8
L-ZISSEN
  6
CONTINUOUS
 62
     7
 10
892.000007
 20
326.500014
 30
0.0
 11
887.838835
 21
326.500014
 31
0.0
  0
LINE
  8
L-ZISSEN
  6
CONTINUOUS
 62
     7
 10
887.838835
 20
322.500014
 30
0.0
 11
873.5
 21
322.500014
 31
0.0
  0
LINE
  8
L-ZISSEN
  6
CONTINUOUS
 62
     7
 10
892.000007
 20
330.500014
 30
0.0
 11
848.000007
 21
330.500014
 31
0.0
  0
LINE
  8
L-ZISSEN
 10
873.455844
 20
326.500014
 30
0.0
 11
873.455844
 21
358.689937
 31
0.0
  0
LINE
  8
L-ZISSEN
 10
866.544156
 20
326.500014
 30
0.0
 11
866.544156
 21
358.689937
 31
0.0
  0
LINE
  8
L-ZISSEN
  6
CONTINUOUS
 62
     7
 10
848.000007
 20
373.5
 30
0.0
 11
848.000007
 21
326.500014
 31
0.0
  0
LINE
  8
L-ZISSEN
  6
CONTINUOUS
 62
     7
 10
891.999993
 20
373.5
 30
0.0
 11
891.999993
 21
326.500014
 31
0.0
  0
LINE
  8
L-ZISSEN
  6
CONTINUOUS
 62
     7
 10
892.000007
 20
529.499986
 30
0.0
 11
848.000007
 21
529.499986
 31
0.0
  0
LINE
  8
L-ZISSEN
  6
CONTINUOUS
 62
     7
 10
887.838835
 20
537.499986
 30
0.0
 11
873.5
 21
537.499986
 31
0.0
  0
LINE
  8
L-ZISSEN
  6
CONTINUOUS
 62
     7
 10
892.000007
 20
533.499986
 30
0.0
 11
887.838835
 21
533.499986
 31
0.0
  0
LINE
  8
L-ZISSEN
 10
877.617009
 20
537.499986
 30
0.0
 11
877.617009
 21
533.499986
 31
0.0
  0
LINE
  8
L-ZISSEN
 10
887.838835
 20
537.499986
 30
0.0
 11
887.838835
 21
533.499986
 31
0.0
  0
LINE
  8
L-ZISSEN
 10
852.161165
 20
537.499986
 30
0.0
 11
852.161165
 21
533.499986
 31
0.0
  0
LINE
  8
L-ZISSEN
 10
862.382991
 20
537.499986
 30
0.0
 11
862.382991
 21
533.499986
 31
0.0
  0
LINE
  8
L-ZISSEN
  6
CONTINUOUS
 62
     7
 10
866.5
 20
537.499986
 30
0.0
 11
852.161165
 21
537.499986
 31
0.0
  0
LINE
  8
L-ZISSEN
  6
CONTINUOUS
 62
     7
 10
877.617009
 20
533.499986
 30
0.0
 11
862.382991
 21
533.499986
 31
0.0
  0
LINE
  8
L-ZISSEN
  6
CONTINUOUS
 62
     7
 10
852.161165
 20
533.499986
 30
0.0
 11
848.000007
 21
533.499986
 31
0.0
  0
LINE
  8
L-ZISSEN
  6
CONTINUOUS
 62
     7
 10
873.5
 20
538.499986
 30
0.0
 11
866.5
 21
538.499986
 31
0.0
  0
LINE
  8
L-ZISSEN
 10
866.5
 20
538.499986
 30
0.0
 11
866.5
 21
533.499986
 31
0.0
  0
LINE
  8
L-ZISSEN
 10
873.5
 20
538.499986
 30
0.0
 11
873.5
 21
533.499986
 31
0.0
  0
LINE
  8
L-ZISSEN
 10
891.5
 20
538.499986
 30
0.0
 11
891.5
 21
533.499986
 31
0.0
  0
LINE
  8
L-ZISSEN
  6
CONTINUOUS
 62
     7
 10
891.5
 20
538.499986
 30
0.0
 11
884.5
 21
538.499986
 31
0.0
  0
LINE
  8
L-ZISSEN
 10
884.5
 20
538.499986
 30
0.0
 11
884.5
 21
537.499986
 31
0.0
  0
LINE
  8
L-ZISSEN
 10
848.5
 20
538.499986
 30
0.0
 11
848.5
 21
533.499986
 31
0.0
  0
LINE
  8
L-ZISSEN
  6
CONTINUOUS
 62
     7
 10
848.5
 20
538.499986
 30
0.0
 11
855.5
 21
538.499986
 31
0.0
  0
LINE
  8
L-ZISSEN
 10
855.5
 20
538.499986
 30
0.0
 11
855.5
 21
537.499986
 31
0.0
  0
LINE
  8
L-ZISSEN
 10
873.455844
 20
533.499986
 30
0.0
 11
873.455844
 21
501.310063
 31
0.0
  0
LINE
  8
L-ZISSEN
 10
866.544156
 20
533.499986
 30
0.0
 11
866.544156
 21
501.310063
 31
0.0
  0
LINE
  8
L-ZISSEN
  6
CONTINUOUS
 62
     7
 10
891.999993
 20
486.5
 30
0.0
 11
891.999993
 21
533.499986
 31
0.0
  0
LINE
  8
L-ZISSEN
  6
CONTINUOUS
 62
     7
 10
848.000007
 20
486.5
 30
0.0
 11
848.000007
 21
533.499986
 31
0.0
  0
LINE
  8
L-ZISSEN
  6
CONTINUOUS
 62
     7
 10
1677.499986
 20
546.544156
 30
0.0
 11
1677.499986
 21
528.000007
 31
0.0
  0
LINE
  8
L-ZISSEN
  6
CONTINUOUS
 62
     7
 10
856.43226
 20
372.500014
 30
0.0
 11
848.000007
 21
372.500014
 31
0.0
  0
LINE
  8
L-ZISSEN
  6
CONTINUOUS
 62
     7
 10
856.43226
 20
487.499986
 30
0.0
 11
848.000007
 21
487.499986
 31
0.0
  0
LINE
  8
L-ZISSEN
  6
CONTINUOUS
 62
     7
 10
891.999993
 20
487.499986
 30
0.0
 11
883.56774
 21
487.499986
 31
0.0
  0
LINE
  8
L-ZISSEN
  6
CONTINUOUS
 62
     7
 10
1562.500014
 20
546.544156
 30
0.0
 11
1562.500014
 21
528.000007
 31
0.0
  0
LINE
  8
L-ZISSEN
 10
884.5
 20
1128.499986
 30
0.0
 11
884.5
 21
1127.499986
 31
0.0
  0
LINE
  8
L-ZISSEN
  6
CONTINUOUS
 62
     7
 10
891.5
 20
1128.499986
 30
0.0
 11
884.5
 21
1128.499986
 31
0.0
  0
LINE
  8
L-ZISSEN
 10
891.5
 20
1128.499986
 30
0.0
 11
891.5
 21
1123.499986
 31
0.0
  0
LINE
  8
L-ZISSEN
 10
855.5
 20
1128.499986
 30
0.0
 11
855.5
 21
1127.499986
 31
0.0
  0
LINE
  8
L-ZISSEN
  6
CONTINUOUS
 62
     7
 10
848.5
 20
1128.499986
 30
0.0
 11
855.5
 21
1128.499986
 31
0.0
  0
LINE
  8
L-ZISSEN
 10
848.5
 20
1128.499986
 30
0.0
 11
848.5
 21
1123.499986
 31
0.0
  0
LINE
  8
L-ZISSEN
 10
866.5
 20
1128.499986
 30
0.0
 11
866.5
 21
1123.499986
 31
0.0
  0
LINE
  8
L-ZISSEN
 10
873.5
 20
1128.499986
 30
0.0
 11
873.5
 21
1123.499986
 31
0.0
  0
LINE
  8
L-ZISSEN
  6
CONTINUOUS
 62
     7
 10
866.5
 20
1128.499986
 30
0.0
 11
873.5
 21
1128.499986
 31
0.0
  0
LINE
  8
L-ZISSEN
  6
CONTINUOUS
 62
     7
 10
887.838835
 20
1123.499986
 30
0.0
 11
891.999993
 21
1123.499986
 31
0.0
  0
LINE
  8
L-ZISSEN
  6
CONTINUOUS
 62
     7
 10
862.382991
 20
1123.499986
 30
0.0
 11
877.617009
 21
1123.499986
 31
0.0
  0
LINE
  8
L-ZISSEN
  6
CONTINUOUS
 62
     7
 10
873.5
 20
1127.499986
 30
0.0
 11
887.838835
 21
1127.499986
 31
0.0
  0
LINE
  8
L-ZISSEN
 10
877.617009
 20
1127.499986
 30
0.0
 11
877.617009
 21
1123.499986
 31
0.0
  0
LINE
  8
L-ZISSEN
 10
887.838835
 20
1127.499986
 30
0.0
 11
887.838835
 21
1123.499986
 31
0.0
  0
LINE
  8
L-ZISSEN
 10
852.161165
 20
1127.499986
 30
0.0
 11
852.161165
 21
1123.499986
 31
0.0
  0
LINE
  8
L-ZISSEN
 10
862.382991
 20
1127.499986
 30
0.0
 11
862.382991
 21
1123.499986
 31
0.0
  0
LINE
  8
L-ZISSEN
  6
CONTINUOUS
 62
     7
 10
847.999993
 20
1123.499986
 30
0.0
 11
852.161165
 21
1123.499986
 31
0.0
  0
LINE
  8
L-ZISSEN
  6
CONTINUOUS
 62
     7
 10
852.161165
 20
1127.499986
 30
0.0
 11
866.5
 21
1127.499986
 31
0.0
  0
LINE
  8
L-ZISSEN
  6
CONTINUOUS
 62
     7
 10
847.999993
 20
1119.499986
 30
0.0
 11
891.999993
 21
1119.499986
 31
0.0
  0
LINE
  8
L-ZISSEN
 10
866.544156
 20
1123.499986
 30
0.0
 11
866.544156
 21
1108.499986
 31
0.0
  0
LINE
  8
L-ZISSEN
 10
873.455844
 20
1123.499986
 30
0.0
 11
873.455844
 21
1108.499986
 31
0.0
  0
LINE
  8
L-ZISSEN
 10
882.0
 20
1084.499986
 30
0.0
 11
858.0
 21
1084.499986
 31
0.0
  0
LINE
  8
L-TYUSIN
 10
887.0
 20
1096.499986
 30
0.0
 11
853.0
 21
1096.499986
 31
0.0
  0
LINE
  8
L-ZISSEN
 10
882.0
 20
1108.499986
 30
0.0
 11
858.0
 21
1108.499986
 31
0.0
  0
LINE
  8
L-ZISSEN
 10
882.0
 20
1084.499986
 30
0.0
 11
882.0
 21
1108.499986
 31
0.0
  0
LINE
  8
L-ZISSEN
 10
858.0
 20
1084.499986
 30
0.0
 11
858.0
 21
1108.499986
 31
0.0
  0
LINE
  8
L-ZISSEN
  6
CONTINUOUS
 62
     7
 10
876.0
 20
1077.499986
 30
0.0
 11
891.999993
 21
1077.499986
 31
0.0
  0
LINE
  8
L-TYUSIN
 10
887.0
 20
943.500014
 30
0.0
 11
853.0
 21
943.500014
 31
0.0
  0
LINE
  8
L-ZISSEN
 10
882.0
 20
955.500014
 30
0.0
 11
882.0
 21
931.500014
 31
0.0
  0
LINE
  8
L-ZISSEN
 10
882.0
 20
955.500014
 30
0.0
 11
858.0
 21
955.500014
 31
0.0
  0
LINE
  8
L-ZISSEN
 10
858.0
 20
955.500014
 30
0.0
 11
858.0
 21
931.500014
 31
0.0
  0
LINE
  8
L-ZISSEN
 10
882.0
 20
931.500014
 30
0.0
 11
858.0
 21
931.500014
 31
0.0
  0
LINE
  8
L-ZISSEN
 10
866.544156
 20
916.500014
 30
0.0
 11
866.544156
 21
931.500014
 31
0.0
  0
LINE
  8
L-ZISSEN
 10
873.455844
 20
916.500014
 30
0.0
 11
873.455844
 21
931.500014
 31
0.0
  0
LINE
  8
L-ZISSEN
  6
CONTINUOUS
 62
     7
 10
847.999993
 20
920.500014
 30
0.0
 11
891.999993
 21
920.500014
 31
0.0
  0
LINE
  8
L-ZISSEN
  6
CONTINUOUS
 62
     7
 10
852.161165
 20
912.500014
 30
0.0
 11
866.5
 21
912.500014
 31
0.0
  0
LINE
  8
L-ZISSEN
  6
CONTINUOUS
 62
     7
 10
847.999993
 20
916.500014
 30
0.0
 11
852.161165
 21
916.500014
 31
0.0
  0
LINE
  8
L-ZISSEN
 10
862.382991
 20
912.500014
 30
0.0
 11
862.382991
 21
916.500014
 31
0.0
  0
LINE
  8
L-ZISSEN
 10
852.161165
 20
912.500014
 30
0.0
 11
852.161165
 21
916.500014
 31
0.0
  0
LINE
  8
L-ZISSEN
 10
887.838835
 20
912.500014
 30
0.0
 11
887.838835
 21
916.500014
 31
0.0
  0
LINE
  8
L-ZISSEN
 10
877.617009
 20
912.500014
 30
0.0
 11
877.617009
 21
916.500014
 31
0.0
  0
LINE
  8
L-ZISSEN
  6
CONTINUOUS
 62
     7
 10
873.5
 20
912.500014
 30
0.0
 11
887.838835
 21
912.500014
 31
0.0
  0
LINE
  8
L-ZISSEN
  6
CONTINUOUS
 62
     7
 10
862.382991
 20
916.500014
 30
0.0
 11
877.617009
 21
916.500014
 31
0.0
  0
LINE
  8
L-ZISSEN
  6
CONTINUOUS
 62
     7
 10
887.838835
 20
916.500014
 30
0.0
 11
891.999993
 21
916.500014
 31
0.0
  0
LINE
  8
L-ZISSEN
  6
CONTINUOUS
 62
     7
 10
866.5
 20
911.500014
 30
0.0
 11
873.5
 21
911.500014
 31
0.0
  0
LINE
  8
L-ZISSEN
 10
873.5
 20
911.500014
 30
0.0
 11
873.5
 21
916.500014
 31
0.0
  0
LINE
  8
L-ZISSEN
 10
866.5
 20
911.500014
 30
0.0
 11
866.5
 21
916.500014
 31
0.0
  0
LINE
  8
L-ZISSEN
 10
848.5
 20
911.500014
 30
0.0
 11
848.5
 21
916.500014
 31
0.0
  0
LINE
  8
L-ZISSEN
  6
CONTINUOUS
 62
     7
 10
848.5
 20
911.500014
 30
0.0
 11
855.5
 21
911.500014
 31
0.0
  0
LINE
  8
L-ZISSEN
 10
855.5
 20
911.500014
 30
0.0
 11
855.5
 21
912.500014
 31
0.0
  0
LINE
  8
L-ZISSEN
 10
891.5
 20
911.500014
 30
0.0
 11
891.5
 21
916.500014
 31
0.0
  0
LINE
  8
L-ZISSEN
  6
CONTINUOUS
 62
     7
 10
891.5
 20
911.500014
 30
0.0
 11
884.5
 21
911.500014
 31
0.0
  0
LINE
  8
L-ZISSEN
 10
884.5
 20
911.500014
 30
0.0
 11
884.5
 21
912.500014
 31
0.0
  0
LINE
  8
L-ZISSEN
  6
CONTINUOUS
 62
     7
 10
876.0
 20
962.500017
 30
0.0
 11
891.999993
 21
962.500017
 31
0.0
  0
CIRCLE
  8
L-ZISSEN
 10
870.0
 20
943.500014
 30
0.0
 40
5.7225
  0
CIRCLE
  8
L-ZISSEN
 10
870.0
 20
1096.499986
 30
0.0
 40
5.7225
  0
LINE
  8
L-TYUSIN
 10
20.0
 20
1180.0
 30
0.0
 11
1095.0
 21
1180.0
 31
0.0
  0
LINE
  8
L-TYUSIN
 10
195.0
 20
1195.0
 30
0.0
 11
195.0
 21
20.0
 31
0.0
  0
LINE
  8
L-TYUSIN
 10
345.0
 20
1195.0
 30
0.0
 11
345.0
 21
280.0
 31
0.0
  0
LINE
  8
L-TYUSIN
 10
645.0
 20
1195.0
 30
0.0
 11
645.0
 21
20.0
 31
0.0
  0
LINE
  8
L-TYUSIN
 10
495.0
 20
1210.0
 30
0.0
 11
495.0
 21
20.0
 31
0.0
  0
LINE
  8
L-TYUSIN
 10
945.0
 20
1210.0
 30
0.0
 11
945.0
 21
280.0
 31
0.0
  0
LINE
  8
L-TYUSIN
 10
795.0
 20
1195.0
 30
0.0
 11
795.0
 21
280.0
 31
0.0
  0
LINE
  8
L-ZISSEN
 10
923.0
 20
1092.0
 30
0.0
 11
923.0
 21
948.0
 31
0.0
  0
LINE
  8
L-TYUSIN
  6
CENTER
 62
     1
 10
906.0
 20
957.0
 30
0.0
 11
928.0
 21
957.0
 31
0.0
  0
LINE
  8
L-ZISSEN
 10
923.0
 20
948.0
 30
0.0
 11
911.0
 21
948.0
 31
0.0
  0
LINE
  8
L-ZISSEN
 10
911.0
 20
948.0
 30
0.0
 11
911.0
 21
963.5
 31
0.0
  0
LINE
  8
L-ZISSEN
 10
923.0
 20
1092.0
 30
0.0
 11
911.0
 21
1092.0
 31
0.0
  0
LINE
  8
L-TYUSIN
  6
CENTER
 62
     1
 10
906.0
 20
1083.0
 30
0.0
 11
928.0
 21
1083.0
 31
0.0
  0
LINE
  8
L-ZISSEN
 10
817.0
 20
1092.0
 30
0.0
 11
817.0
 21
948.0
 31
0.0
  0
LINE
  8
L-ZISSEN
 10
829.0
 20
948.0
 30
0.0
 11
829.0
 21
963.5
 31
0.0
  0
LINE
  8
L-TYUSIN
  6
CENTER
 62
     1
 10
834.0
 20
957.0
 30
0.0
 11
812.0
 21
957.0
 31
0.0
  0
LINE
  8
L-ZISSEN
 10
817.0
 20
948.0
 30
0.0
 11
829.0
 21
948.0
 31
0.0
  0
LINE
  8
L-ZISSEN
 10
817.0
 20
1092.0
 30
0.0
 11
829.0
 21
1092.0
 31
0.0
  0
LINE
  8
L-TYUSIN
  6
CENTER
 62
     1
 10
834.0
 20
1083.0
 30
0.0
 11
812.0
 21
1083.0
 31
0.0
  0
LINE
  8
L-TYUSIN
  6
CENTER
 62
     1
 10
895.0
 20
958.5
 30
0.0
 11
895.0
 21
977.500014
 31
0.0
  0
LINE
  8
L-ZISSEN
 10
891.999993
 20
963.5
 30
0.0
 11
914.0
 21
963.5
 31
0.0
  0
LINE
  8
L-ZISSEN
 10
914.0
 20
963.5
 30
0.0
 11
914.0
 21
988.5
 31
0.0
  0
LINE
  8
L-ZISSEN
 10
914.0
 20
988.5
 30
0.0
 11
902.49999
 21
988.5
 31
0.0
  0
LINE
  8
L-ZISSEN
 10
848.0
 20
628.0
 30
0.0
 11
892.0
 21
628.0
 31
0.0
  0
LINE
  8
L-TYUSIN
 10
818.0
 20
682.0
 30
0.0
 11
922.0
 21
682.0
 31
0.0
  0
LINE
  8
L-TYUSIN
  6
CENTER
 62
     1
 10
897.0
 20
707.0
 30
0.0
 11
897.0
 21
657.0
 31
0.0
  0
CIRCLE
  8
L-ZISSEN
 10
897.0
 20
682.0
 30
0.0
 40
19.0
  0
LINE
  8
L-ZISSEN
 10
909.0
 20
708.0
 30
0.0
 11
909.0
 21
696.73092
 31
0.0
  0
CIRCLE
  8
L-ZISSEN
 10
843.0
 20
682.0
 30
0.0
 40
19.0
  0
LINE
  8
L-TYUSIN
  6
CENTER
 62
     1
 10
843.0
 20
707.0
 30
0.0
 11
843.0
 21
657.0
 31
0.0
  0
LINE
  8
L-ZISSEN
 10
830.5
 20
708.0
 30
0.0
 11
830.5
 21
717.0
 31
0.0
  0
LINE
  8
L-ZISSEN
 10
831.0
 20
708.0
 30
0.0
 11
831.0
 21
696.73092
 31
0.0
  0
LINE
  8
L-ZISSEN
 10
909.0
 20
993.5
 30
0.0
 11
909.0
 21
1046.5
 31
0.0
  0
LINE
  8
L-ZISSEN
 10
914.0
 20
988.5
 30
0.0
 11
909.0
 21
993.5
 31
0.0
  0
LINE
  8
L-ZISSEN
 10
909.0
 20
993.5
 30
0.0
 11
904.598052
 21
993.5
 31
0.0
  0
LINE
  8
L-ZISSEN
 10
891.999993
 20
1076.5
 30
0.0
 11
914.0
 21
1076.5
 31
0.0
  0
LINE
  8
L-TYUSIN
  6
CENTER
 62
     1
 10
895.0
 20
1081.5
 30
0.0
 11
895.0
 21
1062.499986
 31
0.0
  0
LINE
  8
L-ZISSEN
 10
914.0
 20
1076.5
 30
0.0
 11
914.0
 21
1051.5
 31
0.0
  0
LINE
  8
L-ZISSEN
 10
914.0
 20
1051.5
 30
0.0
 11
902.49999
 21
1051.5
 31
0.0
  0
LINE
  8
L-ZISSEN
 10
914.0
 20
1051.5
 30
0.0
 11
909.0
 21
1046.5
 31
0.0
  0
LINE
  8
L-ZISSEN
 10
909.0
 20
1046.5
 30
0.0
 11
904.598052
 21
1046.5
 31
0.0
  0
LINE
  8
L-ZISSEN
 10
911.0
 20
1092.0
 30
0.0
 11
911.0
 21
1076.5
 31
0.0
  0
LINE
  8
L-ZISSEN
 10
826.0
 20
1051.5
 30
0.0
 11
837.50001
 21
1051.5
 31
0.0
  0
LINE
  8
L-ZISSEN
 10
826.0
 20
1051.5
 30
0.0
 11
831.0
 21
1046.5
 31
0.0
  0
LINE
  8
L-ZISSEN
 10
831.0
 20
993.5
 30
0.0
 11
831.0
 21
1046.5
 31
0.0
  0
LINE
  8
L-ZISSEN
 10
831.0
 20
1046.5
 30
0.0
 11
837.50001
 21
1046.5
 31
0.0
  0
LINE
  8
L-ZISSEN
 10
826.0
 20
1076.5
 30
0.0
 11
826.0
 21
1051.5
 31
0.0
  0
LINE
  8
L-ZISSEN
 10
848.000007
 20
1076.5
 30
0.0
 11
826.0
 21
1076.5
 31
0.0
  0
LINE
  8
L-TYUSIN
  6
CENTER
 62
     1
 10
845.0
 20
1081.5
 30
0.0
 11
845.0
 21
1062.499986
 31
0.0
  0
LINE
  8
L-ZISSEN
 10
831.0
 20
993.5
 30
0.0
 11
837.50001
 21
993.5
 31
0.0
  0
LINE
  8
L-ZISSEN
 10
826.0
 20
988.5
 30
0.0
 11
837.50001
 21
988.5
 31
0.0
  0
LINE
  8
L-ZISSEN
 10
826.0
 20
988.5
 30
0.0
 11
831.0
 21
993.5
 31
0.0
  0
LINE
  8
L-ZISSEN
 10
826.0
 20
963.5
 30
0.0
 11
826.0
 21
988.5
 31
0.0
  0
LINE
  8
L-ZISSEN
 10
848.000007
 20
963.5
 30
0.0
 11
826.0
 21
963.5
 31
0.0
  0
LINE
  8
L-TYUSIN
  6
CENTER
 62
     1
 10
845.0
 20
958.5
 30
0.0
 11
845.0
 21
977.500014
 31
0.0
  0
LINE
  8
L-ZISSEN
 10
829.0
 20
1076.5
 30
0.0
 11
829.0
 21
1092.0
 31
0.0
  0
LINE
  8
L-TYUSIN
 10
812.0
 20
653.0
 30
0.0
 11
928.0
 21
653.0
 31
0.0
  0
LINE
  8
L-ZISSEN
 10
923.0
 20
674.0
 30
0.0
 11
923.0
 21
632.0
 31
0.0
  0
LINE
  8
L-ZISSEN
 10
923.0
 20
634.0
 30
0.0
 11
892.0
 21
634.0
 31
0.0
  0
LINE
  8
L-ZISSEN
 10
911.0
 20
628.0
 30
0.0
 11
911.0
 21
669.154767
 31
0.0
  0
LINE
  8
L-ZISSEN
 10
913.155494
 20
672.0
 30
0.0
 11
923.0
 21
672.0
 31
0.0
  0
LINE
  8
L-ZISSEN
 10
923.0
 20
632.0
 30
0.0
 11
911.0
 21
632.0
 31
0.0
  0
LINE
  8
L-ZISSEN
 10
923.0
 20
674.0
 30
0.0
 11
914.233688
 21
674.0
 31
0.0
  0
LINE
  8
L-ZISSEN
 10
917.0
 20
628.0
 30
0.0
 11
917.0
 21
632.0
 31
0.0
  0
LINE
  8
L-ZISSEN
 10
892.0
 20
628.0
 30
0.0
 11
892.0
 21
638.0
 31
0.0
  0
LINE
  8
L-ZISSEN
 10
911.0
 20
628.0
 30
0.0
 11
917.0
 21
628.0
 31
0.0
  0
LINE
  8
L-ZISSEN
 10
829.0
 20
628.0
 30
0.0
 11
823.0
 21
628.0
 31
0.0
  0
LINE
  8
L-ZISSEN
 10
848.0
 20
628.0
 30
0.0
 11
848.0
 21
638.0
 31
0.0
  0
LINE
  8
L-ZISSEN
 10
823.0
 20
628.0
 30
0.0
 11
823.0
 21
632.0
 31
0.0
  0
LINE
  8
L-ZISSEN
 10
817.0
 20
674.0
 30
0.0
 11
825.766312
 21
674.0
 31
0.0
  0
LINE
  8
L-ZISSEN
 10
817.0
 20
632.0
 30
0.0
 11
829.0
 21
632.0
 31
0.0
  0
LINE
  8
L-ZISSEN
 10
826.844506
 20
672.0
 30
0.0
 11
817.0
 21
672.0
 31
0.0
  0
LINE
  8
L-ZISSEN
 10
829.0
 20
628.0
 30
0.0
 11
829.0
 21
669.154767
 31
0.0
  0
LINE
  8
L-ZISSEN
 10
817.0
 20
634.0
 30
0.0
 11
848.0
 21
634.0
 31
0.0
  0
LINE
  8
L-ZISSEN
 10
817.0
 20
674.0
 30
0.0
 11
817.0
 21
632.0
 31
0.0
  0
LINE
  8
L-ZISSEN
 10
902.0
 20
707.0
 30
0.0
 11
902.0
 21
700.330303
 31
0.0
  0
LINE
  8
L-ZISSEN
 10
838.0
 20
707.0
 30
0.0
 11
838.0
 21
700.330303
 31
0.0
  0
LINE
  8
L-ZISSEN
 10
848.0
 20
638.0
 30
0.0
 11
892.0
 21
638.0
 31
0.0
  0
LINE
  8
L-TYUSIN
  6
CENTER
 62
     1
 10
918.0
 20
985.0
 30
0.0
 11
928.0
 21
985.0
 31
0.0
  0
LINE
  8
L-TYUSIN
  6
CENTER
 62
     1
 10
918.0
 20
1055.0
 30
0.0
 11
928.0
 21
1055.0
 31
0.0
  0
LINE
  8
L-TYUSIN
  6
CENTER
 62
     1
 10
822.0
 20
1055.0
 30
0.0
 11
812.0
 21
1055.0
 31
0.0
  0
LINE
  8
L-TYUSIN
  6
CENTER
 62
     1
 10
822.0
 20
985.0
 30
0.0
 11
812.0
 21
985.0
 31
0.0
  0
LINE
  8
L-TYUSIN
 10
20.0
 20
860.0
 30
0.0
 11
1095.0
 21
860.0
 31
0.0
  0
LINE
  8
L-TYUSIN
 10
20.0
 20
580.0
 30
0.0
 11
1095.0
 21
580.0
 31
0.0
  0
LINE
  8
L-TYUSIN
 10
20.0
 20
1195.0
 30
0.0
 11
1095.0
 21
1195.0
 31
0.0
  0
LINE
  8
L-TYUSIN
 10
20.0
 20
1210.0
 30
0.0
 11
1095.0
 21
1210.0
 31
0.0
  0
LINE
  8
L-TYUSIN
 10
20.0
 20
270.0
 30
0.0
 11
1095.0
 21
270.0
 31
0.0
  0
LINE
  8
L-TYUSIN
 10
1095.0
 20
1210.0
 30
0.0
 11
1095.0
 21
280.0
 31
0.0
  0
LINE
  8
L-ZISSEN
 10
884.145082
 20
373.5
 30
0.0
 11
911.0
 21
373.5
 31
0.0
  0
LINE
  8
L-TYUSIN
  6
CENTER
 62
     1
 10
895.0
 20
368.5
 30
0.0
 11
895.0
 21
378.5
 31
0.0
  0
LINE
  8
L-TYUSIN
  6
CENTER
 62
     1
 10
906.0
 20
367.0
 30
0.0
 11
928.0
 21
367.0
 31
0.0
  0
LINE
  8
L-ZISSEN
 10
923.0
 20
358.0
 30
0.0
 11
911.0
 21
358.0
 31
0.0
  0
LINE
  8
L-ZISSEN
 10
923.0
 20
502.0
 30
0.0
 11
923.0
 21
358.0
 31
0.0
  0
LINE
  8
L-TYUSIN
  6
CENTER
 62
     1
 10
918.0
 20
395.0
 30
0.0
 11
928.0
 21
395.0
 31
0.0
  0
LINE
  8
L-ZISSEN
 10
884.145082
 20
486.5
 30
0.0
 11
911.0
 21
486.5
 31
0.0
  0
LINE
  8
L-TYUSIN
  6
CENTER
 62
     1
 10
906.0
 20
493.0
 30
0.0
 11
928.0
 21
493.0
 31
0.0
  0
LINE
  8
L-ZISSEN
 10
911.0
 20
502.0
 30
0.0
 11
911.0
 21
358.0
 31
0.0
  0
LINE
  8
L-ZISSEN
 10
923.0
 20
502.0
 30
0.0
 11
911.0
 21
502.0
 31
0.0
  0
LINE
  8
L-TYUSIN
  6
CENTER
 62
     1
 10
918.0
 20
465.0
 30
0.0
 11
928.0
 21
465.0
 31
0.0
  0
LINE
  8
L-TYUSIN
  6
CENTER
 62
     1
 10
895.0
 20
491.5
 30
0.0
 11
895.0
 21
481.5
 31
0.0
  0
LINE
  8
L-ZISSEN
 10
855.854918
 20
486.5
 30
0.0
 11
829.0
 21
486.5
 31
0.0
  0
LINE
  8
L-TYUSIN
  6
CENTER
 62
     1
 10
845.0
 20
491.5
 30
0.0
 11
845.0
 21
481.5
 31
0.0
  0
LINE
  8
L-ZISSEN
 10
855.854918
 20
373.5
 30
0.0
 11
829.0
 21
373.5
 31
0.0
  0
LINE
  8
L-TYUSIN
  6
CENTER
 62
     1
 10
845.0
 20
368.5
 30
0.0
 11
845.0
 21
378.5
 31
0.0
  0
LINE
  8
L-TYUSIN
  6
CENTER
 62
     1
 10
834.0
 20
367.0
 30
0.0
 11
812.0
 21
367.0
 31
0.0
  0
LINE
  8
L-ZISSEN
 10
817.0
 20
358.0
 30
0.0
 11
829.0
 21
358.0
 31
0.0
  0
LINE
  8
L-ZISSEN
 10
817.0
 20
502.0
 30
0.0
 11
817.0
 21
358.0
 31
0.0
  0
LINE
  8
L-ZISSEN
 10
817.0
 20
502.0
 30
0.0
 11
829.0
 21
502.0
 31
0.0
  0
LINE
  8
L-TYUSIN
  6
CENTER
 62
     1
 10
834.0
 20
493.0
 30
0.0
 11
812.0
 21
493.0
 31
0.0
  0
LINE
  8
L-TYUSIN
  6
CENTER
 62
     1
 10
822.0
 20
465.0
 30
0.0
 11
812.0
 21
465.0
 31
0.0
  0
LINE
  8
L-TYUSIN
  6
CENTER
 62
     1
 10
822.0
 20
395.0
 30
0.0
 11
812.0
 21
395.0
 31
0.0
  0
LINE
  8
L-TYUSIN
  6
CENTER
 62
     1
 10
878.0
 20
367.0
 30
0.0
 11
862.0
 21
367.0
 31
0.0
  0
ARC
  8
L-ZISSEN
 10
870.0
 20
367.0
 30
0.0
 40
9.0
 50
210.0
 51
330.0
  0
LINE
  8
L-ZISSEN
 10
848.0
 20
472.894882
 30
0.0
 11
848.0
 21
387.105118
 31
0.0
  0
LINE
  8
L-ZISSEN
 10
892.0
 20
472.894882
 30
0.0
 11
892.0
 21
387.105118
 31
0.0
  0
LINE
  8
L-ZISSEN
 10
829.0
 20
502.0
 30
0.0
 11
829.0
 21
358.0
 31
0.0
  0
LINE
  8
L-ZISSEN
 10
877.794229
 20
362.5
 30
0.0
 11
892.0
 21
387.105118
 31
0.0
  0
LINE
  8
L-ZISSEN
 10
862.205771
 20
362.5
 30
0.0
 11
848.0
 21
387.105118
 31
0.0
  0
LINE
  8
L-ZISSEN
  6
CONTINUOUS
 62
     7
 10
848.750006
 20
372.500014
 30
0.0
 11
848.750006
 21
366.200016
 31
0.0
  0
CIRCLE
  8
L-ZISSEN
 10
870.0
 20
367.0
 30
0.0
 40
4.5
  0
CIRCLE
  8
L-ZISSEN
 10
870.0
 20
493.0
 30
0.0
 40
4.5
  0
ARC
  8
L-ZISSEN
 10
870.0
 20
493.0
 30
0.0
 40
9.0
 50
30.0
 51
150.0
  0
LINE
  8
L-ZISSEN
 10
877.794229
 20
497.5
 30
0.0
 11
892.0
 21
472.894882
 31
0.0
  0
LINE
  8
L-TYUSIN
  6
CENTER
 62
     1
 10
878.0
 20
493.0
 30
0.0
 11
862.0
 21
493.0
 31
0.0
  0
LINE
  8
L-ZISSEN
 10
862.205771
 20
497.5
 30
0.0
 11
848.0
 21
472.894882
 31
0.0
  0
LINE
  8
L-ZISSEN
  6
CONTINUOUS
 62
     7
 10
848.750006
 20
487.499986
 30
0.0
 11
848.750006
 21
493.799981
 31
0.0
  0
LINE
  8
L-ZISSEN
  6
CONTINUOUS
 62
     7
 10
882.749996
 20
493.799981
 30
0.0
 11
891.249994
 21
493.799981
 31
0.0
  0
LINE
  8
L-ZISSEN
  6
CONTINUOUS
 62
     7
 10
891.249994
 20
487.499986
 30
0.0
 11
891.249994
 21
493.799981
 31
0.0
  0
LINE
  8
L-ZISSEN
 10
667.0
 20
502.0
 30
0.0
 11
667.0
 21
358.0
 31
0.0
  0
LINE
  8
L-ZISSEN
 10
667.0
 20
358.0
 30
0.0
 11
679.0
 21
358.0
 31
0.0
  0
LINE
  8
L-TYUSIN
  6
CENTER
 62
     1
 10
684.0
 20
367.0
 30
0.0
 11
662.0
 21
367.0
 31
0.0
  0
LINE
  8
L-ZISSEN
 10
679.0
 20
502.0
 30
0.0
 11
679.0
 21
358.0
 31
0.0
  0
LINE
  8
L-TYUSIN
  6
CENTER
 62
     1
 10
672.0
 20
395.0
 30
0.0
 11
662.0
 21
395.0
 31
0.0
  0
LINE
  8
L-TYUSIN
  6
CENTER
 62
     1
 10
672.0
 20
465.0
 30
0.0
 11
662.0
 21
465.0
 31
0.0
  0
LINE
  8
L-TYUSIN
  6
CENTER
 62
     1
 10
684.0
 20
493.0
 30
0.0
 11
662.0
 21
493.0
 31
0.0
  0
LINE
  8
L-ZISSEN
 10
667.0
 20
502.0
 30
0.0
 11
679.0
 21
502.0
 31
0.0
  0
LINE
  8
L-ZISSEN
 10
705.854918
 20
486.5
 30
0.0
 11
679.0
 21
486.5
 31
0.0
  0
LINE
  8
L-TYUSIN
  6
CENTER
 62
     1
 10
695.0
 20
491.5
 30
0.0
 11
695.0
 21
481.5
 31
0.0
  0
LINE
  8
L-ZISSEN
 10
734.145082
 20
486.5
 30
0.0
 11
761.0
 21
486.5
 31
0.0
  0
LINE
  8
L-TYUSIN
  6
CENTER
 62
     1
 10
745.0
 20
491.5
 30
0.0
 11
745.0
 21
481.5
 31
0.0
  0
LINE
  8
L-ZISSEN
 10
773.0
 20
502.0
 30
0.0
 11
761.0
 21
502.0
 31
0.0
  0
LINE
  8
L-ZISSEN
 10
761.0
 20
502.0
 30
0.0
 11
761.0
 21
358.0
 31
0.0
  0
LINE
  8
L-TYUSIN
  6
CENTER
 62
     1
 10
756.0
 20
493.0
 30
0.0
 11
778.0
 21
493.0
 31
0.0
  0
LINE
  8
L-ZISSEN
 10
773.0
 20
502.0
 30
0.0
 11
773.0
 21
358.0
 31
0.0
  0
LINE
  8
L-TYUSIN
  6
CENTER
 62
     1
 10
768.0
 20
465.0
 30
0.0
 11
778.0
 21
465.0
 31
0.0
  0
LINE
  8
L-TYUSIN
  6
CENTER
 62
     1
 10
768.0
 20
395.0
 30
0.0
 11
778.0
 21
395.0
 31
0.0
  0
LINE
  8
L-TYUSIN
  6
CENTER
 62
     1
 10
756.0
 20
367.0
 30
0.0
 11
778.0
 21
367.0
 31
0.0
  0
LINE
  8
L-ZISSEN
 10
773.0
 20
358.0
 30
0.0
 11
761.0
 21
358.0
 31
0.0
  0
LINE
  8
L-ZISSEN
 10
727.794229
 20
362.5
 30
0.0
 11
742.0
 21
387.105118
 31
0.0
  0
ARC
  8
L-ZISSEN
 10
720.0
 20
367.0
 30
0.0
 40
9.0
 50
210.0
 51
330.0
  0
LINE
  8
L-TYUSIN
  6
CENTER
 62
     1
 10
728.0
 20
367.0
 30
0.0
 11
712.0
 21
367.0
 31
0.0
  0
CIRCLE
  8
L-ZISSEN
 10
720.0
 20
367.0
 30
0.0
 40
4.5
  0
LINE
  8
L-ZISSEN
 10
712.205771
 20
362.5
 30
0.0
 11
698.0
 21
387.105118
 31
0.0
  0
LINE
  8
L-ZISSEN
 10
698.0
 20
472.894882
 30
0.0
 11
698.0
 21
387.105118
 31
0.0
  0
LINE
  8
L-ZISSEN
 10
712.205771
 20
497.5
 30
0.0
 11
698.0
 21
472.894882
 31
0.0
  0
ARC
  8
L-ZISSEN
 10
720.0
 20
493.0
 30
0.0
 40
9.0
 50
30.0
 51
150.0
  0
LINE
  8
L-TYUSIN
  6
CENTER
 62
     1
 10
728.0
 20
493.0
 30
0.0
 11
712.0
 21
493.0
 31
0.0
  0
LINE
  8
L-ZISSEN
 10
727.794229
 20
497.5
 30
0.0
 11
742.0
 21
472.894882
 31
0.0
  0
LINE
  8
L-ZISSEN
 10
742.0
 20
472.894882
 30
0.0
 11
742.0
 21
387.105118
 31
0.0
  0
LINE
  8
L-TYUSIN
  6
CENTER
 62
     1
 10
745.0
 20
368.5
 30
0.0
 11
745.0
 21
378.5
 31
0.0
  0
LINE
  8
L-ZISSEN
 10
734.145082
 20
373.5
 30
0.0
 11
761.0
 21
373.5
 31
0.0
  0
LINE
  8
L-TYUSIN
  6
CENTER
 62
     1
 10
695.0
 20
368.5
 30
0.0
 11
695.0
 21
378.5
 31
0.0
  0
LINE
  8
L-ZISSEN
 10
705.854918
 20
373.5
 30
0.0
 11
679.0
 21
373.5
 31
0.0
  0
LINE
  8
L-TYUSIN
  6
CENTER
 62
     1
 10
778.0
 20
430.0
 30
0.0
 11
662.0
 21
430.0
 31
0.0
  0
LINE
  8
L-ZISSEN
 10
742.0
 20
372.500014
 30
0.0
 11
742.0
 21
373.5
 31
0.0
  0
LINE
  8
L-ZISSEN
 10
698.0
 20
372.500014
 30
0.0
 11
698.0
 21
373.5
 31
0.0
  0
LINE
  8
L-ZISSEN
  6
CONTINUOUS
 62
     7
 10
698.750006
 20
372.500014
 30
0.0
 11
698.750006
 21
366.200016
 31
0.0
  0
LINE
  8
L-ZISSEN
  6
CONTINUOUS
 62
     7
 10
741.249994
 20
372.500014
 30
0.0
 11
741.249994
 21
366.200016
 31
0.0
  0
LINE
  8
L-ZISSEN
  6
CONTINUOUS
 62
     7
 10
706.43226
 20
372.500014
 30
0.0
 11
698.0
 21
372.500014
 31
0.0
  0
LINE
  8
L-ZISSEN
  6
CONTINUOUS
 62
     7
 10
706.43226
 20
487.499986
 30
0.0
 11
698.0
 21
487.499986
 31
0.0
  0
LINE
  8
L-ZISSEN
  6
CONTINUOUS
 62
     7
 10
698.750006
 20
487.499986
 30
0.0
 11
698.750006
 21
493.799984
 31
0.0
  0
LINE
  8
L-ZISSEN
 10
698.0
 20
487.499986
 30
0.0
 11
698.0
 21
486.5
 31
0.0
  0
LINE
  8
L-ZISSEN
  6
CONTINUOUS
 62
     7
 10
707.250004
 20
488.916359
 30
0.0
 11
707.250004
 21
493.799984
 31
0.0
  0
LINE
  8
L-ZISSEN
  6
CONTINUOUS
 62
     7
 10
707.250004
 20
493.799984
 30
0.0
 11
698.750006
 21
493.799984
 31
0.0
  0
LINE
  8
L-ZISSEN
  6
CONTINUOUS
 62
     7
 10
741.249994
 20
487.499986
 30
0.0
 11
741.249994
 21
493.799984
 31
0.0
  0
LINE
  8
L-ZISSEN
 10
742.0
 20
487.499986
 30
0.0
 11
742.0
 21
486.5
 31
0.0
  0
LINE
  8
L-ZISSEN
  6
CONTINUOUS
 62
     7
 10
732.749996
 20
488.916359
 30
0.0
 11
732.749996
 21
493.799984
 31
0.0
  0
LINE
  8
L-ZISSEN
  6
CONTINUOUS
 62
     7
 10
732.749996
 20
493.799984
 30
0.0
 11
741.249994
 21
493.799984
 31
0.0
  0
LINE
  8
L-ZISSEN
  6
CONTINUOUS
 62
     7
 10
742.0
 20
487.499986
 30
0.0
 11
733.56774
 21
487.499986
 31
0.0
  0
CIRCLE
  8
L-ZISSEN
 10
720.0
 20
493.0
 30
0.0
 40
4.5
  0
LINE
  8
L-ZISSEN
 10
698.0
 20
638.0
 30
0.0
 11
742.0
 21
638.0
 31
0.0
  0
LINE
  8
L-ZISSEN
 10
667.0
 20
674.0
 30
0.0
 11
667.0
 21
632.0
 31
0.0
  0
LINE
  8
L-ZISSEN
 10
667.0
 20
634.0
 30
0.0
 11
698.0
 21
634.0
 31
0.0
  0
LINE
  8
L-ZISSEN
 10
679.0
 20
628.0
 30
0.0
 11
679.0
 21
669.154767
 31
0.0
  0
LINE
  8
L-ZISSEN
 10
676.844506
 20
672.0
 30
0.0
 11
667.0
 21
672.0
 31
0.0
  0
LINE
  8
L-ZISSEN
 10
667.0
 20
632.0
 30
0.0
 11
679.0
 21
632.0
 31
0.0
  0
LINE
  8
L-ZISSEN
 10
667.0
 20
674.0
 30
0.0
 11
675.766312
 21
674.0
 31
0.0
  0
LINE
  8
L-ZISSEN
 10
673.0
 20
628.0
 30
0.0
 11
673.0
 21
632.0
 31
0.0
  0
LINE
  8
L-ZISSEN
 10
698.0
 20
628.0
 30
0.0
 11
698.0
 21
638.0
 31
0.0
  0
LINE
  8
L-ZISSEN
 10
679.0
 20
628.0
 30
0.0
 11
673.0
 21
628.0
 31
0.0
  0
LINE
  8
L-ZISSEN
 10
761.0
 20
628.0
 30
0.0
 11
767.0
 21
628.0
 31
0.0
  0
LINE
  8
L-ZISSEN
 10
742.0
 20
628.0
 30
0.0
 11
742.0
 21
638.0
 31
0.0
  0
LINE
  8
L-ZISSEN
 10
767.0
 20
628.0
 30
0.0
 11
767.0
 21
632.0
 31
0.0
  0
LINE
  8
L-ZISSEN
 10
773.0
 20
674.0
 30
0.0
 11
764.233688
 21
674.0
 31
0.0
  0
LINE
  8
L-ZISSEN
 10
773.0
 20
632.0
 30
0.0
 11
761.0
 21
632.0
 31
0.0
  0
LINE
  8
L-ZISSEN
 10
763.155494
 20
672.0
 30
0.0
 11
773.0
 21
672.0
 31
0.0
  0
LINE
  8
L-ZISSEN
 10
761.0
 20
628.0
 30
0.0
 11
761.0
 21
669.154767
 31
0.0
  0
LINE
  8
L-ZISSEN
 10
773.0
 20
634.0
 30
0.0
 11
742.0
 21
634.0
 31
0.0
  0
LINE
  8
L-ZISSEN
 10
773.0
 20
674.0
 30
0.0
 11
773.0
 21
632.0
 31
0.0
  0
LINE
  8
L-TYUSIN
 10
662.0
 20
653.0
 30
0.0
 11
778.0
 21
653.0
 31
0.0
  0
CIRCLE
  8
L-ZISSEN
 10
693.0
 20
682.0
 30
0.0
 40
19.0
  0
CIRCLE
  8
L-ZISSEN
 10
747.0
 20
682.0
 30
0.0
 40
19.0
  0
LINE
  8
L-TYUSIN
 10
668.0
 20
682.0
 30
0.0
 11
772.0
 21
682.0
 31
0.0
  0
LINE
  8
L-ZISSEN
 10
698.0
 20
628.0
 30
0.0
 11
742.0
 21
628.0
 31
0.0
  0
LINE
  8
L-ZISSEN
 10
752.0
 20
707.0
 30
0.0
 11
752.0
 21
700.330303
 31
0.0
  0
LINE
  8
L-ZISSEN
 10
759.0
 20
708.0
 30
0.0
 11
759.0
 21
696.73092
 31
0.0
  0
LINE
  8
L-ZISSEN
 10
688.0
 20
707.0
 30
0.0
 11
688.0
 21
700.330303
 31
0.0
  0
LINE
  8
L-ZISSEN
 10
681.0
 20
708.0
 30
0.0
 11
681.0
 21
696.73092
 31
0.0
  0
LINE
  8
L-TYUSIN
  6
CENTER
 62
     1
 10
693.0
 20
707.0
 30
0.0
 11
693.0
 21
657.0
 31
0.0
  0
LINE
  8
L-TYUSIN
  6
CENTER
 62
     1
 10
747.0
 20
707.0
 30
0.0
 11
747.0
 21
657.0
 31
0.0
  0
LINE
  8
L-ZISSEN
 10
681.0
 20
707.0
 30
0.0
 11
759.0
 21
707.0
 31
0.0
  0
LINE
  8
L-ZISSEN
 10
667.0
 20
1092.0
 30
0.0
 11
679.0
 21
1092.0
 31
0.0
  0
LINE
  8
L-ZISSEN
 10
667.0
 20
1092.0
 30
0.0
 11
667.0
 21
948.0
 31
0.0
  0
LINE
  8
L-TYUSIN
  6
CENTER
 62
     1
 10
684.0
 20
1083.0
 30
0.0
 11
662.0
 21
1083.0
 31
0.0
  0
LINE
  8
L-ZISSEN
 10
679.0
 20
1076.5
 30
0.0
 11
679.0
 21
1092.0
 31
0.0
  0
LINE
  8
L-TYUSIN
  6
CENTER
 62
     1
 10
672.0
 20
1055.0
 30
0.0
 11
662.0
 21
1055.0
 31
0.0
  0
LINE
  8
L-TYUSIN
  6
CENTER
 62
     1
 10
672.0
 20
985.0
 30
0.0
 11
662.0
 21
985.0
 31
0.0
  0
LINE
  8
L-TYUSIN
  6
CENTER
 62
     1
 10
684.0
 20
957.0
 30
0.0
 11
662.0
 21
957.0
 31
0.0
  0
LINE
  8
L-ZISSEN
 10
667.0
 20
948.0
 30
0.0
 11
679.0
 21
948.0
 31
0.0
  0
LINE
  8
L-ZISSEN
 10
679.0
 20
948.0
 30
0.0
 11
679.0
 21
963.5
 31
0.0
  0
LINE
  8
L-ZISSEN
 10
698.000007
 20
963.5
 30
0.0
 11
676.0
 21
963.5
 31
0.0
  0
LINE
  8
L-ZISSEN
 10
676.0
 20
963.5
 30
0.0
 11
676.0
 21
988.5
 31
0.0
  0
LINE
  8
L-ZISSEN
 10
676.0
 20
988.5
 30
0.0
 11
687.50001
 21
988.5
 31
0.0
  0
LINE
  8
L-ZISSEN
 10
676.0
 20
988.5
 30
0.0
 11
681.0
 21
993.5
 31
0.0
  0
LINE
  8
L-ZISSEN
 10
681.0
 20
993.5
 30
0.0
 11
687.50001
 21
993.5
 31
0.0
  0
LINE
  8
L-ZISSEN
 10
681.0
 20
993.5
 30
0.0
 11
681.0
 21
1046.5
 31
0.0
  0
LINE
  8
L-ZISSEN
 10
681.0
 20
1046.5
 30
0.0
 11
687.50001
 21
1046.5
 31
0.0
  0
LINE
  8
L-ZISSEN
 10
676.0
 20
1051.5
 30
0.0
 11
687.50001
 21
1051.5
 31
0.0
  0
LINE
  8
L-ZISSEN
 10
676.0
 20
1051.5
 30
0.0
 11
681.0
 21
1046.5
 31
0.0
  0
LINE
  8
L-ZISSEN
 10
676.0
 20
1076.5
 30
0.0
 11
676.0
 21
1051.5
 31
0.0
  0
LINE
  8
L-ZISSEN
 10
698.000007
 20
1076.5
 30
0.0
 11
676.0
 21
1076.5
 31
0.0
  0
LINE
  8
L-TYUSIN
  6
CENTER
 62
     1
 10
695.0
 20
1081.5
 30
0.0
 11
695.0
 21
1062.499986
 31
0.0
  0
LINE
  8
L-TYUSIN
  6
CENTER
 62
     1
 10
745.0
 20
1081.5
 30
0.0
 11
745.0
 21
1062.499986
 31
0.0
  0
LINE
  8
L-ZISSEN
 10
741.999993
 20
1076.5
 30
0.0
 11
764.0
 21
1076.5
 31
0.0
  0
LINE
  8
L-ZISSEN
 10
764.0
 20
1076.5
 30
0.0
 11
764.0
 21
1051.5
 31
0.0
  0
LINE
  8
L-ZISSEN
 10
764.0
 20
1051.5
 30
0.0
 11
752.49999
 21
1051.5
 31
0.0
  0
LINE
  8
L-ZISSEN
 10
764.0
 20
1051.5
 30
0.0
 11
759.0
 21
1046.5
 31
0.0
  0
LINE
  8
L-ZISSEN
 10
759.0
 20
1046.5
 30
0.0
 11
754.598052
 21
1046.5
 31
0.0
  0
LINE
  8
L-ZISSEN
 10
759.0
 20
993.5
 30
0.0
 11
759.0
 21
1046.5
 31
0.0
  0
LINE
  8
L-ZISSEN
 10
759.0
 20
993.5
 30
0.0
 11
754.598052
 21
993.5
 31
0.0
  0
LINE
  8
L-ZISSEN
 10
764.0
 20
988.5
 30
0.0
 11
752.49999
 21
988.5
 31
0.0
  0
LINE
  8
L-ZISSEN
 10
764.0
 20
988.5
 30
0.0
 11
759.0
 21
993.5
 31
0.0
  0
LINE
  8
L-ZISSEN
 10
764.0
 20
963.5
 30
0.0
 11
764.0
 21
988.5
 31
0.0
  0
LINE
  8
L-ZISSEN
 10
741.999993
 20
963.5
 30
0.0
 11
764.0
 21
963.5
 31
0.0
  0
LINE
  8
L-TYUSIN
  6
CENTER
 62
     1
 10
745.0
 20
958.5
 30
0.0
 11
745.0
 21
977.500014
 31
0.0
  0
LINE
  8
L-TYUSIN
  6
CENTER
 62
     1
 10
695.0
 20
958.5
 30
0.0
 11
695.0
 21
977.500014
 31
0.0
  0
LINE
  8
L-ZISSEN
 10
761.0
 20
948.0
 30
0.0
 11
761.0
 21
963.5
 31
0.0
  0
LINE
  8
L-TYUSIN
  6
CENTER
 62
     1
 10
756.0
 20
957.0
 30
0.0
 11
778.0
 21
957.0
 31
0.0
  0
LINE
  8
L-ZISSEN
 10
773.0
 20
948.0
 30
0.0
 11
761.0
 21
948.0
 31
0.0
  0
LINE
  8
L-ZISSEN
 10
773.0
 20
1092.0
 30
0.0
 11
773.0
 21
948.0
 31
0.0
  0
LINE
  8
L-TYUSIN
  6
CENTER
 62
     1
 10
768.0
 20
985.0
 30
0.0
 11
778.0
 21
985.0
 31
0.0
  0
LINE
  8
L-TYUSIN
  6
CENTER
 62
     1
 10
768.0
 20
1055.0
 30
0.0
 11
778.0
 21
1055.0
 31
0.0
  0
LINE
  8
L-TYUSIN
  6
CENTER
 62
     1
 10
756.0
 20
1083.0
 30
0.0
 11
778.0
 21
1083.0
 31
0.0
  0
LINE
  8
L-ZISSEN
 10
773.0
 20
1092.0
 30
0.0
 11
761.0
 21
1092.0
 31
0.0
  0
LINE
  8
L-ZISSEN
 10
761.0
 20
1092.0
 30
0.0
 11
761.0
 21
1076.5
 31
0.0
  0
LINE
  8
L-TYUSIN
  6
CENTER
 62
     1
 10
662.0
 20
1020.0
 30
0.0
 11
778.0
 21
1020.0
 31
0.0
  0
LINE
  8
L-ZISSEN
 10
517.0
 20
502.0
 30
0.0
 11
517.0
 21
358.0
 31
0.0
  0
LINE
  8
L-TYUSIN
  6
CENTER
 62
     1
 10
522.0
 20
395.0
 30
0.0
 11
512.0
 21
395.0
 31
0.0
  0
LINE
  8
L-TYUSIN
  6
CENTER
 62
     1
 10
534.0
 20
367.0
 30
0.0
 11
512.0
 21
367.0
 31
0.0
  0
LINE
  8
L-ZISSEN
 10
517.0
 20
358.0
 30
0.0
 11
529.0
 21
358.0
 31
0.0
  0
LINE
  8
L-ZISSEN
 10
529.0
 20
502.0
 30
0.0
 11
529.0
 21
358.0
 31
0.0
  0
LINE
  8
L-ZISSEN
 10
555.854918
 20
373.5
 30
0.0
 11
529.0
 21
373.5
 31
0.0
  0
LINE
  8
L-TYUSIN
  6
CENTER
 62
     1
 10
545.0
 20
368.5
 30
0.0
 11
545.0
 21
378.5
 31
0.0
  0
LINE
  8
L-ZISSEN
 10
562.205771
 20
362.5
 30
0.0
 11
548.0
 21
387.105118
 31
0.0
  0
LINE
  8
L-ZISSEN
 10
548.0
 20
472.894882
 30
0.0
 11
548.0
 21
387.105118
 31
0.0
  0
LINE
  8
L-TYUSIN
  6
CENTER
 62
     1
 10
522.0
 20
465.0
 30
0.0
 11
512.0
 21
465.0
 31
0.0
  0
LINE
  8
L-ZISSEN
 10
517.0
 20
502.0
 30
0.0
 11
529.0
 21
502.0
 31
0.0
  0
LINE
  8
L-TYUSIN
  6
CENTER
 62
     1
 10
534.0
 20
493.0
 30
0.0
 11
512.0
 21
493.0
 31
0.0
  0
LINE
  8
L-ZISSEN
 10
555.854918
 20
486.5
 30
0.0
 11
529.0
 21
486.5
 31
0.0
  0
LINE
  8
L-TYUSIN
  6
CENTER
 62
     1
 10
545.0
 20
491.5
 30
0.0
 11
545.0
 21
481.5
 31
0.0
  0
LINE
  8
L-ZISSEN
 10
584.145082
 20
486.5
 30
0.0
 11
611.0
 21
486.5
 31
0.0
  0
LINE
  8
L-TYUSIN
  6
CENTER
 62
     1
 10
595.0
 20
491.5
 30
0.0
 11
595.0
 21
481.5
 31
0.0
  0
LINE
  8
L-ZISSEN
 10
577.794229
 20
497.5
 30
0.0
 11
592.0
 21
472.894882
 31
0.0
  0
CIRCLE
  8
L-ZISSEN
 10
570.0
 20
493.0
 30
0.0
 40
4.5
  0
LINE
  8
L-TYUSIN
  6
CENTER
 62
     1
 10
578.0
 20
493.0
 30
0.0
 11
562.0
 21
493.0
 31
0.0
  0
ARC
  8
L-ZISSEN
 10
570.0
 20
493.0
 30
0.0
 40
9.0
 50
30.0
 51
150.0
  0
LINE
  8
L-ZISSEN
 10
562.205771
 20
497.5
 30
0.0
 11
548.0
 21
472.894882
 31
0.0
  0
LINE
  8
L-ZISSEN
 10
592.0
 20
472.894882
 30
0.0
 11
592.0
 21
387.105118
 31
0.0
  0
LINE
  8
L-TYUSIN
  6
CENTER
 62
     1
 10
606.0
 20
493.0
 30
0.0
 11
628.0
 21
493.0
 31
0.0
  0
LINE
  8
L-ZISSEN
 10
623.0
 20
502.0
 30
0.0
 11
611.0
 21
502.0
 31
0.0
  0
LINE
  8
L-ZISSEN
 10
611.0
 20
502.0
 30
0.0
 11
611.0
 21
358.0
 31
0.0
  0
LINE
  8
L-ZISSEN
 10
623.0
 20
502.0
 30
0.0
 11
623.0
 21
358.0
 31
0.0
  0
LINE
  8
L-TYUSIN
  6
CENTER
 62
     1
 10
618.0
 20
465.0
 30
0.0
 11
628.0
 21
465.0
 31
0.0
  0
LINE
  8
L-TYUSIN
  6
CENTER
 62
     1
 10
618.0
 20
395.0
 30
0.0
 11
628.0
 21
395.0
 31
0.0
  0
LINE
  8
L-ZISSEN
 10
584.145082
 20
373.5
 30
0.0
 11
611.0
 21
373.5
 31
0.0
  0
LINE
  8
L-TYUSIN
  6
CENTER
 62
     1
 10
595.0
 20
368.5
 30
0.0
 11
595.0
 21
378.5
 31
0.0
  0
LINE
  8
L-TYUSIN
  6
CENTER
 62
     1
 10
606.0
 20
367.0
 30
0.0
 11
628.0
 21
367.0
 31
0.0
  0
LINE
  8
L-ZISSEN
 10
623.0
 20
358.0
 30
0.0
 11
611.0
 21
358.0
 31
0.0
  0
ARC
  8
L-ZISSEN
 10
570.0
 20
367.0
 30
0.0
 40
9.0
 50
210.0
 51
330.0
  0
CIRCLE
  8
L-ZISSEN
 10
570.0
 20
367.0
 30
0.0
 40
4.5
  0
LINE
  8
L-TYUSIN
  6
CENTER
 62
     1
 10
578.0
 20
367.0
 30
0.0
 11
562.0
 21
367.0
 31
0.0
  0
LINE
  8
L-ZISSEN
 10
577.794229
 20
362.5
 30
0.0
 11
592.0
 21
387.105118
 31
0.0
  0
LINE
  8
L-ZISSEN
  6
CONTINUOUS
 62
     7
 10
556.43226
 20
372.500014
 30
0.0
 11
548.0
 21
372.500014
 31
0.0
  0
LINE
  8
L-ZISSEN
  6
CONTINUOUS
 62
     7
 10
548.750006
 20
372.500014
 30
0.0
 11
548.750006
 21
366.200016
 31
0.0
  0
LINE
  8
L-ZISSEN
 10
548.0
 20
372.500014
 30
0.0
 11
548.0
 21
373.5
 31
0.0
  0
LINE
  8
L-ZISSEN
  6
CONTINUOUS
 62
     7
 10
557.250004
 20
371.083641
 30
0.0
 11
557.250004
 21
366.200016
 31
0.0
  0
LINE
  8
L-ZISSEN
  6
CONTINUOUS
 62
     7
 10
557.250004
 20
366.200016
 30
0.0
 11
548.750006
 21
366.200016
 31
0.0
  0
LINE
  8
L-ZISSEN
  6
CONTINUOUS
 62
     7
 10
591.249994
 20
372.500014
 30
0.0
 11
591.249994
 21
366.200016
 31
0.0
  0
LINE
  8
L-ZISSEN
 10
592.0
 20
372.500014
 30
0.0
 11
592.0
 21
373.5
 31
0.0
  0
LINE
  8
L-ZISSEN
  6
CONTINUOUS
 62
     7
 10
582.749996
 20
371.083641
 30
0.0
 11
582.749996
 21
366.200016
 31
0.0
  0
LINE
  8
L-ZISSEN
  6
CONTINUOUS
 62
     7
 10
582.749996
 20
366.200016
 30
0.0
 11
591.249994
 21
366.200016
 31
0.0
  0
LINE
  8
L-ZISSEN
  6
CONTINUOUS
 62
     7
 10
592.0
 20
372.500014
 30
0.0
 11
583.56774
 21
372.500014
 31
0.0
  0
LINE
  8
L-ZISSEN
  6
CONTINUOUS
 62
     7
 10
557.250004
 20
493.799984
 30
0.0
 11
548.750006
 21
493.799984
 31
0.0
  0
LINE
  8
L-ZISSEN
  6
CONTINUOUS
 62
     7
 10
557.250004
 20
488.916359
 30
0.0
 11
557.250004
 21
493.799984
 31
0.0
  0
LINE
  8
L-ZISSEN
 10
548.0
 20
487.499986
 30
0.0
 11
548.0
 21
486.5
 31
0.0
  0
LINE
  8
L-ZISSEN
  6
CONTINUOUS
 62
     7
 10
548.750006
 20
487.499986
 30
0.0
 11
548.750006
 21
493.799984
 31
0.0
  0
LINE
  8
L-ZISSEN
  6
CONTINUOUS
 62
     7
 10
556.43226
 20
487.499986
 30
0.0
 11
548.0
 21
487.499986
 31
0.0
  0
LINE
  8
L-ZISSEN
  6
CONTINUOUS
 62
     7
 10
592.0
 20
487.499986
 30
0.0
 11
583.56774
 21
487.499986
 31
0.0
  0
LINE
  8
L-ZISSEN
  6
CONTINUOUS
 62
     7
 10
582.749996
 20
493.799984
 30
0.0
 11
591.249994
 21
493.799984
 31
0.0
  0
LINE
  8
L-ZISSEN
  6
CONTINUOUS
 62
     7
 10
582.749996
 20
488.916359
 30
0.0
 11
582.749996
 21
493.799984
 31
0.0
  0
LINE
  8
L-ZISSEN
 10
592.0
 20
487.499986
 30
0.0
 11
592.0
 21
486.5
 31
0.0
  0
LINE
  8
L-ZISSEN
  6
CONTINUOUS
 62
     7
 10
591.249994
 20
487.499986
 30
0.0
 11
591.249994
 21
493.799984
 31
0.0
  0
LINE
  8
L-ZISSEN
 10
548.0
 20
628.0
 30
0.0
 11
592.0
 21
628.0
 31
0.0
  0
LINE
  8
L-TYUSIN
 10
518.0
 20
682.0
 30
0.0
 11
622.0
 21
682.0
 31
0.0
  0
CIRCLE
  8
L-ZISSEN
 10
597.0
 20
682.0
 30
0.0
 40
19.0
  0
CIRCLE
  8
L-ZISSEN
 10
543.0
 20
682.0
 30
0.0
 40
19.0
  0
LINE
  8
L-TYUSIN
 10
512.0
 20
653.0
 30
0.0
 11
628.0
 21
653.0
 31
0.0
  0
LINE
  8
L-ZISSEN
 10
623.0
 20
674.0
 30
0.0
 11
623.0
 21
632.0
 31
0.0
  0
LINE
  8
L-ZISSEN
 10
623.0
 20
634.0
 30
0.0
 11
592.0
 21
634.0
 31
0.0
  0
LINE
  8
L-ZISSEN
 10
611.0
 20
628.0
 30
0.0
 11
611.0
 21
669.154767
 31
0.0
  0
LINE
  8
L-ZISSEN
 10
613.155494
 20
672.0
 30
0.0
 11
623.0
 21
672.0
 31
0.0
  0
LINE
  8
L-ZISSEN
 10
623.0
 20
632.0
 30
0.0
 11
611.0
 21
632.0
 31
0.0
  0
LINE
  8
L-ZISSEN
 10
623.0
 20
674.0
 30
0.0
 11
614.233688
 21
674.0
 31
0.0
  0
LINE
  8
L-ZISSEN
 10
617.0
 20
628.0
 30
0.0
 11
617.0
 21
632.0
 31
0.0
  0
LINE
  8
L-ZISSEN
 10
592.0
 20
628.0
 30
0.0
 11
592.0
 21
638.0
 31
0.0
  0
LINE
  8
L-ZISSEN
 10
611.0
 20
628.0
 30
0.0
 11
617.0
 21
628.0
 31
0.0
  0
LINE
  8
L-ZISSEN
 10
529.0
 20
628.0
 30
0.0
 11
523.0
 21
628.0
 31
0.0
  0
LINE
  8
L-ZISSEN
 10
548.0
 20
628.0
 30
0.0
 11
548.0
 21
638.0
 31
0.0
  0
LINE
  8
L-ZISSEN
 10
523.0
 20
628.0
 30
0.0
 11
523.0
 21
632.0
 31
0.0
  0
LINE
  8
L-ZISSEN
 10
517.0
 20
674.0
 30
0.0
 11
525.766312
 21
674.0
 31
0.0
  0
LINE
  8
L-ZISSEN
 10
517.0
 20
632.0
 30
0.0
 11
529.0
 21
632.0
 31
0.0
  0
LINE
  8
L-ZISSEN
 10
526.844506
 20
672.0
 30
0.0
 11
517.0
 21
672.0
 31
0.0
  0
LINE
  8
L-ZISSEN
 10
529.0
 20
628.0
 30
0.0
 11
529.0
 21
669.154767
 31
0.0
  0
LINE
  8
L-ZISSEN
 10
517.0
 20
634.0
 30
0.0
 11
548.0
 21
634.0
 31
0.0
  0
LINE
  8
L-ZISSEN
 10
517.0
 20
674.0
 30
0.0
 11
517.0
 21
632.0
 31
0.0
  0
LINE
  8
L-ZISSEN
 10
548.0
 20
638.0
 30
0.0
 11
592.0
 21
638.0
 31
0.0
  0
LINE
  8
L-ZISSEN
 10
609.0
 20
708.0
 30
0.0
 11
609.0
 21
696.73092
 31
0.0
  0
LINE
  8
L-ZISSEN
 10
602.0
 20
707.0
 30
0.0
 11
602.0
 21
700.330303
 31
0.0
  0
LINE
  8
L-TYUSIN
  6
CENTER
 62
     1
 10
597.0
 20
707.0
 30
0.0
 11
597.0
 21
657.0
 31
0.0
  0
LINE
  8
L-TYUSIN
  6
CENTER
 62
     1
 10
543.0
 20
707.0
 30
0.0
 11
543.0
 21
657.0
 31
0.0
  0
LINE
  8
L-ZISSEN
 10
538.0
 20
707.0
 30
0.0
 11
538.0
 21
700.330303
 31
0.0
  0
LINE
  8
L-ZISSEN
 10
531.0
 20
708.0
 30
0.0
 11
531.0
 21
696.73092
 31
0.0
  0
LINE
  8
L-ZISSEN
 10
517.0
 20
1092.0
 30
0.0
 11
517.0
 21
948.0
 31
0.0
  0
LINE
  8
L-TYUSIN
  6
CENTER
 62
     1
 10
522.0
 20
1055.0
 30
0.0
 11
512.0
 21
1055.0
 31
0.0
  0
LINE
  8
L-TYUSIN
  6
CENTER
 62
     1
 10
522.0
 20
985.0
 30
0.0
 11
512.0
 21
985.0
 31
0.0
  0
LINE
  8
L-TYUSIN
  6
CENTER
 62
     1
 10
534.0
 20
957.0
 30
0.0
 11
512.0
 21
957.0
 31
0.0
  0
LINE
  8
L-ZISSEN
 10
529.0
 20
948.0
 30
0.0
 11
529.0
 21
963.5
 31
0.0
  0
LINE
  8
L-ZISSEN
 10
517.0
 20
948.0
 30
0.0
 11
529.0
 21
948.0
 31
0.0
  0
LINE
  8
L-ZISSEN
 10
526.0
 20
963.5
 30
0.0
 11
526.0
 21
988.5
 31
0.0
  0
LINE
  8
L-ZISSEN
 10
548.000007
 20
963.5
 30
0.0
 11
526.0
 21
963.5
 31
0.0
  0
LINE
  8
L-TYUSIN
  6
CENTER
 62
     1
 10
545.0
 20
958.5
 30
0.0
 11
545.0
 21
977.500014
 31
0.0
  0
LINE
  8
L-ZISSEN
 10
526.0
 20
988.5
 30
0.0
 11
531.0
 21
993.5
 31
0.0
  0
LINE
  8
L-ZISSEN
 10
526.0
 20
988.5
 30
0.0
 11
537.50001
 21
988.5
 31
0.0
  0
LINE
  8
L-ZISSEN
 10
531.0
 20
993.5
 30
0.0
 11
531.0
 21
1046.5
 31
0.0
  0
LINE
  8
L-ZISSEN
 10
531.0
 20
993.5
 30
0.0
 11
537.50001
 21
993.5
 31
0.0
  0
LINE
  8
L-ZISSEN
 10
531.0
 20
1046.5
 30
0.0
 11
537.50001
 21
1046.5
 31
0.0
  0
LINE
  8
L-ZISSEN
 10
526.0
 20
1051.5
 30
0.0
 11
537.50001
 21
1051.5
 31
0.0
  0
LINE
  8
L-ZISSEN
 10
526.0
 20
1051.5
 30
0.0
 11
531.0
 21
1046.5
 31
0.0
  0
LINE
  8
L-ZISSEN
 10
526.0
 20
1076.5
 30
0.0
 11
526.0
 21
1051.5
 31
0.0
  0
LINE
  8
L-ZISSEN
 10
548.000007
 20
1076.5
 30
0.0
 11
526.0
 21
1076.5
 31
0.0
  0
LINE
  8
L-TYUSIN
  6
CENTER
 62
     1
 10
534.0
 20
1083.0
 30
0.0
 11
512.0
 21
1083.0
 31
0.0
  0
LINE
  8
L-ZISSEN
 10
529.0
 20
1076.5
 30
0.0
 11
529.0
 21
1092.0
 31
0.0
  0
LINE
  8
L-ZISSEN
 10
517.0
 20
1092.0
 30
0.0
 11
529.0
 21
1092.0
 31
0.0
  0
LINE
  8
L-TYUSIN
  6
CENTER
 62
     1
 10
545.0
 20
1081.5
 30
0.0
 11
545.0
 21
1062.499986
 31
0.0
  0
LINE
  8
L-TYUSIN
  6
CENTER
 62
     1
 10
595.0
 20
1081.5
 30
0.0
 11
595.0
 21
1062.499986
 31
0.0
  0
LINE
  8
L-ZISSEN
 10
591.999993
 20
1076.5
 30
0.0
 11
614.0
 21
1076.5
 31
0.0
  0
LINE
  8
L-ZISSEN
 10
614.0
 20
1076.5
 30
0.0
 11
614.0
 21
1051.5
 31
0.0
  0
LINE
  8
L-ZISSEN
 10
614.0
 20
1051.5
 30
0.0
 11
602.49999
 21
1051.5
 31
0.0
  0
LINE
  8
L-TYUSIN
  6
CENTER
 62
     1
 10
606.0
 20
1083.0
 30
0.0
 11
628.0
 21
1083.0
 31
0.0
  0
LINE
  8
L-ZISSEN
 10
611.0
 20
1092.0
 30
0.0
 11
611.0
 21
1076.5
 31
0.0
  0
LINE
  8
L-ZISSEN
 10
623.0
 20
1092.0
 30
0.0
 11
611.0
 21
1092.0
 31
0.0
  0
LINE
  8
L-ZISSEN
 10
623.0
 20
1092.0
 30
0.0
 11
623.0
 21
948.0
 31
0.0
  0
LINE
  8
L-TYUSIN
  6
CENTER
 62
     1
 10
618.0
 20
1055.0
 30
0.0
 11
628.0
 21
1055.0
 31
0.0
  0
LINE
  8
L-ZISSEN
 10
614.0
 20
1051.5
 30
0.0
 11
609.0
 21
1046.5
 31
0.0
  0
LINE
  8
L-ZISSEN
 10
609.0
 20
993.5
 30
0.0
 11
609.0
 21
1046.5
 31
0.0
  0
LINE
  8
L-ZISSEN
 10
609.0
 20
1046.5
 30
0.0
 11
604.598052
 21
1046.5
 31
0.0
  0
LINE
  8
L-ZISSEN
 10
609.0
 20
993.5
 30
0.0
 11
604.598052
 21
993.5
 31
0.0
  0
LINE
  8
L-ZISSEN
 10
614.0
 20
988.5
 30
0.0
 11
602.49999
 21
988.5
 31
0.0
  0
LINE
  8
L-ZISSEN
 10
614.0
 20
988.5
 30
0.0
 11
609.0
 21
993.5
 31
0.0
  0
LINE
  8
L-ZISSEN
 10
614.0
 20
963.5
 30
0.0
 11
614.0
 21
988.5
 31
0.0
  0
LINE
  8
L-ZISSEN
 10
591.999993
 20
963.5
 30
0.0
 11
614.0
 21
963.5
 31
0.0
  0
LINE
  8
L-TYUSIN
  6
CENTER
 62
     1
 10
595.0
 20
958.5
 30
0.0
 11
595.0
 21
977.500014
 31
0.0
  0
LINE
  8
L-TYUSIN
  6
CENTER
 62
     1
 10
606.0
 20
957.0
 30
0.0
 11
628.0
 21
957.0
 31
0.0
  0
LINE
  8
L-ZISSEN
 10
611.0
 20
948.0
 30
0.0
 11
611.0
 21
963.5
 31
0.0
  0
LINE
  8
L-TYUSIN
  6
CENTER
 62
     1
 10
618.0
 20
985.0
 30
0.0
 11
628.0
 21
985.0
 31
0.0
  0
LINE
  8
L-ZISSEN
 10
623.0
 20
948.0
 30
0.0
 11
611.0
 21
948.0
 31
0.0
  0
LINE
  8
L-TYUSIN
  6
CENTER
 62
     1
 10
512.0
 20
1020.0
 30
0.0
 11
628.0
 21
1020.0
 31
0.0
  0
LINE
  8
L-TYUSIN
  6
CENTER
 62
     1
 10
628.0
 20
430.0
 30
0.0
 11
512.0
 21
430.0
 31
0.0
  0
LINE
  8
L-TYUSIN
  6
CENTER
 62
     1
 10
384.0
 20
493.0
 30
0.0
 11
362.0
 21
493.0
 31
0.0
  0
LINE
  8
L-ZISSEN
 10
367.0
 20
502.0
 30
0.0
 11
379.0
 21
502.0
 31
0.0
  0
LINE
  8
L-TYUSIN
  6
CENTER
 62
     1
 10
372.0
 20
465.0
 30
0.0
 11
362.0
 21
465.0
 31
0.0
  0
LINE
  8
L-ZISSEN
 10
379.0
 20
502.0
 30
0.0
 11
379.0
 21
358.0
 31
0.0
  0
LINE
  8
L-ZISSEN
 10
367.0
 20
358.0
 30
0.0
 11
379.0
 21
358.0
 31
0.0
  0
LINE
  8
L-TYUSIN
  6
CENTER
 62
     1
 10
384.0
 20
367.0
 30
0.0
 11
362.0
 21
367.0
 31
0.0
  0
LINE
  8
L-TYUSIN
  6
CENTER
 62
     1
 10
372.0
 20
395.0
 30
0.0
 11
362.0
 21
395.0
 31
0.0
  0
LINE
  8
L-ZISSEN
 10
367.0
 20
502.0
 30
0.0
 11
367.0
 21
358.0
 31
0.0
  0
LINE
  8
L-ZISSEN
 10
405.854918
 20
486.5
 30
0.0
 11
379.0
 21
486.5
 31
0.0
  0
LINE
  8
L-ZISSEN
 10
405.854918
 20
373.5
 30
0.0
 11
379.0
 21
373.5
 31
0.0
  0
LINE
  8
L-TYUSIN
  6
CENTER
 62
     1
 10
395.0
 20
368.5
 30
0.0
 11
395.0
 21
378.5
 31
0.0
  0
LINE
  8
L-ZISSEN
  6
CONTINUOUS
 62
     7
 10
442.0
 20
372.500014
 30
0.0
 11
433.56774
 21
372.500014
 31
0.0
  0
LINE
  8
L-ZISSEN
  6
CONTINUOUS
 62
     7
 10
432.749996
 20
366.200016
 30
0.0
 11
441.249994
 21
366.200016
 31
0.0
  0
LINE
  8
L-ZISSEN
  6
CONTINUOUS
 62
     7
 10
432.749996
 20
371.083641
 30
0.0
 11
432.749996
 21
366.200016
 31
0.0
  0
LINE
  8
L-ZISSEN
  6
CONTINUOUS
 62
     7
 10
441.249994
 20
372.500014
 30
0.0
 11
441.249994
 21
366.200016
 31
0.0
  0
LINE
  8
L-ZISSEN
  6
CONTINUOUS
 62
     7
 10
407.250004
 20
366.200016
 30
0.0
 11
398.750006
 21
366.200016
 31
0.0
  0
LINE
  8
L-ZISSEN
  6
CONTINUOUS
 62
     7
 10
407.250004
 20
371.083641
 30
0.0
 11
407.250004
 21
366.200016
 31
0.0
  0
LINE
  8
L-ZISSEN
  6
CONTINUOUS
 62
     7
 10
398.750006
 20
372.500014
 30
0.0
 11
398.750006
 21
366.200016
 31
0.0
  0
LINE
  8
L-ZISSEN
  6
CONTINUOUS
 62
     7
 10
406.43226
 20
372.500014
 30
0.0
 11
398.0
 21
372.500014
 31
0.0
  0
LINE
  8
L-ZISSEN
 10
427.794229
 20
362.5
 30
0.0
 11
442.0
 21
387.105118
 31
0.0
  0
LINE
  8
L-TYUSIN
  6
CENTER
 62
     1
 10
428.0
 20
367.0
 30
0.0
 11
412.0
 21
367.0
 31
0.0
  0
CIRCLE
  8
L-ZISSEN
 10
420.0
 20
367.0
 30
0.0
 40
4.5
  0
ARC
  8
L-ZISSEN
 10
420.0
 20
367.0
 30
0.0
 40
9.0
 50
210.0
 51
330.0
  0
LINE
  8
L-TYUSIN
  6
CENTER
 62
     1
 10
445.0
 20
368.5
 30
0.0
 11
445.0
 21
378.5
 31
0.0
  0
LINE
  8
L-ZISSEN
 10
412.205771
 20
362.5
 30
0.0
 11
398.0
 21
387.105118
 31
0.0
  0
LINE
  8
L-ZISSEN
 10
442.0
 20
472.894882
 30
0.0
 11
442.0
 21
387.105118
 31
0.0
  0
LINE
  8
L-ZISSEN
 10
398.0
 20
472.894882
 30
0.0
 11
398.0
 21
387.105118
 31
0.0
  0
LINE
  8
L-ZISSEN
 10
434.145082
 20
373.5
 30
0.0
 11
461.0
 21
373.5
 31
0.0
  0
LINE
  8
L-ZISSEN
 10
473.0
 20
358.0
 30
0.0
 11
461.0
 21
358.0
 31
0.0
  0
LINE
  8
L-TYUSIN
  6
CENTER
 62
     1
 10
456.0
 20
367.0
 30
0.0
 11
478.0
 21
367.0
 31
0.0
  0
LINE
  8
L-TYUSIN
  6
CENTER
 62
     1
 10
468.0
 20
395.0
 30
0.0
 11
478.0
 21
395.0
 31
0.0
  0
LINE
  8
L-TYUSIN
  6
CENTER
 62
     1
 10
468.0
 20
465.0
 30
0.0
 11
478.0
 21
465.0
 31
0.0
  0
LINE
  8
L-ZISSEN
 10
473.0
 20
502.0
 30
0.0
 11
473.0
 21
358.0
 31
0.0
  0
LINE
  8
L-ZISSEN
 10
461.0
 20
502.0
 30
0.0
 11
461.0
 21
358.0
 31
0.0
  0
LINE
  8
L-ZISSEN
 10
473.0
 20
502.0
 30
0.0
 11
461.0
 21
502.0
 31
0.0
  0
LINE
  8
L-TYUSIN
  6
CENTER
 62
     1
 10
456.0
 20
493.0
 30
0.0
 11
478.0
 21
493.0
 31
0.0
  0
LINE
  8
L-ZISSEN
 10
434.145082
 20
486.5
 30
0.0
 11
461.0
 21
486.5
 31
0.0
  0
LINE
  8
L-ZISSEN
  6
CONTINUOUS
 62
     7
 10
441.249994
 20
487.499986
 30
0.0
 11
441.249994
 21
493.799984
 31
0.0
  0
LINE
  8
L-ZISSEN
  6
CONTINUOUS
 62
     7
 10
432.749996
 20
488.916359
 30
0.0
 11
432.749996
 21
493.799984
 31
0.0
  0
LINE
  8
L-ZISSEN
  6
CONTINUOUS
 62
     7
 10
432.749996
 20
493.799984
 30
0.0
 11
441.249994
 21
493.799984
 31
0.0
  0
LINE
  8
L-ZISSEN
  6
CONTINUOUS
 62
     7
 10
442.0
 20
487.499986
 30
0.0
 11
433.56774
 21
487.499986
 31
0.0
  0
LINE
  8
L-ZISSEN
  6
CONTINUOUS
 62
     7
 10
406.43226
 20
487.499986
 30
0.0
 11
398.0
 21
487.499986
 31
0.0
  0
LINE
  8
L-ZISSEN
  6
CONTINUOUS
 62
     7
 10
398.750006
 20
487.499986
 30
0.0
 11
398.750006
 21
493.799984
 31
0.0
  0
LINE
  8
L-ZISSEN
  6
CONTINUOUS
 62
     7
 10
407.250004
 20
488.916359
 30
0.0
 11
407.250004
 21
493.799984
 31
0.0
  0
LINE
  8
L-ZISSEN
  6
CONTINUOUS
 62
     7
 10
407.250004
 20
493.799984
 30
0.0
 11
398.750006
 21
493.799984
 31
0.0
  0
LINE
  8
L-ZISSEN
 10
412.205771
 20
497.5
 30
0.0
 11
398.0
 21
472.894882
 31
0.0
  0
ARC
  8
L-ZISSEN
 10
420.0
 20
493.0
 30
0.0
 40
9.0
 50
30.0
 51
150.0
  0
LINE
  8
L-TYUSIN
  6
CENTER
 62
     1
 10
428.0
 20
493.0
 30
0.0
 11
412.0
 21
493.0
 31
0.0
  0
CIRCLE
  8
L-ZISSEN
 10
420.0
 20
493.0
 30
0.0
 40
4.5
  0
LINE
  8
L-ZISSEN
 10
427.794229
 20
497.5
 30
0.0
 11
442.0
 21
472.894882
 31
0.0
  0
LINE
  8
L-TYUSIN
  6
CENTER
 62
     1
 10
445.0
 20
491.5
 30
0.0
 11
445.0
 21
481.5
 31
0.0
  0
LINE
  8
L-TYUSIN
  6
CENTER
 62
     1
 10
395.0
 20
491.5
 30
0.0
 11
395.0
 21
481.5
 31
0.0
  0
LINE
  8
L-TYUSIN
  6
CENTER
 62
     1
 10
478.0
 20
430.0
 30
0.0
 11
362.0
 21
430.0
 31
0.0
  0
LINE
  8
L-ZISSEN
 10
398.0
 20
638.0
 30
0.0
 11
442.0
 21
638.0
 31
0.0
  0
LINE
  8
L-ZISSEN
 10
367.0
 20
674.0
 30
0.0
 11
367.0
 21
632.0
 31
0.0
  0
LINE
  8
L-ZISSEN
 10
367.0
 20
634.0
 30
0.0
 11
398.0
 21
634.0
 31
0.0
  0
LINE
  8
L-ZISSEN
 10
379.0
 20
628.0
 30
0.0
 11
379.0
 21
669.154767
 31
0.0
  0
LINE
  8
L-ZISSEN
 10
376.844506
 20
672.0
 30
0.0
 11
367.0
 21
672.0
 31
0.0
  0
LINE
  8
L-ZISSEN
 10
367.0
 20
632.0
 30
0.0
 11
379.0
 21
632.0
 31
0.0
  0
LINE
  8
L-ZISSEN
 10
367.0
 20
674.0
 30
0.0
 11
375.766312
 21
674.0
 31
0.0
  0
LINE
  8
L-ZISSEN
 10
373.0
 20
628.0
 30
0.0
 11
373.0
 21
632.0
 31
0.0
  0
LINE
  8
L-ZISSEN
 10
398.0
 20
628.0
 30
0.0
 11
398.0
 21
638.0
 31
0.0
  0
LINE
  8
L-ZISSEN
 10
379.0
 20
628.0
 30
0.0
 11
373.0
 21
628.0
 31
0.0
  0
LINE
  8
L-ZISSEN
 10
461.0
 20
628.0
 30
0.0
 11
467.0
 21
628.0
 31
0.0
  0
LINE
  8
L-ZISSEN
 10
442.0
 20
628.0
 30
0.0
 11
442.0
 21
638.0
 31
0.0
  0
LINE
  8
L-ZISSEN
 10
467.0
 20
628.0
 30
0.0
 11
467.0
 21
632.0
 31
0.0
  0
LINE
  8
L-ZISSEN
 10
473.0
 20
674.0
 30
0.0
 11
464.233688
 21
674.0
 31
0.0
  0
LINE
  8
L-ZISSEN
 10
473.0
 20
632.0
 30
0.0
 11
461.0
 21
632.0
 31
0.0
  0
LINE
  8
L-ZISSEN
 10
463.155494
 20
672.0
 30
0.0
 11
473.0
 21
672.0
 31
0.0
  0
LINE
  8
L-ZISSEN
 10
461.0
 20
628.0
 30
0.0
 11
461.0
 21
669.154767
 31
0.0
  0
LINE
  8
L-ZISSEN
 10
473.0
 20
634.0
 30
0.0
 11
442.0
 21
634.0
 31
0.0
  0
LINE
  8
L-ZISSEN
 10
473.0
 20
674.0
 30
0.0
 11
473.0
 21
632.0
 31
0.0
  0
LINE
  8
L-TYUSIN
 10
362.0
 20
653.0
 30
0.0
 11
478.0
 21
653.0
 31
0.0
  0
CIRCLE
  8
L-ZISSEN
 10
393.0
 20
682.0
 30
0.0
 40
19.0
  0
CIRCLE
  8
L-ZISSEN
 10
447.0
 20
682.0
 30
0.0
 40
19.0
  0
LINE
  8
L-TYUSIN
 10
368.0
 20
682.0
 30
0.0
 11
472.0
 21
682.0
 31
0.0
  0
LINE
  8
L-ZISSEN
 10
398.0
 20
628.0
 30
0.0
 11
442.0
 21
628.0
 31
0.0
  0
LINE
  8
L-ZISSEN
 10
388.0
 20
707.0
 30
0.0
 11
388.0
 21
700.330303
 31
0.0
  0
LINE
  8
L-ZISSEN
 10
381.0
 20
708.0
 30
0.0
 11
381.0
 21
696.73092
 31
0.0
  0
LINE
  8
L-TYUSIN
  6
CENTER
 62
     1
 10
393.0
 20
707.0
 30
0.0
 11
393.0
 21
657.0
 31
0.0
  0
LINE
  8
L-ZISSEN
 10
452.0
 20
707.0
 30
0.0
 11
452.0
 21
700.330303
 31
0.0
  0
LINE
  8
L-ZISSEN
 10
459.0
 20
708.0
 30
0.0
 11
459.0
 21
696.73092
 31
0.0
  0
LINE
  8
L-TYUSIN
  6
CENTER
 62
     1
 10
447.0
 20
707.0
 30
0.0
 11
447.0
 21
657.0
 31
0.0
  0
LINE
  8
L-ZISSEN
 10
367.0
 20
1092.0
 30
0.0
 11
379.0
 21
1092.0
 31
0.0
  0
LINE
  8
L-ZISSEN
 10
367.0
 20
1092.0
 30
0.0
 11
367.0
 21
948.0
 31
0.0
  0
LINE
  8
L-TYUSIN
  6
CENTER
 62
     1
 10
384.0
 20
1083.0
 30
0.0
 11
362.0
 21
1083.0
 31
0.0
  0
LINE
  8
L-ZISSEN
 10
379.0
 20
1076.5
 30
0.0
 11
379.0
 21
1092.0
 31
0.0
  0
LINE
  8
L-ZISSEN
 10
398.000007
 20
1076.5
 30
0.0
 11
376.0
 21
1076.5
 31
0.0
  0
LINE
  8
L-ZISSEN
 10
376.0
 20
1076.5
 30
0.0
 11
376.0
 21
1051.5
 31
0.0
  0
LINE
  8
L-ZISSEN
 10
376.0
 20
1051.5
 30
0.0
 11
387.50001
 21
1051.5
 31
0.0
  0
LINE
  8
L-ZISSEN
 10
376.0
 20
1051.5
 30
0.0
 11
381.0
 21
1046.5
 31
0.0
  0
LINE
  8
L-ZISSEN
 10
381.0
 20
1046.5
 30
0.0
 11
387.50001
 21
1046.5
 31
0.0
  0
LINE
  8
L-ZISSEN
 10
381.0
 20
993.5
 30
0.0
 11
381.0
 21
1046.5
 31
0.0
  0
LINE
  8
L-TYUSIN
  6
CENTER
 62
     1
 10
372.0
 20
1055.0
 30
0.0
 11
362.0
 21
1055.0
 31
0.0
  0
LINE
  8
L-TYUSIN
  6
CENTER
 62
     1
 10
372.0
 20
985.0
 30
0.0
 11
362.0
 21
985.0
 31
0.0
  0
LINE
  8
L-TYUSIN
  6
CENTER
 62
     1
 10
384.0
 20
957.0
 30
0.0
 11
362.0
 21
957.0
 31
0.0
  0
LINE
  8
L-ZISSEN
 10
367.0
 20
948.0
 30
0.0
 11
379.0
 21
948.0
 31
0.0
  0
LINE
  8
L-ZISSEN
 10
379.0
 20
948.0
 30
0.0
 11
379.0
 21
963.5
 31
0.0
  0
LINE
  8
L-ZISSEN
 10
398.000007
 20
963.5
 30
0.0
 11
376.0
 21
963.5
 31
0.0
  0
LINE
  8
L-ZISSEN
 10
376.0
 20
963.5
 30
0.0
 11
376.0
 21
988.5
 31
0.0
  0
LINE
  8
L-ZISSEN
 10
376.0
 20
988.5
 30
0.0
 11
381.0
 21
993.5
 31
0.0
  0
LINE
  8
L-ZISSEN
 10
381.0
 20
993.5
 30
0.0
 11
387.50001
 21
993.5
 31
0.0
  0
LINE
  8
L-ZISSEN
 10
376.0
 20
988.5
 30
0.0
 11
387.50001
 21
988.5
 31
0.0
  0
LINE
  8
L-TYUSIN
  6
CENTER
 62
     1
 10
395.0
 20
958.5
 30
0.0
 11
395.0
 21
977.500014
 31
0.0
  0
LINE
  8
L-ZISSEN
 10
441.999993
 20
963.5
 30
0.0
 11
464.0
 21
963.5
 31
0.0
  0
LINE
  8
L-TYUSIN
  6
CENTER
 62
     1
 10
445.0
 20
958.5
 30
0.0
 11
445.0
 21
977.500014
 31
0.0
  0
LINE
  8
L-ZISSEN
 10
464.0
 20
988.5
 30
0.0
 11
452.49999
 21
988.5
 31
0.0
  0
LINE
  8
L-ZISSEN
 10
464.0
 20
988.5
 30
0.0
 11
459.0
 21
993.5
 31
0.0
  0
LINE
  8
L-ZISSEN
 10
459.0
 20
993.5
 30
0.0
 11
454.598052
 21
993.5
 31
0.0
  0
LINE
  8
L-ZISSEN
 10
464.0
 20
963.5
 30
0.0
 11
464.0
 21
988.5
 31
0.0
  0
LINE
  8
L-ZISSEN
 10
473.0
 20
1092.0
 30
0.0
 11
473.0
 21
948.0
 31
0.0
  0
LINE
  8
L-ZISSEN
 10
461.0
 20
948.0
 30
0.0
 11
461.0
 21
963.5
 31
0.0
  0
LINE
  8
L-TYUSIN
  6
CENTER
 62
     1
 10
456.0
 20
957.0
 30
0.0
 11
478.0
 21
957.0
 31
0.0
  0
LINE
  8
L-ZISSEN
 10
473.0
 20
948.0
 30
0.0
 11
461.0
 21
948.0
 31
0.0
  0
LINE
  8
L-TYUSIN
  6
CENTER
 62
     1
 10
468.0
 20
985.0
 30
0.0
 11
478.0
 21
985.0
 31
0.0
  0
LINE
  8
L-TYUSIN
  6
CENTER
 62
     1
 10
468.0
 20
1055.0
 30
0.0
 11
478.0
 21
1055.0
 31
0.0
  0
LINE
  8
L-ZISSEN
 10
464.0
 20
1076.5
 30
0.0
 11
464.0
 21
1051.5
 31
0.0
  0
LINE
  8
L-ZISSEN
 10
464.0
 20
1051.5
 30
0.0
 11
459.0
 21
1046.5
 31
0.0
  0
LINE
  8
L-ZISSEN
 10
459.0
 20
1046.5
 30
0.0
 11
454.598052
 21
1046.5
 31
0.0
  0
LINE
  8
L-ZISSEN
 10
464.0
 20
1051.5
 30
0.0
 11
452.49999
 21
1051.5
 31
0.0
  0
LINE
  8
L-ZISSEN
 10
459.0
 20
993.5
 30
0.0
 11
459.0
 21
1046.5
 31
0.0
  0
LINE
  8
L-ZISSEN
 10
461.0
 20
1092.0
 30
0.0
 11
461.0
 21
1076.5
 31
0.0
  0
LINE
  8
L-ZISSEN
 10
473.0
 20
1092.0
 30
0.0
 11
461.0
 21
1092.0
 31
0.0
  0
LINE
  8
L-TYUSIN
  6
CENTER
 62
     1
 10
456.0
 20
1083.0
 30
0.0
 11
478.0
 21
1083.0
 31
0.0
  0
LINE
  8
L-ZISSEN
 10
441.999993
 20
1076.5
 30
0.0
 11
464.0
 21
1076.5
 31
0.0
  0
LINE
  8
L-TYUSIN
  6
CENTER
 62
     1
 10
395.0
 20
1081.5
 30
0.0
 11
395.0
 21
1062.499986
 31
0.0
  0
LINE
  8
L-TYUSIN
  6
CENTER
 62
     1
 10
445.0
 20
1081.5
 30
0.0
 11
445.0
 21
1062.499986
 31
0.0
  0
LINE
  8
L-TYUSIN
  6
CENTER
 62
     1
 10
362.0
 20
1020.0
 30
0.0
 11
478.0
 21
1020.0
 31
0.0
  0
LINE
  8
L-ZISSEN
 10
217.0
 20
502.0
 30
0.0
 11
229.0
 21
502.0
 31
0.0
  0
LINE
  8
L-TYUSIN
  6
CENTER
 62
     1
 10
234.0
 20
493.0
 30
0.0
 11
212.0
 21
493.0
 31
0.0
  0
LINE
  8
L-ZISSEN
 10
217.0
 20
502.0
 30
0.0
 11
217.0
 21
358.0
 31
0.0
  0
LINE
  8
L-ZISSEN
 10
229.0
 20
502.0
 30
0.0
 11
229.0
 21
358.0
 31
0.0
  0
LINE
  8
L-TYUSIN
  6
CENTER
 62
     1
 10
222.0
 20
465.0
 30
0.0
 11
212.0
 21
465.0
 31
0.0
  0
LINE
  8
L-ZISSEN
 10
255.854918
 20
486.5
 30
0.0
 11
229.0
 21
486.5
 31
0.0
  0
LINE
  8
L-TYUSIN
  6
CENTER
 62
     1
 10
245.0
 20
491.5
 30
0.0
 11
245.0
 21
481.5
 31
0.0
  0
LINE
  8
L-ZISSEN
 10
262.205771
 20
497.5
 30
0.0
 11
248.0
 21
472.894882
 31
0.0
  0
ARC
  8
L-ZISSEN
 10
270.0
 20
493.0
 30
0.0
 40
9.0
 50
30.0
 51
150.0
  0
LINE
  8
L-TYUSIN
  6
CENTER
 62
     1
 10
278.0
 20
493.0
 30
0.0
 11
262.0
 21
493.0
 31
0.0
  0
CIRCLE
  8
L-ZISSEN
 10
270.0
 20
493.0
 30
0.0
 40
4.5
  0
LINE
  8
L-ZISSEN
 10
277.794229
 20
497.5
 30
0.0
 11
292.0
 21
472.894882
 31
0.0
  0
LINE
  8
L-ZISSEN
 10
292.0
 20
472.894882
 30
0.0
 11
292.0
 21
387.105118
 31
0.0
  0
LINE
  8
L-ZISSEN
 10
248.0
 20
472.894882
 30
0.0
 11
248.0
 21
387.105118
 31
0.0
  0
LINE
  8
L-ZISSEN
 10
255.854918
 20
373.5
 30
0.0
 11
229.0
 21
373.5
 31
0.0
  0
LINE
  8
L-TYUSIN
  6
CENTER
 62
     1
 10
245.0
 20
368.5
 30
0.0
 11
245.0
 21
378.5
 31
0.0
  0
LINE
  8
L-ZISSEN
 10
217.0
 20
358.0
 30
0.0
 11
229.0
 21
358.0
 31
0.0
  0
LINE
  8
L-TYUSIN
  6
CENTER
 62
     1
 10
234.0
 20
367.0
 30
0.0
 11
212.0
 21
367.0
 31
0.0
  0
LINE
  8
L-TYUSIN
  6
CENTER
 62
     1
 10
222.0
 20
395.0
 30
0.0
 11
212.0
 21
395.0
 31
0.0
  0
LINE
  8
L-ZISSEN
 10
262.205771
 20
362.5
 30
0.0
 11
248.0
 21
387.105118
 31
0.0
  0
ARC
  8
L-ZISSEN
 10
270.0
 20
367.0
 30
0.0
 40
9.0
 50
210.0
 51
330.0
  0
CIRCLE
  8
L-ZISSEN
 10
270.0
 20
367.0
 30
0.0
 40
4.5
  0
LINE
  8
L-TYUSIN
  6
CENTER
 62
     1
 10
278.0
 20
367.0
 30
0.0
 11
262.0
 21
367.0
 31
0.0
  0
LINE
  8
L-ZISSEN
 10
277.794229
 20
362.5
 30
0.0
 11
292.0
 21
387.105118
 31
0.0
  0
LINE
  8
L-ZISSEN
 10
311.0
 20
502.0
 30
0.0
 11
311.0
 21
358.0
 31
0.0
  0
LINE
  8
L-ZISSEN
 10
284.145082
 20
373.5
 30
0.0
 11
311.0
 21
373.5
 31
0.0
  0
LINE
  8
L-TYUSIN
  6
CENTER
 62
     1
 10
295.0
 20
368.5
 30
0.0
 11
295.0
 21
378.5
 31
0.0
  0
LINE
  8
L-TYUSIN
  6
CENTER
 62
     1
 10
306.0
 20
367.0
 30
0.0
 11
328.0
 21
367.0
 31
0.0
  0
LINE
  8
L-ZISSEN
 10
323.0
 20
358.0
 30
0.0
 11
311.0
 21
358.0
 31
0.0
  0
LINE
  8
L-ZISSEN
 10
323.0
 20
502.0
 30
0.0
 11
323.0
 21
358.0
 31
0.0
  0
LINE
  8
L-TYUSIN
  6
CENTER
 62
     1
 10
318.0
 20
395.0
 30
0.0
 11
328.0
 21
395.0
 31
0.0
  0
LINE
  8
L-TYUSIN
  6
CENTER
 62
     1
 10
318.0
 20
465.0
 30
0.0
 11
328.0
 21
465.0
 31
0.0
  0
LINE
  8
L-ZISSEN
 10
323.0
 20
502.0
 30
0.0
 11
311.0
 21
502.0
 31
0.0
  0
LINE
  8
L-TYUSIN
  6
CENTER
 62
     1
 10
306.0
 20
493.0
 30
0.0
 11
328.0
 21
493.0
 31
0.0
  0
LINE
  8
L-ZISSEN
 10
284.145082
 20
486.5
 30
0.0
 11
311.0
 21
486.5
 31
0.0
  0
LINE
  8
L-TYUSIN
  6
CENTER
 62
     1
 10
295.0
 20
491.5
 30
0.0
 11
295.0
 21
481.5
 31
0.0
  0
LINE
  8
L-TYUSIN
  6
CENTER
 62
     1
 10
328.0
 20
430.0
 30
0.0
 11
212.0
 21
430.0
 31
0.0
  0
LINE
  8
L-ZISSEN
  6
CONTINUOUS
 62
     7
 10
257.250004
 20
493.799984
 30
0.0
 11
248.750006
 21
493.799984
 31
0.0
  0
LINE
  8
L-ZISSEN
  6
CONTINUOUS
 62
     7
 10
248.750006
 20
487.499986
 30
0.0
 11
248.750006
 21
493.799984
 31
0.0
  0
LINE
  8
L-ZISSEN
  6
CONTINUOUS
 62
     7
 10
257.250004
 20
488.916359
 30
0.0
 11
257.250004
 21
493.799984
 31
0.0
  0
LINE
  8
L-ZISSEN
  6
CONTINUOUS
 62
     7
 10
282.749996
 20
493.799984
 30
0.0
 11
291.249994
 21
493.799984
 31
0.0
  0
LINE
  8
L-ZISSEN
  6
CONTINUOUS
 62
     7
 10
282.749996
 20
488.916359
 30
0.0
 11
282.749996
 21
493.799984
 31
0.0
  0
LINE
  8
L-ZISSEN
  6
CONTINUOUS
 62
     7
 10
291.249994
 20
487.499986
 30
0.0
 11
291.249994
 21
493.799984
 31
0.0
  0
LINE
  8
L-ZISSEN
  6
CONTINUOUS
 62
     7
 10
248.750006
 20
372.500014
 30
0.0
 11
248.750006
 21
366.200016
 31
0.0
  0
LINE
  8
L-ZISSEN
  6
CONTINUOUS
 62
     7
 10
257.250004
 20
366.200016
 30
0.0
 11
248.750006
 21
366.200016
 31
0.0
  0
LINE
  8
L-ZISSEN
  6
CONTINUOUS
 62
     7
 10
257.250004
 20
371.083641
 30
0.0
 11
257.250004
 21
366.200016
 31
0.0
  0
LINE
  8
L-ZISSEN
  6
CONTINUOUS
 62
     7
 10
282.749996
 20
371.083641
 30
0.0
 11
282.749996
 21
366.200016
 31
0.0
  0
LINE
  8
L-ZISSEN
  6
CONTINUOUS
 62
     7
 10
291.249994
 20
372.500014
 30
0.0
 11
291.249994
 21
366.200016
 31
0.0
  0
LINE
  8
L-ZISSEN
  6
CONTINUOUS
 62
     7
 10
282.749996
 20
366.200016
 30
0.0
 11
291.249994
 21
366.200016
 31
0.0
  0
LINE
  8
L-ZISSEN
 10
248.0
 20
628.0
 30
0.0
 11
292.0
 21
628.0
 31
0.0
  0
LINE
  8
L-TYUSIN
 10
218.0
 20
682.0
 30
0.0
 11
322.0
 21
682.0
 31
0.0
  0
CIRCLE
  8
L-ZISSEN
 10
297.0
 20
682.0
 30
0.0
 40
19.0
  0
CIRCLE
  8
L-ZISSEN
 10
243.0
 20
682.0
 30
0.0
 40
19.0
  0
LINE
  8
L-TYUSIN
 10
212.0
 20
653.0
 30
0.0
 11
328.0
 21
653.0
 31
0.0
  0
LINE
  8
L-ZISSEN
 10
323.0
 20
674.0
 30
0.0
 11
323.0
 21
632.0
 31
0.0
  0
LINE
  8
L-ZISSEN
 10
323.0
 20
634.0
 30
0.0
 11
292.0
 21
634.0
 31
0.0
  0
LINE
  8
L-ZISSEN
 10
311.0
 20
628.0
 30
0.0
 11
311.0
 21
669.154767
 31
0.0
  0
LINE
  8
L-ZISSEN
 10
313.155494
 20
672.0
 30
0.0
 11
323.0
 21
672.0
 31
0.0
  0
LINE
  8
L-ZISSEN
 10
323.0
 20
632.0
 30
0.0
 11
311.0
 21
632.0
 31
0.0
  0
LINE
  8
L-ZISSEN
 10
323.0
 20
674.0
 30
0.0
 11
314.233688
 21
674.0
 31
0.0
  0
LINE
  8
L-ZISSEN
 10
317.0
 20
628.0
 30
0.0
 11
317.0
 21
632.0
 31
0.0
  0
LINE
  8
L-ZISSEN
 10
292.0
 20
628.0
 30
0.0
 11
292.0
 21
638.0
 31
0.0
  0
LINE
  8
L-ZISSEN
 10
311.0
 20
628.0
 30
0.0
 11
317.0
 21
628.0
 31
0.0
  0
LINE
  8
L-ZISSEN
 10
229.0
 20
628.0
 30
0.0
 11
223.0
 21
628.0
 31
0.0
  0
LINE
  8
L-ZISSEN
 10
248.0
 20
628.0
 30
0.0
 11
248.0
 21
638.0
 31
0.0
  0
LINE
  8
L-ZISSEN
 10
223.0
 20
628.0
 30
0.0
 11
223.0
 21
632.0
 31
0.0
  0
LINE
  8
L-ZISSEN
 10
217.0
 20
674.0
 30
0.0
 11
225.766312
 21
674.0
 31
0.0
  0
LINE
  8
L-ZISSEN
 10
217.0
 20
632.0
 30
0.0
 11
229.0
 21
632.0
 31
0.0
  0
LINE
  8
L-ZISSEN
 10
226.844506
 20
672.0
 30
0.0
 11
217.0
 21
672.0
 31
0.0
  0
LINE
  8
L-ZISSEN
 10
229.0
 20
628.0
 30
0.0
 11
229.0
 21
669.154767
 31
0.0
  0
LINE
  8
L-ZISSEN
 10
217.0
 20
634.0
 30
0.0
 11
248.0
 21
634.0
 31
0.0
  0
LINE
  8
L-ZISSEN
 10
217.0
 20
674.0
 30
0.0
 11
217.0
 21
632.0
 31
0.0
  0
LINE
  8
L-ZISSEN
 10
248.0
 20
638.0
 30
0.0
 11
292.0
 21
638.0
 31
0.0
  0
LINE
  8
L-TYUSIN
  6
CENTER
 62
     1
 10
297.0
 20
707.0
 30
0.0
 11
297.0
 21
657.0
 31
0.0
  0
LINE
  8
L-TYUSIN
  6
CENTER
 62
     1
 10
243.0
 20
707.0
 30
0.0
 11
243.0
 21
657.0
 31
0.0
  0
LINE
  8
L-ZISSEN
 10
238.0
 20
707.0
 30
0.0
 11
238.0
 21
700.330303
 31
0.0
  0
LINE
  8
L-ZISSEN
 10
231.0
 20
708.0
 30
0.0
 11
231.0
 21
696.73092
 31
0.0
  0
LINE
  8
L-ZISSEN
 10
302.0
 20
707.0
 30
0.0
 11
302.0
 21
700.330303
 31
0.0
  0
LINE
  8
L-ZISSEN
 10
309.0
 20
708.0
 30
0.0
 11
309.0
 21
696.73092
 31
0.0
  0
LINE
  8
L-ZISSEN
 10
217.0
 20
948.0
 30
0.0
 11
229.0
 21
948.0
 31
0.0
  0
LINE
  8
L-TYUSIN
  6
CENTER
 62
     1
 10
234.0
 20
957.0
 30
0.0
 11
212.0
 21
957.0
 31
0.0
  0
LINE
  8
L-ZISSEN
 10
217.0
 20
1092.0
 30
0.0
 11
217.0
 21
948.0
 31
0.0
  0
LINE
  8
L-ZISSEN
 10
229.0
 20
948.0
 30
0.0
 11
229.0
 21
963.5
 31
0.0
  0
LINE
  8
L-ZISSEN
 10
226.0
 20
988.5
 30
0.0
 11
237.50001
 21
988.5
 31
0.0
  0
LINE
  8
L-TYUSIN
  6
CENTER
 62
     1
 10
222.0
 20
985.0
 30
0.0
 11
212.0
 21
985.0
 31
0.0
  0
LINE
  8
L-ZISSEN
 10
226.0
 20
963.5
 30
0.0
 11
226.0
 21
988.5
 31
0.0
  0
LINE
  8
L-ZISSEN
 10
248.000007
 20
963.5
 30
0.0
 11
226.0
 21
963.5
 31
0.0
  0
LINE
  8
L-TYUSIN
  6
CENTER
 62
     1
 10
245.0
 20
958.5
 30
0.0
 11
245.0
 21
977.500014
 31
0.0
  0
LINE
  8
L-ZISSEN
 10
231.0
 20
993.5
 30
0.0
 11
237.50001
 21
993.5
 31
0.0
  0
LINE
  8
L-ZISSEN
 10
226.0
 20
988.5
 30
0.0
 11
231.0
 21
993.5
 31
0.0
  0
LINE
  8
L-ZISSEN
 10
231.0
 20
993.5
 30
0.0
 11
231.0
 21
1046.5
 31
0.0
  0
LINE
  8
L-ZISSEN
 10
226.0
 20
1051.5
 30
0.0
 11
231.0
 21
1046.5
 31
0.0
  0
LINE
  8
L-ZISSEN
 10
231.0
 20
1046.5
 30
0.0
 11
237.50001
 21
1046.5
 31
0.0
  0
LINE
  8
L-ZISSEN
 10
226.0
 20
1051.5
 30
0.0
 11
237.50001
 21
1051.5
 31
0.0
  0
LINE
  8
L-ZISSEN
 10
226.0
 20
1076.5
 30
0.0
 11
226.0
 21
1051.5
 31
0.0
  0
LINE
  8
L-ZISSEN
 10
248.000007
 20
1076.5
 30
0.0
 11
226.0
 21
1076.5
 31
0.0
  0
LINE
  8
L-TYUSIN
  6
CENTER
 62
     1
 10
245.0
 20
1081.5
 30
0.0
 11
245.0
 21
1062.499986
 31
0.0
  0
LINE
  8
L-TYUSIN
  6
CENTER
 62
     1
 10
234.0
 20
1083.0
 30
0.0
 11
212.0
 21
1083.0
 31
0.0
  0
LINE
  8
L-ZISSEN
 10
217.0
 20
1092.0
 30
0.0
 11
229.0
 21
1092.0
 31
0.0
  0
LINE
  8
L-ZISSEN
 10
229.0
 20
1076.5
 30
0.0
 11
229.0
 21
1092.0
 31
0.0
  0
LINE
  8
L-TYUSIN
  6
CENTER
 62
     1
 10
222.0
 20
1055.0
 30
0.0
 11
212.0
 21
1055.0
 31
0.0
  0
LINE
  8
L-ZISSEN
 10
309.0
 20
993.5
 30
0.0
 11
309.0
 21
1046.5
 31
0.0
  0
LINE
  8
L-ZISSEN
 10
323.0
 20
1092.0
 30
0.0
 11
323.0
 21
948.0
 31
0.0
  0
LINE
  8
L-TYUSIN
  6
CENTER
 62
     1
 10
318.0
 20
1055.0
 30
0.0
 11
328.0
 21
1055.0
 31
0.0
  0
LINE
  8
L-TYUSIN
  6
CENTER
 62
     1
 10
306.0
 20
1083.0
 30
0.0
 11
328.0
 21
1083.0
 31
0.0
  0
LINE
  8
L-ZISSEN
 10
311.0
 20
1092.0
 30
0.0
 11
311.0
 21
1076.5
 31
0.0
  0
LINE
  8
L-ZISSEN
 10
323.0
 20
1092.0
 30
0.0
 11
311.0
 21
1092.0
 31
0.0
  0
LINE
  8
L-TYUSIN
  6
CENTER
 62
     1
 10
295.0
 20
1081.5
 30
0.0
 11
295.0
 21
1062.499986
 31
0.0
  0
LINE
  8
L-ZISSEN
 10
291.999993
 20
1076.5
 30
0.0
 11
314.0
 21
1076.5
 31
0.0
  0
LINE
  8
L-ZISSEN
 10
314.0
 20
1076.5
 30
0.0
 11
314.0
 21
1051.5
 31
0.0
  0
LINE
  8
L-ZISSEN
 10
314.0
 20
1051.5
 30
0.0
 11
302.49999
 21
1051.5
 31
0.0
  0
LINE
  8
L-ZISSEN
 10
314.0
 20
1051.5
 30
0.0
 11
309.0
 21
1046.5
 31
0.0
  0
LINE
  8
L-ZISSEN
 10
309.0
 20
1046.5
 30
0.0
 11
304.598052
 21
1046.5
 31
0.0
  0
LINE
  8
L-ZISSEN
 10
309.0
 20
993.5
 30
0.0
 11
304.598052
 21
993.5
 31
0.0
  0
LINE
  8
L-ZISSEN
 10
314.0
 20
988.5
 30
0.0
 11
302.49999
 21
988.5
 31
0.0
  0
LINE
  8
L-ZISSEN
 10
314.0
 20
988.5
 30
0.0
 11
309.0
 21
993.5
 31
0.0
  0
LINE
  8
L-ZISSEN
 10
314.0
 20
963.5
 30
0.0
 11
314.0
 21
988.5
 31
0.0
  0
LINE
  8
L-ZISSEN
 10
291.999993
 20
963.5
 30
0.0
 11
314.0
 21
963.5
 31
0.0
  0
LINE
  8
L-TYUSIN
  6
CENTER
 62
     1
 10
295.0
 20
958.5
 30
0.0
 11
295.0
 21
977.500014
 31
0.0
  0
LINE
  8
L-TYUSIN
  6
CENTER
 62
     1
 10
306.0
 20
957.0
 30
0.0
 11
328.0
 21
957.0
 31
0.0
  0
LINE
  8
L-ZISSEN
 10
311.0
 20
948.0
 30
0.0
 11
311.0
 21
963.5
 31
0.0
  0
LINE
  8
L-ZISSEN
 10
323.0
 20
948.0
 30
0.0
 11
311.0
 21
948.0
 31
0.0
  0
LINE
  8
L-TYUSIN
  6
CENTER
 62
     1
 10
318.0
 20
985.0
 30
0.0
 11
328.0
 21
985.0
 31
0.0
  0
LINE
  8
L-TYUSIN
  6
CENTER
 62
     1
 10
212.0
 20
1020.0
 30
0.0
 11
328.0
 21
1020.0
 31
0.0
  0
LINE
  8
L-ZISSEN
 10
67.0
 20
502.0
 30
0.0
 11
67.0
 21
358.0
 31
0.0
  0
LINE
  8
L-ZISSEN
 10
79.0
 20
502.0
 30
0.0
 11
79.0
 21
358.0
 31
0.0
  0
LINE
  8
L-TYUSIN
  6
CENTER
 62
     1
 10
84.0
 20
367.0
 30
0.0
 11
62.0
 21
367.0
 31
0.0
  0
LINE
  8
L-ZISSEN
 10
67.0
 20
358.0
 30
0.0
 11
79.0
 21
358.0
 31
0.0
  0
LINE
  8
L-TYUSIN
  6
CENTER
 62
     1
 10
72.0
 20
395.0
 30
0.0
 11
62.0
 21
395.0
 31
0.0
  0
LINE
  8
L-TYUSIN
  6
CENTER
 62
     1
 10
72.0
 20
465.0
 30
0.0
 11
62.0
 21
465.0
 31
0.0
  0
LINE
  8
L-TYUSIN
  6
CENTER
 62
     1
 10
84.0
 20
493.0
 30
0.0
 11
62.0
 21
493.0
 31
0.0
  0
LINE
  8
L-ZISSEN
 10
105.854918
 20
486.5
 30
0.0
 11
79.0
 21
486.5
 31
0.0
  0
LINE
  8
L-ZISSEN
 10
112.205771
 20
497.5
 30
0.0
 11
98.0
 21
472.894882
 31
0.0
  0
LINE
  8
L-ZISSEN
 10
98.0
 20
472.894882
 30
0.0
 11
98.0
 21
387.105118
 31
0.0
  0
CIRCLE
  8
L-ZISSEN
 10
120.0
 20
493.0
 30
0.0
 40
4.5
  0
LINE
  8
L-ZISSEN
 10
127.794229
 20
497.5
 30
0.0
 11
142.0
 21
472.894882
 31
0.0
  0
ARC
  8
L-ZISSEN
 10
120.0
 20
493.0
 30
0.0
 40
9.0
 50
30.0
 51
150.0
  0
LINE
  8
L-TYUSIN
  6
CENTER
 62
     1
 10
128.0
 20
493.0
 30
0.0
 11
112.0
 21
493.0
 31
0.0
  0
LINE
  8
L-TYUSIN
  6
CENTER
 62
     1
 10
156.0
 20
493.0
 30
0.0
 11
178.0
 21
493.0
 31
0.0
  0
LINE
  8
L-ZISSEN
 10
134.145082
 20
486.5
 30
0.0
 11
161.0
 21
486.5
 31
0.0
  0
LINE
  8
L-ZISSEN
 10
161.0
 20
502.0
 30
0.0
 11
161.0
 21
358.0
 31
0.0
  0
LINE
  8
L-ZISSEN
 10
173.0
 20
502.0
 30
0.0
 11
161.0
 21
502.0
 31
0.0
  0
LINE
  8
L-TYUSIN
  6
CENTER
 62
     1
 10
145.0
 20
491.5
 30
0.0
 11
145.0
 21
481.5
 31
0.0
  0
LINE
  8
L-TYUSIN
  6
CENTER
 62
     1
 10
95.0
 20
491.5
 30
0.0
 11
95.0
 21
481.5
 31
0.0
  0
LINE
  8
L-ZISSEN
 10
173.0
 20
502.0
 30
0.0
 11
173.0
 21
358.0
 31
0.0
  0
LINE
  8
L-TYUSIN
  6
CENTER
 62
     1
 10
168.0
 20
465.0
 30
0.0
 11
178.0
 21
465.0
 31
0.0
  0
LINE
  8
L-TYUSIN
  6
CENTER
 62
     1
 10
168.0
 20
395.0
 30
0.0
 11
178.0
 21
395.0
 31
0.0
  0
LINE
  8
L-TYUSIN
  6
CENTER
 62
     1
 10
156.0
 20
367.0
 30
0.0
 11
178.0
 21
367.0
 31
0.0
  0
LINE
  8
L-ZISSEN
 10
173.0
 20
358.0
 30
0.0
 11
161.0
 21
358.0
 31
0.0
  0
LINE
  8
L-ZISSEN
 10
127.794229
 20
362.5
 30
0.0
 11
142.0
 21
387.105118
 31
0.0
  0
LINE
  8
L-ZISSEN
 10
142.0
 20
472.894882
 30
0.0
 11
142.0
 21
387.105118
 31
0.0
  0
LINE
  8
L-ZISSEN
 10
112.205771
 20
362.5
 30
0.0
 11
98.0
 21
387.105118
 31
0.0
  0
CIRCLE
  8
L-ZISSEN
 10
120.0
 20
367.0
 30
0.0
 40
4.5
  0
LINE
  8
L-TYUSIN
  6
CENTER
 62
     1
 10
128.0
 20
367.0
 30
0.0
 11
112.0
 21
367.0
 31
0.0
  0
ARC
  8
L-ZISSEN
 10
120.0
 20
367.0
 30
0.0
 40
9.0
 50
210.0
 51
330.0
  0
LINE
  8
L-ZISSEN
 10
67.0
 20
502.0
 30
0.0
 11
79.0
 21
502.0
 31
0.0
  0
LINE
  8
L-TYUSIN
  6
CENTER
 62
     1
 10
95.0
 20
368.5
 30
0.0
 11
95.0
 21
378.5
 31
0.0
  0
LINE
  8
L-ZISSEN
 10
105.854918
 20
373.5
 30
0.0
 11
79.0
 21
373.5
 31
0.0
  0
LINE
  8
L-TYUSIN
  6
CENTER
 62
     1
 10
145.0
 20
368.5
 30
0.0
 11
145.0
 21
378.5
 31
0.0
  0
LINE
  8
L-ZISSEN
 10
134.145082
 20
373.5
 30
0.0
 11
161.0
 21
373.5
 31
0.0
  0
LINE
  8
L-ZISSEN
  6
CONTINUOUS
 62
     7
 10
98.750006
 20
487.499983
 30
0.0
 11
98.750006
 21
493.799981
 31
0.0
  0
LINE
  8
L-ZISSEN
  6
CONTINUOUS
 62
     7
 10
141.249994
 20
487.499983
 30
0.0
 11
141.249994
 21
493.799981
 31
0.0
  0
LINE
  8
L-ZISSEN
 10
142.0
 20
487.499983
 30
0.0
 11
142.0
 21
486.5
 31
0.0
  0
LINE
  8
L-ZISSEN
 10
98.0
 20
487.499983
 30
0.0
 11
98.0
 21
486.5
 31
0.0
  0
LINE
  8
L-ZISSEN
  6
CONTINUOUS
 62
     7
 10
133.567741
 20
487.499983
 30
0.0
 11
142.0
 21
487.499983
 31
0.0
  0
LINE
  8
L-ZISSEN
  6
CONTINUOUS
 62
     7
 10
141.249994
 20
372.500014
 30
0.0
 11
141.249994
 21
366.200016
 31
0.0
  0
LINE
  8
L-ZISSEN
  6
CONTINUOUS
 62
     7
 10
98.750006
 20
372.500014
 30
0.0
 11
98.750006
 21
366.200016
 31
0.0
  0
LINE
  8
L-ZISSEN
 10
98.0
 20
638.0
 30
0.0
 11
142.0
 21
638.0
 31
0.0
  0
LINE
  8
L-ZISSEN
 10
67.0
 20
674.0
 30
0.0
 11
67.0
 21
632.0
 31
0.0
  0
LINE
  8
L-ZISSEN
 10
67.0
 20
634.0
 30
0.0
 11
98.0
 21
634.0
 31
0.0
  0
LINE
  8
L-ZISSEN
 10
79.0
 20
628.0
 30
0.0
 11
79.0
 21
669.154767
 31
0.0
  0
LINE
  8
L-ZISSEN
 10
76.844506
 20
672.0
 30
0.0
 11
67.0
 21
672.0
 31
0.0
  0
LINE
  8
L-ZISSEN
 10
67.0
 20
632.0
 30
0.0
 11
79.0
 21
632.0
 31
0.0
  0
LINE
  8
L-ZISSEN
 10
67.0
 20
674.0
 30
0.0
 11
75.766312
 21
674.0
 31
0.0
  0
LINE
  8
L-ZISSEN
 10
73.0
 20
628.0
 30
0.0
 11
73.0
 21
632.0
 31
0.0
  0
LINE
  8
L-ZISSEN
 10
98.0
 20
628.0
 30
0.0
 11
98.0
 21
638.0
 31
0.0
  0
LINE
  8
L-ZISSEN
 10
79.0
 20
628.0
 30
0.0
 11
73.0
 21
628.0
 31
0.0
  0
LINE
  8
L-ZISSEN
 10
161.0
 20
628.0
 30
0.0
 11
167.0
 21
628.0
 31
0.0
  0
LINE
  8
L-ZISSEN
 10
142.0
 20
628.0
 30
0.0
 11
142.0
 21
638.0
 31
0.0
  0
LINE
  8
L-ZISSEN
 10
167.0
 20
628.0
 30
0.0
 11
167.0
 21
632.0
 31
0.0
  0
LINE
  8
L-ZISSEN
 10
173.0
 20
674.0
 30
0.0
 11
164.233688
 21
674.0
 31
0.0
  0
LINE
  8
L-ZISSEN
 10
173.0
 20
632.0
 30
0.0
 11
161.0
 21
632.0
 31
0.0
  0
LINE
  8
L-ZISSEN
 10
163.155494
 20
672.0
 30
0.0
 11
173.0
 21
672.0
 31
0.0
  0
LINE
  8
L-ZISSEN
 10
161.0
 20
628.0
 30
0.0
 11
161.0
 21
669.154767
 31
0.0
  0
LINE
  8
L-ZISSEN
 10
173.0
 20
634.0
 30
0.0
 11
142.0
 21
634.0
 31
0.0
  0
LINE
  8
L-ZISSEN
 10
173.0
 20
674.0
 30
0.0
 11
173.0
 21
632.0
 31
0.0
  0
CIRCLE
  8
L-ZISSEN
 10
93.0
 20
682.0
 30
0.0
 40
19.0
  0
CIRCLE
  8
L-ZISSEN
 10
147.0
 20
682.0
 30
0.0
 40
19.0
  0
LINE
  8
L-TYUSIN
 10
68.0
 20
682.0
 30
0.0
 11
172.0
 21
682.0
 31
0.0
  0
LINE
  8
L-ZISSEN
 10
98.0
 20
628.0
 30
0.0
 11
142.0
 21
628.0
 31
0.0
  0
LINE
  8
L-TYUSIN
  6
CENTER
 62
     1
 10
147.0
 20
707.0
 30
0.0
 11
147.0
 21
657.0
 31
0.0
  0
LINE
  8
L-TYUSIN
  6
CENTER
 62
     1
 10
93.0
 20
707.0
 30
0.0
 11
93.0
 21
657.0
 31
0.0
  0
LINE
  8
L-TYUSIN
 10
62.0
 20
653.0
 30
0.0
 11
178.0
 21
653.0
 31
0.0
  0
LINE
  8
L-ZISSEN
 10
88.0
 20
707.0
 30
0.0
 11
88.0
 21
700.330303
 31
0.0
  0
LINE
  8
L-ZISSEN
 10
81.0
 20
708.0
 30
0.0
 11
81.0
 21
696.73092
 31
0.0
  0
LINE
  8
L-ZISSEN
 10
152.0
 20
707.0
 30
0.0
 11
152.0
 21
700.330303
 31
0.0
  0
LINE
  8
L-ZISSEN
 10
159.0
 20
708.0
 30
0.0
 11
159.0
 21
696.73092
 31
0.0
  0
LINE
  8
L-TYUSIN
  6
CENTER
 62
     1
 10
84.0
 20
957.0
 30
0.0
 11
62.0
 21
957.0
 31
0.0
  0
LINE
  8
L-ZISSEN
 10
67.0
 20
1092.0
 30
0.0
 11
67.0
 21
948.0
 31
0.0
  0
LINE
  8
L-ZISSEN
 10
79.0
 20
948.0
 30
0.0
 11
79.0
 21
963.5
 31
0.0
  0
LINE
  8
L-ZISSEN
 10
67.0
 20
948.0
 30
0.0
 11
79.0
 21
948.0
 31
0.0
  0
LINE
  8
L-TYUSIN
  6
CENTER
 62
     1
 10
72.0
 20
985.0
 30
0.0
 11
62.0
 21
985.0
 31
0.0
  0
LINE
  8
L-ZISSEN
 10
76.0
 20
963.5
 30
0.0
 11
76.0
 21
988.5
 31
0.0
  0
LINE
  8
L-ZISSEN
 10
76.0
 20
988.5
 30
0.0
 11
87.50001
 21
988.5
 31
0.0
  0
LINE
  8
L-ZISSEN
 10
76.0
 20
988.5
 30
0.0
 11
81.0
 21
993.5
 31
0.0
  0
LINE
  8
L-ZISSEN
 10
81.0
 20
993.5
 30
0.0
 11
87.50001
 21
993.5
 31
0.0
  0
LINE
  8
L-ZISSEN
 10
98.000007
 20
963.5
 30
0.0
 11
76.0
 21
963.5
 31
0.0
  0
LINE
  8
L-TYUSIN
  6
CENTER
 62
     1
 10
95.0
 20
958.5
 30
0.0
 11
95.0
 21
977.500014
 31
0.0
  0
LINE
  8
L-ZISSEN
 10
81.0
 20
993.5
 30
0.0
 11
81.0
 21
1046.5
 31
0.0
  0
LINE
  8
L-ZISSEN
 10
76.0
 20
1051.5
 30
0.0
 11
81.0
 21
1046.5
 31
0.0
  0
LINE
  8
L-ZISSEN
 10
81.0
 20
1046.5
 30
0.0
 11
87.50001
 21
1046.5
 31
0.0
  0
LINE
  8
L-ZISSEN
 10
76.0
 20
1051.5
 30
0.0
 11
87.50001
 21
1051.5
 31
0.0
  0
LINE
  8
L-ZISSEN
 10
76.0
 20
1076.5
 30
0.0
 11
76.0
 21
1051.5
 31
0.0
  0
LINE
  8
L-TYUSIN
  6
CENTER
 62
     1
 10
72.0
 20
1055.0
 30
0.0
 11
62.0
 21
1055.0
 31
0.0
  0
LINE
  8
L-TYUSIN
  6
CENTER
 62
     1
 10
84.0
 20
1083.0
 30
0.0
 11
62.0
 21
1083.0
 31
0.0
  0
LINE
  8
L-ZISSEN
 10
67.0
 20
1092.0
 30
0.0
 11
79.0
 21
1092.0
 31
0.0
  0
LINE
  8
L-ZISSEN
 10
79.0
 20
1076.5
 30
0.0
 11
79.0
 21
1092.0
 31
0.0
  0
LINE
  8
L-ZISSEN
 10
98.000007
 20
1076.5
 30
0.0
 11
76.0
 21
1076.5
 31
0.0
  0
LINE
  8
L-TYUSIN
  6
CENTER
 62
     1
 10
95.0
 20
1081.5
 30
0.0
 11
95.0
 21
1062.499986
 31
0.0
  0
LINE
  8
L-TYUSIN
  6
CENTER
 62
     1
 10
145.0
 20
1081.5
 30
0.0
 11
145.0
 21
1062.499986
 31
0.0
  0
LINE
  8
L-ZISSEN
 10
141.999993
 20
1076.5
 30
0.0
 11
164.0
 21
1076.5
 31
0.0
  0
LINE
  8
L-ZISSEN
 10
164.0
 20
1076.5
 30
0.0
 11
164.0
 21
1051.5
 31
0.0
  0
LINE
  8
L-ZISSEN
 10
164.0
 20
1051.5
 30
0.0
 11
159.0
 21
1046.5
 31
0.0
  0
LINE
  8
L-ZISSEN
 10
164.0
 20
1051.5
 30
0.0
 11
152.49999
 21
1051.5
 31
0.0
  0
LINE
  8
L-ZISSEN
 10
159.0
 20
1046.5
 30
0.0
 11
154.598052
 21
1046.5
 31
0.0
  0
LINE
  8
L-ZISSEN
 10
159.0
 20
993.5
 30
0.0
 11
159.0
 21
1046.5
 31
0.0
  0
LINE
  8
L-ZISSEN
 10
159.0
 20
993.5
 30
0.0
 11
154.598052
 21
993.5
 31
0.0
  0
LINE
  8
L-ZISSEN
 10
164.0
 20
988.5
 30
0.0
 11
159.0
 21
993.5
 31
0.0
  0
LINE
  8
L-ZISSEN
 10
164.0
 20
988.5
 30
0.0
 11
152.49999
 21
988.5
 31
0.0
  0
LINE
  8
L-ZISSEN
 10
141.999993
 20
963.5
 30
0.0
 11
164.0
 21
963.5
 31
0.0
  0
LINE
  8
L-TYUSIN
  6
CENTER
 62
     1
 10
145.0
 20
958.5
 30
0.0
 11
145.0
 21
977.500014
 31
0.0
  0
LINE
  8
L-ZISSEN
 10
164.0
 20
963.5
 30
0.0
 11
164.0
 21
988.5
 31
0.0
  0
LINE
  8
L-ZISSEN
 10
161.0
 20
948.0
 30
0.0
 11
161.0
 21
963.5
 31
0.0
  0
LINE
  8
L-TYUSIN
  6
CENTER
 62
     1
 10
156.0
 20
957.0
 30
0.0
 11
178.0
 21
957.0
 31
0.0
  0
LINE
  8
L-ZISSEN
 10
173.0
 20
948.0
 30
0.0
 11
161.0
 21
948.0
 31
0.0
  0
LINE
  8
L-ZISSEN
 10
173.0
 20
1092.0
 30
0.0
 11
173.0
 21
948.0
 31
0.0
  0
LINE
  8
L-TYUSIN
  6
CENTER
 62
     1
 10
168.0
 20
985.0
 30
0.0
 11
178.0
 21
985.0
 31
0.0
  0
LINE
  8
L-TYUSIN
  6
CENTER
 62
     1
 10
168.0
 20
1055.0
 30
0.0
 11
178.0
 21
1055.0
 31
0.0
  0
LINE
  8
L-TYUSIN
  6
CENTER
 62
     1
 10
156.0
 20
1083.0
 30
0.0
 11
178.0
 21
1083.0
 31
0.0
  0
LINE
  8
L-ZISSEN
 10
161.0
 20
1092.0
 30
0.0
 11
161.0
 21
1076.5
 31
0.0
  0
LINE
  8
L-ZISSEN
 10
173.0
 20
1092.0
 30
0.0
 11
161.0
 21
1092.0
 31
0.0
  0
LINE
  8
L-TYUSIN
  6
CENTER
 62
     1
 10
62.0
 20
1020.0
 30
0.0
 11
178.0
 21
1020.0
 31
0.0
  0
LINE
  8
L-ZISSEN
 10
531.0
 20
162.0
 30
0.0
 11
531.0
 21
173.26908
 31
0.0
  0
LINE
  8
L-ZISSEN
 10
538.0
 20
163.0
 30
0.0
 11
538.0
 21
169.669697
 31
0.0
  0
LINE
  8
L-TYUSIN
  6
CENTER
 62
     1
 10
543.0
 20
163.0
 30
0.0
 11
543.0
 21
213.0
 31
0.0
  0
LINE
  8
L-TYUSIN
  6
CENTER
 62
     1
 10
597.0
 20
163.0
 30
0.0
 11
597.0
 21
213.0
 31
0.0
  0
LINE
  8
L-ZISSEN
 10
602.0
 20
163.0
 30
0.0
 11
602.0
 21
169.669697
 31
0.0
  0
LINE
  8
L-ZISSEN
 10
609.0
 20
162.0
 30
0.0
 11
609.0
 21
173.26908
 31
0.0
  0
LINE
  8
L-ZISSEN
 10
548.0
 20
232.0
 30
0.0
 11
592.0
 21
232.0
 31
0.0
  0
LINE
  8
L-ZISSEN
 10
517.0
 20
196.0
 30
0.0
 11
517.0
 21
238.0
 31
0.0
  0
LINE
  8
L-ZISSEN
 10
517.0
 20
236.0
 30
0.0
 11
548.0
 21
236.0
 31
0.0
  0
LINE
  8
L-ZISSEN
 10
529.0
 20
242.0
 30
0.0
 11
529.0
 21
200.845233
 31
0.0
  0
LINE
  8
L-ZISSEN
 10
526.844506
 20
198.0
 30
0.0
 11
517.0
 21
198.0
 31
0.0
  0
LINE
  8
L-ZISSEN
 10
517.0
 20
238.0
 30
0.0
 11
529.0
 21
238.0
 31
0.0
  0
LINE
  8
L-ZISSEN
 10
517.0
 20
196.0
 30
0.0
 11
525.766312
 21
196.0
 31
0.0
  0
LINE
  8
L-ZISSEN
 10
523.0
 20
242.0
 30
0.0
 11
523.0
 21
238.0
 31
0.0
  0
LINE
  8
L-ZISSEN
 10
548.0
 20
242.0
 30
0.0
 11
548.0
 21
232.0
 31
0.0
  0
LINE
  8
L-ZISSEN
 10
529.0
 20
242.0
 30
0.0
 11
523.0
 21
242.0
 31
0.0
  0
LINE
  8
L-ZISSEN
 10
611.0
 20
242.0
 30
0.0
 11
617.0
 21
242.0
 31
0.0
  0
LINE
  8
L-ZISSEN
 10
592.0
 20
242.0
 30
0.0
 11
592.0
 21
232.0
 31
0.0
  0
LINE
  8
L-ZISSEN
 10
617.0
 20
242.0
 30
0.0
 11
617.0
 21
238.0
 31
0.0
  0
LINE
  8
L-ZISSEN
 10
623.0
 20
196.0
 30
0.0
 11
614.233688
 21
196.0
 31
0.0
  0
LINE
  8
L-ZISSEN
 10
623.0
 20
238.0
 30
0.0
 11
611.0
 21
238.0
 31
0.0
  0
LINE
  8
L-ZISSEN
 10
613.155494
 20
198.0
 30
0.0
 11
623.0
 21
198.0
 31
0.0
  0
LINE
  8
L-ZISSEN
 10
611.0
 20
242.0
 30
0.0
 11
611.0
 21
200.845233
 31
0.0
  0
LINE
  8
L-ZISSEN
 10
623.0
 20
236.0
 30
0.0
 11
592.0
 21
236.0
 31
0.0
  0
LINE
  8
L-ZISSEN
 10
623.0
 20
196.0
 30
0.0
 11
623.0
 21
238.0
 31
0.0
  0
LINE
  8
L-TYUSIN
 10
512.0
 20
217.0
 30
0.0
 11
628.0
 21
217.0
 31
0.0
  0
CIRCLE
  8
L-ZISSEN
 10
543.0
 20
188.0
 30
0.0
 40
19.0
  0
CIRCLE
  8
L-ZISSEN
 10
597.0
 20
188.0
 30
0.0
 40
19.0
  0
LINE
  8
L-TYUSIN
 10
518.0
 20
188.0
 30
0.0
 11
622.0
 21
188.0
 31
0.0
  0
LINE
  8
L-ZISSEN
 10
548.0
 20
242.0
 30
0.0
 11
592.0
 21
242.0
 31
0.0
  0
LINE
  8
L-ZISSEN
 10
531.0
 20
163.0
 30
0.0
 11
609.0
 21
163.0
 31
0.0
  0
LINE
  8
L-TYUSIN
  6
CENTER
 62
     1
 10
570.0
 20
107.0
 30
0.0
 11
570.0
 21
247.0
 31
0.0
  0
LINE
  8
L-ZISSEN
 10
530.5
 20
162.0
 30
0.0
 11
609.5
 21
162.0
 31
0.0
  0
LINE
  8
L-ZISSEN
 10
159.0
 20
162.0
 30
0.0
 11
159.0
 21
173.26908
 31
0.0
  0
LINE
  8
L-ZISSEN
 10
152.0
 20
163.0
 30
0.0
 11
152.0
 21
169.669697
 31
0.0
  0
LINE
  8
L-ZISSEN
 10
81.0
 20
162.0
 30
0.0
 11
81.0
 21
173.26908
 31
0.0
  0
LINE
  8
L-ZISSEN
 10
88.0
 20
163.0
 30
0.0
 11
88.0
 21
169.669697
 31
0.0
  0
LINE
  8
L-TYUSIN
  6
CENTER
 62
     1
 10
93.0
 20
163.0
 30
0.0
 11
93.0
 21
213.0
 31
0.0
  0
LINE
  8
L-TYUSIN
  6
CENTER
 62
     1
 10
147.0
 20
163.0
 30
0.0
 11
147.0
 21
213.0
 31
0.0
  0
LINE
  8
L-ZISSEN
 10
98.0
 20
242.0
 30
0.0
 11
142.0
 21
242.0
 31
0.0
  0
LINE
  8
L-TYUSIN
 10
68.0
 20
188.0
 30
0.0
 11
172.0
 21
188.0
 31
0.0
  0
CIRCLE
  8
L-ZISSEN
 10
147.0
 20
188.0
 30
0.0
 40
19.0
  0
CIRCLE
  8
L-ZISSEN
 10
93.0
 20
188.0
 30
0.0
 40
19.0
  0
LINE
  8
L-ZISSEN
 10
173.0
 20
196.0
 30
0.0
 11
173.0
 21
238.0
 31
0.0
  0
LINE
  8
L-ZISSEN
 10
173.0
 20
236.0
 30
0.0
 11
142.0
 21
236.0
 31
0.0
  0
LINE
  8
L-ZISSEN
 10
161.0
 20
242.0
 30
0.0
 11
161.0
 21
200.845233
 31
0.0
  0
LINE
  8
L-ZISSEN
 10
163.155494
 20
198.0
 30
0.0
 11
173.0
 21
198.0
 31
0.0
  0
LINE
  8
L-ZISSEN
 10
173.0
 20
238.0
 30
0.0
 11
161.0
 21
238.0
 31
0.0
  0
LINE
  8
L-ZISSEN
 10
173.0
 20
196.0
 30
0.0
 11
164.233688
 21
196.0
 31
0.0
  0
LINE
  8
L-ZISSEN
 10
167.0
 20
242.0
 30
0.0
 11
167.0
 21
238.0
 31
0.0
  0
LINE
  8
L-ZISSEN
 10
142.0
 20
242.0
 30
0.0
 11
142.0
 21
232.0
 31
0.0
  0
LINE
  8
L-ZISSEN
 10
161.0
 20
242.0
 30
0.0
 11
167.0
 21
242.0
 31
0.0
  0
LINE
  8
L-ZISSEN
 10
79.0
 20
242.0
 30
0.0
 11
73.0
 21
242.0
 31
0.0
  0
LINE
  8
L-ZISSEN
 10
98.0
 20
242.0
 30
0.0
 11
98.0
 21
232.0
 31
0.0
  0
LINE
  8
L-ZISSEN
 10
73.0
 20
242.0
 30
0.0
 11
73.0
 21
238.0
 31
0.0
  0
LINE
  8
L-ZISSEN
 10
67.0
 20
196.0
 30
0.0
 11
75.766312
 21
196.0
 31
0.0
  0
LINE
  8
L-ZISSEN
 10
67.0
 20
238.0
 30
0.0
 11
79.0
 21
238.0
 31
0.0
  0
LINE
  8
L-ZISSEN
 10
76.844506
 20
198.0
 30
0.0
 11
67.0
 21
198.0
 31
0.0
  0
LINE
  8
L-ZISSEN
 10
79.0
 20
242.0
 30
0.0
 11
79.0
 21
200.845233
 31
0.0
  0
LINE
  8
L-ZISSEN
 10
67.0
 20
236.0
 30
0.0
 11
98.0
 21
236.0
 31
0.0
  0
LINE
  8
L-ZISSEN
 10
67.0
 20
196.0
 30
0.0
 11
67.0
 21
238.0
 31
0.0
  0
LINE
  8
L-ZISSEN
 10
98.0
 20
232.0
 30
0.0
 11
142.0
 21
232.0
 31
0.0
  0
LINE
  8
L-ZISSEN
 10
81.0
 20
163.0
 30
0.0
 11
111.0
 21
163.0
 31
0.0
  0
LINE
  8
L-TYUSIN
  6
CENTER
 62
     1
 10
120.0
 20
31.6
 30
0.0
 11
120.0
 21
247.0
 31
0.0
  0
LINE
  8
L-TYUSIN
 10
62.0
 20
217.0
 30
0.0
 11
178.0
 21
217.0
 31
0.0
  0
LINE
  8
L-ZISSEN
 10
283.777776
 20
754.999992
 30
0.0
 11
286.0
 21
765.0
 31
0.0
  0
LINE
  8
L-ZISSEN
 10
433.777776
 20
754.999992
 30
0.0
 11
436.0
 21
765.0
 31
0.0
  0
LINE
  8
L-ZISSEN
 10
129.0
 20
163.0
 30
0.0
 11
159.0
 21
163.0
 31
0.0
  0
SOLID
  8
L-ZISSEN
 10
121.60627
 20
1119.737325
 30
0.0
 11
121.118145
 21
1120.191394
 31
0.0
 12
120.0
 22
1118.499986
 32
0.0
 13
120.0
 23
1118.499986
 33
0.0
  0
LINE
  8
L-ZISSEN
 10
121.362207
 20
1119.96436
 30
0.0
 11
140.0
 21
1140.0
 31
0.0
  0
LINE
  8
L-ZISSEN
 10
140.0
 20
1140.0
 30
0.0
 11
142.0
 21
1140.0
 31
0.0
  0
TEXT
  8
L-ZISSEN
 10
144.0
 20
1137.75
 30
0.0
 40
4.5
  1
P.P
  0
SOLID
  8
L-ZISSEN
 10
271.60627
 20
1119.737325
 30
0.0
 11
271.118145
 21
1120.191394
 31
0.0
 12
270.0
 22
1118.499986
 32
0.0
 13
270.0
 23
1118.499986
 33
0.0
  0
LINE
  8
L-ZISSEN
 10
271.362207
 20
1119.96436
 30
0.0
 11
290.0
 21
1140.0
 31
0.0
  0
LINE
  8
L-ZISSEN
 10
290.0
 20
1140.0
 30
0.0
 11
292.0
 21
1140.0
 31
0.0
  0
TEXT
  8
L-ZISSEN
 10
294.0
 20
1137.75
 30
0.0
 40
4.5
  1
P.P
  0
SOLID
  8
L-ZISSEN
 10
421.60627
 20
1119.737325
 30
0.0
 11
421.118145
 21
1120.191394
 31
0.0
 12
420.0
 22
1118.499986
 32
0.0
 13
420.0
 23
1118.499986
 33
0.0
  0
LINE
  8
L-ZISSEN
 10
421.362207
 20
1119.96436
 30
0.0
 11
440.0
 21
1140.0
 31
0.0
  0
LINE
  8
L-ZISSEN
 10
440.0
 20
1140.0
 30
0.0
 11
442.0
 21
1140.0
 31
0.0
  0
TEXT
  8
L-ZISSEN
 10
444.0
 20
1137.75
 30
0.0
 40
4.5
  1
P.P
  0
SOLID
  8
L-ZISSEN
 10
271.118145
 20
919.808606
 30
0.0
 11
271.60627
 21
920.262675
 31
0.0
 12
270.0
 22
921.500014
 32
0.0
 13
270.0
 23
921.500014
 33
0.0
  0
LINE
  8
L-ZISSEN
 10
271.362207
 20
920.03564
 30
0.0
 11
290.0
 21
900.0
 31
0.0
  0
LINE
  8
L-ZISSEN
 10
290.0
 20
900.0
 30
0.0
 11
292.0
 21
900.0
 31
0.0
  0
TEXT
  8
L-ZISSEN
 10
294.0
 20
897.75
 30
0.0
 40
4.5
  1
P.P
  0
SOLID
  8
L-ZISSEN
 10
421.118145
 20
919.808606
 30
0.0
 11
421.60627
 21
920.262675
 31
0.0
 12
420.0
 22
921.500014
 32
0.0
 13
420.0
 23
921.500014
 33
0.0
  0
LINE
  8
L-ZISSEN
 10
421.362207
 20
920.03564
 30
0.0
 11
440.0
 21
900.0
 31
0.0
  0
LINE
  8
L-ZISSEN
 10
440.0
 20
900.0
 30
0.0
 11
442.0
 21
900.0
 31
0.0
  0
TEXT
  8
L-ZISSEN
 10
444.0
 20
897.75
 30
0.0
 40
4.5
  1
P.P
  0
SOLID
  8
L-ZISSEN
 10
118.102698
 20
75.884908
 30
0.0
 11
118.437177
 21
75.30822
 31
0.0
 12
120.0
 22
76.6
 32
0.0
 13
120.0
 23
76.6
 33
0.0
  0
LINE
  8
L-ZISSEN
 10
118.269938
 20
75.596564
 30
0.0
 11
100.0
 21
65.0
 31
0.0
  0
LINE
  8
L-ZISSEN
 10
100.0
 20
65.0
 30
0.0
 11
98.0
 21
65.0
 31
0.0
  0
TEXT
  8
L-ZISSEN
 10
87.0
 20
62.75
 30
0.0
 40
4.5
  1
P.P
  0
SOLID
  8
L-ZISSEN
 10
118.188089
 20
108.690006
 30
0.0
 11
118.581163
 21
108.151548
 31
0.0
 12
120.0
 22
109.6
 32
0.0
 13
120.0
 23
109.6
 33
0.0
  0
LINE
  8
L-ZISSEN
 10
118.384626
 20
108.420777
 30
0.0
 11
100.0
 21
95.0
 31
0.0
  0
LINE
  8
L-ZISSEN
 10
100.0
 20
95.0
 30
0.0
 11
98.0
 21
95.0
 31
0.0
  0
TEXT
  8
L-ZISSEN
 10
87.0
 20
92.75
 30
0.0
 40
4.5
  1
P.P
  0
LINE
  8
L-ZISSEN
  6
CONTINUOUS
 62
     7
 10
1198.0
 20
448.000007
 30
0.0
 11
1342.0
 21
448.000007
 31
0.0
  0
LINE
  8
L-TYUSIN
 10
1208.5
 20
502.0
 30
0.0
 11
1248.5
 21
502.0
 31
0.0
  0
LINE
  8
L-TYUSIN
 10
1325.0
 20
473.0
 30
0.0
 11
1341.0
 21
473.0
 31
0.0
  0
LINE
  8
L-TYUSIN
  6
CENTER
 62
     1
 10
1305.0
 20
488.0
 30
0.0
 11
1305.0
 21
458.0
 31
0.0
  0
ARC
  8
L-ZISSEN
 10
1270.0
 20
473.0
 30
0.0
 40
21.0
 50
231.697325
 51
308.302675
  0
ARC
  8
L-ZISSEN
 10
1305.0
 20
473.0
 30
0.0
 40
19.0
 50
237.02077
 51
300.0
  0
ARC
  8
L-ZISSEN
 10
1270.0
 20
473.0
 30
0.0
 40
21.0
 50
51.697325
 51
128.302675
  0
LINE
  8
L-TYUSIN
  6
CENTER
 62
     1
 10
1333.0
 20
481.0
 30
0.0
 11
1333.0
 21
465.0
 31
0.0
  0
ARC
  8
L-ZISSEN
 10
1333.0
 20
473.0
 30
0.0
 40
9.0
 50
300.0
 51
60.0
  0
ARC
  8
L-ZISSEN
 10
1289.214286
 20
497.32717
 30
0.0
 40
10.0
 50
231.697325
 51
302.97923
  0
ARC
  8
L-ZISSEN
 10
1289.214286
 20
448.67283
 30
0.0
 40
10.0
 50
57.02077
 51
128.302675
  0
ARC
  8
L-ZISSEN
 10
1250.785714
 20
448.67283
 30
0.0
 40
10.0
 50
51.697325
 51
122.97923
  0
ARC
  8
L-ZISSEN
 10
1250.785714
 20
497.32717
 30
0.0
 40
10.0
 50
237.02077
 51
308.302675
  0
LINE
  8
L-ZISSEN
 10
1314.5
 20
456.545517
 30
0.0
 11
1337.5
 21
465.205771
 31
0.0
  0
ARC
  8
L-ZISSEN
 10
1305.0
 20
473.0
 30
0.0
 40
19.0
 50
60.0
 51
122.97923
  0
LINE
  8
L-ZISSEN
 10
1314.5
 20
489.454483
 30
0.0
 11
1337.5
 21
480.794229
 31
0.0
  0
LINE
  8
L-ZISSEN
 10
1225.5
 20
489.454483
 30
0.0
 11
1202.5
 21
480.794229
 31
0.0
  0
ARC
  8
L-ZISSEN
 10
1235.0
 20
473.0
 30
0.0
 40
19.0
 50
57.02077
 51
120.0
  0
LINE
  8
L-ZISSEN
 10
1225.5
 20
456.545517
 30
0.0
 11
1202.5
 21
465.205771
 31
0.0
  0
ARC
  8
L-ZISSEN
 10
1207.0
 20
473.0
 30
0.0
 40
9.0
 50
120.0
 51
240.0
  0
ARC
  8
L-ZISSEN
 10
1235.0
 20
473.0
 30
0.0
 40
19.0
 50
240.0
 51
302.97923
  0
CIRCLE
  8
L-ZISSEN
 10
1333.0
 20
473.0
 30
0.0
 40
4.5
  0
CIRCLE
  8
L-ZISSEN
 10
1207.0
 20
473.0
 30
0.0
 40
4.5
  0
LINE
  8
L-TYUSIN
 10
1215.0
 20
473.0
 30
0.0
 11
1199.0
 21
473.0
 31
0.0
  0
LINE
  8
L-TYUSIN
  6
CENTER
 62
     1
 10
1207.0
 20
481.0
 30
0.0
 11
1207.0
 21
465.0
 31
0.0
  0
LINE
  8
L-TYUSIN
 10
1255.0
 20
473.0
 30
0.0
 11
1285.0
 21
473.0
 31
0.0
  0
CIRCLE
  8
L-ZISSEN
 10
1270.0
 20
473.0
 30
0.0
 40
12.0585
  0
CIRCLE
  8
L-ZISSEN
 10
1305.0
 20
473.0
 30
0.0
 40
12.0585
  0
LINE
  8
L-TYUSIN
 10
1290.0
 20
473.0
 30
0.0
 11
1320.0
 21
473.0
 31
0.0
  0
CIRCLE
  8
L-ZISSEN
 10
1235.0
 20
473.0
 30
0.0
 40
12.0585
  0
LINE
  8
L-TYUSIN
 10
1250.0
 20
473.0
 30
0.0
 11
1220.0
 21
473.0
 31
0.0
  0
LINE
  8
L-TYUSIN
  6
CENTER
 62
     1
 10
1235.0
 20
488.0
 30
0.0
 11
1235.0
 21
458.0
 31
0.0
  0
LINE
  8
L-TYUSIN
  6
CENTER
 62
     1
 10
1333.0
 20
463.000007
 30
0.0
 11
1333.0
 21
443.000007
 31
0.0
  0
LINE
  8
L-ZISSEN
 10
1342.0
 20
448.000007
 30
0.0
 11
1342.0
 21
458.000007
 31
0.0
  0
LINE
  8
L-ZISSEN
 10
1342.0
 20
458.000007
 30
0.0
 11
1318.362849
 21
458.000007
 31
0.0
  0
LINE
  8
L-ZISSEN
 10
1198.0
 20
448.000007
 30
0.0
 11
1198.0
 21
458.000007
 31
0.0
  0
LINE
  8
L-TYUSIN
  6
CENTER
 62
     1
 10
1207.0
 20
463.000007
 30
0.0
 11
1207.0
 21
443.000007
 31
0.0
  0
LINE
  8
L-ZISSEN
 10
1221.637151
 20
458.000007
 30
0.0
 11
1198.0
 21
458.000007
 31
0.0
  0
LINE
  8
L-ZISSEN
 10
1213.5
 20
484.936089
 30
0.0
 11
1213.5
 21
521.0
 31
0.0
  0
LINE
  8
L-ZISSEN
 10
1213.5
 20
521.0
 30
0.0
 11
1238.5
 21
521.0
 31
0.0
  0
LINE
  8
L-ZISSEN
 10
1238.5
 20
521.0
 30
0.0
 11
1243.000006
 21
516.499994
 31
0.0
  0
LINE
  8
L-ZISSEN
 10
1238.5
 20
521.0
 30
0.0
 11
1238.5
 21
491.674849
 31
0.0
  0
LINE
  8
L-ZISSEN
 10
1243.5
 20
509.211103
 30
0.0
 11
1243.5
 21
489.992645
 31
0.0
  0
LINE
  8
L-ZISSEN
 10
1222.500014
 20
527.000007
 30
0.0
 11
1222.500014
 21
521.0
 31
0.0
  0
LINE
  8
L-TYUSIN
 10
1331.5
 20
502.0
 30
0.0
 11
1291.5
 21
502.0
 31
0.0
  0
LINE
  8
L-ZISSEN
 10
1326.5
 20
521.0
 30
0.0
 11
1301.5
 21
521.0
 31
0.0
  0
LINE
  8
L-ZISSEN
 10
1317.499986
 20
527.000007
 30
0.0
 11
1317.499986
 21
521.0
 31
0.0
  0
LINE
  8
L-ZISSEN
 10
1301.5
 20
521.0
 30
0.0
 11
1301.5
 21
491.674849
 31
0.0
  0
LINE
  8
L-ZISSEN
 10
1326.5
 20
484.936089
 30
0.0
 11
1326.5
 21
521.0
 31
0.0
  0
LINE
  8
L-ZISSEN
 10
1243.000006
 20
527.000007
 30
0.0
 11
1243.000006
 21
516.0
 31
0.0
  0
LINE
  8
L-ZISSEN
 10
1257.000006
 20
527.000007
 30
0.0
 11
1257.000006
 21
516.0
 31
0.0
  0
LINE
  8
L-ZISSEN
 10
1282.999994
 20
527.000007
 30
0.0
 11
1282.999994
 21
516.0
 31
0.0
  0
LINE
  8
L-ZISSEN
 10
1296.999994
 20
527.000007
 30
0.0
 11
1296.999994
 21
516.0
 31
0.0
  0
LINE
  8
L-ZISSEN
 10
1301.5
 20
521.0
 30
0.0
 11
1296.999994
 21
516.499994
 31
0.0
  0
LINE
  8
L-ZISSEN
 10
1296.5
 20
509.211103
 30
0.0
 11
1296.5
 21
489.992645
 31
0.0
  0
LINE
  8
L-TYUSIN
 10
1445.0
 20
1210.0
 30
0.0
 11
1445.0
 21
430.0
 31
0.0
  0
LINE
  8
L-TYUSIN
 10
1795.0
 20
1210.0
 30
0.0
 11
1795.0
 21
430.0
 31
0.0
  0
LINE
  8
L-ZISSEN
 10
1296.5
 20
769.211103
 30
0.0
 11
1296.5
 21
749.992645
 31
0.0
  0
LINE
  8
L-ZISSEN
 10
1301.5
 20
781.0
 30
0.0
 11
1296.999994
 21
776.499994
 31
0.0
  0
LINE
  8
L-ZISSEN
 10
1326.5
 20
744.936089
 30
0.0
 11
1326.5
 21
781.0
 31
0.0
  0
LINE
  8
L-ZISSEN
 10
1301.5
 20
781.0
 30
0.0
 11
1301.5
 21
751.674849
 31
0.0
  0
LINE
  8
L-ZISSEN
 10
1326.5
 20
781.0
 30
0.0
 11
1301.5
 21
781.0
 31
0.0
  0
LINE
  8
L-TYUSIN
 10
1331.5
 20
762.0
 30
0.0
 11
1291.5
 21
762.0
 31
0.0
  0
LINE
  8
L-ZISSEN
 10
1243.5
 20
769.211103
 30
0.0
 11
1243.5
 21
749.992645
 31
0.0
  0
LINE
  8
L-ZISSEN
 10
1238.5
 20
781.0
 30
0.0
 11
1238.5
 21
751.674849
 31
0.0
  0
LINE
  8
L-ZISSEN
 10
1238.5
 20
781.0
 30
0.0
 11
1243.000006
 21
776.499994
 31
0.0
  0
LINE
  8
L-ZISSEN
 10
1213.5
 20
781.0
 30
0.0
 11
1238.5
 21
781.0
 31
0.0
  0
LINE
  8
L-ZISSEN
 10
1213.5
 20
744.936089
 30
0.0
 11
1213.5
 21
781.0
 31
0.0
  0
LINE
  8
L-ZISSEN
 10
1221.637151
 20
718.000007
 30
0.0
 11
1198.0
 21
718.000007
 31
0.0
  0
LINE
  8
L-TYUSIN
  6
CENTER
 62
     1
 10
1207.0
 20
723.000007
 30
0.0
 11
1207.0
 21
703.000007
 31
0.0
  0
LINE
  8
L-ZISSEN
 10
1198.0
 20
708.000007
 30
0.0
 11
1198.0
 21
718.000007
 31
0.0
  0
LINE
  8
L-ZISSEN
 10
1342.0
 20
718.000007
 30
0.0
 11
1318.362849
 21
718.000007
 31
0.0
  0
LINE
  8
L-ZISSEN
 10
1342.0
 20
708.000007
 30
0.0
 11
1342.0
 21
718.000007
 31
0.0
  0
LINE
  8
L-TYUSIN
  6
CENTER
 62
     1
 10
1333.0
 20
723.000007
 30
0.0
 11
1333.0
 21
703.000007
 31
0.0
  0
LINE
  8
L-TYUSIN
  6
CENTER
 62
     1
 10
1235.0
 20
748.0
 30
0.0
 11
1235.0
 21
718.0
 31
0.0
  0
LINE
  8
L-TYUSIN
 10
1250.0
 20
733.0
 30
0.0
 11
1220.0
 21
733.0
 31
0.0
  0
CIRCLE
  8
L-ZISSEN
 10
1235.0
 20
733.0
 30
0.0
 40
12.0585
  0
LINE
  8
L-TYUSIN
 10
1290.0
 20
733.0
 30
0.0
 11
1320.0
 21
733.0
 31
0.0
  0
CIRCLE
  8
L-ZISSEN
 10
1305.0
 20
733.0
 30
0.0
 40
12.0585
  0
CIRCLE
  8
L-ZISSEN
 10
1270.0
 20
733.0
 30
0.0
 40
12.0585
  0
LINE
  8
L-TYUSIN
 10
1255.0
 20
733.0
 30
0.0
 11
1285.0
 21
733.0
 31
0.0
  0
LINE
  8
L-TYUSIN
  6
CENTER
 62
     1
 10
1207.0
 20
741.0
 30
0.0
 11
1207.0
 21
725.0
 31
0.0
  0
LINE
  8
L-TYUSIN
 10
1215.0
 20
733.0
 30
0.0
 11
1199.0
 21
733.0
 31
0.0
  0
CIRCLE
  8
L-ZISSEN
 10
1207.0
 20
733.0
 30
0.0
 40
4.5
  0
CIRCLE
  8
L-ZISSEN
 10
1333.0
 20
733.0
 30
0.0
 40
4.5
  0
ARC
  8
L-ZISSEN
 10
1235.0
 20
733.0
 30
0.0
 40
19.0
 50
240.0
 51
302.97923
  0
ARC
  8
L-ZISSEN
 10
1207.0
 20
733.0
 30
0.0
 40
9.0
 50
120.0
 51
240.0
  0
LINE
  8
L-ZISSEN
 10
1225.5
 20
716.545517
 30
0.0
 11
1202.5
 21
725.205771
 31
0.0
  0
ARC
  8
L-ZISSEN
 10
1235.0
 20
733.0
 30
0.0
 40
19.0
 50
57.02077
 51
120.0
  0
LINE
  8
L-ZISSEN
 10
1225.5
 20
749.454483
 30
0.0
 11
1202.5
 21
740.794229
 31
0.0
  0
LINE
  8
L-ZISSEN
 10
1314.5
 20
749.454483
 30
0.0
 11
1337.5
 21
740.794229
 31
0.0
  0
ARC
  8
L-ZISSEN
 10
1305.0
 20
733.0
 30
0.0
 40
19.0
 50
60.0
 51
122.97923
  0
LINE
  8
L-ZISSEN
 10
1314.5
 20
716.545517
 30
0.0
 11
1337.5
 21
725.205771
 31
0.0
  0
ARC
  8
L-ZISSEN
 10
1250.785714
 20
757.32717
 30
0.0
 40
10.0
 50
237.02077
 51
308.302675
  0
ARC
  8
L-ZISSEN
 10
1250.785714
 20
708.67283
 30
0.0
 40
10.0
 50
51.697325
 51
122.97923
  0
ARC
  8
L-ZISSEN
 10
1289.214286
 20
708.67283
 30
0.0
 40
10.0
 50
57.02077
 51
128.302675
  0
ARC
  8
L-ZISSEN
 10
1289.214286
 20
757.32717
 30
0.0
 40
10.0
 50
231.697325
 51
302.97923
  0
ARC
  8
L-ZISSEN
 10
1333.0
 20
733.0
 30
0.0
 40
9.0
 50
300.0
 51
60.0
  0
LINE
  8
L-TYUSIN
  6
CENTER
 62
     1
 10
1333.0
 20
741.0
 30
0.0
 11
1333.0
 21
725.0
 31
0.0
  0
ARC
  8
L-ZISSEN
 10
1270.0
 20
733.0
 30
0.0
 40
21.0
 50
51.697325
 51
128.302675
  0
ARC
  8
L-ZISSEN
 10
1305.0
 20
733.0
 30
0.0
 40
19.0
 50
237.02077
 51
300.0
  0
ARC
  8
L-ZISSEN
 10
1270.0
 20
733.0
 30
0.0
 40
21.0
 50
231.697325
 51
308.302675
  0
LINE
  8
L-TYUSIN
  6
CENTER
 62
     1
 10
1305.0
 20
748.0
 30
0.0
 11
1305.0
 21
718.0
 31
0.0
  0
LINE
  8
L-TYUSIN
 10
1325.0
 20
733.0
 30
0.0
 11
1341.0
 21
733.0
 31
0.0
  0
LINE
  8
L-TYUSIN
 10
1208.5
 20
762.0
 30
0.0
 11
1248.5
 21
762.0
 31
0.0
  0
LINE
  8
L-ZISSEN
  6
CONTINUOUS
 62
     7
 10
1198.0
 20
708.000007
 30
0.0
 11
1342.0
 21
708.000007
 31
0.0
  0
LINE
  8
L-ZISSEN
 10
1317.499986
 20
787.000007
 30
0.0
 11
1317.499986
 21
781.0
 31
0.0
  0
LINE
  8
L-ZISSEN
 10
1296.999994
 20
787.000007
 30
0.0
 11
1296.999994
 21
776.0
 31
0.0
  0
LINE
  8
L-ZISSEN
 10
1282.999994
 20
787.000007
 30
0.0
 11
1282.999994
 21
776.0
 31
0.0
  0
LINE
  8
L-ZISSEN
 10
1257.000006
 20
787.000007
 30
0.0
 11
1257.000006
 21
776.0
 31
0.0
  0
LINE
  8
L-ZISSEN
 10
1243.000006
 20
787.000007
 30
0.0
 11
1243.000006
 21
776.0
 31
0.0
  0
LINE
  8
L-ZISSEN
 10
1222.500014
 20
787.000007
 30
0.0
 11
1222.500014
 21
781.0
 31
0.0
  0
LINE
  8
L-ZISSEN
 10
1222.500014
 20
1047.000007
 30
0.0
 11
1222.500014
 21
1041.0
 31
0.0
  0
LINE
  8
L-ZISSEN
 10
1243.000006
 20
1047.000007
 30
0.0
 11
1243.000006
 21
1036.0
 31
0.0
  0
LINE
  8
L-ZISSEN
 10
1257.000006
 20
1047.000007
 30
0.0
 11
1257.000006
 21
1036.0
 31
0.0
  0
LINE
  8
L-ZISSEN
 10
1282.999994
 20
1047.000007
 30
0.0
 11
1282.999994
 21
1036.0
 31
0.0
  0
LINE
  8
L-ZISSEN
 10
1296.999994
 20
1047.000007
 30
0.0
 11
1296.999994
 21
1036.0
 31
0.0
  0
LINE
  8
L-ZISSEN
 10
1317.499986
 20
1047.000007
 30
0.0
 11
1317.499986
 21
1041.0
 31
0.0
  0
LINE
  8
L-ZISSEN
  6
CONTINUOUS
 62
     7
 10
1198.0
 20
968.000007
 30
0.0
 11
1342.0
 21
968.000007
 31
0.0
  0
LINE
  8
L-TYUSIN
 10
1208.5
 20
1022.0
 30
0.0
 11
1248.5
 21
1022.0
 31
0.0
  0
LINE
  8
L-TYUSIN
 10
1325.0
 20
993.0
 30
0.0
 11
1341.0
 21
993.0
 31
0.0
  0
LINE
  8
L-TYUSIN
  6
CENTER
 62
     1
 10
1305.0
 20
1008.0
 30
0.0
 11
1305.0
 21
978.0
 31
0.0
  0
ARC
  8
L-ZISSEN
 10
1270.0
 20
993.0
 30
0.0
 40
21.0
 50
231.697325
 51
308.302675
  0
ARC
  8
L-ZISSEN
 10
1305.0
 20
993.0
 30
0.0
 40
19.0
 50
237.02077
 51
300.0
  0
ARC
  8
L-ZISSEN
 10
1270.0
 20
993.0
 30
0.0
 40
21.0
 50
51.697325
 51
128.302675
  0
LINE
  8
L-TYUSIN
  6
CENTER
 62
     1
 10
1333.0
 20
1001.0
 30
0.0
 11
1333.0
 21
985.0
 31
0.0
  0
ARC
  8
L-ZISSEN
 10
1333.0
 20
993.0
 30
0.0
 40
9.0
 50
300.0
 51
60.0
  0
ARC
  8
L-ZISSEN
 10
1289.214286
 20
1017.32717
 30
0.0
 40
10.0
 50
231.697325
 51
302.97923
  0
ARC
  8
L-ZISSEN
 10
1289.214286
 20
968.67283
 30
0.0
 40
10.0
 50
57.02077
 51
128.302675
  0
ARC
  8
L-ZISSEN
 10
1250.785714
 20
968.67283
 30
0.0
 40
10.0
 50
51.697325
 51
122.97923
  0
ARC
  8
L-ZISSEN
 10
1250.785714
 20
1017.32717
 30
0.0
 40
10.0
 50
237.02077
 51
308.302675
  0
LINE
  8
L-ZISSEN
 10
1314.5
 20
976.545517
 30
0.0
 11
1337.5
 21
985.205771
 31
0.0
  0
ARC
  8
L-ZISSEN
 10
1305.0
 20
993.0
 30
0.0
 40
19.0
 50
60.0
 51
122.97923
  0
LINE
  8
L-ZISSEN
 10
1314.5
 20
1009.454483
 30
0.0
 11
1337.5
 21
1000.794229
 31
0.0
  0
LINE
  8
L-ZISSEN
 10
1225.5
 20
1009.454483
 30
0.0
 11
1202.5
 21
1000.794229
 31
0.0
  0
ARC
  8
L-ZISSEN
 10
1235.0
 20
993.0
 30
0.0
 40
19.0
 50
57.02077
 51
120.0
  0
LINE
  8
L-ZISSEN
 10
1225.5
 20
976.545517
 30
0.0
 11
1202.5
 21
985.205771
 31
0.0
  0
ARC
  8
L-ZISSEN
 10
1207.0
 20
993.0
 30
0.0
 40
9.0
 50
120.0
 51
240.0
  0
ARC
  8
L-ZISSEN
 10
1235.0
 20
993.0
 30
0.0
 40
19.0
 50
240.0
 51
302.97923
  0
CIRCLE
  8
L-ZISSEN
 10
1333.0
 20
993.0
 30
0.0
 40
4.5
  0
CIRCLE
  8
L-ZISSEN
 10
1207.0
 20
993.0
 30
0.0
 40
4.5
  0
LINE
  8
L-TYUSIN
 10
1215.0
 20
993.0
 30
0.0
 11
1199.0
 21
993.0
 31
0.0
  0
LINE
  8
L-TYUSIN
  6
CENTER
 62
     1
 10
1207.0
 20
1001.0
 30
0.0
 11
1207.0
 21
985.0
 31
0.0
  0
LINE
  8
L-TYUSIN
 10
1255.0
 20
993.0
 30
0.0
 11
1285.0
 21
993.0
 31
0.0
  0
CIRCLE
  8
L-ZISSEN
 10
1270.0
 20
993.0
 30
0.0
 40
12.0585
  0
CIRCLE
  8
L-ZISSEN
 10
1305.0
 20
993.0
 30
0.0
 40
12.0585
  0
LINE
  8
L-TYUSIN
 10
1290.0
 20
993.0
 30
0.0
 11
1320.0
 21
993.0
 31
0.0
  0
CIRCLE
  8
L-ZISSEN
 10
1235.0
 20
993.0
 30
0.0
 40
12.0585
  0
LINE
  8
L-TYUSIN
 10
1250.0
 20
993.0
 30
0.0
 11
1220.0
 21
993.0
 31
0.0
  0
LINE
  8
L-TYUSIN
  6
CENTER
 62
     1
 10
1235.0
 20
1008.0
 30
0.0
 11
1235.0
 21
978.0
 31
0.0
  0
LINE
  8
L-TYUSIN
  6
CENTER
 62
     1
 10
1333.0
 20
983.000007
 30
0.0
 11
1333.0
 21
963.000007
 31
0.0
  0
LINE
  8
L-ZISSEN
 10
1342.0
 20
968.000007
 30
0.0
 11
1342.0
 21
978.000007
 31
0.0
  0
LINE
  8
L-ZISSEN
 10
1342.0
 20
978.000007
 30
0.0
 11
1318.362849
 21
978.000007
 31
0.0
  0
LINE
  8
L-ZISSEN
 10
1198.0
 20
968.000007
 30
0.0
 11
1198.0
 21
978.000007
 31
0.0
  0
LINE
  8
L-TYUSIN
  6
CENTER
 62
     1
 10
1207.0
 20
983.000007
 30
0.0
 11
1207.0
 21
963.000007
 31
0.0
  0
LINE
  8
L-ZISSEN
 10
1221.637151
 20
978.000007
 30
0.0
 11
1198.0
 21
978.000007
 31
0.0
  0
LINE
  8
L-ZISSEN
 10
1213.5
 20
1004.936089
 30
0.0
 11
1213.5
 21
1041.0
 31
0.0
  0
LINE
  8
L-ZISSEN
 10
1213.5
 20
1041.0
 30
0.0
 11
1238.5
 21
1041.0
 31
0.0
  0
LINE
  8
L-ZISSEN
 10
1238.5
 20
1041.0
 30
0.0
 11
1243.000006
 21
1036.499994
 31
0.0
  0
LINE
  8
L-ZISSEN
 10
1238.5
 20
1041.0
 30
0.0
 11
1238.5
 21
1011.674849
 31
0.0
  0
LINE
  8
L-ZISSEN
 10
1243.5
 20
1029.211103
 30
0.0
 11
1243.5
 21
1009.992645
 31
0.0
  0
LINE
  8
L-TYUSIN
 10
1331.5
 20
1022.0
 30
0.0
 11
1291.5
 21
1022.0
 31
0.0
  0
LINE
  8
L-ZISSEN
 10
1326.5
 20
1041.0
 30
0.0
 11
1301.5
 21
1041.0
 31
0.0
  0
LINE
  8
L-ZISSEN
 10
1301.5
 20
1041.0
 30
0.0
 11
1301.5
 21
1011.674849
 31
0.0
  0
LINE
  8
L-ZISSEN
 10
1326.5
 20
1004.936089
 30
0.0
 11
1326.5
 21
1041.0
 31
0.0
  0
LINE
  8
L-ZISSEN
 10
1301.5
 20
1041.0
 30
0.0
 11
1296.999994
 21
1036.499994
 31
0.0
  0
LINE
  8
L-ZISSEN
 10
1296.5
 20
1029.211103
 30
0.0
 11
1296.5
 21
1009.992645
 31
0.0
  0
LINE
  8
L-ZISSEN
  6
CONTINUOUS
 62
     7
 10
1222.500014
 20
1047.000007
 30
0.0
 11
1317.499986
 21
1047.000007
 31
0.0
  0
LINE
  8
L-ZISSEN
  6
CONTINUOUS
 62
     7
 10
1572.500014
 20
1047.000007
 30
0.0
 11
1667.499986
 21
1047.000007
 31
0.0
  0
LINE
  8
L-ZISSEN
 10
1646.5
 20
1029.211103
 30
0.0
 11
1646.5
 21
1009.992645
 31
0.0
  0
LINE
  8
L-ZISSEN
 10
1651.5
 20
1041.0
 30
0.0
 11
1646.999994
 21
1036.499994
 31
0.0
  0
LINE
  8
L-ZISSEN
 10
1676.5
 20
1004.936089
 30
0.0
 11
1676.5
 21
1041.0
 31
0.0
  0
LINE
  8
L-ZISSEN
 10
1651.5
 20
1041.0
 30
0.0
 11
1651.5
 21
1011.674849
 31
0.0
  0
LINE
  8
L-ZISSEN
 10
1676.5
 20
1041.0
 30
0.0
 11
1651.5
 21
1041.0
 31
0.0
  0
LINE
  8
L-TYUSIN
 10
1681.5
 20
1022.0
 30
0.0
 11
1641.5
 21
1022.0
 31
0.0
  0
LINE
  8
L-ZISSEN
 10
1593.5
 20
1029.211103
 30
0.0
 11
1593.5
 21
1009.992645
 31
0.0
  0
LINE
  8
L-ZISSEN
 10
1588.5
 20
1041.0
 30
0.0
 11
1588.5
 21
1011.674849
 31
0.0
  0
LINE
  8
L-ZISSEN
 10
1588.5
 20
1041.0
 30
0.0
 11
1593.000006
 21
1036.499994
 31
0.0
  0
LINE
  8
L-ZISSEN
 10
1563.5
 20
1041.0
 30
0.0
 11
1588.5
 21
1041.0
 31
0.0
  0
LINE
  8
L-ZISSEN
 10
1563.5
 20
1004.936089
 30
0.0
 11
1563.5
 21
1041.0
 31
0.0
  0
LINE
  8
L-ZISSEN
 10
1571.637151
 20
978.000007
 30
0.0
 11
1548.0
 21
978.000007
 31
0.0
  0
LINE
  8
L-TYUSIN
  6
CENTER
 62
     1
 10
1557.0
 20
983.000007
 30
0.0
 11
1557.0
 21
963.000007
 31
0.0
  0
LINE
  8
L-ZISSEN
 10
1548.0
 20
968.000007
 30
0.0
 11
1548.0
 21
978.000007
 31
0.0
  0
LINE
  8
L-ZISSEN
 10
1692.0
 20
978.000007
 30
0.0
 11
1668.362849
 21
978.000007
 31
0.0
  0
LINE
  8
L-ZISSEN
 10
1692.0
 20
968.000007
 30
0.0
 11
1692.0
 21
978.000007
 31
0.0
  0
LINE
  8
L-TYUSIN
  6
CENTER
 62
     1
 10
1683.0
 20
983.000007
 30
0.0
 11
1683.0
 21
963.000007
 31
0.0
  0
LINE
  8
L-TYUSIN
  6
CENTER
 62
     1
 10
1585.0
 20
1008.0
 30
0.0
 11
1585.0
 21
978.0
 31
0.0
  0
LINE
  8
L-TYUSIN
 10
1600.0
 20
993.0
 30
0.0
 11
1570.0
 21
993.0
 31
0.0
  0
CIRCLE
  8
L-ZISSEN
 10
1585.0
 20
993.0
 30
0.0
 40
12.0585
  0
LINE
  8
L-TYUSIN
 10
1640.0
 20
993.0
 30
0.0
 11
1670.0
 21
993.0
 31
0.0
  0
CIRCLE
  8
L-ZISSEN
 10
1655.0
 20
993.0
 30
0.0
 40
12.0585
  0
CIRCLE
  8
L-ZISSEN
 10
1620.0
 20
993.0
 30
0.0
 40
12.0585
  0
LINE
  8
L-TYUSIN
 10
1605.0
 20
993.0
 30
0.0
 11
1635.0
 21
993.0
 31
0.0
  0
LINE
  8
L-TYUSIN
  6
CENTER
 62
     1
 10
1557.0
 20
1001.0
 30
0.0
 11
1557.0
 21
985.0
 31
0.0
  0
LINE
  8
L-TYUSIN
 10
1565.0
 20
993.0
 30
0.0
 11
1549.0
 21
993.0
 31
0.0
  0
CIRCLE
  8
L-ZISSEN
 10
1557.0
 20
993.0
 30
0.0
 40
4.5
  0
CIRCLE
  8
L-ZISSEN
 10
1683.0
 20
993.0
 30
0.0
 40
4.5
  0
ARC
  8
L-ZISSEN
 10
1585.0
 20
993.0
 30
0.0
 40
19.0
 50
240.0
 51
302.97923
  0
ARC
  8
L-ZISSEN
 10
1557.0
 20
993.0
 30
0.0
 40
9.0
 50
120.0
 51
240.0
  0
LINE
  8
L-ZISSEN
 10
1575.5
 20
976.545517
 30
0.0
 11
1552.5
 21
985.205771
 31
0.0
  0
ARC
  8
L-ZISSEN
 10
1585.0
 20
993.0
 30
0.0
 40
19.0
 50
57.02077
 51
120.0
  0
LINE
  8
L-ZISSEN
 10
1575.5
 20
1009.454483
 30
0.0
 11
1552.5
 21
1000.794229
 31
0.0
  0
LINE
  8
L-ZISSEN
 10
1664.5
 20
1009.454483
 30
0.0
 11
1687.5
 21
1000.794229
 31
0.0
  0
ARC
  8
L-ZISSEN
 10
1655.0
 20
993.0
 30
0.0
 40
19.0
 50
60.0
 51
122.97923
  0
LINE
  8
L-ZISSEN
 10
1664.5
 20
976.545517
 30
0.0
 11
1687.5
 21
985.205771
 31
0.0
  0
ARC
  8
L-ZISSEN
 10
1600.785714
 20
1017.32717
 30
0.0
 40
10.0
 50
237.02077
 51
308.302675
  0
ARC
  8
L-ZISSEN
 10
1600.785714
 20
968.67283
 30
0.0
 40
10.0
 50
51.697325
 51
122.97923
  0
ARC
  8
L-ZISSEN
 10
1639.214286
 20
968.67283
 30
0.0
 40
10.0
 50
57.02077
 51
128.302675
  0
ARC
  8
L-ZISSEN
 10
1639.214286
 20
1017.32717
 30
0.0
 40
10.0
 50
231.697325
 51
302.97923
  0
ARC
  8
L-ZISSEN
 10
1683.0
 20
993.0
 30
0.0
 40
9.0
 50
300.0
 51
60.0
  0
LINE
  8
L-TYUSIN
  6
CENTER
 62
     1
 10
1683.0
 20
1001.0
 30
0.0
 11
1683.0
 21
985.0
 31
0.0
  0
ARC
  8
L-ZISSEN
 10
1620.0
 20
993.0
 30
0.0
 40
21.0
 50
51.697325
 51
128.302675
  0
ARC
  8
L-ZISSEN
 10
1655.0
 20
993.0
 30
0.0
 40
19.0
 50
237.02077
 51
300.0
  0
ARC
  8
L-ZISSEN
 10
1620.0
 20
993.0
 30
0.0
 40
21.0
 50
231.697325
 51
308.302675
  0
LINE
  8
L-TYUSIN
  6
CENTER
 62
     1
 10
1655.0
 20
1008.0
 30
0.0
 11
1655.0
 21
978.0
 31
0.0
  0
LINE
  8
L-TYUSIN
 10
1675.0
 20
993.0
 30
0.0
 11
1691.0
 21
993.0
 31
0.0
  0
LINE
  8
L-TYUSIN
 10
1558.5
 20
1022.0
 30
0.0
 11
1598.5
 21
1022.0
 31
0.0
  0
LINE
  8
L-ZISSEN
  6
CONTINUOUS
 62
     7
 10
1548.0
 20
968.000007
 30
0.0
 11
1692.0
 21
968.000007
 31
0.0
  0
LINE
  8
L-ZISSEN
 10
1667.499986
 20
1047.000007
 30
0.0
 11
1667.499986
 21
1041.0
 31
0.0
  0
LINE
  8
L-ZISSEN
 10
1646.999994
 20
1047.000007
 30
0.0
 11
1646.999994
 21
1036.0
 31
0.0
  0
LINE
  8
L-ZISSEN
 10
1632.999994
 20
1047.000007
 30
0.0
 11
1632.999994
 21
1036.0
 31
0.0
  0
LINE
  8
L-ZISSEN
 10
1607.000006
 20
1047.000007
 30
0.0
 11
1607.000006
 21
1036.0
 31
0.0
  0
LINE
  8
L-ZISSEN
 10
1593.000006
 20
1047.000007
 30
0.0
 11
1593.000006
 21
1036.0
 31
0.0
  0
LINE
  8
L-ZISSEN
 10
1572.500014
 20
1047.000007
 30
0.0
 11
1572.500014
 21
1041.0
 31
0.0
  0
LINE
  8
L-ZISSEN
 10
1572.500014
 20
787.000007
 30
0.0
 11
1572.500014
 21
781.0
 31
0.0
  0
LINE
  8
L-ZISSEN
 10
1593.000006
 20
787.000007
 30
0.0
 11
1593.000006
 21
776.0
 31
0.0
  0
LINE
  8
L-ZISSEN
 10
1607.000006
 20
787.000007
 30
0.0
 11
1607.000006
 21
776.0
 31
0.0
  0
LINE
  8
L-ZISSEN
 10
1632.999994
 20
787.000007
 30
0.0
 11
1632.999994
 21
776.0
 31
0.0
  0
LINE
  8
L-ZISSEN
 10
1646.999994
 20
787.000007
 30
0.0
 11
1646.999994
 21
776.0
 31
0.0
  0
LINE
  8
L-ZISSEN
 10
1667.499986
 20
787.000007
 30
0.0
 11
1667.499986
 21
781.0
 31
0.0
  0
LINE
  8
L-ZISSEN
  6
CONTINUOUS
 62
     7
 10
1548.0
 20
708.000007
 30
0.0
 11
1692.0
 21
708.000007
 31
0.0
  0
LINE
  8
L-TYUSIN
 10
1558.5
 20
762.0
 30
0.0
 11
1598.5
 21
762.0
 31
0.0
  0
LINE
  8
L-TYUSIN
 10
1675.0
 20
733.0
 30
0.0
 11
1691.0
 21
733.0
 31
0.0
  0
LINE
  8
L-TYUSIN
  6
CENTER
 62
     1
 10
1655.0
 20
748.0
 30
0.0
 11
1655.0
 21
718.0
 31
0.0
  0
ARC
  8
L-ZISSEN
 10
1620.0
 20
733.0
 30
0.0
 40
21.0
 50
231.697325
 51
308.302675
  0
ARC
  8
L-ZISSEN
 10
1655.0
 20
733.0
 30
0.0
 40
19.0
 50
237.02077
 51
300.0
  0
ARC
  8
L-ZISSEN
 10
1620.0
 20
733.0
 30
0.0
 40
21.0
 50
51.697325
 51
128.302675
  0
LINE
  8
L-TYUSIN
  6
CENTER
 62
     1
 10
1683.0
 20
741.0
 30
0.0
 11
1683.0
 21
725.0
 31
0.0
  0
ARC
  8
L-ZISSEN
 10
1683.0
 20
733.0
 30
0.0
 40
9.0
 50
300.0
 51
60.0
  0
ARC
  8
L-ZISSEN
 10
1639.214286
 20
757.32717
 30
0.0
 40
10.0
 50
231.697325
 51
302.97923
  0
ARC
  8
L-ZISSEN
 10
1639.214286
 20
708.67283
 30
0.0
 40
10.0
 50
57.02077
 51
128.302675
  0
ARC
  8
L-ZISSEN
 10
1600.785714
 20
708.67283
 30
0.0
 40
10.0
 50
51.697325
 51
122.97923
  0
ARC
  8
L-ZISSEN
 10
1600.785714
 20
757.32717
 30
0.0
 40
10.0
 50
237.02077
 51
308.302675
  0
LINE
  8
L-ZISSEN
 10
1664.5
 20
716.545517
 30
0.0
 11
1687.5
 21
725.205771
 31
0.0
  0
ARC
  8
L-ZISSEN
 10
1655.0
 20
733.0
 30
0.0
 40
19.0
 50
60.0
 51
122.97923
  0
LINE
  8
L-ZISSEN
 10
1664.5
 20
749.454483
 30
0.0
 11
1687.5
 21
740.794229
 31
0.0
  0
LINE
  8
L-ZISSEN
 10
1575.5
 20
749.454483
 30
0.0
 11
1552.5
 21
740.794229
 31
0.0
  0
ARC
  8
L-ZISSEN
 10
1585.0
 20
733.0
 30
0.0
 40
19.0
 50
57.02077
 51
120.0
  0
LINE
  8
L-ZISSEN
 10
1575.5
 20
716.545517
 30
0.0
 11
1552.5
 21
725.205771
 31
0.0
  0
ARC
  8
L-ZISSEN
 10
1557.0
 20
733.0
 30
0.0
 40
9.0
 50
120.0
 51
240.0
  0
ARC
  8
L-ZISSEN
 10
1585.0
 20
733.0
 30
0.0
 40
19.0
 50
240.0
 51
302.97923
  0
CIRCLE
  8
L-ZISSEN
 10
1683.0
 20
733.0
 30
0.0
 40
4.5
  0
CIRCLE
  8
L-ZISSEN
 10
1557.0
 20
733.0
 30
0.0
 40
4.5
  0
LINE
  8
L-TYUSIN
 10
1565.0
 20
733.0
 30
0.0
 11
1549.0
 21
733.0
 31
0.0
  0
LINE
  8
L-TYUSIN
  6
CENTER
 62
     1
 10
1557.0
 20
741.0
 30
0.0
 11
1557.0
 21
725.0
 31
0.0
  0
LINE
  8
L-TYUSIN
 10
1605.0
 20
733.0
 30
0.0
 11
1635.0
 21
733.0
 31
0.0
  0
CIRCLE
  8
L-ZISSEN
 10
1620.0
 20
733.0
 30
0.0
 40
12.0585
  0
CIRCLE
  8
L-ZISSEN
 10
1655.0
 20
733.0
 30
0.0
 40
12.0585
  0
LINE
  8
L-TYUSIN
 10
1640.0
 20
733.0
 30
0.0
 11
1670.0
 21
733.0
 31
0.0
  0
CIRCLE
  8
L-ZISSEN
 10
1585.0
 20
733.0
 30
0.0
 40
12.0585
  0
LINE
  8
L-TYUSIN
 10
1600.0
 20
733.0
 30
0.0
 11
1570.0
 21
733.0
 31
0.0
  0
LINE
  8
L-TYUSIN
  6
CENTER
 62
     1
 10
1585.0
 20
748.0
 30
0.0
 11
1585.0
 21
718.0
 31
0.0
  0
LINE
  8
L-TYUSIN
  6
CENTER
 62
     1
 10
1683.0
 20
723.000007
 30
0.0
 11
1683.0
 21
703.000007
 31
0.0
  0
LINE
  8
L-ZISSEN
 10
1692.0
 20
708.000007
 30
0.0
 11
1692.0
 21
718.000007
 31
0.0
  0
LINE
  8
L-ZISSEN
 10
1692.0
 20
718.000007
 30
0.0
 11
1668.362849
 21
718.000007
 31
0.0
  0
LINE
  8
L-ZISSEN
 10
1548.0
 20
708.000007
 30
0.0
 11
1548.0
 21
718.000007
 31
0.0
  0
LINE
  8
L-TYUSIN
  6
CENTER
 62
     1
 10
1557.0
 20
723.000007
 30
0.0
 11
1557.0
 21
703.000007
 31
0.0
  0
LINE
  8
L-ZISSEN
 10
1571.637151
 20
718.000007
 30
0.0
 11
1548.0
 21
718.000007
 31
0.0
  0
LINE
  8
L-ZISSEN
 10
1563.5
 20
744.936089
 30
0.0
 11
1563.5
 21
781.0
 31
0.0
  0
LINE
  8
L-ZISSEN
 10
1563.5
 20
781.0
 30
0.0
 11
1588.5
 21
781.0
 31
0.0
  0
LINE
  8
L-ZISSEN
 10
1588.5
 20
781.0
 30
0.0
 11
1593.000006
 21
776.499994
 31
0.0
  0
LINE
  8
L-ZISSEN
 10
1588.5
 20
781.0
 30
0.0
 11
1588.5
 21
751.674849
 31
0.0
  0
LINE
  8
L-ZISSEN
 10
1593.5
 20
769.211103
 30
0.0
 11
1593.5
 21
749.992645
 31
0.0
  0
LINE
  8
L-TYUSIN
 10
1681.5
 20
762.0
 30
0.0
 11
1641.5
 21
762.0
 31
0.0
  0
LINE
  8
L-ZISSEN
 10
1676.5
 20
781.0
 30
0.0
 11
1651.5
 21
781.0
 31
0.0
  0
LINE
  8
L-ZISSEN
 10
1651.5
 20
781.0
 30
0.0
 11
1651.5
 21
751.674849
 31
0.0
  0
LINE
  8
L-ZISSEN
 10
1676.5
 20
744.936089
 30
0.0
 11
1676.5
 21
781.0
 31
0.0
  0
LINE
  8
L-ZISSEN
 10
1651.5
 20
781.0
 30
0.0
 11
1646.999994
 21
776.499994
 31
0.0
  0
LINE
  8
L-ZISSEN
 10
1646.5
 20
769.211103
 30
0.0
 11
1646.5
 21
749.992645
 31
0.0
  0
LINE
  8
L-ZISSEN
  6
CONTINUOUS
 62
     7
 10
1572.500014
 20
787.000007
 30
0.0
 11
1667.499986
 21
787.000007
 31
0.0
  0
LINE
  8
L-ZISSEN
 10
1646.5
 20
509.211103
 30
0.0
 11
1646.5
 21
489.992645
 31
0.0
  0
LINE
  8
L-ZISSEN
 10
1651.5
 20
521.0
 30
0.0
 11
1646.999994
 21
516.499994
 31
0.0
  0
LINE
  8
L-ZISSEN
 10
1646.999994
 20
527.000007
 30
0.0
 11
1646.999994
 21
516.0
 31
0.0
  0
LINE
  8
L-ZISSEN
 10
1632.999994
 20
527.000007
 30
0.0
 11
1632.999994
 21
516.0
 31
0.0
  0
LINE
  8
L-ZISSEN
 10
1607.000006
 20
527.000007
 30
0.0
 11
1607.000006
 21
516.0
 31
0.0
  0
LINE
  8
L-ZISSEN
 10
1593.000006
 20
527.000007
 30
0.0
 11
1593.000006
 21
516.0
 31
0.0
  0
LINE
  8
L-ZISSEN
 10
1676.5
 20
484.936089
 30
0.0
 11
1676.5
 21
521.0
 31
0.0
  0
LINE
  8
L-ZISSEN
 10
1651.5
 20
521.0
 30
0.0
 11
1651.5
 21
491.674849
 31
0.0
  0
LINE
  8
L-ZISSEN
 10
1667.499986
 20
527.000007
 30
0.0
 11
1667.499986
 21
521.0
 31
0.0
  0
LINE
  8
L-ZISSEN
 10
1676.5
 20
521.0
 30
0.0
 11
1651.5
 21
521.0
 31
0.0
  0
LINE
  8
L-TYUSIN
 10
1681.5
 20
502.0
 30
0.0
 11
1641.5
 21
502.0
 31
0.0
  0
LINE
  8
L-ZISSEN
 10
1572.500014
 20
527.000007
 30
0.0
 11
1572.500014
 21
521.0
 31
0.0
  0
LINE
  8
L-ZISSEN
 10
1593.5
 20
509.211103
 30
0.0
 11
1593.5
 21
489.992645
 31
0.0
  0
LINE
  8
L-ZISSEN
 10
1588.5
 20
521.0
 30
0.0
 11
1588.5
 21
491.674849
 31
0.0
  0
LINE
  8
L-ZISSEN
 10
1588.5
 20
521.0
 30
0.0
 11
1593.000006
 21
516.499994
 31
0.0
  0
LINE
  8
L-ZISSEN
 10
1563.5
 20
521.0
 30
0.0
 11
1588.5
 21
521.0
 31
0.0
  0
LINE
  8
L-ZISSEN
 10
1563.5
 20
484.936089
 30
0.0
 11
1563.5
 21
521.0
 31
0.0
  0
LINE
  8
L-ZISSEN
 10
1571.637151
 20
458.000007
 30
0.0
 11
1548.0
 21
458.000007
 31
0.0
  0
LINE
  8
L-TYUSIN
  6
CENTER
 62
     1
 10
1557.0
 20
463.000007
 30
0.0
 11
1557.0
 21
443.000007
 31
0.0
  0
LINE
  8
L-ZISSEN
 10
1548.0
 20
448.000007
 30
0.0
 11
1548.0
 21
458.000007
 31
0.0
  0
LINE
  8
L-ZISSEN
 10
1692.0
 20
458.000007
 30
0.0
 11
1668.362849
 21
458.000007
 31
0.0
  0
LINE
  8
L-ZISSEN
 10
1692.0
 20
448.000007
 30
0.0
 11
1692.0
 21
458.000007
 31
0.0
  0
LINE
  8
L-TYUSIN
  6
CENTER
 62
     1
 10
1683.0
 20
463.000007
 30
0.0
 11
1683.0
 21
443.000007
 31
0.0
  0
LINE
  8
L-TYUSIN
  6
CENTER
 62
     1
 10
1585.0
 20
488.0
 30
0.0
 11
1585.0
 21
458.0
 31
0.0
  0
LINE
  8
L-TYUSIN
 10
1600.0
 20
473.0
 30
0.0
 11
1570.0
 21
473.0
 31
0.0
  0
CIRCLE
  8
L-ZISSEN
 10
1585.0
 20
473.0
 30
0.0
 40
12.0585
  0
LINE
  8
L-TYUSIN
 10
1640.0
 20
473.0
 30
0.0
 11
1670.0
 21
473.0
 31
0.0
  0
CIRCLE
  8
L-ZISSEN
 10
1655.0
 20
473.0
 30
0.0
 40
12.0585
  0
CIRCLE
  8
L-ZISSEN
 10
1620.0
 20
473.0
 30
0.0
 40
12.0585
  0
LINE
  8
L-TYUSIN
 10
1605.0
 20
473.0
 30
0.0
 11
1635.0
 21
473.0
 31
0.0
  0
LINE
  8
L-TYUSIN
  6
CENTER
 62
     1
 10
1557.0
 20
481.0
 30
0.0
 11
1557.0
 21
465.0
 31
0.0
  0
LINE
  8
L-TYUSIN
 10
1565.0
 20
473.0
 30
0.0
 11
1549.0
 21
473.0
 31
0.0
  0
CIRCLE
  8
L-ZISSEN
 10
1557.0
 20
473.0
 30
0.0
 40
4.5
  0
CIRCLE
  8
L-ZISSEN
 10
1683.0
 20
473.0
 30
0.0
 40
4.5
  0
ARC
  8
L-ZISSEN
 10
1585.0
 20
473.0
 30
0.0
 40
19.0
 50
240.0
 51
302.97923
  0
ARC
  8
L-ZISSEN
 10
1557.0
 20
473.0
 30
0.0
 40
9.0
 50
120.0
 51
240.0
  0
LINE
  8
L-ZISSEN
 10
1575.5
 20
456.545517
 30
0.0
 11
1552.5
 21
465.205771
 31
0.0
  0
ARC
  8
L-ZISSEN
 10
1585.0
 20
473.0
 30
0.0
 40
19.0
 50
57.02077
 51
120.0
  0
LINE
  8
L-ZISSEN
 10
1575.5
 20
489.454483
 30
0.0
 11
1552.5
 21
480.794229
 31
0.0
  0
LINE
  8
L-ZISSEN
 10
1664.5
 20
489.454483
 30
0.0
 11
1687.5
 21
480.794229
 31
0.0
  0
ARC
  8
L-ZISSEN
 10
1655.0
 20
473.0
 30
0.0
 40
19.0
 50
60.0
 51
122.97923
  0
LINE
  8
L-ZISSEN
 10
1664.5
 20
456.545517
 30
0.0
 11
1687.5
 21
465.205771
 31
0.0
  0
ARC
  8
L-ZISSEN
 10
1600.785714
 20
497.32717
 30
0.0
 40
10.0
 50
237.02077
 51
308.302675
  0
ARC
  8
L-ZISSEN
 10
1600.785714
 20
448.67283
 30
0.0
 40
10.0
 50
51.697325
 51
122.97923
  0
ARC
  8
L-ZISSEN
 10
1639.214286
 20
448.67283
 30
0.0
 40
10.0
 50
57.02077
 51
128.302675
  0
ARC
  8
L-ZISSEN
 10
1639.214286
 20
497.32717
 30
0.0
 40
10.0
 50
231.697325
 51
302.97923
  0
ARC
  8
L-ZISSEN
 10
1683.0
 20
473.0
 30
0.0
 40
9.0
 50
300.0
 51
60.0
  0
LINE
  8
L-TYUSIN
  6
CENTER
 62
     1
 10
1683.0
 20
481.0
 30
0.0
 11
1683.0
 21
465.0
 31
0.0
  0
ARC
  8
L-ZISSEN
 10
1620.0
 20
473.0
 30
0.0
 40
21.0
 50
51.697325
 51
128.302675
  0
ARC
  8
L-ZISSEN
 10
1655.0
 20
473.0
 30
0.0
 40
19.0
 50
237.02077
 51
300.0
  0
ARC
  8
L-ZISSEN
 10
1620.0
 20
473.0
 30
0.0
 40
21.0
 50
231.697325
 51
308.302675
  0
LINE
  8
L-TYUSIN
  6
CENTER
 62
     1
 10
1655.0
 20
488.0
 30
0.0
 11
1655.0
 21
458.0
 31
0.0
  0
LINE
  8
L-TYUSIN
 10
1675.0
 20
473.0
 30
0.0
 11
1691.0
 21
473.0
 31
0.0
  0
LINE
  8
L-TYUSIN
 10
1558.5
 20
502.0
 30
0.0
 11
1598.5
 21
502.0
 31
0.0
  0
LINE
  8
L-ZISSEN
  6
CONTINUOUS
 62
     7
 10
1548.0
 20
448.000007
 30
0.0
 11
1692.0
 21
448.000007
 31
0.0
  0
LINE
  8
L-ZISSEN
  6
CONTINUOUS
 62
     7
 10
1572.500014
 20
527.000007
 30
0.0
 11
1667.499986
 21
527.000007
 31
0.0
  0
SOLID
  8
L-ZISSEN
 10
120.146316
 20
679.977699
 30
0.0
 11
120.794289
 21
680.134466
 31
0.0
 12
120.0
 22
682.0
 32
0.0
 13
120.0
 23
682.0
 33
0.0
  0
LINE
  8
L-ZISSEN
 10
120.470303
 20
680.056082
 30
0.0
 11
135.0
 21
620.0
 31
0.0
  0
LINE
  8
L-ZISSEN
 10
135.0
 20
620.0
 30
0.0
 11
137.0
 21
620.0
 31
0.0
  0
TEXT
  8
L-ZISSEN
 10
139.0
 20
617.75
 30
0.0
 40
4.5
  1
P.P
  0
TEXT
  8
L-ZISSEN
 10
289.0
 20
617.75
 30
0.0
 40
4.5
  1
P.P
  0
LINE
  8
L-ZISSEN
 10
285.0
 20
620.0
 30
0.0
 11
287.0
 21
620.0
 31
0.0
  0
LINE
  8
L-ZISSEN
 10
270.470303
 20
680.056082
 30
0.0
 11
285.0
 21
620.0
 31
0.0
  0
SOLID
  8
L-ZISSEN
 10
270.146316
 20
679.977699
 30
0.0
 11
270.794289
 21
680.134466
 31
0.0
 12
270.0
 22
682.0
 32
0.0
 13
270.0
 23
682.0
 33
0.0
  0
TEXT
  8
L-ZISSEN
 10
439.0
 20
617.75
 30
0.0
 40
4.5
  1
P.P
  0
LINE
  8
L-ZISSEN
 10
435.0
 20
620.0
 30
0.0
 11
437.0
 21
620.0
 31
0.0
  0
LINE
  8
L-ZISSEN
 10
420.470303
 20
680.056082
 30
0.0
 11
435.0
 21
620.0
 31
0.0
  0
SOLID
  8
L-ZISSEN
 10
420.146316
 20
679.977699
 30
0.0
 11
420.794289
 21
680.134466
 31
0.0
 12
420.0
 22
682.0
 32
0.0
 13
420.0
 23
682.0
 33
0.0
  0
SOLID
  8
L-ZISSEN
 10
570.146316
 20
679.977699
 30
0.0
 11
570.794289
 21
680.134466
 31
0.0
 12
570.0
 22
682.0
 32
0.0
 13
570.0
 23
682.0
 33
0.0
  0
LINE
  8
L-ZISSEN
 10
570.470303
 20
680.056082
 30
0.0
 11
585.0
 21
620.0
 31
0.0
  0
LINE
  8
L-ZISSEN
 10
585.0
 20
620.0
 30
0.0
 11
587.0
 21
620.0
 31
0.0
  0
TEXT
  8
L-ZISSEN
 10
589.0
 20
617.75
 30
0.0
 40
4.5
  1
P.P
  0
SOLID
  8
L-ZISSEN
 10
720.146316
 20
679.977699
 30
0.0
 11
720.794289
 21
680.134466
 31
0.0
 12
720.0
 22
682.0
 32
0.0
 13
720.0
 23
682.0
 33
0.0
  0
LINE
  8
L-ZISSEN
 10
720.470303
 20
680.056082
 30
0.0
 11
735.0
 21
620.0
 31
0.0
  0
LINE
  8
L-ZISSEN
 10
735.0
 20
620.0
 30
0.0
 11
737.0
 21
620.0
 31
0.0
  0
TEXT
  8
L-ZISSEN
 10
739.0
 20
617.75
 30
0.0
 40
4.5
  1
P.P
  0
TEXT
  8
L-ZISSEN
 10
889.0
 20
617.75
 30
0.0
 40
4.5
  1
P.P
  0
LINE
  8
L-ZISSEN
 10
885.0
 20
620.0
 30
0.0
 11
887.0
 21
620.0
 31
0.0
  0
LINE
  8
L-ZISSEN
 10
870.470303
 20
680.056082
 30
0.0
 11
885.0
 21
620.0
 31
0.0
  0
SOLID
  8
L-ZISSEN
 10
870.146316
 20
679.977699
 30
0.0
 11
870.794289
 21
680.134466
 31
0.0
 12
870.0
 22
682.0
 32
0.0
 13
870.0
 23
682.0
 33
0.0
  0
CIRCLE
  8
L-ZISSEN
 10
147.0
 20
682.0
 30
0.0
 40
9.3155
  0
SOLID
  8
L-ZISSEN
 10
268.222401
 20
515.475307
 30
0.0
 11
268.002167
 21
514.846068
 31
0.0
 12
270.0
 22
514.499986
 32
0.0
 13
270.0
 23
514.499986
 33
0.0
  0
LINE
  8
L-ZISSEN
 10
268.112284
 20
515.160687
 30
0.0
 11
240.0
 21
525.0
 31
0.0
  0
LINE
  8
L-ZISSEN
 10
240.0
 20
525.0
 30
0.0
 11
238.0
 21
525.0
 31
0.0
  0
TEXT
  8
L-ZISSEN
 10
227.0
 20
522.75
 30
0.0
 40
4.5
  1
P.P
  0
SOLID
  8
L-ZISSEN
 10
418.222401
 20
515.475307
 30
0.0
 11
418.002167
 21
514.846068
 31
0.0
 12
420.0
 22
514.499986
 32
0.0
 13
420.0
 23
514.499986
 33
0.0
  0
LINE
  8
L-ZISSEN
 10
418.112284
 20
515.160687
 30
0.0
 11
390.0
 21
525.0
 31
0.0
  0
TEXT
  8
L-ZISSEN
 10
377.0
 20
522.75
 30
0.0
 40
4.5
  1
P.P
  0
LINE
  8
L-ZISSEN
 10
390.0
 20
525.0
 30
0.0
 11
388.0
 21
525.0
 31
0.0
  0
SOLID
  8
L-ZISSEN
 10
118.002167
 20
345.153932
 30
0.0
 11
118.222401
 21
344.524693
 31
0.0
 12
120.0
 22
345.500014
 32
0.0
 13
120.0
 23
345.500014
 33
0.0
  0
LINE
  8
L-ZISSEN
 10
118.112284
 20
344.839313
 30
0.0
 11
90.0
 21
335.0
 31
0.0
  0
LINE
  8
L-ZISSEN
 10
90.0
 20
335.0
 30
0.0
 11
88.0
 21
335.0
 31
0.0
  0
TEXT
  8
L-ZISSEN
 10
77.0
 20
332.75
 30
0.0
 40
4.5
  1
P.P
  0
SOLID
  8
L-ZISSEN
 10
268.002167
 20
345.153932
 30
0.0
 11
268.222401
 21
344.524693
 31
0.0
 12
270.0
 22
345.500014
 32
0.0
 13
270.0
 23
345.500014
 33
0.0
  0
LINE
  8
L-ZISSEN
 10
268.112284
 20
344.839313
 30
0.0
 11
240.0
 21
335.0
 31
0.0
  0
LINE
  8
L-ZISSEN
 10
240.0
 20
335.0
 30
0.0
 11
238.0
 21
335.0
 31
0.0
  0
TEXT
  8
L-ZISSEN
 10
227.0
 20
332.75
 30
0.0
 40
4.5
  1
P.P
  0
LINE
  8
L-ZISSEN
 10
418.112284
 20
344.839313
 30
0.0
 11
390.0
 21
335.0
 31
0.0
  0
SOLID
  8
L-ZISSEN
 10
418.002167
 20
345.153932
 30
0.0
 11
418.222401
 21
344.524693
 31
0.0
 12
420.0
 22
345.500014
 32
0.0
 13
420.0
 23
345.500014
 33
0.0
  0
LINE
  8
L-ZISSEN
 10
390.0
 20
335.0
 30
0.0
 11
388.0
 21
335.0
 31
0.0
  0
TEXT
  8
L-ZISSEN
 10
377.0
 20
332.75
 30
0.0
 40
4.5
  1
P.P
  0
SOLID
  8
L-ZISSEN
 10
1903.01925
 20
1058.566711
 30
0.0
 11
1903.266844
 21
1057.947726
 31
0.0
 12
1905.0
 22
1059.0
 32
0.0
 13
1905.0
 23
1059.0
 33
0.0
  0
LINE
  8
L-ZISSEN
 10
1903.143047
 20
1058.257219
 30
0.0
 11
1895.0
 21
1055.0
 31
0.0
  0
LINE
  8
L-ZISSEN
 10
1895.0
 20
1055.0
 30
0.0
 11
1893.0
 21
1055.0
 31
0.0
  0
TEXT
  8
L-ZISSEN
 10
1882.0
 20
1052.75
 30
0.0
 40
4.5
  1
P.P
  0
LINE
  8
L-ZISSEN
 10
1910.0
 20
1013.4
 30
0.0
 11
1910.0
 21
1025.0
 31
0.0
  0
LINE
  8
L-ZISSEN
 10
1900.0
 20
1013.4
 30
0.0
 11
1900.0
 21
1025.0
 31
0.0
  0
LINE
  8
L-ZISSEN
 10
1900.0
 20
1013.4
 30
0.0
 11
1910.0
 21
1013.4
 31
0.0
  0
SOLID
  8
L-ZISSEN
 10
1903.113516
 20
1040.256839
 30
0.0
 11
1903.456513
 21
1039.685178
 31
0.0
 12
1905.0
 22
1041.0
 32
0.0
 13
1905.0
 23
1041.0
 33
0.0
  0
LINE
  8
L-ZISSEN
 10
1903.285014
 20
1039.971008
 30
0.0
 11
1895.0
 21
1035.0
 31
0.0
  0
LINE
  8
L-ZISSEN
 10
1895.0
 20
1035.0
 30
0.0
 11
1893.0
 21
1035.0
 31
0.0
  0
TEXT
  8
L-ZISSEN
 10
1882.0
 20
1032.75
 30
0.0
 40
4.5
  1
P.P
  0
LINE
  8
L-ZISSEN
 10
1899.5
 20
738.0
 30
0.0
 11
1870.5
 21
738.0
 31
0.0
  0
LINE
  8
L-ZISSEN
 10
1870.5
 20
738.0
 30
0.0
 11
1870.5
 21
732.0
 31
0.0
  0
LINE
  8
L-ZISSEN
 10
1899.5
 20
738.0
 30
0.0
 11
1899.5
 21
732.0
 31
0.0
  0
SOLID
  8
L-ZISSEN
 10
1886.024295
 20
935.250163
 30
0.0
 11
1886.536443
 21
935.676952
 31
0.0
 12
1885.0
 22
937.0
 32
0.0
 13
1885.0
 23
937.0
 33
0.0
  0
LINE
  8
L-ZISSEN
 10
1886.280369
 20
935.463557
 30
0.0
 11
1895.0
 21
925.0
 31
0.0
  0
LINE
  8
L-ZISSEN
 10
1895.0
 20
925.0
 30
0.0
 11
1897.0
 21
925.0
 31
0.0
  0
TEXT
  8
L-ZISSEN
 10
1899.0
 20
922.75
 30
0.0
 40
4.5
  1
P.P
  0
LINE
  8
L-ZISSEN
 10
1869.0
 20
901.0
 30
0.0
 11
1870.5
 21
901.0
 31
0.0
  0
LINE
  8
L-ZISSEN
 10
1899.5
 20
901.0
 30
0.0
 11
1901.0
 21
901.0
 31
0.0
  0
LINE
  8
L-ZISSEN
 10
1898.0
 20
897.0
 30
0.0
 11
1899.5
 21
897.0
 31
0.0
  0
LINE
  8
L-ZISSEN
 10
1898.0
 20
890.0
 30
0.0
 11
1898.0
 21
899.5
 31
0.0
  0
LINE
  8
L-ZISSEN
 10
1872.0
 20
890.0
 30
0.0
 11
1872.0
 21
899.5
 31
0.0
  0
CIRCLE
  8
L-ZISSEN
 10
1885.0
 20
890.0
 30
0.0
 40
13.0
  0
LINE
  8
L-ZISSEN
 10
1893.87412
 20
899.5
 30
0.0
 11
1899.5
 21
899.5
 31
0.0
  0
LINE
  8
L-ZISSEN
 10
1873.5
 20
899.5
 30
0.0
 11
1873.5
 21
903.0
 31
0.0
  0
LINE
  8
L-ZISSEN
 10
1896.5
 20
899.5
 30
0.0
 11
1896.5
 21
903.0
 31
0.0
  0
LINE
  8
L-ZISSEN
 10
1870.5
 20
899.5
 30
0.0
 11
1876.12588
 21
899.5
 31
0.0
  0
LINE
  8
L-ZISSEN
 10
1871.5
 20
875.0
 30
0.0
 11
1898.5
 21
875.0
 31
0.0
  0
LINE
  8
L-ZISSEN
 10
1871.5
 20
875.0
 30
0.0
 11
1871.5
 21
897.0
 31
0.0
  0
LINE
  8
L-ZISSEN
 10
1898.5
 20
875.0
 30
0.0
 11
1898.5
 21
897.0
 31
0.0
  0
LINE
  8
L-ZISSEN
 10
1870.5
 20
897.0
 30
0.0
 11
1870.5
 21
903.0
 31
0.0
  0
LINE
  8
L-ZISSEN
 10
1899.5
 20
897.0
 30
0.0
 11
1899.5
 21
903.0
 31
0.0
  0
LINE
  8
L-ZISSEN
 10
1870.5
 20
897.0
 30
0.0
 11
1872.0
 21
897.0
 31
0.0
  0
CIRCLE
  8
L-ZISSEN
 10
1885.0
 20
890.0
 30
0.0
 40
11.25
  0
CIRCLE
  8
L-ZISSEN
 10
1885.0
 20
890.0
 30
0.0
 40
6.5
  0
SOLID
  8
L-ZISSEN
 10
1886.536443
 20
904.323048
 30
0.0
 11
1886.024295
 21
904.749837
 31
0.0
 12
1885.0
 22
903.0
 32
0.0
 13
1885.0
 23
903.0
 33
0.0
  0
LINE
  8
L-ZISSEN
 10
1886.280369
 20
904.536443
 30
0.0
 11
1895.0
 21
915.0
 31
0.0
  0
LINE
  8
L-ZISSEN
 10
1895.0
 20
915.0
 30
0.0
 11
1897.0
 21
915.0
 31
0.0
  0
TEXT
  8
L-ZISSEN
 10
1899.0
 20
912.75
 30
0.0
 40
4.5
  1
P.P
  0
LINE
  8
L-ZISSEN
 10
1899.5
 20
672.0
 30
0.0
 11
1899.5
 21
678.0
 31
0.0
  0
LINE
  8
L-ZISSEN
 10
1870.5
 20
672.0
 30
0.0
 11
1870.5
 21
678.0
 31
0.0
  0
LINE
  8
L-ZISSEN
 10
1899.5
 20
672.0
 30
0.0
 11
1870.5
 21
672.0
 31
0.0
  0
LINE
  8
L-ZISSEN
 10
1898.5
 20
650.0
 30
0.0
 11
1898.5
 21
672.0
 31
0.0
  0
LINE
  8
L-ZISSEN
 10
1871.5
 20
650.0
 30
0.0
 11
1871.5
 21
672.0
 31
0.0
  0
LINE
  8
L-ZISSEN
 10
1871.5
 20
650.0
 30
0.0
 11
1898.5
 21
650.0
 31
0.0
  0
SOLID
  8
L-ZISSEN
 10
1883.078431
 20
717.352941
 30
0.0
 11
1883.392157
 21
716.764706
 31
0.0
 12
1885.0
 22
718.0
 32
0.0
 13
1885.0
 23
718.0
 33
0.0
  0
LINE
  8
L-ZISSEN
 10
1883.235294
 20
717.058824
 30
0.0
 11
1870.0
 21
710.0
 31
0.0
  0
LINE
  8
L-ZISSEN
 10
1870.0
 20
710.0
 30
0.0
 11
1868.0
 21
710.0
 31
0.0
  0
TEXT
  8
L-ZISSEN
 10
1857.0
 20
707.75
 30
0.0
 40
4.5
  1
P.P
  0
SOLID
  8
L-ZISSEN
 10
1883.392157
 20
693.235294
 30
0.0
 11
1883.078431
 21
692.647059
 31
0.0
 12
1885.0
 22
692.0
 32
0.0
 13
1885.0
 23
692.0
 33
0.0
  0
LINE
  8
L-ZISSEN
 10
1883.235294
 20
692.941176
 30
0.0
 11
1870.0
 21
700.0
 31
0.0
  0
LINE
  8
L-ZISSEN
 10
1870.0
 20
700.0
 30
0.0
 11
1868.0
 21
700.0
 31
0.0
  0
TEXT
  8
L-ZISSEN
 10
1857.0
 20
697.75
 30
0.0
 40
4.5
  1
P.P
  0
LINE
  8
L-ZISSEN
 10
1942.0
 20
780.5
 30
0.0
 11
1942.0
 21
809.5
 31
0.0
  0
LINE
  8
L-ZISSEN
 10
1944.5
 20
825.5
 30
0.0
 11
1948.0
 21
825.5
 31
0.0
  0
LINE
  8
L-ZISSEN
 10
1942.0
 20
809.5
 30
0.0
 11
1948.0
 21
809.5
 31
0.0
  0
LINE
  8
L-ZISSEN
 10
1942.0
 20
780.5
 30
0.0
 11
1948.0
 21
780.5
 31
0.0
  0
LINE
  8
L-ZISSEN
 10
1944.5
 20
809.5
 30
0.0
 11
1944.5
 21
825.5
 31
0.0
  0
LINE
  8
L-ZISSEN
 10
1920.0
 20
808.5
 30
0.0
 11
1942.0
 21
808.5
 31
0.0
  0
LINE
  8
L-ZISSEN
 10
1920.0
 20
781.5
 30
0.0
 11
1942.0
 21
781.5
 31
0.0
  0
LINE
  8
L-ZISSEN
 10
1948.0
 20
835.5
 30
0.0
 11
1948.0
 21
820.5
 31
0.0
  0
LINE
  8
L-ZISSEN
 10
1920.0
 20
781.5
 30
0.0
 11
1920.0
 21
808.5
 31
0.0
  0
LINE
  8
L-ZISSEN
 10
1922.0
 20
808.5
 30
0.0
 11
1922.0
 21
835.5
 31
0.0
  0
LINE
  8
L-ZISSEN
 10
1922.0
 20
835.5
 30
0.0
 11
1948.0
 21
835.5
 31
0.0
  0
LINE
  8
L-ZISSEN
 10
1925.8
 20
842.65
 30
0.0
 11
1944.2
 21
842.65
 31
0.0
  0
LINE
  8
L-ZISSEN
 10
1943.5
 20
842.65
 30
0.0
 11
1943.5
 21
845.0
 31
0.0
  0
LINE
  8
L-ZISSEN
 10
1926.5
 20
842.65
 30
0.0
 11
1926.5
 21
845.0
 31
0.0
  0
LINE
  8
L-ZISSEN
 10
1944.2
 20
835.5
 30
0.0
 11
1944.2
 21
842.65
 31
0.0
  0
LINE
  8
L-ZISSEN
 10
1925.8
 20
835.5
 30
0.0
 11
1925.8
 21
842.65
 31
0.0
  0
LINE
  8
L-ZISSEN
 10
1924.030345
 20
845.0
 30
0.0
 11
1945.969655
 21
845.0
 31
0.0
  0
LINE
  8
L-ZISSEN
 10
1945.969655
 20
850.5
 30
0.0
 11
1945.969655
 21
845.0
 31
0.0
  0
LINE
  8
L-ZISSEN
 10
1924.030345
 20
850.5
 30
0.0
 11
1924.030345
 21
845.0
 31
0.0
  0
LINE
  8
L-ZISSEN
 10
1924.030345
 20
850.5
 30
0.0
 11
1945.969655
 21
850.5
 31
0.0
  0
SOLID
  8
L-ZISSEN
 10
1949.433721
 20
793.566279
 30
0.0
 11
1949.821213
 21
794.108768
 31
0.0
 12
1948.0
 22
795.0
 32
0.0
 13
1948.0
 23
795.0
 33
0.0
  0
LINE
  8
L-ZISSEN
 10
1949.627467
 20
793.837524
 30
0.0
 11
1955.0
 21
790.0
 31
0.0
  0
LINE
  8
L-ZISSEN
 10
1955.0
 20
790.0
 30
0.0
 11
1957.0
 21
790.0
 31
0.0
  0
TEXT
  8
L-ZISSEN
 10
1959.0
 20
787.75
 30
0.0
 40
4.5
  1
P.P
  0
LINE
  8
L-TYUSIN
 10
1095.0
 20
1210.0
 30
0.0
 11
1920.0
 21
1210.0
 31
0.0
  0
LINE
  8
L-TYUSIN
 10
996.0
 20
653.0
 30
0.0
 11
1062.0
 21
653.0
 31
0.0
  0
LINE
  8
L-TYUSIN
  6
CENTER
 62
     1
 10
1020.0
 20
686.0
 30
0.0
 11
1020.0
 21
628.5
 31
0.0
  0
LINE
  8
L-ZISSEN
 10
1057.0
 20
681.0
 30
0.0
 11
1057.0
 21
633.5
 31
0.0
  0
LINE
  8
L-ZISSEN
 10
1001.0
 20
633.5
 30
0.0
 11
1001.0
 21
681.0
 31
0.0
  0
LINE
  8
L-ZISSEN
 10
1001.0
 20
681.0
 30
0.0
 11
1057.0
 21
681.0
 31
0.0
  0
LINE
  8
L-ZISSEN
 10
1057.0
 20
633.5
 30
0.0
 11
1001.0
 21
633.5
 31
0.0
  0
LINE
  8
L-TYUSIN
  6
CENTER
 62
     1
 10
1005.0
 20
1020.0
 30
0.0
 11
1035.0
 21
1020.0
 31
0.0
  0
LINE
  8
L-ZISSEN
 10
1001.0
 20
947.5
 30
0.0
 11
1001.0
 21
1092.5
 31
0.0
  0
LINE
  8
L-ZISSEN
 10
1057.0
 20
947.5
 30
0.0
 11
1057.0
 21
1092.5
 31
0.0
  0
LINE
  8
L-ZISSEN
 10
1001.0
 20
947.5
 30
0.0
 11
1057.0
 21
947.5
 31
0.0
  0
LINE
  8
L-ZISSEN
 10
1001.0
 20
1092.5
 30
0.0
 11
1057.0
 21
1092.5
 31
0.0
  0
LINE
  8
L-TYUSIN
  6
CENTER
 62
     1
 10
1020.0
 20
1035.0
 30
0.0
 11
1020.0
 21
1005.0
 31
0.0
  0
CIRCLE
  8
L-ZISSEN
 10
1020.0
 20
1020.0
 30
0.0
 40
12.0585
  0
LINE
  8
L-TYUSIN
 10
1095.0
 20
690.0
 30
0.0
 11
1795.0
 21
690.0
 31
0.0
  0
LINE
  8
L-TYUSIN
 10
1095.0
 20
950.0
 30
0.0
 11
1795.0
 21
950.0
 31
0.0
  0
LINE
  8
L-ZISSEN
 10
1001.0
 20
357.5
 30
0.0
 11
1001.0
 21
502.5
 31
0.0
  0
LINE
  8
L-ZISSEN
 10
1001.0
 20
357.5
 30
0.0
 11
1057.0
 21
357.5
 31
0.0
  0
LINE
  8
L-ZISSEN
 10
1001.0
 20
502.5
 30
0.0
 11
1057.0
 21
502.5
 31
0.0
  0
LINE
  8
L-ZISSEN
 10
1057.0
 20
357.5
 30
0.0
 11
1057.0
 21
502.5
 31
0.0
  0
TEXT
  8
L-ZISSEN
 10
30.0
 20
1215.0
 30
0.0
 40
4.5
  1
MODEL No. :
  0
TEXT
  8
L-ZISSEN
 10
75.0
 20
1215.0
 30
0.0
 40
4.5
  1
MVF-206
  0
TEXT
  8
L-ZISSEN
 10
30.0
 20
1200.0
 30
0.0
 40
4.5
  1
SOLENOID VALVE
  0
TEXT
  8
L-ZISSEN
 10
30.0
 20
1185.0
 30
0.0
 40
4.5
  1
SINGLE SOLENOID
  0
TEXT
  8
L-ZISSEN
 10
205.0
 20
1185.0
 30
0.0
 40
4.5
  1
DOUBLE SOLENOID
  0
TEXT
  8
L-ZISSEN
 10
355.0
 20
1185.0
 30
0.0
 40
4.5
  1
3 POSITION
  0
TEXT
  8
L-ZISSEN
 10
505.0
 20
1200.0
 30
0.0
 40
4.5
  1
MASTER VALVE
  0
TEXT
  8
L-ZISSEN
 10
505.0
 20
1185.0
 30
0.0
 40
4.5
  1
SINGLE PILOT
  0
TEXT
  8
L-ZISSEN
 10
655.0
 20
1185.0
 30
0.0
 40
4.5
  1
DOUBLE PILOT
  0
TEXT
  8
L-ZISSEN
 10
805.0
 20
1185.0
 30
0.0
 40
4.5
  1
3 POSITION
  0
TEXT
  8
L-ZISSEN
 10
955.0
 20
1200.0
 30
0.0
 40
4.5
  1
ACCESSORY
  0
TEXT
  8
L-ZISSEN
 10
955.0
 20
1185.0
 30
0.0
 40
4.5
  1
IN PORT BLOCK
  0
TEXT
  8
L-ZISSEN
 10
1105.0
 20
1200.0
 30
0.0
 40
4.5
  1
SOLENOID VALVE
  0
TEXT
  8
L-ZISSEN
 10
1105.0
 20
1190.0
 30
0.0
 40
4.5
  1
SINGLE SOLENOID
  0
TEXT
  8
L-ZISSEN
 10
1105.0
 20
930.0
 30
0.0
 40
4.5
  1
DOUBLE SOLENOID
  0
TEXT
  8
L-ZISSEN
 10
1105.0
 20
940.0
 30
0.0
 40
4.5
  1
SOLENOID VALVE
  0
TEXT
  8
L-ZISSEN
 10
1105.0
 20
670.0
 30
0.0
 40
4.5
  1
3 POSITION
  0
TEXT
  8
L-ZISSEN
 10
1105.0
 20
680.0
 30
0.0
 40
4.5
  1
SOLENOID VALVE
  0
TEXT
  8
L-ZISSEN
 10
1455.0
 20
1200.0
 30
0.0
 40
4.5
  1
MASTER VALVE
  0
TEXT
  8
L-ZISSEN
 10
1455.0
 20
1190.0
 30
0.0
 40
4.5
  1
SINGLE PILOT
  0
TEXT
  8
L-ZISSEN
 10
1455.0
 20
940.0
 30
0.0
 40
4.5
  1
MASTER VALVE
  0
TEXT
  8
L-ZISSEN
 10
1455.0
 20
930.0
 30
0.0
 40
4.5
  1
DOUBLE PILOT
  0
TEXT
  8
L-ZISSEN
 10
1455.0
 20
680.0
 30
0.0
 40
4.5
  1
MASTER VALVE
  0
TEXT
  8
L-ZISSEN
 10
1455.0
 20
670.0
 30
0.0
 40
4.5
  1
3 POSITION
  0
LINE
  8
L-ZISSEN
  6
CONTINUOUS
 62
     7
 10
882.749996
 20
371.083641
 30
0.0
 11
882.749996
 21
366.200016
 31
0.0
  0
LINE
  8
L-ZISSEN
  6
CONTINUOUS
 62
     7
 10
882.749996
 20
366.200016
 30
0.0
 11
891.249994
 21
366.200016
 31
0.0
  0
LINE
  8
L-ZISSEN
  6
CONTINUOUS
 62
     7
 10
891.249994
 20
372.500014
 30
0.0
 11
891.249994
 21
366.200016
 31
0.0
  0
CIRCLE
  8
L-ZISSEN
 10
297.0
 20
682.0
 30
0.0
 40
9.3155
  0
CIRCLE
  8
L-ZISSEN
 10
243.0
 20
682.0
 30
0.0
 40
9.3155
  0
CIRCLE
  8
L-ZISSEN
 10
447.0
 20
682.0
 30
0.0
 40
9.3155
  0
CIRCLE
  8
L-ZISSEN
 10
393.0
 20
682.0
 30
0.0
 40
9.3155
  0
CIRCLE
  8
L-ZISSEN
 10
597.0
 20
682.0
 30
0.0
 40
9.3155
  0
CIRCLE
  8
L-ZISSEN
 10
543.0
 20
682.0
 30
0.0
 40
9.3155
  0
CIRCLE
  8
L-ZISSEN
 10
693.0
 20
682.0
 30
0.0
 40
9.3155
  0
CIRCLE
  8
L-ZISSEN
 10
747.0
 20
682.0
 30
0.0
 40
9.3155
  0
CIRCLE
  8
L-ZISSEN
 10
843.0
 20
682.0
 30
0.0
 40
9.3155
  0
CIRCLE
  8
L-ZISSEN
 10
897.0
 20
682.0
 30
0.0
 40
9.3155
  0
CIRCLE
  8
L-ZISSEN
 10
543.0
 20
188.0
 30
0.0
 40
9.3155
  0
CIRCLE
  8
L-ZISSEN
 10
597.0
 20
188.0
 30
0.0
 40
9.3155
  0
CIRCLE
  8
L-ZISSEN
 10
147.0
 20
188.0
 30
0.0
 40
9.3155
  0
CIRCLE
  8
L-ZISSEN
 10
93.0
 20
188.0
 30
0.0
 40
9.3155
  0
SOLID
  8
L-ZISSEN
 10
92.263331
 20
680.110971
 30
0.0
 11
92.915809
 21
679.974161
 31
0.0
 12
93.0
 22
682.0
 32
0.0
 13
93.0
 23
682.0
 33
0.0
  0
LINE
  8
L-ZISSEN
 10
92.58957
 20
680.042566
 30
0.0
 11
80.0
 21
620.0
 31
0.0
  0
LINE
  8
L-ZISSEN
 10
80.0
 20
620.0
 30
0.0
 11
78.0
 21
620.0
 31
0.0
  0
TEXT
  8
L-ZISSEN
 10
44.5
 20
617.75
 30
0.0
 40
4.5
  1
"4" PORT
  0
SOLID
  8
L-ZISSEN
 10
146.92535
 20
679.973787
 30
0.0
 11
147.586535
 21
680.059101
 31
0.0
 12
147.0
 22
682.0
 32
0.0
 13
147.0
 23
682.0
 33
0.0
  0
LINE
  8
L-ZISSEN
 10
147.255943
 20
680.016444
 30
0.0
 11
155.0
 21
620.0
 31
0.0
  0
LINE
  8
L-ZISSEN
 10
155.0
 20
620.0
 30
0.0
 11
157.0
 21
620.0
 31
0.0
  0
TEXT
  8
L-ZISSEN
 10
159.0
 20
617.75
 30
0.0
 40
4.5
  1
"2" PORT
  0
TEXT
  8
L-ZISSEN
 10
160.0
 20
610.0
 30
0.0
 40
4.5
  1
Rc 3/8
  0
TEXT
  8
L-ZISSEN
 10
160.0
 20
600.0
 30
0.0
 40
4.5
  1
Rc 1/2
  0
TEXT
  8
L-ZISSEN
 10
160.0
 20
590.0
 30
0.0
 40
4.5
  1
Rc 3/4
  0
TEXT
  8
L-ZISSEN
 10
45.0
 20
590.0
 30
0.0
 40
4.5
  1
Rc 3/4
  0
TEXT
  8
L-ZISSEN
 10
45.0
 20
600.0
 30
0.0
 40
4.5
  1
Rc 1/2
  0
TEXT
  8
L-ZISSEN
 10
45.0
 20
610.0
 30
0.0
 40
4.5
  1
Rc 3/8
  0
SOLID
  8
L-ZISSEN
 10
65.852168
 20
1018.328596
 30
0.0
 11
66.45629
 21
1018.046672
 31
0.0
 12
67.0
 22
1020.0
 32
0.0
 13
67.0
 23
1020.0
 33
0.0
  0
LINE
  8
L-ZISSEN
 10
66.154229
 20
1018.187634
 30
0.0
 11
60.0
 21
1005.0
 31
0.0
  0
LINE
  8
L-ZISSEN
 10
60.0
 20
1005.0
 30
0.0
 11
58.0
 21
1005.0
 31
0.0
  0
TEXT
  8
L-ZISSEN
 10
26.0
 20
1002.75
 30
0.0
 40
4.5
  1
"1" PORT
  0
TEXT
  8
L-ZISSEN
 10
30.0
 20
995.0
 30
0.0
 40
4.5
  1
Rc 3/4
  0
SOLID
  8
L-ZISSEN
 10
65.852168
 20
983.328596
 30
0.0
 11
66.45629
 21
983.046672
 31
0.0
 12
67.0
 22
985.0
 32
0.0
 13
67.0
 23
985.0
 33
0.0
  0
LINE
  8
L-ZISSEN
 10
66.154229
 20
983.187634
 30
0.0
 11
60.0
 21
970.0
 31
0.0
  0
LINE
  8
L-ZISSEN
 10
60.0
 20
970.0
 30
0.0
 11
58.0
 21
970.0
 31
0.0
  0
TEXT
  8
L-ZISSEN
 10
24.5
 20
967.75
 30
0.0
 40
4.5
  1
"3" PORT
  0
SOLID
  8
L-ZISSEN
 10
65.852168
 20
1053.328596
 30
0.0
 11
66.45629
 21
1053.046672
 31
0.0
 12
67.0
 22
1055.0
 32
0.0
 13
67.0
 23
1055.0
 33
0.0
  0
LINE
  8
L-ZISSEN
 10
66.154229
 20
1053.187634
 30
0.0
 11
60.0
 21
1040.0
 31
0.0
  0
LINE
  8
L-ZISSEN
 10
60.0
 20
1040.0
 30
0.0
 11
58.0
 21
1040.0
 31
0.0
  0
TEXT
  8
L-ZISSEN
 10
24.5
 20
1037.75
 30
0.0
 40
4.5
  1
"5" PORT
  0
ENDSEC
  0
EOF
