  0
SECTION
  2
HEADER
  9
$ACADVER
  1
AC1006
  9
$INSBASE
 10
0.0
 20
0.0
 30
0.0
  9
$EXTMIN
 10
23.0
 20
15.0
  9
$EXTMAX
 10
1100.0
 20
681.5
  9
$LIMMIN
 10
0.0
 20
0.0
  9
$LIMMAX
 10
1000.0
 20
707.0
  9
$ORTHOMODE
 70
     0
  9
$REGENMODE
 70
     1
  9
$FILLMODE
 70
     1
  9
$QTEXTMODE
 70
     0
  9
$MIRRTEXT
 70
     1
  9
$DRAGMODE
 70
     2
  9
$LTSCALE
 40
1.0
  9
$OSMODE
 70
     0
  9
$ATTMODE
 70
     1
  9
$TEXTSIZE
 40
4.5
  9
$TRACEWID
 40
0.05
  9
$TEXTSTYLE
  7
STANDARD
  9
$CLAYER
  8
L-ZISSEN
  9
$CELTYPE
  6
BYLAYER
  9
$CECOLOR
 62
   256
  9
$DIMSCALE
 40
1.0
  9
$DIMASZ
 40
2.0
  9
$DIMEXO
 40
2.0
  9
$DIMDLI
 40
0.38
  9
$DIMRND
 40
0.0
  9
$DIMDLE
 40
1.0
  9
$DIMEXE
 40
2.0
  9
$DIMTP
 40
0.0
  9
$DIMTM
 40
0.0
  9
$DIMTXT
 40
4.5
  9
$DIMCEN
 40
0.09
  9
$DIMTSZ
 40
0.0
  9
$DIMTOL
 70
     0
  9
$DIMLIM
 70
     0
  9
$DIMTIH
 70
     0
  9
$DIMTOH
 70
     0
  9
$DIMSE1
 70
     0
  9
$DIMSE2
 70
     0
  9
$DIMTAD
 70
     1
  9
$DIMZIN
 70
     0
  9
$DIMBLK
  1

  9
$DIMASO
 70
     0
  9
$DIMSHO
 70
     0
  9
$DIMPOST
  1

  9
$DIMAPOST
  1

  9
$DIMALT
 70
     0
  9
$DIMALTD
 70
     2
  9
$DIMALTF
 40
25.4
  9
$DIMLFAC
 40
1.0
  9
$DIMTOFL
 70
     1
  9
$DIMTVP
 40
0.0
  9
$DIMTIX
 70
     1
  9
$DIMSOXD
 70
     0
  9
$DIMSAH
 70
     0
  9
$DIMBLK1
  1

  9
$DIMBLK2
  1

  9
$LUNITS
 70
     2
  9
$LUPREC
 70
     4
  9
$AXISMODE
 70
     0
  9
$AXISUNIT
 10
0.0
 20
0.0
  9
$SKETCHINC
 40
0.1
  9
$FILLETRAD
 40
0.0
  9
$AUNITS
 70
     0
  9
$AUPREC
 70
     0
  9
$MENU
  1
acad
  9
$ELEVATION
 40
0.0
  9
$THICKNESS
 40
0.0
  9
$LIMCHECK
 70
     0
  9
$BLIPMODE
 70
     1
  9
$CHAMFERA
 40
0.0
  9
$CHAMFERB
 40
0.0
  9
$SKPOLY
 70
     0
  9
$TDCREATE
 40
2449002.7963642362
  9
$TDUPDATE
 40
2449002.7963642362
  9
$TDINDWG
 40
0.0000000000
  9
$TDUSRTIMER
 40
0.0000000000
  9
$USRTIMER
 70
     1
  9
$ANGBASE
 50
0.0
  9
$ANGDIR
 70
     0
  9
$PDMODE
 70
     0
  9
$PDSIZE
 40
0.0
  9
$PLINEWID
 40
0.0
  9
$COORDS
 70
     2
  9
$SPLFRAME
 70
     0
  9
$SPLINETYPE
 70
     6
  9
$SPLINESEGS
 70
     8
  9
$ATTDIA
 70
     0
  9
$ATTREQ
 70
     1
  9
$HANDLING
 70
     0
  9
$HANDSEED
  5
0
  9
$SURFTAB1
 70
     6
  9
$SURFTAB2
 70
     6
  9
$SURFTYPE
 70
     6
  9
$SURFU
 70
     6
  9
$SURFV
 70
     6
  9
$FLATLAND
 70
     0
  9
$UCSNAME
  2

  9
$UCSORG
 10
0.0
 20
0.0
 30
0.0
  9
$UCSXDIR
 10
1.0
 20
0.0
 30
0.0
  9
$UCSYDIR
 10
0.0
 20
1.0
 30
0.0
  9
$USERI1
 70
     0
  9
$USERI2
 70
     0
  9
$USERI3
 70
     0
  9
$USERI4
 70
     0
  9
$USERI5
 70
     0
  9
$USERR1
 40
0.0
  9
$USERR2
 40
0.0
  9
$USERR3
 40
0.0
  9
$USERR4
 40
0.0
  9
$USERR5
 40
0.0
  9
$WORLDVIEW
 70
     1
  0
ENDSEC
  0
SECTION
  2
TABLES
  0
TABLE
  2
VPORT
 70
     2
  0
VPORT
  2
*ACTIVE
 70
     0
 10
0.0
 20
0.0
 11
1.0
 21
1.0
 12
567.09491
 22
366.174865
 13
0.0
 23
0.0
 14
5.0
 24
5.0
 15
0.0
 25
0.0
 16
0.0
 26
0.0
 36
1.0
 17
0.0
 27
0.0
 37
0.0
 40
732.349729
 41
1.5487
 42
50.0
 43
0.0
 44
0.0
 50
0.0
 51
0.0
 71
     0
 72
   100
 73
     1
 74
     0
 75
     0
 76
     0
 77
     0
 78
     0
  0
ENDTAB
  0
TABLE
  2
LTYPE
 70
     2
  0
LTYPE
  2
CONTINUOUS
 70
    64
  3
Solid line
 72
    65
 73
     0
 40
0.0
  0
LTYPE
  2
CENTER
 70
    64
  3
____ _ ____ _ ____ _ ____ _ 
 72
    65
 73
     4
 40
60.0
 49
45.0
 49
-5.0
 49
5.0
 49
-5.0
  0
ENDTAB
  0
TABLE
  2
LAYER
 70
     3
  0
LAYER
  2
0
 70
     0
 62
     7
  6
CONTINUOUS
  0
LAYER
  2
L-ZISSEN
 70
    64
 62
     7
  6
CONTINUOUS
  0
LAYER
  2
L-TYUSIN
 70
    64
 62
     1
  6
CENTER
  0
ENDTAB
  0
TABLE
  2
STYLE
 70
     1
  0
STYLE
  2
STANDARD
 70
    64
 40
0.0
 41
1.0
 50
0.0
 71
     0
 42
4.5
  3
TXT
  4

  0
ENDTAB
  0
TABLE
  2
VIEW
 70
     0
  0
ENDTAB
  0
TABLE
  2
UCS
 70
     0
  0
ENDTAB
  0
TABLE
  2
DWGMGR
 70
     0
  0
ENDTAB
  0
ENDSEC
  0
SECTION
  2
BLOCKS
  0
ENDSEC
  0
SECTION
  2
ENTITIES
  0
LINE
  8
L-TYUSIN
  6
CENTER
 62
     1
 10
50.800014
 20
410.0
 30
0.0
 11
329.199986
 21
410.0
 31
0.0
  0
LINE
  8
L-TYUSIN
  6
CENTER
 62
     1
 10
190.0
 20
457.0
 30
0.0
 11
190.0
 21
363.0
 31
0.0
  0
LINE
  8
L-ZISSEN
  6
CONTINUOUS
 62
     7
 10
237.499986
 20
442.49999
 30
0.0
 11
237.499986
 21
377.50001
 31
0.0
  0
LINE
  8
L-ZISSEN
  6
CONTINUOUS
 62
     7
 10
142.500014
 20
377.50001
 30
0.0
 11
142.500014
 21
442.49999
 31
0.0
  0
LINE
  8
L-ZISSEN
  6
CONTINUOUS
 62
     7
 10
87.500014
 20
431.999993
 30
0.0
 11
206.999995
 21
431.999993
 31
0.0
  0
LINE
  8
L-ZISSEN
  6
CONTINUOUS
 62
     7
 10
87.500014
 20
388.000007
 30
0.0
 11
206.999995
 21
388.000007
 31
0.0
  0
LINE
  8
L-ZISSEN
  6
CONTINUOUS
 62
     7
 10
142.500014
 20
442.49999
 30
0.0
 11
168.017884
 21
442.49999
 31
0.0
  0
LINE
  8
L-ZISSEN
  6
CONTINUOUS
 62
     7
 10
142.500014
 20
377.50001
 30
0.0
 11
163.017886
 21
377.50001
 31
0.0
  0
LINE
  8
L-ZISSEN
  6
CONTINUOUS
 62
     7
 10
181.982125
 20
442.49999
 30
0.0
 11
198.017875
 21
442.49999
 31
0.0
  0
LINE
  8
L-ZISSEN
  6
CONTINUOUS
 62
     7
 10
176.982126
 20
377.50001
 30
0.0
 11
203.017874
 21
377.50001
 31
0.0
  0
LINE
  8
L-ZISSEN
  6
CONTINUOUS
 62
     7
 10
216.982114
 20
377.50001
 30
0.0
 11
237.499986
 21
377.50001
 31
0.0
  0
LINE
  8
L-ZISSEN
  6
CONTINUOUS
 62
     7
 10
224.141411
 20
431.999993
 30
0.0
 11
292.499986
 21
431.999993
 31
0.0
  0
LINE
  8
L-ZISSEN
  6
CONTINUOUS
 62
     7
 10
206.999995
 20
388.000007
 30
0.0
 11
206.999995
 21
382.000008
 31
0.0
  0
LINE
  8
L-ZISSEN
  6
CONTINUOUS
 62
     7
 10
206.999995
 20
382.000008
 30
0.0
 11
226.999989
 21
382.000008
 31
0.0
  0
LINE
  8
L-ZISSEN
  6
CONTINUOUS
 62
     7
 10
226.999989
 20
388.000007
 30
0.0
 11
226.999989
 21
382.000008
 31
0.0
  0
LINE
  8
L-ZISSEN
  6
CONTINUOUS
 62
     7
 10
224.141411
 20
388.000007
 30
0.0
 11
292.499986
 21
388.000007
 31
0.0
  0
LINE
  8
L-TYUSIN
  6
CENTER
 62
     1
 10
82.500014
 20
240.0
 30
0.0
 11
297.499986
 21
240.0
 31
0.0
  0
LINE
  8
L-ZISSEN
  6
CONTINUOUS
 62
     7
 10
142.500014
 20
267.999992
 30
0.0
 11
142.500014
 21
217.000007
 31
0.0
  0
LINE
  8
L-ZISSEN
  6
CONTINUOUS
 62
     7
 10
237.499986
 20
267.999992
 30
0.0
 11
237.499986
 21
217.000007
 31
0.0
  0
LINE
  8
L-ZISSEN
  6
CONTINUOUS
 62
     7
 10
87.500014
 20
218.000007
 30
0.0
 11
292.499986
 21
218.000007
 31
0.0
  0
LINE
  8
L-ZISSEN
  6
CONTINUOUS
 62
     7
 10
134.500014
 20
267.999992
 30
0.0
 11
245.499986
 21
267.999992
 31
0.0
  0
LINE
  8
L-ZISSEN
  6
CONTINUOUS
 62
     7
 10
237.499986
 20
227.000004
 30
0.0
 11
142.500014
 21
227.000004
 31
0.0
  0
CIRCLE
  8
L-ZISSEN
  6
CONTINUOUS
 62
     7
 10
216.999992
 20
254.999995
 30
0.0
 40
9.999997
  0
LINE
  8
L-ZISSEN
  6
CONTINUOUS
 62
     7
 10
165.000008
 20
234.500002
 30
0.0
 11
175.000005
 21
234.500002
 31
0.0
  0
LINE
  8
L-ZISSEN
  6
CONTINUOUS
 62
     7
 10
165.000008
 20
234.500002
 30
0.0
 11
165.000008
 21
227.000004
 31
0.0
  0
LINE
  8
L-ZISSEN
  6
CONTINUOUS
 62
     7
 10
175.000005
 20
234.500002
 30
0.0
 11
175.000005
 21
227.000004
 31
0.0
  0
LINE
  8
L-ZISSEN
  6
CONTINUOUS
 62
     7
 10
214.999993
 20
234.500002
 30
0.0
 11
214.999993
 21
227.000004
 31
0.0
  0
LINE
  8
L-ZISSEN
  6
CONTINUOUS
 62
     7
 10
204.999996
 20
234.500002
 30
0.0
 11
204.999996
 21
227.000004
 31
0.0
  0
LINE
  8
L-ZISSEN
  6
CONTINUOUS
 62
     7
 10
204.999996
 20
234.500002
 30
0.0
 11
214.999993
 21
234.500002
 31
0.0
  0
CIRCLE
  8
L-ZISSEN
  6
CONTINUOUS
 62
     7
 10
170.000006
 20
378.00001
 30
0.0
 40
4.999999
  0
LINE
  8
L-TYUSIN
  6
CENTER
 62
     1
 10
190.0
 20
272.999992
 30
0.0
 11
190.0
 21
172.000007
 31
0.0
  0
ARC
  8
L-ZISSEN
  6
CONTINUOUS
 62
     7
 10
209.999994
 20
378.00001
 30
0.0
 40
4.999999
 50
126.869898
 51
53.130102
  0
ARC
  8
L-ZISSEN
 10
204.999996
 20
441.99999
 30
0.0
 40
5.0
 50
306.869921
 51
293.578171
  0
CIRCLE
  8
L-ZISSEN
 10
175.000005
 20
441.99999
 30
0.0
 40
5.0
  0
ARC
  8
L-ZISSEN
 10
170.000006
 20
378.00001
 30
0.0
 40
7.0
 50
184.096043
 51
355.903957
  0
ARC
  8
L-ZISSEN
 10
209.999994
 20
378.00001
 30
0.0
 40
7.0
 50
184.096043
 51
355.903957
  0
ARC
  8
L-ZISSEN
 10
175.000005
 20
441.99999
 30
0.0
 40
7.0
 50
4.096043
 51
175.903957
  0
ARC
  8
L-ZISSEN
 10
204.999996
 20
441.99999
 30
0.0
 40
7.0
 50
4.096043
 51
175.903957
  0
LINE
  8
L-ZISSEN
  6
CONTINUOUS
 62
     7
 10
211.982116
 20
442.49999
 30
0.0
 11
237.499986
 21
442.49999
 31
0.0
  0
LINE
  8
L-ZISSEN
  6
CONTINUOUS
 62
     7
 10
206.999995
 20
437.999992
 30
0.0
 11
226.999989
 21
437.999992
 31
0.0
  0
LINE
  8
L-ZISSEN
  6
CONTINUOUS
 62
     7
 10
206.999995
 20
431.999993
 30
0.0
 11
206.999995
 21
437.999992
 31
0.0
  0
LINE
  8
L-ZISSEN
  6
CONTINUOUS
 62
     7
 10
226.999989
 20
431.999993
 30
0.0
 11
226.999989
 21
437.999992
 31
0.0
  0
LINE
  8
L-ZISSEN
 10
163.017886
 20
227.000004
 30
0.0
 11
163.017886
 21
218.000007
 31
0.0
  0
LINE
  8
L-ZISSEN
 10
176.982126
 20
227.000004
 30
0.0
 11
176.982126
 21
218.000007
 31
0.0
  0
LINE
  8
L-ZISSEN
 10
216.982114
 20
227.000004
 30
0.0
 11
216.982114
 21
218.000007
 31
0.0
  0
LINE
  8
L-ZISSEN
 10
203.017874
 20
227.000004
 30
0.0
 11
203.017874
 21
218.000007
 31
0.0
  0
LINE
  8
L-ZISSEN
 10
156.500014
 20
263.322848
 30
0.0
 11
211.456521
 21
263.322848
 31
0.0
  0
LINE
  8
L-ZISSEN
 10
142.500014
 20
415.852354
 30
0.0
 11
237.499986
 21
415.852354
 31
0.0
  0
LINE
  8
L-ZISSEN
 10
142.500014
 20
404.147646
 30
0.0
 11
237.499986
 21
404.147646
 31
0.0
  0
LINE
  8
L-ZISSEN
  6
CONTINUOUS
 62
     7
 10
156.500014
 20
388.000007
 30
0.0
 11
156.500014
 21
404.147646
 31
0.0
  0
LINE
  8
L-ZISSEN
  6
CONTINUOUS
 62
     7
 10
156.500014
 20
415.852354
 30
0.0
 11
156.500014
 21
431.999993
 31
0.0
  0
LINE
  8
L-ZISSEN
 10
247.499986
 20
262.0
 30
0.0
 11
224.141411
 21
262.0
 31
0.0
  0
LINE
  8
L-ZISSEN
  6
CONTINUOUS
 62
     7
 10
156.500014
 20
263.322848
 30
0.0
 11
156.500014
 21
254.0
 31
0.0
  0
LINE
  8
L-ZISSEN
 10
156.500014
 20
262.0
 30
0.0
 11
132.500014
 21
262.0
 31
0.0
  0
LINE
  8
L-ZISSEN
 10
156.500014
 20
254.0
 30
0.0
 11
207.05012
 21
254.0
 31
0.0
  0
LINE
  8
L-ZISSEN
 10
376.222224
 20
264.999992
 30
0.0
 11
362.0
 21
264.999992
 31
0.0
  0
LINE
  8
L-ZISSEN
 10
368.0
 20
244.999992
 30
0.0
 11
362.0
 21
244.999992
 31
0.0
  0
LINE
  8
L-ZISSEN
 10
362.0
 20
264.999992
 30
0.0
 11
362.0
 21
244.999992
 31
0.0
  0
LINE
  8
L-ZISSEN
 10
418.0
 20
264.999992
 30
0.0
 11
418.0
 21
244.999992
 31
0.0
  0
LINE
  8
L-ZISSEN
 10
418.0
 20
244.999992
 30
0.0
 11
412.0
 21
244.999992
 31
0.0
  0
LINE
  8
L-ZISSEN
 10
418.0
 20
264.999992
 30
0.0
 11
400.0
 21
264.999992
 31
0.0
  0
LINE
  8
L-ZISSEN
 10
412.0
 20
227.0
 30
0.0
 11
429.5
 21
227.0
 31
0.0
  0
LINE
  8
L-ZISSEN
 10
350.5
 20
227.0
 30
0.0
 11
368.0
 21
227.0
 31
0.0
  0
CIRCLE
  8
L-ZISSEN
 10
373.0
 20
257.0
 30
0.0
 40
4.25
  0
CIRCLE
  8
L-ZISSEN
 10
373.0
 20
223.0
 30
0.0
 40
4.25
  0
CIRCLE
  8
L-ZISSEN
 10
407.0
 20
223.0
 30
0.0
 40
4.25
  0
CIRCLE
  8
L-ZISSEN
 10
407.0
 20
257.0
 30
0.0
 40
4.25
  0
LINE
  8
L-ZISSEN
 10
412.0
 20
262.0
 30
0.0
 11
400.0
 21
262.0
 31
0.0
  0
LINE
  8
L-ZISSEN
 10
412.0
 20
218.0
 30
0.0
 11
412.0
 21
262.0
 31
0.0
  0
LINE
  8
L-ZISSEN
 10
350.5
 20
218.0
 30
0.0
 11
429.5
 21
218.0
 31
0.0
  0
LINE
  8
L-ZISSEN
 10
368.0
 20
262.0
 30
0.0
 11
368.0
 21
218.0
 31
0.0
  0
LINE
  8
L-TYUSIN
  6
CENTER
 62
     1
 10
363.0
 20
240.0
 30
0.0
 11
417.0
 21
240.0
 31
0.0
  0
LINE
  8
L-TYUSIN
  6
CENTER
 62
     1
 10
390.0
 20
348.4
 30
0.0
 11
390.0
 21
172.000007
 31
0.0
  0
LINE
  8
L-ZISSEN
  6
CONTINUOUS
 62
     7
 10
290.499986
 20
285.0
 30
0.0
 11
290.499986
 21
255.455844
 31
0.0
  0
LINE
  8
L-ZISSEN
 10
245.499986
 20
285.0
 30
0.0
 11
290.499986
 21
285.0
 31
0.0
  0
LINE
  8
L-ZISSEN
 10
283.499986
 20
213.0
 30
0.0
 11
265.499986
 21
213.0
 31
0.0
  0
LINE
  8
L-ZISSEN
  6
CONTINUOUS
 62
     7
 10
245.499986
 20
285.0
 30
0.0
 11
245.499986
 21
262.0
 31
0.0
  0
LINE
  8
L-ZISSEN
  6
CONTINUOUS
 62
     7
 10
247.499986
 20
262.0
 30
0.0
 11
247.499986
 21
243.455844
 31
0.0
  0
LINE
  8
L-ZISSEN
 10
265.499986
 20
213.0
 30
0.0
 11
265.499986
 21
218.000007
 31
0.0
  0
LINE
  8
L-ZISSEN
 10
283.499986
 20
213.0
 30
0.0
 11
283.499986
 21
218.000007
 31
0.0
  0
LINE
  8
L-TYUSIN
  6
CENTER
 62
     1
 10
50.800014
 20
70.0
 30
0.0
 11
329.199986
 21
70.0
 31
0.0
  0
LINE
  8
L-TYUSIN
  6
CENTER
 62
     1
 10
190.0
 20
117.0
 30
0.0
 11
190.0
 21
23.0
 31
0.0
  0
LINE
  8
L-ZISSEN
  6
CONTINUOUS
 62
     7
 10
247.499986
 20
87.009611
 30
0.0
 11
247.499986
 21
79.0
 31
0.0
  0
CIRCLE
  8
L-ZISSEN
 10
274.499986
 20
70.0
 30
0.0
 40
9.0
  0
LINE
  8
L-ZISSEN
 10
274.499986
 20
61.0
 30
0.0
 11
247.499986
 21
61.0
 31
0.0
  0
LINE
  8
L-ZISSEN
 10
274.499986
 20
79.0
 30
0.0
 11
247.499986
 21
79.0
 31
0.0
  0
LINE
  8
L-ZISSEN
  6
CONTINUOUS
 62
     7
 10
247.499986
 20
61.0
 30
0.0
 11
247.499986
 21
52.990389
 31
0.0
  0
LINE
  8
L-ZISSEN
 10
412.0
 20
243.455844
 30
0.0
 11
393.455844
 21
262.0
 31
0.0
  0
LINE
  8
L-ZISSEN
 10
386.544156
 20
262.0
 30
0.0
 11
368.0
 21
243.455844
 31
0.0
  0
LINE
  8
L-ZISSEN
 10
368.0
 20
236.544156
 30
0.0
 11
386.544156
 21
218.0
 31
0.0
  0
LINE
  8
L-ZISSEN
 10
393.455844
 20
218.0
 30
0.0
 11
412.0
 21
236.544156
 31
0.0
  0
LINE
  8
L-ZISSEN
 10
292.499986
 20
243.455844
 30
0.0
 11
247.499986
 21
243.455844
 31
0.0
  0
LINE
  8
L-ZISSEN
 10
292.499986
 20
236.544156
 30
0.0
 11
247.499986
 21
236.544156
 31
0.0
  0
LINE
  8
L-ZISSEN
  6
CONTINUOUS
 62
     7
 10
247.499986
 20
236.544156
 30
0.0
 11
247.499986
 21
218.000007
 31
0.0
  0
LINE
  8
L-ZISSEN
  6
CONTINUOUS
 62
     7
 10
247.499986
 20
218.750006
 30
0.0
 11
253.799984
 21
218.750006
 31
0.0
  0
LINE
  8
L-ZISSEN
  6
CONTINUOUS
 62
     7
 10
247.499986
 20
227.250004
 30
0.0
 11
253.799984
 21
227.250004
 31
0.0
  0
LINE
  8
L-ZISSEN
  6
CONTINUOUS
 62
     7
 10
253.799984
 20
227.250004
 30
0.0
 11
253.799984
 21
218.750006
 31
0.0
  0
LINE
  8
L-ZISSEN
  6
CONTINUOUS
 62
     7
 10
247.499986
 20
252.749996
 30
0.0
 11
253.799984
 21
252.749996
 31
0.0
  0
LINE
  8
L-ZISSEN
  6
CONTINUOUS
 62
     7
 10
247.499986
 20
261.249994
 30
0.0
 11
253.799984
 21
261.249994
 31
0.0
  0
LINE
  8
L-ZISSEN
  6
CONTINUOUS
 62
     7
 10
253.799984
 20
261.249994
 30
0.0
 11
253.799984
 21
252.749996
 31
0.0
  0
LINE
  8
L-ZISSEN
 10
292.499986
 20
66.544156
 30
0.0
 11
282.810048
 21
66.544156
 31
0.0
  0
LINE
  8
L-ZISSEN
 10
292.499986
 20
73.455844
 30
0.0
 11
282.810048
 21
73.455844
 31
0.0
  0
LINE
  8
L-ZISSEN
 10
374.0
 20
285.0
 30
0.0
 11
406.0
 21
285.0
 31
0.0
  0
LINE
  8
L-ZISSEN
 10
374.0
 20
285.0
 30
0.0
 11
374.0
 21
275.0
 31
0.0
  0
LINE
  8
L-ZISSEN
 10
374.0
 20
275.0
 30
0.0
 11
380.0
 21
275.0
 31
0.0
  0
LINE
  8
L-ZISSEN
 10
406.0
 20
275.0
 30
0.0
 11
406.0
 21
285.0
 31
0.0
  0
LINE
  8
L-ZISSEN
 10
400.0
 20
275.0
 30
0.0
 11
400.0
 21
255.455844
 31
0.0
  0
LINE
  8
L-ZISSEN
 10
380.0
 20
275.0
 30
0.0
 11
380.0
 21
255.455844
 31
0.0
  0
LINE
  8
L-ZISSEN
 10
393.455844
 20
262.0
 30
0.0
 11
386.544156
 21
262.0
 31
0.0
  0
LINE
  8
L-ZISSEN
 10
376.888889
 20
262.0
 30
0.0
 11
368.0
 21
262.0
 31
0.0
  0
LINE
  8
L-ZISSEN
  6
CONTINUOUS
 62
     7
 10
257.499986
 20
275.0
 30
0.0
 11
257.499986
 21
256.999995
 31
0.0
  0
LINE
  8
L-ZISSEN
 10
290.499986
 20
255.455844
 30
0.0
 11
253.799984
 21
255.455844
 31
0.0
  0
LINE
  8
L-ZISSEN
 10
378.0
 20
257.0
 30
0.0
 11
374.0
 21
275.0
 31
0.0
  0
LINE
  8
L-ZISSEN
 10
245.499986
 20
275.0
 30
0.0
 11
290.499986
 21
275.0
 31
0.0
  0
LINE
  8
L-ZISSEN
 10
399.0
 20
213.0
 30
0.0
 11
381.0
 21
213.0
 31
0.0
  0
LINE
  8
L-ZISSEN
 10
399.0
 20
213.0
 30
0.0
 11
399.0
 21
218.000007
 31
0.0
  0
LINE
  8
L-ZISSEN
 10
381.0
 20
213.0
 30
0.0
 11
381.0
 21
218.000007
 31
0.0
  0
LINE
  8
L-ZISSEN
 10
224.141411
 20
388.000007
 30
0.0
 11
224.141411
 21
404.147646
 31
0.0
  0
LINE
  8
L-ZISSEN
 10
224.141411
 20
431.999993
 30
0.0
 11
224.141411
 21
415.852354
 31
0.0
  0
LINE
  8
L-TYUSIN
 10
870.0
 20
220.0
 30
0.0
 11
1070.0
 21
220.0
 31
0.0
  0
LINE
  8
L-ZISSEN
 10
990.969655
 20
135.5
 30
0.0
 11
969.030345
 21
135.5
 31
0.0
  0
LINE
  8
L-ZISSEN
 10
990.969655
 20
135.5
 30
0.0
 11
990.969655
 21
130.0
 31
0.0
  0
LINE
  8
L-ZISSEN
 10
969.030345
 20
135.5
 30
0.0
 11
969.030345
 21
130.0
 31
0.0
  0
LINE
  8
L-ZISSEN
 10
990.969655
 20
130.0
 30
0.0
 11
969.030345
 21
130.0
 31
0.0
  0
LINE
  8
L-ZISSEN
 10
989.2
 20
120.5
 30
0.0
 11
989.2
 21
127.65
 31
0.0
  0
LINE
  8
L-ZISSEN
 10
970.8
 20
120.5
 30
0.0
 11
970.8
 21
127.65
 31
0.0
  0
LINE
  8
L-ZISSEN
 10
988.5
 20
127.65
 30
0.0
 11
988.5
 21
130.0
 31
0.0
  0
LINE
  8
L-ZISSEN
 10
971.5
 20
127.65
 30
0.0
 11
971.5
 21
130.0
 31
0.0
  0
LINE
  8
L-ZISSEN
 10
989.2
 20
127.65
 30
0.0
 11
970.8
 21
127.65
 31
0.0
  0
CIRCLE
  8
L-ZISSEN
 10
980.0
 20
165.0
 30
0.0
 40
6.5
  0
CIRCLE
  8
L-ZISSEN
 10
980.0
 20
165.0
 30
0.0
 40
11.25
  0
LINE
  8
L-ZISSEN
 10
993.0
 20
120.5
 30
0.0
 11
967.0
 21
120.5
 31
0.0
  0
LINE
  8
L-ZISSEN
 10
993.0
 20
93.5
 30
0.0
 11
993.0
 21
120.5
 31
0.0
  0
LINE
  8
L-ZISSEN
 10
995.0
 20
66.5
 30
0.0
 11
995.0
 21
93.5
 31
0.0
  0
LINE
  8
L-ZISSEN
 10
967.0
 20
120.5
 30
0.0
 11
967.0
 21
105.5
 31
0.0
  0
LINE
  8
L-ZISSEN
 10
995.0
 20
66.5
 30
0.0
 11
973.0
 21
66.5
 31
0.0
  0
LINE
  8
L-ZISSEN
 10
995.0
 20
93.5
 30
0.0
 11
973.0
 21
93.5
 31
0.0
  0
LINE
  8
L-ZISSEN
 10
970.5
 20
94.5
 30
0.0
 11
970.5
 21
110.5
 31
0.0
  0
LINE
  8
L-ZISSEN
 10
973.0
 20
65.5
 30
0.0
 11
967.0
 21
65.5
 31
0.0
  0
LINE
  8
L-ZISSEN
 10
973.0
 20
94.5
 30
0.0
 11
967.0
 21
94.5
 31
0.0
  0
LINE
  8
L-ZISSEN
 10
970.5
 20
110.5
 30
0.0
 11
967.0
 21
110.5
 31
0.0
  0
LINE
  8
L-ZISSEN
 10
973.0
 20
65.5
 30
0.0
 11
973.0
 21
94.5
 31
0.0
  0
LINE
  8
L-ZISSEN
 10
1027.0
 20
93.5
 30
0.0
 11
1027.0
 21
120.5
 31
0.0
  0
LINE
  8
L-ZISSEN
 10
1053.0
 20
120.5
 30
0.0
 11
1053.0
 21
93.5
 31
0.0
  0
LINE
  8
L-ZISSEN
 10
1027.0
 20
120.5
 30
0.0
 11
1053.0
 21
120.5
 31
0.0
  0
LINE
  8
L-ZISSEN
 10
1030.8
 20
127.65
 30
0.0
 11
1049.2
 21
127.65
 31
0.0
  0
LINE
  8
L-ZISSEN
 10
1048.5
 20
127.65
 30
0.0
 11
1048.5
 21
130.0
 31
0.0
  0
LINE
  8
L-ZISSEN
 10
1031.5
 20
127.65
 30
0.0
 11
1031.5
 21
130.0
 31
0.0
  0
LINE
  8
L-ZISSEN
 10
1049.2
 20
120.5
 30
0.0
 11
1049.2
 21
127.65
 31
0.0
  0
LINE
  8
L-ZISSEN
 10
1030.8
 20
120.5
 30
0.0
 11
1030.8
 21
127.65
 31
0.0
  0
LINE
  8
L-ZISSEN
 10
1029.030345
 20
130.0
 30
0.0
 11
1050.969655
 21
130.0
 31
0.0
  0
LINE
  8
L-ZISSEN
 10
1050.969655
 20
135.5
 30
0.0
 11
1050.969655
 21
130.0
 31
0.0
  0
LINE
  8
L-ZISSEN
 10
1029.030345
 20
135.5
 30
0.0
 11
1029.030345
 21
130.0
 31
0.0
  0
LINE
  8
L-ZISSEN
 10
1029.030345
 20
135.5
 30
0.0
 11
1050.969655
 21
135.5
 31
0.0
  0
LINE
  8
L-ZISSEN
 10
1026.5
 20
93.5
 30
0.0
 11
1053.5
 21
93.5
 31
0.0
  0
LINE
  8
L-ZISSEN
 10
1026.5
 20
66.5
 30
0.0
 11
1053.5
 21
66.5
 31
0.0
  0
LINE
  8
L-ZISSEN
 10
1026.5
 20
66.5
 30
0.0
 11
1026.5
 21
93.5
 31
0.0
  0
LINE
  8
L-ZISSEN
 10
1053.5
 20
66.5
 30
0.0
 11
1053.5
 21
93.5
 31
0.0
  0
LINE
  8
L-ZISSEN
 10
1054.5
 20
65.5
 30
0.0
 11
1025.5
 21
65.5
 31
0.0
  0
LINE
  8
L-ZISSEN
 10
1025.5
 20
65.5
 30
0.0
 11
1025.5
 21
94.5
 31
0.0
  0
LINE
  8
L-ZISSEN
 10
1025.5
 20
94.5
 30
0.0
 11
1027.0
 21
94.5
 31
0.0
  0
LINE
  8
L-ZISSEN
 10
1054.5
 20
94.5
 30
0.0
 11
1054.5
 21
65.5
 31
0.0
  0
LINE
  8
L-ZISSEN
 10
1053.0
 20
94.5
 30
0.0
 11
1054.5
 21
94.5
 31
0.0
  0
LINE
  8
L-ZISSEN
 10
973.0
 20
179.5
 30
0.0
 11
973.0
 21
178.0
 31
0.0
  0
LINE
  8
L-ZISSEN
 10
973.0
 20
150.5
 30
0.0
 11
967.0
 21
150.5
 31
0.0
  0
LINE
  8
L-ZISSEN
 10
973.0
 20
179.5
 30
0.0
 11
967.0
 21
179.5
 31
0.0
  0
LINE
  8
L-ZISSEN
 10
995.0
 20
151.5
 30
0.0
 11
973.0
 21
151.5
 31
0.0
  0
LINE
  8
L-ZISSEN
 10
995.0
 20
178.5
 30
0.0
 11
973.0
 21
178.5
 31
0.0
  0
LINE
  8
L-ZISSEN
 10
995.0
 20
178.5
 30
0.0
 11
995.0
 21
151.5
 31
0.0
  0
LINE
  8
L-ZISSEN
 10
970.5
 20
179.5
 30
0.0
 11
970.5
 21
173.87412
 31
0.0
  0
LINE
  8
L-ZISSEN
 10
970.5
 20
153.5
 30
0.0
 11
967.0
 21
153.5
 31
0.0
  0
LINE
  8
L-ZISSEN
 10
970.5
 20
176.5
 30
0.0
 11
967.0
 21
176.5
 31
0.0
  0
LINE
  8
L-ZISSEN
 10
970.5
 20
156.12588
 30
0.0
 11
970.5
 21
150.5
 31
0.0
  0
CIRCLE
  8
L-ZISSEN
 10
980.0
 20
165.0
 30
0.0
 40
13.0
  0
LINE
  8
L-ZISSEN
 10
980.0
 20
178.0
 30
0.0
 11
970.5
 21
178.0
 31
0.0
  0
LINE
  8
L-ZISSEN
 10
980.0
 20
152.0
 30
0.0
 11
970.5
 21
152.0
 31
0.0
  0
LINE
  8
L-ZISSEN
 10
973.0
 20
152.0
 30
0.0
 11
973.0
 21
150.5
 31
0.0
  0
TEXT
  8
L-ZISSEN
 10
880.0
 20
205.0
 30
0.0
 40
4.5
  1
ELECTRICAL CONNECTION
  0
TEXT
  8
L-ZISSEN
 10
880.0
 20
195.0
 30
0.0
 40
4.5
  1
MODEL No. :
  0
TEXT
  8
L-ZISSEN
 10
925.0
 20
195.0
 30
0.0
 40
4.5
  1
MVD-492-0*M1
  0
LINE
  8
L-TYUSIN
 10
870.0
 20
390.0
 30
0.0
 11
870.0
 21
15.0
 31
0.0
  0
LINE
  8
L-ZISSEN
 10
1025.0
 20
105.5
 30
0.0
 11
1027.0
 21
105.5
 31
0.0
  0
LINE
  8
L-ZISSEN
 10
1053.0
 20
105.5
 30
0.0
 11
1055.0
 21
105.5
 31
0.0
  0
LINE
  8
L-TYUSIN
 10
870.0
 20
320.0
 30
0.0
 11
1030.0
 21
320.0
 31
0.0
  0
TEXT
  8
L-ZISSEN
 10
880.0
 20
375.0
 30
0.0
 40
4.5
  1
EXTERNAL PILOT AIR SUPPLY
  0
TEXT
  8
L-ZISSEN
 10
880.0
 20
365.0
 30
0.0
 40
4.5
  1
MODEL No. :
  0
TEXT
  8
L-ZISSEN
 10
925.0
 20
365.0
 30
0.0
 40
4.5
  1
MVD-492-0*P
  0
TEXT
  8
L-ZISSEN
 10
880.0
 20
305.0
 30
0.0
 40
4.5
  1
LOCK TYPE MANUAL OPERATION BUTTON
  0
TEXT
  8
L-ZISSEN
 10
880.0
 20
295.0
 30
0.0
 40
4.5
  1
MODEL No. :
  0
TEXT
  8
L-ZISSEN
 10
925.0
 20
295.0
 30
0.0
 40
4.5
  1
MVD-492-0*R
  0
LINE
  8
L-ZISSEN
 10
1010.0
 20
267.113249
 30
0.0
 11
1015.0
 21
264.226497
 31
0.0
  0
LINE
  8
L-ZISSEN
 10
1015.0
 20
264.226497
 30
0.0
 11
1020.0
 21
267.113249
 31
0.0
  0
LINE
  8
L-ZISSEN
 10
1020.0
 20
267.113249
 30
0.0
 11
1020.0
 21
272.886751
 31
0.0
  0
LINE
  8
L-ZISSEN
 10
1020.0
 20
272.886751
 30
0.0
 11
1015.0
 21
275.773503
 31
0.0
  0
LINE
  8
L-ZISSEN
 10
1015.0
 20
275.773503
 30
0.0
 11
1010.0
 21
272.886751
 31
0.0
  0
LINE
  8
L-ZISSEN
 10
1010.0
 20
272.886751
 30
0.0
 11
1010.0
 21
267.113249
 31
0.0
  0
LINE
  8
L-ZISSEN
 10
975.0
 20
275.773503
 30
0.0
 11
963.4
 21
275.773503
 31
0.0
  0
LINE
  8
L-ZISSEN
 10
975.0
 20
264.226497
 30
0.0
 11
963.4
 21
264.226497
 31
0.0
  0
LINE
  8
L-ZISSEN
 10
975.0
 20
275.773503
 30
0.0
 11
975.0
 21
264.226497
 31
0.0
  0
LINE
  8
L-ZISSEN
 10
975.0
 20
250.0
 30
0.0
 11
975.0
 21
240.0
 31
0.0
  0
LINE
  8
L-ZISSEN
 10
975.0
 20
250.0
 30
0.0
 11
965.4
 21
250.0
 31
0.0
  0
LINE
  8
L-ZISSEN
 10
975.0
 20
240.0
 30
0.0
 11
965.4
 21
240.0
 31
0.0
  0
LINE
  8
L-ZISSEN
 10
969.0
 20
150.5
 30
0.0
 11
969.0
 21
149.0
 31
0.0
  0
LINE
  8
L-ZISSEN
 10
969.0
 20
181.0
 30
0.0
 11
969.0
 21
179.5
 31
0.0
  0
LINE
  8
L-ZISSEN
 10
995.0
 20
53.5
 30
0.0
 11
995.0
 21
26.5
 31
0.0
  0
LINE
  8
L-ZISSEN
 10
995.0
 20
53.5
 30
0.0
 11
973.0
 21
53.5
 31
0.0
  0
LINE
  8
L-ZISSEN
 10
995.0
 20
26.5
 30
0.0
 11
973.0
 21
26.5
 31
0.0
  0
LINE
  8
L-ZISSEN
 10
292.999986
 20
288.15
 30
0.0
 11
292.999986
 21
318.65
 31
0.0
  0
LINE
  8
L-ZISSEN
 10
292.999986
 20
318.65
 30
0.0
 11
288.499986
 21
318.65
 31
0.0
  0
LINE
  8
L-ZISSEN
 10
292.999986
 20
288.15
 30
0.0
 11
288.499986
 21
288.15
 31
0.0
  0
LINE
  8
L-ZISSEN
 10
322.149986
 20
335.55
 30
0.0
 11
303.749986
 21
335.55
 31
0.0
  0
LINE
  8
L-ZISSEN
 10
304.449986
 20
335.55
 30
0.0
 11
304.449986
 21
337.9
 31
0.0
  0
LINE
  8
L-ZISSEN
 10
321.449986
 20
335.55
 30
0.0
 11
321.449986
 21
337.9
 31
0.0
  0
LINE
  8
L-ZISSEN
 10
303.749986
 20
332.65
 30
0.0
 11
303.749986
 21
335.55
 31
0.0
  0
LINE
  8
L-ZISSEN
 10
322.149986
 20
332.65
 30
0.0
 11
322.149986
 21
335.55
 31
0.0
  0
LINE
  8
L-ZISSEN
 10
323.919641
 20
337.9
 30
0.0
 11
301.980331
 21
337.9
 31
0.0
  0
LINE
  8
L-ZISSEN
 10
301.980331
 20
343.4
 30
0.0
 11
301.980331
 21
337.9
 31
0.0
  0
LINE
  8
L-ZISSEN
 10
323.919641
 20
343.4
 30
0.0
 11
323.919641
 21
337.9
 31
0.0
  0
LINE
  8
L-ZISSEN
 10
323.919641
 20
343.4
 30
0.0
 11
301.980331
 21
343.4
 31
0.0
  0
LINE
  8
L-ZISSEN
 10
324.199986
 20
317.15
 30
0.0
 11
292.999986
 21
317.15
 31
0.0
  0
LINE
  8
L-ZISSEN
 10
324.199986
 20
332.65
 30
0.0
 11
301.699986
 21
332.65
 31
0.0
  0
LINE
  8
L-ZISSEN
 10
301.699986
 20
317.15
 30
0.0
 11
301.699986
 21
332.65
 31
0.0
  0
LINE
  8
L-ZISSEN
 10
324.199986
 20
289.65
 30
0.0
 11
324.199986
 21
332.65
 31
0.0
  0
LINE
  8
L-ZISSEN
 10
324.199986
 20
289.65
 30
0.0
 11
292.999986
 21
289.65
 31
0.0
  0
LINE
  8
L-ZISSEN
 10
274.31494
 20
331.9
 30
0.0
 11
254.685031
 21
331.9
 31
0.0
  0
LINE
  8
L-ZISSEN
 10
254.685031
 20
331.9
 30
0.0
 11
254.685031
 21
328.9
 31
0.0
  0
LINE
  8
L-ZISSEN
 10
274.31494
 20
331.9
 30
0.0
 11
274.31494
 21
328.9
 31
0.0
  0
LINE
  8
L-ZISSEN
 10
288.499986
 20
328.9
 30
0.0
 11
245.699986
 21
328.9
 31
0.0
  0
LINE
  8
L-ZISSEN
 10
245.699986
 20
328.9
 30
0.0
 11
245.699986
 21
285.0
 31
0.0
  0
LINE
  8
L-ZISSEN
 10
288.499986
 20
285.0
 30
0.0
 11
288.499986
 21
328.9
 31
0.0
  0
LINE
  8
L-ZISSEN
 10
405.0
 20
328.9
 30
0.0
 11
401.25
 21
328.9
 31
0.0
  0
LINE
  8
L-ZISSEN
 10
375.0
 20
328.9
 30
0.0
 11
375.0
 21
285.0
 31
0.0
  0
LINE
  8
L-ZISSEN
 10
405.0
 20
328.9
 30
0.0
 11
405.0
 21
285.0
 31
0.0
  0
LINE
  8
L-ZISSEN
 10
400.969655
 20
343.4
 30
0.0
 11
379.030345
 21
343.4
 31
0.0
  0
LINE
  8
L-ZISSEN
 10
400.969655
 20
343.4
 30
0.0
 11
400.969655
 21
337.9
 31
0.0
  0
LINE
  8
L-ZISSEN
 10
379.030345
 20
343.4
 30
0.0
 11
379.030345
 21
337.9
 31
0.0
  0
LINE
  8
L-ZISSEN
 10
400.969655
 20
337.9
 30
0.0
 11
379.030345
 21
337.9
 31
0.0
  0
LINE
  8
L-ZISSEN
 10
399.2
 20
332.65
 30
0.0
 11
399.2
 21
335.55
 31
0.0
  0
LINE
  8
L-ZISSEN
 10
380.8
 20
332.65
 30
0.0
 11
380.8
 21
335.55
 31
0.0
  0
LINE
  8
L-ZISSEN
 10
398.5
 20
335.55
 30
0.0
 11
398.5
 21
337.9
 31
0.0
  0
LINE
  8
L-ZISSEN
 10
381.5
 20
335.55
 30
0.0
 11
381.5
 21
337.9
 31
0.0
  0
LINE
  8
L-ZISSEN
 10
399.2
 20
335.55
 30
0.0
 11
380.8
 21
335.55
 31
0.0
  0
LINE
  8
L-ZISSEN
 10
401.25
 20
317.15
 30
0.0
 11
401.25
 21
332.65
 31
0.0
  0
LINE
  8
L-ZISSEN
 10
401.25
 20
332.65
 30
0.0
 11
378.75
 21
332.65
 31
0.0
  0
LINE
  8
L-ZISSEN
 10
378.75
 20
317.15
 30
0.0
 11
378.75
 21
332.65
 31
0.0
  0
LINE
  8
L-ZISSEN
 10
378.75
 20
328.9
 30
0.0
 11
375.0
 21
328.9
 31
0.0
  0
LINE
  8
L-ZISSEN
 10
403.75
 20
289.65
 30
0.0
 11
376.25
 21
289.65
 31
0.0
  0
LINE
  8
L-ZISSEN
 10
403.75
 20
317.15
 30
0.0
 11
376.25
 21
317.15
 31
0.0
  0
LINE
  8
L-ZISSEN
 10
376.25
 20
289.65
 30
0.0
 11
376.25
 21
317.15
 31
0.0
  0
LINE
  8
L-ZISSEN
 10
403.75
 20
289.65
 30
0.0
 11
403.75
 21
317.15
 31
0.0
  0
LINE
  8
L-ZISSEN
 10
375.0
 20
318.65
 30
0.0
 11
378.75
 21
318.65
 31
0.0
  0
LINE
  8
L-ZISSEN
 10
375.0
 20
288.65
 30
0.0
 11
405.0
 21
288.65
 31
0.0
  0
LINE
  8
L-ZISSEN
 10
401.25
 20
318.65
 30
0.0
 11
405.0
 21
318.65
 31
0.0
  0
LINE
  8
L-ZISSEN
 10
245.699986
 20
395.0
 30
0.0
 11
288.499986
 21
395.0
 31
0.0
  0
LINE
  8
L-ZISSEN
 10
245.699986
 20
425.0
 30
0.0
 11
288.499986
 21
425.0
 31
0.0
  0
CIRCLE
  8
L-ZISSEN
 10
264.499986
 20
410.0
 30
0.0
 40
2.067
  0
LINE
  8
L-ZISSEN
 10
324.199986
 20
423.75
 30
0.0
 11
324.199986
 21
396.25
 31
0.0
  0
CIRCLE
  8
L-ZISSEN
 10
312.949986
 20
410.0
 30
0.0
 40
11.25
  0
LINE
  8
L-ZISSEN
 10
324.199986
 20
396.25
 30
0.0
 11
292.999986
 21
396.25
 31
0.0
  0
LINE
  8
L-ZISSEN
 10
324.199986
 20
423.75
 30
0.0
 11
292.999986
 21
423.75
 31
0.0
  0
CIRCLE
  8
L-ZISSEN
 10
312.949986
 20
410.0
 30
0.0
 40
6.5
  0
LINE
  8
L-ZISSEN
 10
292.999986
 20
425.25
 30
0.0
 11
288.499986
 21
425.25
 31
0.0
  0
LINE
  8
L-ZISSEN
 10
292.999986
 20
394.75
 30
0.0
 11
288.499986
 21
394.75
 31
0.0
  0
LINE
  8
L-ZISSEN
 10
292.999986
 20
425.25
 30
0.0
 11
292.999986
 21
394.75
 31
0.0
  0
LINE
  8
L-ZISSEN
 10
288.499986
 20
425.25
 30
0.0
 11
288.499986
 21
394.75
 31
0.0
  0
LINE
  8
L-ZISSEN
 10
259.592508
 20
418.5
 30
0.0
 11
254.685031
 21
410.0
 31
0.0
  0
LINE
  8
L-ZISSEN
 10
254.685031
 20
410.0
 30
0.0
 11
259.592508
 21
401.5
 31
0.0
  0
LINE
  8
L-ZISSEN
 10
259.592508
 20
401.5
 30
0.0
 11
269.407463
 21
401.5
 31
0.0
  0
LINE
  8
L-ZISSEN
 10
269.407463
 20
401.5
 30
0.0
 11
274.31494
 21
410.0
 31
0.0
  0
LINE
  8
L-ZISSEN
 10
274.31494
 20
410.0
 30
0.0
 11
269.407463
 21
418.5
 31
0.0
  0
LINE
  8
L-ZISSEN
 10
269.407463
 20
418.5
 30
0.0
 11
259.592508
 21
418.5
 31
0.0
  0
LINE
  8
L-ZISSEN
 10
245.499986
 20
426.0
 30
0.0
 11
290.499986
 21
426.0
 31
0.0
  0
LINE
  8
L-ZISSEN
  6
CONTINUOUS
 62
     7
 10
245.499986
 20
394.0
 30
0.0
 11
245.499986
 21
426.0
 31
0.0
  0
LINE
  8
L-ZISSEN
 10
245.499986
 20
394.0
 30
0.0
 11
290.499986
 21
394.0
 31
0.0
  0
LINE
  8
L-ZISSEN
  6
CONTINUOUS
 62
     7
 10
247.499986
 20
388.000007
 30
0.0
 11
247.499986
 21
394.0
 31
0.0
  0
LINE
  8
L-ZISSEN
  6
CONTINUOUS
 62
     7
 10
247.499986
 20
426.0
 30
0.0
 11
247.499986
 21
431.999993
 31
0.0
  0
LINE
  8
L-ZISSEN
 10
245.499986
 20
416.0
 30
0.0
 11
237.499986
 21
416.0
 31
0.0
  0
LINE
  8
L-ZISSEN
 10
245.499986
 20
404.0
 30
0.0
 11
237.499986
 21
404.0
 31
0.0
  0
LINE
  8
L-ZISSEN
  6
CONTINUOUS
 62
     7
 10
253.799984
 20
431.249994
 30
0.0
 11
253.799984
 21
426.0
 31
0.0
  0
LINE
  8
L-ZISSEN
  6
CONTINUOUS
 62
     7
 10
247.499986
 20
431.249994
 30
0.0
 11
253.799984
 21
431.249994
 31
0.0
  0
LINE
  8
L-ZISSEN
  6
CONTINUOUS
 62
     7
 10
253.799984
 20
394.0
 30
0.0
 11
253.799984
 21
388.750006
 31
0.0
  0
LINE
  8
L-ZISSEN
  6
CONTINUOUS
 62
     7
 10
247.499986
 20
388.750006
 30
0.0
 11
253.799984
 21
388.750006
 31
0.0
  0
LINE
  8
L-ZISSEN
 10
400.0
 20
275.0
 30
0.0
 11
406.0
 21
275.0
 31
0.0
  0
LINE
  8
L-ZISSEN
 10
297.599986
 20
263.471797
 30
0.0
 11
290.499986
 21
263.471797
 31
0.0
  0
LINE
  8
L-ZISSEN
 10
297.599986
 20
277.328203
 30
0.0
 11
290.499986
 21
277.328203
 31
0.0
  0
LINE
  8
L-ZISSEN
 10
297.599986
 20
263.471797
 30
0.0
 11
297.599986
 21
277.328203
 31
0.0
  0
LINE
  8
L-ZISSEN
 10
396.0
 20
273.864102
 30
0.0
 11
390.0
 21
277.328203
 31
0.0
  0
LINE
  8
L-ZISSEN
 10
390.0
 20
263.471797
 30
0.0
 11
396.0
 21
266.935898
 31
0.0
  0
LINE
  8
L-ZISSEN
 10
384.0
 20
266.935898
 30
0.0
 11
390.0
 21
263.471797
 31
0.0
  0
LINE
  8
L-ZISSEN
 10
384.0
 20
273.864102
 30
0.0
 11
384.0
 21
266.935898
 31
0.0
  0
LINE
  8
L-ZISSEN
 10
396.0
 20
266.935898
 30
0.0
 11
396.0
 21
273.864102
 31
0.0
  0
LINE
  8
L-ZISSEN
 10
384.0
 20
273.864102
 30
0.0
 11
390.0
 21
277.328203
 31
0.0
  0
LINE
  8
L-ZISSEN
 10
324.199986
 20
56.25
 30
0.0
 11
292.999986
 21
56.25
 31
0.0
  0
LINE
  8
L-ZISSEN
 10
324.199986
 20
83.75
 30
0.0
 11
324.199986
 21
56.25
 31
0.0
  0
LINE
  8
L-ZISSEN
 10
324.199986
 20
83.75
 30
0.0
 11
292.999986
 21
83.75
 31
0.0
  0
SOLID
  8
L-ZISSEN
 10
1013.821489
 20
271.649916
 30
0.0
 11
1013.350084
 21
271.178511
 31
0.0
 12
1015.0
 22
270.0
 32
0.0
 13
1015.0
 23
270.0
 33
0.0
  0
LINE
  8
L-ZISSEN
 10
1013.585786
 20
271.414214
 30
0.0
 11
1005.0
 21
280.0
 31
0.0
  0
LINE
  8
L-ZISSEN
 10
1005.0
 20
280.0
 30
0.0
 11
1003.0
 21
280.0
 31
0.0
  0
TEXT
  8
L-ZISSEN
 10
992.0
 20
277.75
 30
0.0
 40
4.5
  1
P.P
  0
SOLID
  8
L-ZISSEN
 10
961.51092
 20
269.263463
 30
0.0
 11
961.851909
 21
268.690601
 31
0.0
 12
963.4
 22
270.0
 32
0.0
 13
963.4
 23
270.0
 33
0.0
  0
LINE
  8
L-ZISSEN
 10
961.681414
 20
268.977032
 30
0.0
 11
955.0
 21
265.0
 31
0.0
  0
LINE
  8
L-ZISSEN
 10
955.0
 20
265.0
 30
0.0
 11
953.0
 21
265.0
 31
0.0
  0
TEXT
  8
L-ZISSEN
 10
942.0
 20
262.75
 30
0.0
 40
4.5
  1
P.P
  0
SOLID
  8
L-ZISSEN
 10
965.178787
 20
79.108768
 30
0.0
 11
965.566279
 21
78.566279
 31
0.0
 12
967.0
 22
80.0
 32
0.0
 13
967.0
 23
80.0
 33
0.0
  0
LINE
  8
L-ZISSEN
 10
965.372533
 20
78.837524
 30
0.0
 11
960.0
 21
75.0
 31
0.0
  0
LINE
  8
L-ZISSEN
 10
960.0
 20
75.0
 30
0.0
 11
958.0
 21
75.0
 31
0.0
  0
TEXT
  8
L-ZISSEN
 10
947.0
 20
72.75
 30
0.0
 40
4.5
  1
P.P
  0
SOLID
  8
L-ZISSEN
 10
1037.97887
 20
79.83831
 30
0.0
 11
1038.14056
 21
79.191548
 31
0.0
 12
1040.0
 22
80.0
 32
0.0
 13
1040.0
 23
80.0
 33
0.0
  0
LINE
  8
L-ZISSEN
 10
1038.059715
 20
79.514929
 30
0.0
 11
1020.0
 21
75.0
 31
0.0
  0
TEXT
  8
L-ZISSEN
 10
1009.0
 20
72.75
 30
0.0
 40
4.5
  1
P.P
  0
SOLID
  8
L-ZISSEN
 10
965.178787
 20
164.108768
 30
0.0
 11
965.566279
 21
163.566279
 31
0.0
 12
967.0
 22
165.0
 32
0.0
 13
967.0
 23
165.0
 33
0.0
  0
LINE
  8
L-ZISSEN
 10
965.372533
 20
163.837524
 30
0.0
 11
960.0
 21
160.0
 31
0.0
  0
LINE
  8
L-ZISSEN
 10
960.0
 20
160.0
 30
0.0
 11
958.0
 21
160.0
 31
0.0
  0
TEXT
  8
L-ZISSEN
 10
947.0
 20
157.75
 30
0.0
 40
4.5
  1
P.P
  0
CIRCLE
  8
L-ZISSEN
 10
935.0
 20
345.0
 30
0.0
 40
5.7225
  0
SOLID
  8
L-ZISSEN
 10
936.178511
 20
343.350084
 30
0.0
 11
936.649916
 21
343.821489
 31
0.0
 12
935.0
 22
345.0
 32
0.0
 13
935.0
 23
345.0
 33
0.0
  0
LINE
  8
L-ZISSEN
 10
936.414214
 20
343.585786
 30
0.0
 11
945.0
 21
335.0
 31
0.0
  0
LINE
  8
L-ZISSEN
 10
945.0
 20
335.0
 30
0.0
 11
947.0
 21
335.0
 31
0.0
  0
TEXT
  8
L-ZISSEN
 10
949.0
 20
332.75
 30
0.0
 40
4.5
  1
P.P
  0
LINE
  8
L-ZISSEN
  6
CONTINUOUS
 62
     7
 10
140.0
 20
217.000007
 30
0.0
 11
240.0
 21
217.000007
 31
0.0
  0
LINE
  8
L-ZISSEN
 10
348.0
 20
217.0
 30
0.0
 11
381.0
 21
217.0
 31
0.0
  0
LINE
  8
L-ZISSEN
 10
399.0
 20
217.0
 30
0.0
 11
432.0
 21
217.0
 31
0.0
  0
LINE
  8
L-ZISSEN
  6
CONTINUOUS
 62
     7
 10
353.000002
 20
234.500002
 30
0.0
 11
362.999999
 21
234.500002
 31
0.0
  0
LINE
  8
L-ZISSEN
  6
CONTINUOUS
 62
     7
 10
353.000002
 20
234.500002
 30
0.0
 11
353.000002
 21
227.000004
 31
0.0
  0
LINE
  8
L-ZISSEN
  6
CONTINUOUS
 62
     7
 10
362.999999
 20
234.500002
 30
0.0
 11
362.999999
 21
227.000004
 31
0.0
  0
LINE
  8
L-ZISSEN
 10
350.5
 20
217.0
 30
0.0
 11
350.5
 21
227.0
 31
0.0
  0
LINE
  8
L-ZISSEN
 10
429.5
 20
217.0
 30
0.0
 11
429.5
 21
227.0
 31
0.0
  0
LINE
  8
L-ZISSEN
  6
CONTINUOUS
 62
     7
 10
417.000002
 20
234.500002
 30
0.0
 11
417.000002
 21
227.000004
 31
0.0
  0
LINE
  8
L-ZISSEN
  6
CONTINUOUS
 62
     7
 10
426.999999
 20
234.500002
 30
0.0
 11
426.999999
 21
227.000004
 31
0.0
  0
LINE
  8
L-ZISSEN
  6
CONTINUOUS
 62
     7
 10
426.999999
 20
234.500002
 30
0.0
 11
417.000002
 21
234.500002
 31
0.0
  0
LINE
  8
L-ZISSEN
  6
CONTINUOUS
 62
     7
 10
120.0
 20
177.000007
 30
0.0
 11
260.0
 21
177.000007
 31
0.0
  0
LINE
  8
L-TYUSIN
 10
250.0
 20
172.000007
 30
0.0
 11
250.0
 21
192.000007
 31
0.0
  0
LINE
  8
L-TYUSIN
 10
130.0
 20
172.000007
 30
0.0
 11
130.0
 21
192.000007
 31
0.0
  0
LINE
  8
L-ZISSEN
 10
260.0
 20
177.000007
 30
0.0
 11
260.0
 21
187.000007
 31
0.0
  0
LINE
  8
L-ZISSEN
 10
260.0
 20
187.000007
 30
0.0
 11
240.0
 21
187.000007
 31
0.0
  0
LINE
  8
L-ZISSEN
 10
120.0
 20
187.000007
 30
0.0
 11
120.0
 21
177.000007
 31
0.0
  0
LINE
  8
L-ZISSEN
 10
140.0
 20
187.000007
 30
0.0
 11
140.0
 21
217.000007
 31
0.0
  0
LINE
  8
L-ZISSEN
 10
240.0
 20
187.000007
 30
0.0
 11
240.0
 21
217.000007
 31
0.0
  0
LINE
  8
L-ZISSEN
 10
140.0
 20
187.000007
 30
0.0
 11
120.0
 21
187.000007
 31
0.0
  0
LINE
  8
L-ZISSEN
 10
140.0
 20
368.0
 30
0.0
 11
140.0
 21
388.000007
 31
0.0
  0
LINE
  8
L-ZISSEN
 10
240.0
 20
452.0
 30
0.0
 11
240.0
 21
431.999993
 31
0.0
  0
LINE
  8
L-ZISSEN
 10
140.0
 20
452.0
 30
0.0
 11
240.0
 21
452.0
 31
0.0
  0
LINE
  8
L-ZISSEN
 10
140.0
 20
368.0
 30
0.0
 11
240.0
 21
368.0
 31
0.0
  0
LINE
  8
L-ZISSEN
 10
240.0
 20
388.000007
 30
0.0
 11
240.0
 21
368.0
 31
0.0
  0
LINE
  8
L-ZISSEN
 10
140.0
 20
431.999993
 30
0.0
 11
140.0
 21
452.0
 31
0.0
  0
LINE
  8
L-ZISSEN
 10
130.0
 20
450.0
 30
0.0
 11
140.0
 21
452.0
 31
0.0
  0
CIRCLE
  8
L-ZISSEN
 10
130.0
 20
440.0
 30
0.0
 40
4.5
  0
CIRCLE
  8
L-ZISSEN
 10
130.0
 20
380.0
 30
0.0
 40
4.5
  0
LINE
  8
L-ZISSEN
 10
130.0
 20
370.0
 30
0.0
 11
140.0
 21
368.0
 31
0.0
  0
CIRCLE
  8
L-ZISSEN
 10
250.0
 20
380.0
 30
0.0
 40
4.5
  0
ARC
  8
L-ZISSEN
 10
250.0
 20
380.0
 30
0.0
 40
10.0
 50
270.0
 51
53.130165
  0
LINE
  8
L-ZISSEN
 10
250.0
 20
370.0
 30
0.0
 11
240.0
 21
368.0
 31
0.0
  0
ARC
  8
L-ZISSEN
 10
250.0
 20
440.0
 30
0.0
 40
10.0
 50
306.869835
 51
90.0
  0
CIRCLE
  8
L-ZISSEN
 10
250.0
 20
440.0
 30
0.0
 40
4.5
  0
LINE
  8
L-ZISSEN
 10
250.0
 20
450.0
 30
0.0
 11
240.0
 21
452.0
 31
0.0
  0
ARC
  8
L-ZISSEN
 10
130.0
 20
40.0
 30
0.0
 40
10.0
 50
120.0
 51
270.0
  0
CIRCLE
  8
L-ZISSEN
 10
130.0
 20
40.0
 30
0.0
 40
4.5
  0
LINE
  8
L-ZISSEN
 10
130.0
 20
30.0
 30
0.0
 11
140.0
 21
28.0
 31
0.0
  0
LINE
  8
L-ZISSEN
 10
140.0
 20
28.0
 30
0.0
 11
240.0
 21
28.0
 31
0.0
  0
LINE
  8
L-ZISSEN
 10
240.0
 20
82.679492
 30
0.0
 11
240.0
 21
57.320508
 31
0.0
  0
LINE
  8
L-ZISSEN
 10
255.0
 20
48.660254
 30
0.0
 11
240.0
 21
57.320508
 31
0.0
  0
LINE
  8
L-ZISSEN
 10
250.0
 20
30.0
 30
0.0
 11
240.0
 21
28.0
 31
0.0
  0
CIRCLE
  8
L-ZISSEN
 10
250.0
 20
40.0
 30
0.0
 40
4.5
  0
ARC
  8
L-ZISSEN
 10
250.0
 20
40.0
 30
0.0
 40
10.0
 50
270.0
 51
60.0
  0
ARC
  8
L-ZISSEN
 10
250.0
 20
100.0
 30
0.0
 40
10.0
 50
300.0
 51
90.0
  0
CIRCLE
  8
L-ZISSEN
 10
250.0
 20
100.0
 30
0.0
 40
4.5
  0
LINE
  8
L-ZISSEN
 10
250.0
 20
110.0
 30
0.0
 11
240.0
 21
112.0
 31
0.0
  0
LINE
  8
L-ZISSEN
 10
255.0
 20
91.339746
 30
0.0
 11
240.0
 21
82.679492
 31
0.0
  0
LINE
  8
L-ZISSEN
 10
140.0
 20
112.0
 30
0.0
 11
240.0
 21
112.0
 31
0.0
  0
LINE
  8
L-ZISSEN
 10
130.0
 20
110.0
 30
0.0
 11
140.0
 21
112.0
 31
0.0
  0
LINE
  8
L-TYUSIN
  6
CENTER
 62
     1
 10
130.0
 20
108.0
 30
0.0
 11
130.0
 21
92.0
 31
0.0
  0
LINE
  8
L-TYUSIN
  6
CENTER
 62
     1
 10
122.0
 20
100.0
 30
0.0
 11
138.0
 21
100.0
 31
0.0
  0
CIRCLE
  8
L-ZISSEN
 10
130.0
 20
100.0
 30
0.0
 40
4.5
  0
ARC
  8
L-ZISSEN
 10
130.0
 20
100.0
 30
0.0
 40
10.0
 50
90.0
 51
240.0
  0
LINE
  8
L-ZISSEN
 10
256.0
 20
92.0
 30
0.0
 11
292.499986
 21
92.0
 31
0.0
  0
LINE
  8
L-TYUSIN
  6
CENTER
 62
     1
 10
122.0
 20
40.0
 30
0.0
 11
138.0
 21
40.0
 31
0.0
  0
LINE
  8
L-TYUSIN
  6
CENTER
 62
     1
 10
130.0
 20
32.0
 30
0.0
 11
130.0
 21
48.0
 31
0.0
  0
LINE
  8
L-TYUSIN
  6
CENTER
 62
     1
 10
250.0
 20
108.0
 30
0.0
 11
250.0
 21
92.0
 31
0.0
  0
LINE
  8
L-TYUSIN
  6
CENTER
 62
     1
 10
258.0
 20
100.0
 30
0.0
 11
242.0
 21
100.0
 31
0.0
  0
LINE
  8
L-TYUSIN
  6
CENTER
 62
     1
 10
250.0
 20
32.0
 30
0.0
 11
250.0
 21
48.0
 31
0.0
  0
LINE
  8
L-TYUSIN
  6
CENTER
 62
     1
 10
258.0
 20
40.0
 30
0.0
 11
242.0
 21
40.0
 31
0.0
  0
LINE
  8
L-TYUSIN
  6
CENTER
 62
     1
 10
122.0
 20
440.0
 30
0.0
 11
138.0
 21
440.0
 31
0.0
  0
LINE
  8
L-TYUSIN
  6
CENTER
 62
     1
 10
130.0
 20
448.0
 30
0.0
 11
130.0
 21
432.0
 31
0.0
  0
LINE
  8
L-TYUSIN
  6
CENTER
 62
     1
 10
258.0
 20
440.0
 30
0.0
 11
242.0
 21
440.0
 31
0.0
  0
LINE
  8
L-TYUSIN
  6
CENTER
 62
     1
 10
250.0
 20
448.0
 30
0.0
 11
250.0
 21
432.0
 31
0.0
  0
LINE
  8
L-TYUSIN
  6
CENTER
 62
     1
 10
250.0
 20
372.0
 30
0.0
 11
250.0
 21
388.0
 31
0.0
  0
LINE
  8
L-TYUSIN
  6
CENTER
 62
     1
 10
258.0
 20
380.0
 30
0.0
 11
242.0
 21
380.0
 31
0.0
  0
LINE
  8
L-TYUSIN
  6
CENTER
 62
     1
 10
122.0
 20
380.0
 30
0.0
 11
138.0
 21
380.0
 31
0.0
  0
LINE
  8
L-TYUSIN
  6
CENTER
 62
     1
 10
130.0
 20
372.0
 30
0.0
 11
130.0
 21
388.0
 31
0.0
  0
LINE
  8
L-ZISSEN
 10
140.0
 20
632.999993
 30
0.0
 11
120.0
 21
632.999993
 31
0.0
  0
LINE
  8
L-ZISSEN
 10
240.0
 20
632.999993
 30
0.0
 11
240.0
 21
602.999993
 31
0.0
  0
LINE
  8
L-ZISSEN
 10
140.0
 20
632.999993
 30
0.0
 11
140.0
 21
602.999993
 31
0.0
  0
LINE
  8
L-ZISSEN
 10
120.0
 20
632.999993
 30
0.0
 11
120.0
 21
642.999993
 31
0.0
  0
LINE
  8
L-ZISSEN
 10
260.0
 20
632.999993
 30
0.0
 11
240.0
 21
632.999993
 31
0.0
  0
LINE
  8
L-ZISSEN
 10
260.0
 20
642.999993
 30
0.0
 11
260.0
 21
632.999993
 31
0.0
  0
LINE
  8
L-TYUSIN
 10
130.0
 20
647.999993
 30
0.0
 11
130.0
 21
627.999993
 31
0.0
  0
LINE
  8
L-TYUSIN
 10
250.0
 20
647.999993
 30
0.0
 11
250.0
 21
627.999993
 31
0.0
  0
LINE
  8
L-ZISSEN
  6
CONTINUOUS
 62
     7
 10
120.0
 20
642.999993
 30
0.0
 11
260.0
 21
642.999993
 31
0.0
  0
LINE
  8
L-ZISSEN
  6
CONTINUOUS
 62
     7
 10
140.0
 20
602.999993
 30
0.0
 11
240.0
 21
602.999993
 31
0.0
  0
LINE
  8
L-ZISSEN
 10
297.599986
 20
556.528203
 30
0.0
 11
297.599986
 21
542.671797
 31
0.0
  0
LINE
  8
L-ZISSEN
 10
297.599986
 20
542.671797
 30
0.0
 11
290.499986
 21
542.671797
 31
0.0
  0
LINE
  8
L-ZISSEN
 10
297.599986
 20
556.528203
 30
0.0
 11
290.499986
 21
556.528203
 31
0.0
  0
LINE
  8
L-ZISSEN
 10
288.499986
 20
535.0
 30
0.0
 11
288.499986
 21
491.1
 31
0.0
  0
LINE
  8
L-ZISSEN
 10
245.699986
 20
491.1
 30
0.0
 11
245.699986
 21
535.0
 31
0.0
  0
LINE
  8
L-ZISSEN
 10
288.499986
 20
491.1
 30
0.0
 11
245.699986
 21
491.1
 31
0.0
  0
LINE
  8
L-ZISSEN
 10
274.31494
 20
488.1
 30
0.0
 11
274.31494
 21
491.1
 31
0.0
  0
LINE
  8
L-ZISSEN
 10
254.685031
 20
488.1
 30
0.0
 11
254.685031
 21
491.1
 31
0.0
  0
LINE
  8
L-ZISSEN
 10
274.31494
 20
488.1
 30
0.0
 11
254.685031
 21
488.1
 31
0.0
  0
LINE
  8
L-ZISSEN
 10
324.199986
 20
530.35
 30
0.0
 11
292.999986
 21
530.35
 31
0.0
  0
LINE
  8
L-ZISSEN
 10
324.199986
 20
530.35
 30
0.0
 11
324.199986
 21
487.35
 31
0.0
  0
LINE
  8
L-ZISSEN
 10
301.699986
 20
502.85
 30
0.0
 11
301.699986
 21
487.35
 31
0.0
  0
LINE
  8
L-ZISSEN
 10
324.199986
 20
487.35
 30
0.0
 11
301.699986
 21
487.35
 31
0.0
  0
LINE
  8
L-ZISSEN
 10
324.199986
 20
502.85
 30
0.0
 11
292.999986
 21
502.85
 31
0.0
  0
LINE
  8
L-ZISSEN
 10
323.919641
 20
476.6
 30
0.0
 11
301.980331
 21
476.6
 31
0.0
  0
LINE
  8
L-ZISSEN
 10
323.919641
 20
476.6
 30
0.0
 11
323.919641
 21
482.1
 31
0.0
  0
LINE
  8
L-ZISSEN
 10
301.980331
 20
476.6
 30
0.0
 11
301.980331
 21
482.1
 31
0.0
  0
LINE
  8
L-ZISSEN
 10
323.919641
 20
482.1
 30
0.0
 11
301.980331
 21
482.1
 31
0.0
  0
LINE
  8
L-ZISSEN
 10
322.149986
 20
487.35
 30
0.0
 11
322.149986
 21
484.45
 31
0.0
  0
LINE
  8
L-ZISSEN
 10
303.749986
 20
487.35
 30
0.0
 11
303.749986
 21
484.45
 31
0.0
  0
LINE
  8
L-ZISSEN
 10
321.449986
 20
484.45
 30
0.0
 11
321.449986
 21
482.1
 31
0.0
  0
LINE
  8
L-ZISSEN
 10
304.449986
 20
484.45
 30
0.0
 11
304.449986
 21
482.1
 31
0.0
  0
LINE
  8
L-ZISSEN
 10
322.149986
 20
484.45
 30
0.0
 11
303.749986
 21
484.45
 31
0.0
  0
LINE
  8
L-ZISSEN
 10
292.999986
 20
531.85
 30
0.0
 11
288.499986
 21
531.85
 31
0.0
  0
LINE
  8
L-ZISSEN
 10
292.999986
 20
501.35
 30
0.0
 11
288.499986
 21
501.35
 31
0.0
  0
LINE
  8
L-ZISSEN
 10
292.999986
 20
531.85
 30
0.0
 11
292.999986
 21
501.35
 31
0.0
  0
LINE
  8
L-ZISSEN
 10
245.499986
 20
545.0
 30
0.0
 11
290.499986
 21
545.0
 31
0.0
  0
LINE
  8
L-ZISSEN
 10
290.499986
 20
564.544156
 30
0.0
 11
253.799984
 21
564.544156
 31
0.0
  0
LINE
  8
L-ZISSEN
  6
CONTINUOUS
 62
     7
 10
253.799984
 20
558.750006
 30
0.0
 11
253.799984
 21
567.250004
 31
0.0
  0
LINE
  8
L-ZISSEN
  6
CONTINUOUS
 62
     7
 10
247.499986
 20
558.750006
 30
0.0
 11
253.799984
 21
558.750006
 31
0.0
  0
LINE
  8
L-ZISSEN
  6
CONTINUOUS
 62
     7
 10
247.499986
 20
567.250004
 30
0.0
 11
253.799984
 21
567.250004
 31
0.0
  0
LINE
  8
L-ZISSEN
  6
CONTINUOUS
 62
     7
 10
253.799984
 20
592.749996
 30
0.0
 11
253.799984
 21
601.249994
 31
0.0
  0
LINE
  8
L-ZISSEN
  6
CONTINUOUS
 62
     7
 10
247.499986
 20
592.749996
 30
0.0
 11
253.799984
 21
592.749996
 31
0.0
  0
LINE
  8
L-ZISSEN
  6
CONTINUOUS
 62
     7
 10
247.499986
 20
601.249994
 30
0.0
 11
253.799984
 21
601.249994
 31
0.0
  0
LINE
  8
L-ZISSEN
  6
CONTINUOUS
 62
     7
 10
247.499986
 20
583.455844
 30
0.0
 11
247.499986
 21
601.999993
 31
0.0
  0
LINE
  8
L-ZISSEN
 10
292.499986
 20
583.455844
 30
0.0
 11
247.499986
 21
583.455844
 31
0.0
  0
LINE
  8
L-ZISSEN
 10
292.499986
 20
576.544156
 30
0.0
 11
247.499986
 21
576.544156
 31
0.0
  0
LINE
  8
L-ZISSEN
 10
283.499986
 20
607.0
 30
0.0
 11
283.499986
 21
601.999993
 31
0.0
  0
LINE
  8
L-ZISSEN
 10
265.499986
 20
607.0
 30
0.0
 11
265.499986
 21
601.999993
 31
0.0
  0
LINE
  8
L-ZISSEN
  6
CONTINUOUS
 62
     7
 10
247.499986
 20
558.0
 30
0.0
 11
247.499986
 21
576.544156
 31
0.0
  0
LINE
  8
L-ZISSEN
  6
CONTINUOUS
 62
     7
 10
245.499986
 20
535.0
 30
0.0
 11
245.499986
 21
558.0
 31
0.0
  0
LINE
  8
L-ZISSEN
 10
283.499986
 20
607.0
 30
0.0
 11
265.499986
 21
607.0
 31
0.0
  0
LINE
  8
L-ZISSEN
 10
245.499986
 20
535.0
 30
0.0
 11
290.499986
 21
535.0
 31
0.0
  0
LINE
  8
L-ZISSEN
  6
CONTINUOUS
 62
     7
 10
290.499986
 20
535.0
 30
0.0
 11
290.499986
 21
564.544156
 31
0.0
  0
LINE
  8
L-ZISSEN
 10
156.500014
 20
566.0
 30
0.0
 11
207.05012
 21
566.0
 31
0.0
  0
LINE
  8
L-ZISSEN
 10
156.500014
 20
558.0
 30
0.0
 11
132.500017
 21
558.0
 31
0.0
  0
LINE
  8
L-ZISSEN
  6
CONTINUOUS
 62
     7
 10
156.500014
 20
556.677152
 30
0.0
 11
156.500014
 21
566.0
 31
0.0
  0
LINE
  8
L-ZISSEN
 10
247.499986
 20
558.0
 30
0.0
 11
224.141411
 21
558.0
 31
0.0
  0
LINE
  8
L-ZISSEN
 10
156.500014
 20
556.677152
 30
0.0
 11
211.456521
 21
556.677152
 31
0.0
  0
LINE
  8
L-ZISSEN
 10
181.982125
 20
592.999996
 30
0.0
 11
181.982125
 21
601.999993
 31
0.0
  0
LINE
  8
L-ZISSEN
 10
168.017884
 20
592.999996
 30
0.0
 11
168.017884
 21
601.999993
 31
0.0
  0
LINE
  8
L-TYUSIN
  6
CENTER
 62
     1
 10
190.0
 20
547.000008
 30
0.0
 11
190.0
 21
647.999993
 31
0.0
  0
LINE
  8
L-ZISSEN
  6
CONTINUOUS
 62
     7
 10
180.000003
 20
585.499998
 30
0.0
 11
180.000003
 21
592.999996
 31
0.0
  0
LINE
  8
L-ZISSEN
  6
CONTINUOUS
 62
     7
 10
170.000006
 20
585.499998
 30
0.0
 11
170.000006
 21
592.999996
 31
0.0
  0
LINE
  8
L-ZISSEN
  6
CONTINUOUS
 62
     7
 10
170.000006
 20
585.499998
 30
0.0
 11
180.000003
 21
585.499998
 31
0.0
  0
CIRCLE
  8
L-ZISSEN
  6
CONTINUOUS
 62
     7
 10
216.999992
 20
565.000005
 30
0.0
 40
9.999997
  0
LINE
  8
L-ZISSEN
  6
CONTINUOUS
 62
     7
 10
237.499986
 20
592.999996
 30
0.0
 11
142.500014
 21
592.999996
 31
0.0
  0
LINE
  8
L-ZISSEN
  6
CONTINUOUS
 62
     7
 10
134.500014
 20
552.000008
 30
0.0
 11
245.499986
 21
552.000008
 31
0.0
  0
LINE
  8
L-ZISSEN
  6
CONTINUOUS
 62
     7
 10
87.500014
 20
601.999993
 30
0.0
 11
292.499986
 21
601.999993
 31
0.0
  0
LINE
  8
L-ZISSEN
  6
CONTINUOUS
 62
     7
 10
237.499986
 20
552.000008
 30
0.0
 11
237.499986
 21
602.999993
 31
0.0
  0
LINE
  8
L-TYUSIN
  6
CENTER
 62
     1
 10
82.500014
 20
580.0
 30
0.0
 11
297.499986
 21
580.0
 31
0.0
  0
LINE
  8
L-ZISSEN
  6
CONTINUOUS
 62
     7
 10
209.999994
 20
585.499998
 30
0.0
 11
199.999997
 21
585.499998
 31
0.0
  0
LINE
  8
L-ZISSEN
  6
CONTINUOUS
 62
     7
 10
209.999994
 20
585.499998
 30
0.0
 11
209.999994
 21
592.999996
 31
0.0
  0
LINE
  8
L-ZISSEN
  6
CONTINUOUS
 62
     7
 10
199.999997
 20
585.499998
 30
0.0
 11
199.999997
 21
592.999996
 31
0.0
  0
LINE
  8
L-ZISSEN
 10
211.982116
 20
592.999996
 30
0.0
 11
211.982116
 21
601.999993
 31
0.0
  0
LINE
  8
L-ZISSEN
 10
198.017875
 20
592.999996
 30
0.0
 11
198.017875
 21
601.999993
 31
0.0
  0
LINE
  8
L-ZISSEN
 10
348.0
 20
177.000007
 30
0.0
 11
348.0
 21
217.0
 31
0.0
  0
LINE
  8
L-ZISSEN
  6
CONTINUOUS
 62
     7
 10
348.0
 20
187.000007
 30
0.0
 11
432.0
 21
187.000007
 31
0.0
  0
LINE
  8
L-ZISSEN
  6
CONTINUOUS
 62
     7
 10
348.0
 20
177.000007
 30
0.0
 11
432.0
 21
177.000007
 31
0.0
  0
LINE
  8
L-TYUSIN
 10
360.0
 20
172.000007
 30
0.0
 11
360.0
 21
192.000007
 31
0.0
  0
LINE
  8
L-ZISSEN
 10
377.320508
 20
187.000007
 30
0.0
 11
377.320508
 21
177.000007
 31
0.0
  0
LINE
  8
L-ZISSEN
 10
402.679492
 20
187.000007
 30
0.0
 11
402.679492
 21
177.000007
 31
0.0
  0
LINE
  8
L-TYUSIN
 10
420.0
 20
172.000007
 30
0.0
 11
420.0
 21
192.000007
 31
0.0
  0
LINE
  8
L-ZISSEN
 10
432.0
 20
177.000007
 30
0.0
 11
432.0
 21
217.0
 31
0.0
  0
LINE
  8
L-TYUSIN
 10
205.0
 20
202.000007
 30
0.0
 11
175.0
 21
202.000007
 31
0.0
  0
LINE
  8
L-TYUSIN
 10
240.0
 20
202.000007
 30
0.0
 11
210.0
 21
202.000007
 31
0.0
  0
LINE
  8
L-TYUSIN
  6
CENTER
 62
     1
 10
225.0
 20
217.000007
 30
0.0
 11
225.0
 21
187.000007
 31
0.0
  0
LINE
  8
L-TYUSIN
 10
140.0
 20
202.000007
 30
0.0
 11
170.0
 21
202.000007
 31
0.0
  0
LINE
  8
L-TYUSIN
  6
CENTER
 62
     1
 10
155.0
 20
217.000007
 30
0.0
 11
155.0
 21
187.000007
 31
0.0
  0
LINE
  8
L-TYUSIN
  6
CENTER
 62
     1
 10
155.0
 20
632.999993
 30
0.0
 11
155.0
 21
602.999993
 31
0.0
  0
LINE
  8
L-TYUSIN
 10
140.0
 20
617.999993
 30
0.0
 11
170.0
 21
617.999993
 31
0.0
  0
LINE
  8
L-TYUSIN
 10
240.0
 20
617.999993
 30
0.0
 11
210.0
 21
617.999993
 31
0.0
  0
LINE
  8
L-TYUSIN
  6
CENTER
 62
     1
 10
225.0
 20
632.999993
 30
0.0
 11
225.0
 21
602.999993
 31
0.0
  0
LINE
  8
L-TYUSIN
  6
CENTER
 62
     1
 10
225.0
 20
373.0
 30
0.0
 11
225.0
 21
363.0
 31
0.0
  0
LINE
  8
L-TYUSIN
  6
CENTER
 62
     1
 10
155.0
 20
373.0
 30
0.0
 11
155.0
 21
363.0
 31
0.0
  0
LINE
  8
L-TYUSIN
  6
CENTER
 62
     1
 10
225.0
 20
457.0
 30
0.0
 11
225.0
 21
447.0
 31
0.0
  0
LINE
  8
L-TYUSIN
  6
CENTER
 62
     1
 10
155.0
 20
457.0
 30
0.0
 11
155.0
 21
447.0
 31
0.0
  0
LINE
  8
L-TYUSIN
  6
CENTER
 62
     1
 10
155.0
 20
117.0
 30
0.0
 11
155.0
 21
107.0
 31
0.0
  0
LINE
  8
L-TYUSIN
  6
CENTER
 62
     1
 10
225.0
 20
117.0
 30
0.0
 11
225.0
 21
107.0
 31
0.0
  0
LINE
  8
L-TYUSIN
  6
CENTER
 62
     1
 10
225.0
 20
33.0
 30
0.0
 11
225.0
 21
23.0
 31
0.0
  0
LINE
  8
L-TYUSIN
  6
CENTER
 62
     1
 10
155.0
 20
33.0
 30
0.0
 11
155.0
 21
23.0
 31
0.0
  0
LINE
  8
L-TYUSIN
 10
353.0
 20
202.000007
 30
0.0
 11
343.0
 21
202.000007
 31
0.0
  0
LINE
  8
L-TYUSIN
 10
427.0
 20
202.000007
 30
0.0
 11
437.0
 21
202.000007
 31
0.0
  0
CIRCLE
  8
L-ZISSEN
 10
155.0
 20
202.000007
 30
0.0
 40
9.3155
  0
CIRCLE
  8
L-ZISSEN
 10
225.0
 20
202.000007
 30
0.0
 40
9.3155
  0
CIRCLE
  8
L-ZISSEN
 10
190.0
 20
202.000007
 30
0.0
 40
9.3155
  0
TEXT
  8
L-ZISSEN
 10
50.0
 20
670.0
 30
0.0
 40
4.5
  1
MODEL No. :
  0
TEXT
  8
L-ZISSEN
 10
95.0
 20
670.0
 30
0.0
 40
4.5
  1
MVD-492-
  0
LINE
  8
L-TYUSIN
 10
730.0
 20
175.000007
 30
0.0
 11
720.0
 21
175.000007
 31
0.0
  0
LINE
  8
L-TYUSIN
  6
CENTER
 62
     1
 10
558.0
 20
270.0
 30
0.0
 11
558.0
 21
260.0
 31
0.0
  0
LINE
  8
L-ZISSEN
  6
CONTINUOUS
 62
     7
 10
552.500014
 20
422.999993
 30
0.0
 11
647.499986
 21
422.999993
 31
0.0
  0
LINE
  8
L-TYUSIN
  6
CENTER
 62
     1
 10
525.0
 20
272.0
 30
0.0
 11
525.0
 21
288.0
 31
0.0
  0
LINE
  8
L-TYUSIN
  6
CENTER
 62
     1
 10
517.0
 20
280.0
 30
0.0
 11
533.0
 21
280.0
 31
0.0
  0
LINE
  8
L-ZISSEN
 10
779.0
 20
197.0
 30
0.0
 11
809.0
 21
197.0
 31
0.0
  0
LINE
  8
L-ZISSEN
  6
CONTINUOUS
 62
     7
 10
552.5
 20
197.000007
 30
0.0
 11
647.5
 21
197.000007
 31
0.0
  0
LINE
  8
L-ZISSEN
  6
CONTINUOUS
 62
     7
 10
515.0
 20
155.000007
 30
0.0
 11
574.0
 21
155.000007
 31
0.0
  0
LINE
  8
L-TYUSIN
  6
CENTER
 62
     1
 10
675.0
 20
172.000007
 30
0.0
 11
675.0
 21
150.000007
 31
0.0
  0
LINE
  8
L-ZISSEN
 10
685.0
 20
167.000007
 30
0.0
 11
685.0
 21
155.000007
 31
0.0
  0
LINE
  8
L-ZISSEN
  6
CONTINUOUS
 62
     7
 10
515.0
 20
167.000007
 30
0.0
 11
539.0
 21
167.000007
 31
0.0
  0
LINE
  8
L-TYUSIN
  6
CENTER
 62
     1
 10
525.0
 20
172.000007
 30
0.0
 11
525.0
 21
150.000007
 31
0.0
  0
LINE
  8
L-ZISSEN
 10
515.0
 20
167.000007
 30
0.0
 11
515.0
 21
155.000007
 31
0.0
  0
LINE
  8
L-TYUSIN
  6
CENTER
 62
     1
 10
543.0
 20
175.000007
 30
0.0
 11
573.0
 21
175.000007
 31
0.0
  0
LINE
  8
L-TYUSIN
  6
CENTER
 62
     1
 10
642.0
 20
190.000007
 30
0.0
 11
642.0
 21
160.000007
 31
0.0
  0
ARC
  8
L-ZISSEN
 10
642.0
 20
175.000007
 30
0.0
 40
19.0
 50
0.0
 51
140.833289
  0
ARC
  8
L-ZISSEN
 10
600.0
 20
175.000007
 30
0.0
 40
19.0
 50
219.166711
 51
320.833289
  0
LINE
  8
L-ZISSEN
 10
661.0
 20
175.000007
 30
0.0
 11
661.0
 21
167.000007
 31
0.0
  0
ARC
  8
L-ZISSEN
 10
558.0
 20
175.000007
 30
0.0
 40
19.0
 50
39.166711
 51
180.0
  0
LINE
  8
L-TYUSIN
  6
CENTER
 62
     1
 10
558.0
 20
190.000007
 30
0.0
 11
558.0
 21
160.000007
 31
0.0
  0
LINE
  8
L-ZISSEN
 10
539.0
 20
175.000007
 30
0.0
 11
539.0
 21
167.000007
 31
0.0
  0
LINE
  8
L-ZISSEN
  6
CONTINUOUS
 62
     7
 10
661.0
 20
167.000007
 30
0.0
 11
685.0
 21
167.000007
 31
0.0
  0
LINE
  8
L-ZISSEN
 10
647.499986
 20
197.000007
 30
0.0
 11
647.499986
 21
193.186544
 31
0.0
  0
LINE
  8
L-ZISSEN
 10
552.500014
 20
197.000007
 30
0.0
 11
552.500014
 21
193.186544
 31
0.0
  0
LINE
  8
L-ZISSEN
  6
CONTINUOUS
 62
     7
 10
614.73092
 20
187.000007
 30
0.0
 11
627.26908
 21
187.000007
 31
0.0
  0
LINE
  8
L-ZISSEN
  6
CONTINUOUS
 62
     7
 10
572.73092
 20
163.000007
 30
0.0
 11
585.26908
 21
163.000007
 31
0.0
  0
ARC
  8
L-ZISSEN
 10
600.0
 20
175.000007
 30
0.0
 40
19.0
 50
39.166711
 51
140.833289
  0
LINE
  8
L-ZISSEN
  6
CONTINUOUS
 62
     7
 10
572.73092
 20
187.000007
 30
0.0
 11
585.26908
 21
187.000007
 31
0.0
  0
LINE
  8
L-ZISSEN
  6
CONTINUOUS
 62
     7
 10
614.73092
 20
163.000007
 30
0.0
 11
627.26908
 21
163.000007
 31
0.0
  0
LINE
  8
L-ZISSEN
 10
626.0
 20
155.000007
 30
0.0
 11
618.0
 21
163.000007
 31
0.0
  0
LINE
  8
L-ZISSEN
 10
574.0
 20
155.000007
 30
0.0
 11
582.0
 21
163.000007
 31
0.0
  0
LINE
  8
L-ZISSEN
  6
CONTINUOUS
 62
     7
 10
626.0
 20
155.000007
 30
0.0
 11
685.0
 21
155.000007
 31
0.0
  0
CIRCLE
  8
L-ZISSEN
 10
642.0
 20
175.000007
 30
0.0
 40
12.0585
  0
CIRCLE
  8
L-ZISSEN
 10
558.0
 20
175.000007
 30
0.0
 40
12.0585
  0
CIRCLE
  8
L-ZISSEN
 10
600.0
 20
175.000007
 30
0.0
 40
12.0585
  0
LINE
  8
L-TYUSIN
  6
CENTER
 62
     1
 10
627.0
 20
175.000007
 30
0.0
 11
657.0
 21
175.000007
 31
0.0
  0
LINE
  8
L-TYUSIN
  6
CENTER
 62
     1
 10
585.0
 20
175.000007
 30
0.0
 11
615.0
 21
175.000007
 31
0.0
  0
LINE
  8
L-ZISSEN
 10
730.0
 20
155.000007
 30
0.0
 11
810.0
 21
155.000007
 31
0.0
  0
LINE
  8
L-ZISSEN
 10
725.0
 20
156.000007
 30
0.0
 11
725.0
 21
194.000007
 31
0.0
  0
LINE
  8
L-ZISSEN
 10
725.0
 20
194.000007
 30
0.0
 11
759.629909
 21
194.000007
 31
0.0
  0
LINE
  8
L-ZISSEN
 10
725.0
 20
156.000007
 30
0.0
 11
730.0
 21
156.000007
 31
0.0
  0
LINE
  8
L-TYUSIN
  6
CENTER
 62
     1
 10
740.0
 20
172.000007
 30
0.0
 11
740.0
 21
150.000007
 31
0.0
  0
LINE
  8
L-ZISSEN
 10
730.0
 20
155.000007
 30
0.0
 11
730.0
 21
167.000007
 31
0.0
  0
LINE
  8
L-ZISSEN
 10
730.0
 20
167.000007
 30
0.0
 11
765.980762
 21
167.000007
 31
0.0
  0
LINE
  8
L-ZISSEN
 10
810.0
 20
167.000007
 30
0.0
 11
810.0
 21
155.000007
 31
0.0
  0
CIRCLE
  8
L-ZISSEN
 10
525.0
 20
280.0
 30
0.0
 40
4.5
  0
LINE
  8
L-ZISSEN
 10
539.0
 20
270.0
 30
0.0
 11
525.0
 21
270.0
 31
0.0
  0
LINE
  8
L-TYUSIN
  6
CENTER
 62
     1
 10
642.0
 20
270.0
 30
0.0
 11
642.0
 21
260.0
 31
0.0
  0
LINE
  8
L-ZISSEN
 10
539.0
 20
265.0
 30
0.0
 11
539.0
 21
288.750006
 31
0.0
  0
LINE
  8
L-ZISSEN
 10
577.0
 20
265.0
 30
0.0
 11
577.0
 21
271.675457
 31
0.0
  0
LINE
  8
L-ZISSEN
 10
581.0
 20
265.0
 30
0.0
 11
581.0
 21
271.071806
 31
0.0
  0
LINE
  8
L-ZISSEN
 10
619.0
 20
265.0
 30
0.0
 11
619.0
 21
271.071806
 31
0.0
  0
LINE
  8
L-ZISSEN
 10
623.0
 20
265.0
 30
0.0
 11
623.0
 21
271.675457
 31
0.0
  0
LINE
  8
L-ZISSEN
 10
661.0
 20
265.0
 30
0.0
 11
661.0
 21
288.750006
 31
0.0
  0
LINE
  8
L-ZISSEN
 10
661.0
 20
265.0
 30
0.0
 11
539.0
 21
265.0
 31
0.0
  0
LINE
  8
L-ZISSEN
 10
539.0
 20
350.0
 30
0.0
 11
525.0
 21
350.0
 31
0.0
  0
CIRCLE
  8
L-ZISSEN
 10
525.0
 20
340.0
 30
0.0
 40
4.5
  0
LINE
  8
L-TYUSIN
  6
CENTER
 62
     1
 10
525.0
 20
348.0
 30
0.0
 11
525.0
 21
332.0
 31
0.0
  0
LINE
  8
L-TYUSIN
  6
CENTER
 62
     1
 10
517.0
 20
340.0
 30
0.0
 11
533.0
 21
340.0
 31
0.0
  0
LINE
  8
L-ZISSEN
 10
539.0
 20
355.0
 30
0.0
 11
539.0
 21
331.249994
 31
0.0
  0
LINE
  8
L-ZISSEN
 10
661.0
 20
355.0
 30
0.0
 11
616.0
 21
355.0
 31
0.0
  0
LINE
  8
L-ZISSEN
 10
616.0
 20
355.0
 30
0.0
 11
616.0
 21
348.928193
 31
0.0
  0
LINE
  8
L-ZISSEN
 10
661.0
 20
355.0
 30
0.0
 11
661.0
 21
331.249994
 31
0.0
  0
LINE
  8
L-TYUSIN
  6
CENTER
 62
     1
 10
635.0
 20
350.0
 30
0.0
 11
635.0
 21
360.0
 31
0.0
  0
ARC
  8
L-ZISSEN
 10
675.0
 20
280.0
 30
0.0
 40
10.0
 50
270.0
 51
53.130165
  0
LINE
  8
L-ZISSEN
 10
661.0
 20
270.0
 30
0.0
 11
675.0
 21
270.0
 31
0.0
  0
CIRCLE
  8
L-ZISSEN
 10
675.0
 20
280.0
 30
0.0
 40
4.5
  0
LINE
  8
L-TYUSIN
  6
CENTER
 62
     1
 10
675.0
 20
272.0
 30
0.0
 11
675.0
 21
288.0
 31
0.0
  0
LINE
  8
L-TYUSIN
  6
CENTER
 62
     1
 10
683.0
 20
280.0
 30
0.0
 11
667.0
 21
280.0
 31
0.0
  0
ARC
  8
L-ZISSEN
 10
675.0
 20
340.0
 30
0.0
 40
10.0
 50
306.869835
 51
90.0
  0
CIRCLE
  8
L-ZISSEN
 10
675.0
 20
340.0
 30
0.0
 40
4.5
  0
LINE
  8
L-TYUSIN
  6
CENTER
 62
     1
 10
683.0
 20
340.0
 30
0.0
 11
667.0
 21
340.0
 31
0.0
  0
LINE
  8
L-TYUSIN
  6
CENTER
 62
     1
 10
675.0
 20
348.0
 30
0.0
 11
675.0
 21
332.0
 31
0.0
  0
LINE
  8
L-ZISSEN
 10
661.0
 20
350.0
 30
0.0
 11
675.0
 21
350.0
 31
0.0
  0
LINE
  8
L-TYUSIN
  6
CENTER
 62
     1
 10
565.0
 20
350.0
 30
0.0
 11
565.0
 21
360.0
 31
0.0
  0
LINE
  8
L-ZISSEN
 10
584.0
 20
355.0
 30
0.0
 11
584.0
 21
348.928193
 31
0.0
  0
LINE
  8
L-ZISSEN
 10
635.26908
 20
155.000007
 30
0.0
 11
627.26908
 21
163.000007
 31
0.0
  0
LINE
  8
L-ZISSEN
 10
564.73092
 20
155.000007
 30
0.0
 11
572.73092
 21
163.000007
 31
0.0
  0
LINE
  8
L-ZISSEN
 10
539.0
 20
35.0
 30
0.0
 11
539.0
 21
40.0
 31
0.0
  0
LINE
  8
L-ZISSEN
 10
539.0
 20
40.0
 30
0.0
 11
525.0
 21
40.0
 31
0.0
  0
CIRCLE
  8
L-ZISSEN
 10
525.0
 20
50.0
 30
0.0
 40
4.5
  0
LINE
  8
L-TYUSIN
  6
CENTER
 62
     1
 10
517.0
 20
50.0
 30
0.0
 11
533.0
 21
50.0
 31
0.0
  0
LINE
  8
L-TYUSIN
  6
CENTER
 62
     1
 10
525.0
 20
42.0
 30
0.0
 11
525.0
 21
58.0
 31
0.0
  0
ARC
  8
L-ZISSEN
 10
525.0
 20
50.0
 30
0.0
 40
10.0
 50
120.0
 51
270.0
  0
LINE
  8
L-ZISSEN
 10
520.0
 20
58.660254
 30
0.0
 11
550.0
 21
75.980762
 31
0.0
  0
LINE
  8
L-ZISSEN
 10
520.0
 20
101.339746
 30
0.0
 11
550.0
 21
84.019238
 31
0.0
  0
ARC
  8
L-ZISSEN
 10
525.0
 20
110.0
 30
0.0
 40
10.0
 50
90.0
 51
240.0
  0
CIRCLE
  8
L-ZISSEN
 10
525.0
 20
110.0
 30
0.0
 40
4.5
  0
LINE
  8
L-TYUSIN
  6
CENTER
 62
     1
 10
517.0
 20
110.0
 30
0.0
 11
533.0
 21
110.0
 31
0.0
  0
LINE
  8
L-TYUSIN
  6
CENTER
 62
     1
 10
525.0
 20
118.0
 30
0.0
 11
525.0
 21
102.0
 31
0.0
  0
LINE
  8
L-ZISSEN
 10
539.0
 20
120.0
 30
0.0
 11
525.0
 21
120.0
 31
0.0
  0
LINE
  8
L-ZISSEN
 10
539.0
 20
125.0
 30
0.0
 11
539.0
 21
120.0
 31
0.0
  0
LINE
  8
L-ZISSEN
 10
661.0
 20
125.0
 30
0.0
 11
539.0
 21
125.0
 31
0.0
  0
LINE
  8
L-TYUSIN
  6
CENTER
 62
     1
 10
565.0
 20
40.0
 30
0.0
 11
565.0
 21
30.0
 31
0.0
  0
LINE
  8
L-TYUSIN
  6
CENTER
 62
     1
 10
635.0
 20
40.0
 30
0.0
 11
635.0
 21
30.0
 31
0.0
  0
LINE
  8
L-ZISSEN
 10
661.0
 20
125.0
 30
0.0
 11
661.0
 21
120.0
 31
0.0
  0
LINE
  8
L-ZISSEN
 10
661.0
 20
120.0
 30
0.0
 11
675.0
 21
120.0
 31
0.0
  0
CIRCLE
  8
L-ZISSEN
 10
675.0
 20
110.0
 30
0.0
 40
4.5
  0
LINE
  8
L-TYUSIN
  6
CENTER
 62
     1
 10
675.0
 20
118.0
 30
0.0
 11
675.0
 21
102.0
 31
0.0
  0
LINE
  8
L-TYUSIN
  6
CENTER
 62
     1
 10
683.0
 20
110.0
 30
0.0
 11
667.0
 21
110.0
 31
0.0
  0
LINE
  8
L-TYUSIN
  6
CENTER
 62
     1
 10
683.0
 20
50.0
 30
0.0
 11
667.0
 21
50.0
 31
0.0
  0
CIRCLE
  8
L-ZISSEN
 10
675.0
 20
50.0
 30
0.0
 40
4.5
  0
LINE
  8
L-TYUSIN
  6
CENTER
 62
     1
 10
675.0
 20
42.0
 30
0.0
 11
675.0
 21
58.0
 31
0.0
  0
LINE
  8
L-ZISSEN
 10
661.0
 20
40.0
 30
0.0
 11
675.0
 21
40.0
 31
0.0
  0
LINE
  8
L-ZISSEN
 10
661.0
 20
35.0
 30
0.0
 11
661.0
 21
40.0
 31
0.0
  0
LINE
  8
L-ZISSEN
 10
661.0
 20
35.0
 30
0.0
 11
616.0
 21
35.0
 31
0.0
  0
LINE
  8
L-TYUSIN
  6
CENTER
 62
     1
 10
642.0
 20
120.0
 30
0.0
 11
642.0
 21
130.0
 31
0.0
  0
LINE
  8
L-TYUSIN
  6
CENTER
 62
     1
 10
558.0
 20
120.0
 30
0.0
 11
558.0
 21
130.0
 31
0.0
  0
LINE
  8
L-ZISSEN
 10
550.0
 20
84.019238
 30
0.0
 11
550.0
 21
75.980762
 31
0.0
  0
LINE
  8
L-ZISSEN
 10
680.0
 20
101.339746
 30
0.0
 11
650.0
 21
84.019238
 31
0.0
  0
ARC
  8
L-ZISSEN
 10
675.0
 20
110.0
 30
0.0
 40
10.0
 50
300.0
 51
90.0
  0
LINE
  8
L-ZISSEN
 10
650.0
 20
84.019238
 30
0.0
 11
650.0
 21
75.980762
 31
0.0
  0
LINE
  8
L-ZISSEN
 10
680.0
 20
58.660254
 30
0.0
 11
650.0
 21
75.980762
 31
0.0
  0
ARC
  8
L-ZISSEN
 10
675.0
 20
50.0
 30
0.0
 40
10.0
 50
270.0
 51
60.0
  0
CIRCLE
  8
L-ZISSEN
 10
565.0
 20
444.999993
 30
0.0
 40
12.0585
  0
LINE
  8
L-ZISSEN
  6
CONTINUOUS
 62
     7
 10
626.0
 20
464.999993
 30
0.0
 11
685.0
 21
464.999993
 31
0.0
  0
LINE
  8
L-ZISSEN
 10
574.0
 20
464.999993
 30
0.0
 11
582.0
 21
456.999993
 31
0.0
  0
LINE
  8
L-ZISSEN
 10
626.0
 20
464.999993
 30
0.0
 11
618.0
 21
456.999993
 31
0.0
  0
LINE
  8
L-ZISSEN
  6
CONTINUOUS
 62
     7
 10
582.0
 20
456.999993
 30
0.0
 11
618.0
 21
456.999993
 31
0.0
  0
LINE
  8
L-ZISSEN
  6
CONTINUOUS
 62
     7
 10
579.73092
 20
432.999993
 30
0.0
 11
620.26908
 21
432.999993
 31
0.0
  0
LINE
  8
L-ZISSEN
  6
CONTINUOUS
 62
     7
 10
661.0
 20
452.999993
 30
0.0
 11
685.0
 21
452.999993
 31
0.0
  0
LINE
  8
L-ZISSEN
 10
539.0
 20
444.999993
 30
0.0
 11
539.0
 21
452.999993
 31
0.0
  0
LINE
  8
L-TYUSIN
  6
CENTER
 62
     1
 10
565.0
 20
429.999993
 30
0.0
 11
565.0
 21
459.999993
 31
0.0
  0
ARC
  8
L-ZISSEN
 10
558.0
 20
444.999993
 30
0.0
 40
19.0
 50
180.0
 51
270.0
  0
LINE
  8
L-ZISSEN
 10
661.0
 20
444.999993
 30
0.0
 11
661.0
 21
452.999993
 31
0.0
  0
LINE
  8
L-TYUSIN
  6
CENTER
 62
     1
 10
550.0
 20
444.999993
 30
0.0
 11
580.0
 21
444.999993
 31
0.0
  0
LINE
  8
L-ZISSEN
 10
515.0
 20
452.999993
 30
0.0
 11
515.0
 21
464.999993
 31
0.0
  0
LINE
  8
L-TYUSIN
  6
CENTER
 62
     1
 10
525.0
 20
447.999993
 30
0.0
 11
525.0
 21
469.999993
 31
0.0
  0
LINE
  8
L-ZISSEN
  6
CONTINUOUS
 62
     7
 10
515.0
 20
452.999993
 30
0.0
 11
539.0
 21
452.999993
 31
0.0
  0
LINE
  8
L-ZISSEN
 10
685.0
 20
452.999993
 30
0.0
 11
685.0
 21
464.999993
 31
0.0
  0
LINE
  8
L-TYUSIN
  6
CENTER
 62
     1
 10
675.0
 20
447.999993
 30
0.0
 11
675.0
 21
469.999993
 31
0.0
  0
LINE
  8
L-ZISSEN
  6
CONTINUOUS
 62
     7
 10
515.0
 20
464.999993
 30
0.0
 11
574.0
 21
464.999993
 31
0.0
  0
LINE
  8
L-ZISSEN
 10
647.499986
 20
422.999993
 30
0.0
 11
647.499986
 21
426.813456
 31
0.0
  0
LINE
  8
L-ZISSEN
 10
552.500014
 20
422.999993
 30
0.0
 11
552.500014
 21
426.813456
 31
0.0
  0
ARC
  8
L-ZISSEN
 10
565.0
 20
444.999993
 30
0.0
 40
19.0
 50
270.0
 51
320.833289
  0
LINE
  8
L-ZISSEN
 10
558.0
 20
425.999993
 30
0.0
 11
565.0
 21
425.999993
 31
0.0
  0
ARC
  8
L-ZISSEN
 10
635.0
 20
444.999993
 30
0.0
 40
19.0
 50
219.166711
 51
270.0
  0
LINE
  8
L-ZISSEN
 10
642.0
 20
425.999993
 30
0.0
 11
635.0
 21
425.999993
 31
0.0
  0
ARC
  8
L-ZISSEN
 10
642.0
 20
444.999993
 30
0.0
 40
19.0
 50
270.0
 51
0.0
  0
CIRCLE
  8
L-ZISSEN
 10
635.0
 20
444.999993
 30
0.0
 40
12.0585
  0
LINE
  8
L-TYUSIN
  6
CENTER
 62
     1
 10
635.0
 20
429.999993
 30
0.0
 11
635.0
 21
459.999993
 31
0.0
  0
LINE
  8
L-TYUSIN
  6
CENTER
 62
     1
 10
650.0
 20
444.999993
 30
0.0
 11
620.0
 21
444.999993
 31
0.0
  0
ARC
  8
L-ZISSEN
 10
600.0
 20
444.999993
 30
0.0
 40
19.0
 50
39.166711
 51
140.833289
  0
LINE
  8
L-ZISSEN
 10
616.0
 20
350.0
 30
0.0
 11
584.0
 21
350.0
 31
0.0
  0
LINE
  8
L-ZISSEN
 10
584.0
 20
355.0
 30
0.0
 11
539.0
 21
355.0
 31
0.0
  0
LINE
  8
L-ZISSEN
 10
616.0
 20
40.0
 30
0.0
 11
584.0
 21
40.0
 31
0.0
  0
LINE
  8
L-ZISSEN
 10
584.0
 20
35.0
 30
0.0
 11
584.0
 21
40.0
 31
0.0
  0
LINE
  8
L-ZISSEN
 10
616.0
 20
35.0
 30
0.0
 11
616.0
 21
40.0
 31
0.0
  0
LINE
  8
L-ZISSEN
 10
584.0
 20
35.0
 30
0.0
 11
539.0
 21
35.0
 31
0.0
  0
LINE
  8
L-ZISSEN
 10
774.019238
 20
155.000007
 30
0.0
 11
774.019238
 21
167.000007
 31
0.0
  0
LINE
  8
L-ZISSEN
 10
765.980762
 20
155.000007
 30
0.0
 11
765.980762
 21
167.000007
 31
0.0
  0
LINE
  8
L-ZISSEN
 10
774.019238
 20
167.000007
 30
0.0
 11
810.0
 21
167.000007
 31
0.0
  0
LINE
  8
L-ZISSEN
 10
815.0
 20
194.000007
 30
0.0
 11
780.370091
 21
194.000007
 31
0.0
  0
LINE
  8
L-ZISSEN
 10
815.0
 20
156.000007
 30
0.0
 11
815.0
 21
194.000007
 31
0.0
  0
LINE
  8
L-TYUSIN
 10
810.0
 20
175.000007
 30
0.0
 11
820.0
 21
175.000007
 31
0.0
  0
LINE
  8
L-ZISSEN
 10
815.0
 20
156.000007
 30
0.0
 11
810.0
 21
156.000007
 31
0.0
  0
LINE
  8
L-ZISSEN
 10
802.0
 20
194.000007
 30
0.0
 11
802.0
 21
197.0
 31
0.0
  0
LINE
  8
L-ZISSEN
 10
809.0
 20
194.000007
 30
0.0
 11
809.0
 21
197.0
 31
0.0
  0
LINE
  8
L-ZISSEN
 10
731.0
 20
194.000007
 30
0.0
 11
731.0
 21
197.0
 31
0.0
  0
LINE
  8
L-ZISSEN
 10
738.0
 20
194.000007
 30
0.0
 11
738.0
 21
197.0
 31
0.0
  0
LINE
  8
L-TYUSIN
  6
CENTER
 62
     1
 10
800.0
 20
172.000007
 30
0.0
 11
800.0
 21
150.000007
 31
0.0
  0
SOLID
  8
L-ZISSEN
 10
216.653911
 20
256.997829
 30
0.0
 11
216.024672
 21
256.777596
 31
0.0
 12
216.999992
 22
254.999995
 32
0.0
 13
216.999992
 23
254.999995
 33
0.0
  0
LINE
  8
L-ZISSEN
 10
216.339292
 20
256.887712
 30
0.0
 11
210.0
 21
275.0
 31
0.0
  0
LINE
  8
L-ZISSEN
 10
210.0
 20
275.0
 30
0.0
 11
208.0
 21
275.0
 31
0.0
  0
TEXT
  8
L-ZISSEN
 10
197.0
 20
272.75
 30
0.0
 40
4.5
  1
P.P
  0
SOLID
  8
L-ZISSEN
 10
289.380111
 20
301.573394
 30
0.0
 11
289.924949
 21
301.957575
 31
0.0
 12
288.499986
 22
303.4
 32
0.0
 13
288.499986
 23
303.4
 33
0.0
  0
LINE
  8
L-ZISSEN
 10
289.65253
 20
301.765484
 30
0.0
 11
305.0
 21
280.0
 31
0.0
  0
LINE
  8
L-ZISSEN
 10
305.0
 20
280.0
 30
0.0
 11
307.0
 21
280.0
 31
0.0
  0
TEXT
  8
L-ZISSEN
 10
309.0
 20
277.75
 30
0.0
 40
4.5
  1
P.P
  0
SOLID
  8
L-ZISSEN
 10
391.476001
 20
302.009845
 30
0.0
 11
391.847079
 21
302.563692
 31
0.0
 12
390.0
 22
303.4
 32
0.0
 13
390.0
 23
303.4
 33
0.0
  0
LINE
  8
L-ZISSEN
 10
391.66154
 20
302.286768
 30
0.0
 11
410.0
 21
290.0
 31
0.0
  0
LINE
  8
L-ZISSEN
 10
410.0
 20
290.0
 30
0.0
 11
412.0
 21
290.0
 31
0.0
  0
TEXT
  8
L-ZISSEN
 10
414.0
 20
287.75
 30
0.0
 40
4.5
  1
P.P
  0
SOLID
  8
L-ZISSEN
 10
289.859345
 20
408.495588
 30
0.0
 11
290.273783
 21
409.017781
 31
0.0
 12
288.499986
 22
410.0
 32
0.0
 13
288.499986
 23
410.0
 33
0.0
  0
LINE
  8
L-ZISSEN
 10
290.066564
 20
408.756685
 30
0.0
 11
320.0
 21
385.0
 31
0.0
  0
LINE
  8
L-ZISSEN
 10
320.0
 20
385.0
 30
0.0
 11
322.0
 21
385.0
 31
0.0
  0
TEXT
  8
L-ZISSEN
 10
324.0
 20
382.75
 30
0.0
 40
4.5
  1
P.P
  0
SOLID
  8
L-ZISSEN
 10
292.257901
 20
269.389631
 30
0.0
 11
292.490566
 21
270.01438
 31
0.0
 12
290.499986
 22
270.4
 32
0.0
 13
290.499986
 23
270.4
 33
0.0
  0
LINE
  8
L-ZISSEN
 10
292.374233
 20
269.702005
 30
0.0
 11
305.0
 21
265.0
 31
0.0
  0
LINE
  8
L-ZISSEN
 10
305.0
 20
265.0
 30
0.0
 11
307.0
 21
265.0
 31
0.0
  0
TEXT
  8
L-ZISSEN
 10
309.0
 20
262.75
 30
0.0
 40
4.5
  1
P.P
  0
SOLID
  8
L-ZISSEN
 10
391.94729
 20
270.964954
 30
0.0
 11
391.658802
 21
271.56597
 31
0.0
 12
390.0
 22
270.4
 32
0.0
 13
390.0
 23
270.4
 33
0.0
  0
LINE
  8
L-ZISSEN
 10
391.803046
 20
271.265462
 30
0.0
 11
410.0
 21
280.0
 31
0.0
  0
LINE
  8
L-ZISSEN
 10
410.0
 20
280.0
 30
0.0
 11
412.0
 21
280.0
 31
0.0
  0
TEXT
  8
L-ZISSEN
 10
414.0
 20
277.75
 30
0.0
 40
4.5
  1
P.P
  0
SOLID
  8
L-ZISSEN
 10
190.433289
 20
68.01925
 30
0.0
 11
191.052274
 21
68.266844
 31
0.0
 12
190.0
 22
70.0
 32
0.0
 13
190.0
 23
70.0
 33
0.0
  0
LINE
  8
L-ZISSEN
 10
190.742781
 20
68.143047
 30
0.0
 11
210.0
 21
20.0
 31
0.0
  0
LINE
  8
L-ZISSEN
 10
210.0
 20
20.0
 30
0.0
 11
212.0
 21
20.0
 31
0.0
  0
TEXT
  8
L-ZISSEN
 10
214.0
 20
17.75
 30
0.0
 40
4.5
  1
P.P
  0
SOLID
  8
L-ZISSEN
 10
600.029814
 20
77.972632
 30
0.0
 11
600.685728
 21
78.091889
 31
0.0
 12
600.0
 22
80.0
 32
0.0
 13
600.0
 23
80.0
 33
0.0
  0
LINE
  8
L-ZISSEN
 10
600.357771
 20
78.03226
 30
0.0
 11
610.0
 21
25.0
 31
0.0
  0
LINE
  8
L-ZISSEN
 10
610.0
 20
25.0
 30
0.0
 11
612.0
 21
25.0
 31
0.0
  0
TEXT
  8
L-ZISSEN
 10
614.0
 20
22.75
 30
0.0
 40
4.5
  1
P.P
  0
SOLID
  8
L-ZISSEN
 10
189.403715
 20
241.937926
 30
0.0
 11
188.80743
 21
241.639783
 31
0.0
 12
190.0
 22
240.0
 32
0.0
 13
190.0
 23
240.0
 33
0.0
  0
LINE
  8
L-ZISSEN
 10
189.105573
 20
241.788854
 30
0.0
 11
170.0
 21
280.0
 31
0.0
  0
LINE
  8
L-ZISSEN
 10
170.0
 20
280.0
 30
0.0
 11
168.0
 21
280.0
 31
0.0
  0
TEXT
  8
L-ZISSEN
 10
157.0
 20
277.75
 30
0.0
 40
4.5
  1
P.P
  0
SOLID
  8
L-ZISSEN
 10
391.969596
 20
240.481457
 30
0.0
 11
391.706984
 21
241.09422
 31
0.0
 12
390.0
 22
240.0
 32
0.0
 13
390.0
 23
240.0
 33
0.0
  0
LINE
  8
L-ZISSEN
 10
391.83829
 20
240.787839
 30
0.0
 11
425.0
 21
255.0
 31
0.0
  0
LINE
  8
L-ZISSEN
 10
425.0
 20
255.0
 30
0.0
 11
427.0
 21
255.0
 31
0.0
  0
TEXT
  8
L-ZISSEN
 10
429.0
 20
252.75
 30
0.0
 40
4.5
  1
P.P
  0
LINE
  8
L-ZISSEN
 10
761.0
 20
197.0
 30
0.0
 11
731.0
 21
197.0
 31
0.0
  0
SOLID
  8
L-ZISSEN
 10
771.8
 20
220.933333
 30
0.0
 11
771.4
 21
221.466667
 31
0.0
 12
770.0
 22
220.0
 32
0.0
 13
770.0
 23
220.0
 33
0.0
  0
LINE
  8
L-ZISSEN
 10
771.6
 20
221.2
 30
0.0
 11
790.0
 21
235.0
 31
0.0
  0
LINE
  8
L-ZISSEN
 10
790.0
 20
235.0
 30
0.0
 11
792.0
 21
235.0
 31
0.0
  0
TEXT
  8
L-ZISSEN
 10
794.0
 20
232.75
 30
0.0
 40
4.5
  1
P.P
  0
SOLID
  8
L-ZISSEN
 10
598.821489
 20
221.649916
 30
0.0
 11
598.350084
 21
221.178511
 31
0.0
 12
600.0
 22
220.0
 32
0.0
 13
600.0
 23
220.0
 33
0.0
  0
LINE
  8
L-ZISSEN
 10
598.585786
 20
221.414214
 30
0.0
 11
590.0
 21
230.0
 31
0.0
  0
LINE
  8
L-ZISSEN
 10
590.0
 20
230.0
 30
0.0
 11
588.0
 21
230.0
 31
0.0
  0
TEXT
  8
L-ZISSEN
 10
577.0
 20
227.75
 30
0.0
 40
4.5
  1
P.P
  0
SOLID
  8
L-ZISSEN
 10
189.934628
 20
412.026533
 30
0.0
 11
189.280908
 21
411.895789
 31
0.0
 12
190.0
 22
410.0
 32
0.0
 13
190.0
 23
410.0
 33
0.0
  0
LINE
  8
L-ZISSEN
 10
189.607768
 20
411.961161
 30
0.0
 11
180.0
 21
460.0
 31
0.0
  0
LINE
  8
L-ZISSEN
 10
180.0
 20
460.0
 30
0.0
 11
178.0
 21
460.0
 31
0.0
  0
TEXT
  8
L-ZISSEN
 10
167.0
 20
457.75
 30
0.0
 40
4.5
  1
P.P
  0
SOLID
  8
L-ZISSEN
 10
188.90578
 20
578.293016
 30
0.0
 11
189.518543
 21
578.030404
 31
0.0
 12
190.0
 22
580.0
 32
0.0
 13
190.0
 23
580.0
 33
0.0
  0
LINE
  8
L-ZISSEN
 10
189.212161
 20
578.16171
 30
0.0
 11
175.0
 21
545.0
 31
0.0
  0
LINE
  8
L-ZISSEN
 10
175.0
 20
545.0
 30
0.0
 11
173.0
 21
545.0
 31
0.0
  0
TEXT
  8
L-ZISSEN
 10
162.0
 20
542.75
 30
0.0
 40
4.5
  1
P.P
  0
SOLID
  8
L-ZISSEN
 10
599.16795
 20
311.849001
 30
0.0
 11
598.61325
 21
311.479201
 31
0.0
 12
600.0
 22
310.0
 32
0.0
 13
600.0
 23
310.0
 33
0.0
  0
LINE
  8
L-ZISSEN
 10
598.8906
 20
311.664101
 30
0.0
 11
590.0
 21
325.0
 31
0.0
  0
LINE
  8
L-ZISSEN
 10
590.0
 20
325.0
 30
0.0
 11
588.0
 21
325.0
 31
0.0
  0
TEXT
  8
L-ZISSEN
 10
577.0
 20
322.75
 30
0.0
 40
4.5
  1
P.P
  0
SOLID
  8
L-ZISSEN
 10
598.350084
 20
398.821489
 30
0.0
 11
598.821489
 21
398.350084
 31
0.0
 12
600.0
 22
400.0
 32
0.0
 13
600.0
 23
400.0
 33
0.0
  0
LINE
  8
L-ZISSEN
 10
598.585786
 20
398.585786
 30
0.0
 11
590.0
 21
390.0
 31
0.0
  0
LINE
  8
L-ZISSEN
 10
590.0
 20
390.0
 30
0.0
 11
588.0
 21
390.0
 31
0.0
  0
TEXT
  8
L-ZISSEN
 10
577.0
 20
387.75
 30
0.0
 40
4.5
  1
P.P
  0
LINE
  8
L-TYUSIN
 10
470.0
 20
500.0
 30
0.0
 11
470.0
 21
15.0
 31
0.0
  0
TEXT
  8
L-ZISSEN
 10
480.0
 20
490.0
 30
0.0
 40
4.5
  1
SUB-BASE CONNECTION
  0
TEXT
  8
L-ZISSEN
 10
480.0
 20
480.0
 30
0.0
 40
4.5
  1
MODEL No. :
  0
TEXT
  8
L-ZISSEN
 10
525.0
 20
480.0
 30
0.0
 40
4.5
  1
MVD-492-06J
  0
LINE
  8
L-TYUSIN
 10
77.600014
 20
270.4
 30
0.0
 11
94.500014
 21
270.4
 31
0.0
  0
LINE
  8
L-ZISSEN
 10
82.400014
 20
263.471797
 30
0.0
 11
82.400014
 21
277.328203
 31
0.0
  0
LINE
  8
L-ZISSEN
 10
82.400014
 20
277.328203
 30
0.0
 11
89.500014
 21
277.328203
 31
0.0
  0
LINE
  8
L-ZISSEN
 10
82.400014
 20
273.864102
 30
0.0
 11
89.500014
 21
273.864102
 31
0.0
  0
LINE
  8
L-ZISSEN
 10
82.400014
 20
263.471797
 30
0.0
 11
89.500014
 21
263.471797
 31
0.0
  0
LINE
  8
L-ZISSEN
 10
82.400014
 20
266.935898
 30
0.0
 11
89.500014
 21
266.935898
 31
0.0
  0
LINE
  8
L-ZISSEN
 10
91.500014
 20
285.0
 30
0.0
 11
91.500014
 21
328.9
 31
0.0
  0
LINE
  8
L-ZISSEN
 10
134.300014
 20
328.9
 30
0.0
 11
134.300014
 21
285.0
 31
0.0
  0
LINE
  8
L-ZISSEN
 10
91.500014
 20
328.9
 30
0.0
 11
134.300014
 21
328.9
 31
0.0
  0
LINE
  8
L-ZISSEN
 10
105.68506
 20
331.9
 30
0.0
 11
105.68506
 21
328.9
 31
0.0
  0
LINE
  8
L-ZISSEN
 10
125.314969
 20
331.9
 30
0.0
 11
125.314969
 21
328.9
 31
0.0
  0
LINE
  8
L-ZISSEN
 10
105.68506
 20
331.9
 30
0.0
 11
125.314969
 21
331.9
 31
0.0
  0
LINE
  8
L-ZISSEN
 10
55.800014
 20
289.65
 30
0.0
 11
87.000014
 21
289.65
 31
0.0
  0
LINE
  8
L-ZISSEN
 10
55.800014
 20
289.65
 30
0.0
 11
55.800014
 21
332.65
 31
0.0
  0
LINE
  8
L-ZISSEN
 10
78.300014
 20
317.15
 30
0.0
 11
78.300014
 21
332.65
 31
0.0
  0
LINE
  8
L-ZISSEN
 10
55.800014
 20
332.65
 30
0.0
 11
78.300014
 21
332.65
 31
0.0
  0
LINE
  8
L-ZISSEN
 10
55.800014
 20
317.15
 30
0.0
 11
87.000014
 21
317.15
 31
0.0
  0
LINE
  8
L-ZISSEN
 10
56.080359
 20
343.4
 30
0.0
 11
78.019669
 21
343.4
 31
0.0
  0
LINE
  8
L-ZISSEN
 10
56.080359
 20
343.4
 30
0.0
 11
56.080359
 21
337.9
 31
0.0
  0
LINE
  8
L-ZISSEN
 10
78.019669
 20
343.4
 30
0.0
 11
78.019669
 21
337.9
 31
0.0
  0
LINE
  8
L-ZISSEN
 10
56.080359
 20
337.9
 30
0.0
 11
78.019669
 21
337.9
 31
0.0
  0
LINE
  8
L-ZISSEN
 10
57.850014
 20
332.65
 30
0.0
 11
57.850014
 21
335.55
 31
0.0
  0
LINE
  8
L-ZISSEN
 10
76.250014
 20
332.65
 30
0.0
 11
76.250014
 21
335.55
 31
0.0
  0
LINE
  8
L-ZISSEN
 10
58.550014
 20
335.55
 30
0.0
 11
58.550014
 21
337.9
 31
0.0
  0
LINE
  8
L-ZISSEN
 10
75.550014
 20
335.55
 30
0.0
 11
75.550014
 21
337.9
 31
0.0
  0
LINE
  8
L-ZISSEN
 10
57.850014
 20
335.55
 30
0.0
 11
76.250014
 21
335.55
 31
0.0
  0
LINE
  8
L-ZISSEN
 10
87.000014
 20
288.15
 30
0.0
 11
91.500014
 21
288.15
 31
0.0
  0
LINE
  8
L-ZISSEN
 10
87.000014
 20
318.65
 30
0.0
 11
91.500014
 21
318.65
 31
0.0
  0
LINE
  8
L-ZISSEN
 10
87.000014
 20
288.15
 30
0.0
 11
87.000014
 21
318.65
 31
0.0
  0
LINE
  8
L-ZISSEN
 10
134.500014
 20
275.0
 30
0.0
 11
89.500014
 21
275.0
 31
0.0
  0
LINE
  8
L-ZISSEN
 10
89.500014
 20
255.455844
 30
0.0
 11
126.200016
 21
255.455844
 31
0.0
  0
LINE
  8
L-ZISSEN
  6
CONTINUOUS
 62
     7
 10
126.200016
 20
261.249994
 30
0.0
 11
126.200016
 21
252.749996
 31
0.0
  0
LINE
  8
L-ZISSEN
  6
CONTINUOUS
 62
     7
 10
132.500014
 20
261.249994
 30
0.0
 11
126.200016
 21
261.249994
 31
0.0
  0
LINE
  8
L-ZISSEN
  6
CONTINUOUS
 62
     7
 10
132.500014
 20
252.749996
 30
0.0
 11
126.200016
 21
252.749996
 31
0.0
  0
LINE
  8
L-ZISSEN
  6
CONTINUOUS
 62
     7
 10
126.200016
 20
227.250004
 30
0.0
 11
126.200016
 21
218.750006
 31
0.0
  0
LINE
  8
L-ZISSEN
  6
CONTINUOUS
 62
     7
 10
132.500014
 20
227.250004
 30
0.0
 11
126.200016
 21
227.250004
 31
0.0
  0
LINE
  8
L-ZISSEN
  6
CONTINUOUS
 62
     7
 10
132.500014
 20
218.750006
 30
0.0
 11
126.200016
 21
218.750006
 31
0.0
  0
LINE
  8
L-ZISSEN
  6
CONTINUOUS
 62
     7
 10
132.500014
 20
236.544156
 30
0.0
 11
132.500014
 21
218.000007
 31
0.0
  0
LINE
  8
L-ZISSEN
 10
87.500014
 20
236.544156
 30
0.0
 11
132.500014
 21
236.544156
 31
0.0
  0
LINE
  8
L-ZISSEN
 10
87.500014
 20
243.455844
 30
0.0
 11
132.500014
 21
243.455844
 31
0.0
  0
LINE
  8
L-ZISSEN
 10
96.500014
 20
213.0
 30
0.0
 11
96.500014
 21
218.000007
 31
0.0
  0
LINE
  8
L-ZISSEN
 10
114.500014
 20
213.0
 30
0.0
 11
114.500014
 21
218.000007
 31
0.0
  0
LINE
  8
L-ZISSEN
  6
CONTINUOUS
 62
     7
 10
132.500014
 20
262.0
 30
0.0
 11
132.500014
 21
243.455844
 31
0.0
  0
LINE
  8
L-ZISSEN
  6
CONTINUOUS
 62
     7
 10
134.500014
 20
285.0
 30
0.0
 11
134.500014
 21
262.0
 31
0.0
  0
LINE
  8
L-ZISSEN
 10
96.500014
 20
213.0
 30
0.0
 11
114.500014
 21
213.0
 31
0.0
  0
LINE
  8
L-ZISSEN
 10
134.500014
 20
285.0
 30
0.0
 11
89.500014
 21
285.0
 31
0.0
  0
LINE
  8
L-ZISSEN
  6
CONTINUOUS
 62
     7
 10
89.500014
 20
285.0
 30
0.0
 11
89.500014
 21
255.455844
 31
0.0
  0
LINE
  8
L-ZISSEN
  6
CONTINUOUS
 62
     7
 10
132.500014
 20
388.750006
 30
0.0
 11
126.200016
 21
388.750006
 31
0.0
  0
LINE
  8
L-ZISSEN
  6
CONTINUOUS
 62
     7
 10
126.200016
 20
394.0
 30
0.0
 11
126.200016
 21
388.750006
 31
0.0
  0
LINE
  8
L-ZISSEN
  6
CONTINUOUS
 62
     7
 10
132.500014
 20
431.249994
 30
0.0
 11
126.200016
 21
431.249994
 31
0.0
  0
LINE
  8
L-ZISSEN
  6
CONTINUOUS
 62
     7
 10
126.200016
 20
431.249994
 30
0.0
 11
126.200016
 21
426.0
 31
0.0
  0
LINE
  8
L-ZISSEN
 10
134.500014
 20
404.0
 30
0.0
 11
142.500014
 21
404.0
 31
0.0
  0
LINE
  8
L-ZISSEN
 10
134.500014
 20
416.0
 30
0.0
 11
142.500014
 21
416.0
 31
0.0
  0
LINE
  8
L-ZISSEN
  6
CONTINUOUS
 62
     7
 10
132.500014
 20
426.0
 30
0.0
 11
132.500014
 21
431.999993
 31
0.0
  0
LINE
  8
L-ZISSEN
  6
CONTINUOUS
 62
     7
 10
132.500014
 20
388.000007
 30
0.0
 11
132.500014
 21
394.0
 31
0.0
  0
LINE
  8
L-ZISSEN
 10
134.500014
 20
394.0
 30
0.0
 11
89.500014
 21
394.0
 31
0.0
  0
LINE
  8
L-ZISSEN
  6
CONTINUOUS
 62
     7
 10
134.500014
 20
394.0
 30
0.0
 11
134.500014
 21
426.0
 31
0.0
  0
LINE
  8
L-ZISSEN
 10
134.500014
 20
426.0
 30
0.0
 11
89.500014
 21
426.0
 31
0.0
  0
LINE
  8
L-ZISSEN
 10
110.592537
 20
418.5
 30
0.0
 11
120.407492
 21
418.5
 31
0.0
  0
LINE
  8
L-ZISSEN
 10
105.68506
 20
410.0
 30
0.0
 11
110.592537
 21
418.5
 31
0.0
  0
LINE
  8
L-ZISSEN
 10
110.592537
 20
401.5
 30
0.0
 11
105.68506
 21
410.0
 31
0.0
  0
LINE
  8
L-ZISSEN
 10
120.407492
 20
401.5
 30
0.0
 11
110.592537
 21
401.5
 31
0.0
  0
LINE
  8
L-ZISSEN
 10
125.314969
 20
410.0
 30
0.0
 11
120.407492
 21
401.5
 31
0.0
  0
LINE
  8
L-ZISSEN
 10
120.407492
 20
418.5
 30
0.0
 11
125.314969
 21
410.0
 31
0.0
  0
LINE
  8
L-ZISSEN
 10
91.500014
 20
425.25
 30
0.0
 11
91.500014
 21
394.75
 31
0.0
  0
LINE
  8
L-ZISSEN
 10
87.000014
 20
425.25
 30
0.0
 11
87.000014
 21
394.75
 31
0.0
  0
LINE
  8
L-ZISSEN
 10
87.000014
 20
394.75
 30
0.0
 11
91.500014
 21
394.75
 31
0.0
  0
LINE
  8
L-ZISSEN
 10
87.000014
 20
425.25
 30
0.0
 11
91.500014
 21
425.25
 31
0.0
  0
CIRCLE
  8
L-ZISSEN
 10
67.050014
 20
410.0
 30
0.0
 40
6.5
  0
LINE
  8
L-ZISSEN
 10
55.800014
 20
423.75
 30
0.0
 11
87.000014
 21
423.75
 31
0.0
  0
LINE
  8
L-ZISSEN
 10
55.800014
 20
396.25
 30
0.0
 11
87.000014
 21
396.25
 31
0.0
  0
CIRCLE
  8
L-ZISSEN
 10
67.050014
 20
410.0
 30
0.0
 40
11.25
  0
LINE
  8
L-ZISSEN
 10
55.800014
 20
423.75
 30
0.0
 11
55.800014
 21
396.25
 31
0.0
  0
CIRCLE
  8
L-ZISSEN
 10
115.500014
 20
410.0
 30
0.0
 40
2.067
  0
LINE
  8
L-ZISSEN
 10
134.300014
 20
425.0
 30
0.0
 11
91.500014
 21
425.0
 31
0.0
  0
LINE
  8
L-ZISSEN
 10
134.300014
 20
395.0
 30
0.0
 11
91.500014
 21
395.0
 31
0.0
  0
ARC
  8
L-ZISSEN
 10
130.0
 20
440.0
 30
0.0
 40
10.0
 50
90.0
 51
233.130165
  0
ARC
  8
L-ZISSEN
 10
130.0
 20
380.0
 30
0.0
 40
10.0
 50
126.869835
 51
270.0
  0
LINE
  8
L-ZISSEN
  6
CONTINUOUS
 62
     7
 10
142.500014
 20
552.000008
 30
0.0
 11
142.500014
 21
602.999993
 31
0.0
  0
LINE
  8
L-ZISSEN
  6
CONTINUOUS
 62
     7
 10
89.500014
 20
535.0
 30
0.0
 11
89.500014
 21
564.544156
 31
0.0
  0
LINE
  8
L-ZISSEN
 10
134.500014
 20
535.0
 30
0.0
 11
89.500014
 21
535.0
 31
0.0
  0
LINE
  8
L-ZISSEN
 10
96.500014
 20
607.0
 30
0.0
 11
114.500014
 21
607.0
 31
0.0
  0
LINE
  8
L-ZISSEN
  6
CONTINUOUS
 62
     7
 10
134.500014
 20
535.0
 30
0.0
 11
134.500014
 21
558.0
 31
0.0
  0
LINE
  8
L-ZISSEN
  6
CONTINUOUS
 62
     7
 10
132.500014
 20
558.0
 30
0.0
 11
132.500014
 21
576.544156
 31
0.0
  0
LINE
  8
L-ZISSEN
 10
114.500014
 20
607.0
 30
0.0
 11
114.500014
 21
601.999993
 31
0.0
  0
LINE
  8
L-ZISSEN
 10
96.500014
 20
607.0
 30
0.0
 11
96.500014
 21
601.999993
 31
0.0
  0
LINE
  8
L-ZISSEN
 10
87.500014
 20
576.544156
 30
0.0
 11
132.500014
 21
576.544156
 31
0.0
  0
LINE
  8
L-ZISSEN
 10
87.500014
 20
583.455844
 30
0.0
 11
132.500014
 21
583.455844
 31
0.0
  0
LINE
  8
L-ZISSEN
  6
CONTINUOUS
 62
     7
 10
132.500014
 20
583.455844
 30
0.0
 11
132.500014
 21
601.999993
 31
0.0
  0
LINE
  8
L-ZISSEN
  6
CONTINUOUS
 62
     7
 10
132.500014
 20
601.249994
 30
0.0
 11
126.200016
 21
601.249994
 31
0.0
  0
LINE
  8
L-ZISSEN
  6
CONTINUOUS
 62
     7
 10
132.500014
 20
592.749996
 30
0.0
 11
126.200016
 21
592.749996
 31
0.0
  0
LINE
  8
L-ZISSEN
  6
CONTINUOUS
 62
     7
 10
126.200016
 20
592.749996
 30
0.0
 11
126.200016
 21
601.249994
 31
0.0
  0
LINE
  8
L-ZISSEN
  6
CONTINUOUS
 62
     7
 10
132.500014
 20
567.250004
 30
0.0
 11
126.200016
 21
567.250004
 31
0.0
  0
LINE
  8
L-ZISSEN
  6
CONTINUOUS
 62
     7
 10
132.500014
 20
558.750006
 30
0.0
 11
126.200016
 21
558.750006
 31
0.0
  0
LINE
  8
L-ZISSEN
  6
CONTINUOUS
 62
     7
 10
126.200016
 20
558.750006
 30
0.0
 11
126.200016
 21
567.250004
 31
0.0
  0
LINE
  8
L-ZISSEN
 10
89.500014
 20
564.544156
 30
0.0
 11
126.200016
 21
564.544156
 31
0.0
  0
LINE
  8
L-ZISSEN
 10
134.500014
 20
545.0
 30
0.0
 11
89.500014
 21
545.0
 31
0.0
  0
LINE
  8
L-ZISSEN
 10
87.000014
 20
531.85
 30
0.0
 11
87.000014
 21
501.35
 31
0.0
  0
LINE
  8
L-ZISSEN
 10
87.000014
 20
501.35
 30
0.0
 11
91.500014
 21
501.35
 31
0.0
  0
LINE
  8
L-ZISSEN
 10
87.000014
 20
531.85
 30
0.0
 11
91.500014
 21
531.85
 31
0.0
  0
LINE
  8
L-ZISSEN
 10
57.850014
 20
484.45
 30
0.0
 11
76.250014
 21
484.45
 31
0.0
  0
LINE
  8
L-ZISSEN
 10
75.550014
 20
484.45
 30
0.0
 11
75.550014
 21
482.1
 31
0.0
  0
LINE
  8
L-ZISSEN
 10
58.550014
 20
484.45
 30
0.0
 11
58.550014
 21
482.1
 31
0.0
  0
LINE
  8
L-ZISSEN
 10
76.250014
 20
487.35
 30
0.0
 11
76.250014
 21
484.45
 31
0.0
  0
LINE
  8
L-ZISSEN
 10
57.850014
 20
487.35
 30
0.0
 11
57.850014
 21
484.45
 31
0.0
  0
LINE
  8
L-ZISSEN
 10
56.080359
 20
482.1
 30
0.0
 11
78.019669
 21
482.1
 31
0.0
  0
LINE
  8
L-ZISSEN
 10
78.019669
 20
476.6
 30
0.0
 11
78.019669
 21
482.1
 31
0.0
  0
LINE
  8
L-ZISSEN
 10
56.080359
 20
476.6
 30
0.0
 11
56.080359
 21
482.1
 31
0.0
  0
LINE
  8
L-ZISSEN
 10
56.080359
 20
476.6
 30
0.0
 11
78.019669
 21
476.6
 31
0.0
  0
LINE
  8
L-ZISSEN
 10
55.800014
 20
502.85
 30
0.0
 11
87.000014
 21
502.85
 31
0.0
  0
LINE
  8
L-ZISSEN
 10
55.800014
 20
487.35
 30
0.0
 11
78.300014
 21
487.35
 31
0.0
  0
LINE
  8
L-ZISSEN
 10
78.300014
 20
502.85
 30
0.0
 11
78.300014
 21
487.35
 31
0.0
  0
LINE
  8
L-ZISSEN
 10
55.800014
 20
530.35
 30
0.0
 11
55.800014
 21
487.35
 31
0.0
  0
LINE
  8
L-ZISSEN
 10
55.800014
 20
530.35
 30
0.0
 11
87.000014
 21
530.35
 31
0.0
  0
LINE
  8
L-ZISSEN
 10
105.68506
 20
488.1
 30
0.0
 11
125.314969
 21
488.1
 31
0.0
  0
LINE
  8
L-ZISSEN
 10
125.314969
 20
488.1
 30
0.0
 11
125.314969
 21
491.1
 31
0.0
  0
LINE
  8
L-ZISSEN
 10
105.68506
 20
488.1
 30
0.0
 11
105.68506
 21
491.1
 31
0.0
  0
LINE
  8
L-ZISSEN
 10
91.500014
 20
491.1
 30
0.0
 11
134.300014
 21
491.1
 31
0.0
  0
LINE
  8
L-ZISSEN
 10
134.300014
 20
491.1
 30
0.0
 11
134.300014
 21
535.0
 31
0.0
  0
LINE
  8
L-ZISSEN
 10
91.500014
 20
535.0
 30
0.0
 11
91.500014
 21
491.1
 31
0.0
  0
LINE
  8
L-ZISSEN
 10
82.400014
 20
556.528203
 30
0.0
 11
89.500014
 21
556.528203
 31
0.0
  0
LINE
  8
L-ZISSEN
 10
82.400014
 20
542.671797
 30
0.0
 11
89.500014
 21
542.671797
 31
0.0
  0
LINE
  8
L-ZISSEN
 10
82.400014
 20
556.528203
 30
0.0
 11
82.400014
 21
542.671797
 31
0.0
  0
LINE
  8
L-ZISSEN
  6
CONTINUOUS
 62
     7
 10
122.500014
 20
545.0
 30
0.0
 11
122.500014
 21
563.000005
 31
0.0
  0
LINE
  8
L-ZISSEN
  6
CONTINUOUS
 62
     7
 10
253.799984
 20
90.646916
 30
0.0
 11
253.799984
 21
82.750001
 31
0.0
  0
LINE
  8
L-ZISSEN
  6
CONTINUOUS
 62
     7
 10
247.499986
 20
82.750001
 30
0.0
 11
253.799984
 21
82.750001
 31
0.0
  0
LINE
  8
L-ZISSEN
  6
CONTINUOUS
 62
     7
 10
247.499986
 20
57.249999
 30
0.0
 11
253.799984
 21
57.249999
 31
0.0
  0
LINE
  8
L-ZISSEN
  6
CONTINUOUS
 62
     7
 10
253.799984
 20
49.353084
 30
0.0
 11
253.799984
 21
57.249999
 31
0.0
  0
LINE
  8
L-ZISSEN
  6
CONTINUOUS
 62
     7
 10
126.200016
 20
49.353084
 30
0.0
 11
126.200016
 21
57.249999
 31
0.0
  0
LINE
  8
L-ZISSEN
  6
CONTINUOUS
 62
     7
 10
132.500014
 20
57.249999
 30
0.0
 11
126.200016
 21
57.249999
 31
0.0
  0
LINE
  8
L-ZISSEN
  6
CONTINUOUS
 62
     7
 10
132.500014
 20
82.750001
 30
0.0
 11
126.200016
 21
82.750001
 31
0.0
  0
LINE
  8
L-ZISSEN
  6
CONTINUOUS
 62
     7
 10
126.200016
 20
90.646916
 30
0.0
 11
126.200016
 21
82.750001
 31
0.0
  0
LINE
  8
L-ZISSEN
 10
124.0
 20
92.0
 30
0.0
 11
87.500014
 21
92.0
 31
0.0
  0
LINE
  8
L-ZISSEN
 10
125.0
 20
91.339746
 30
0.0
 11
140.0
 21
82.679492
 31
0.0
  0
LINE
  8
L-ZISSEN
 10
125.0
 20
48.660254
 30
0.0
 11
140.0
 21
57.320508
 31
0.0
  0
LINE
  8
L-ZISSEN
 10
140.0
 20
82.679492
 30
0.0
 11
140.0
 21
57.320508
 31
0.0
  0
LINE
  8
L-ZISSEN
 10
87.500014
 20
73.455844
 30
0.0
 11
97.189952
 21
73.455844
 31
0.0
  0
LINE
  8
L-ZISSEN
 10
87.500014
 20
66.544156
 30
0.0
 11
97.189952
 21
66.544156
 31
0.0
  0
LINE
  8
L-ZISSEN
  6
CONTINUOUS
 62
     7
 10
132.500014
 20
61.0
 30
0.0
 11
132.500014
 21
52.990389
 31
0.0
  0
LINE
  8
L-ZISSEN
 10
105.500014
 20
79.0
 30
0.0
 11
132.500014
 21
79.0
 31
0.0
  0
LINE
  8
L-ZISSEN
 10
105.500014
 20
61.0
 30
0.0
 11
132.500014
 21
61.0
 31
0.0
  0
CIRCLE
  8
L-ZISSEN
 10
105.500014
 20
70.0
 30
0.0
 40
9.0
  0
LINE
  8
L-ZISSEN
  6
CONTINUOUS
 62
     7
 10
132.500014
 20
87.009611
 30
0.0
 11
132.500014
 21
79.0
 31
0.0
  0
LINE
  8
L-ZISSEN
 10
885.0
 20
26.5
 30
0.0
 11
907.0
 21
26.5
 31
0.0
  0
LINE
  8
L-ZISSEN
 10
885.0
 20
53.5
 30
0.0
 11
907.0
 21
53.5
 31
0.0
  0
LINE
  8
L-ZISSEN
 10
885.0
 20
53.5
 30
0.0
 11
885.0
 21
26.5
 31
0.0
  0
LINE
  8
L-ZISSEN
 10
911.0
 20
181.0
 30
0.0
 11
911.0
 21
179.5
 31
0.0
  0
LINE
  8
L-ZISSEN
 10
911.0
 20
150.5
 30
0.0
 11
911.0
 21
149.0
 31
0.0
  0
LINE
  8
L-ZISSEN
 10
907.0
 20
152.0
 30
0.0
 11
907.0
 21
150.5
 31
0.0
  0
LINE
  8
L-ZISSEN
 10
900.0
 20
152.0
 30
0.0
 11
909.5
 21
152.0
 31
0.0
  0
LINE
  8
L-ZISSEN
 10
900.0
 20
178.0
 30
0.0
 11
909.5
 21
178.0
 31
0.0
  0
CIRCLE
  8
L-ZISSEN
 10
900.0
 20
165.0
 30
0.0
 40
13.0
  0
LINE
  8
L-ZISSEN
 10
909.5
 20
156.12588
 30
0.0
 11
909.5
 21
150.5
 31
0.0
  0
LINE
  8
L-ZISSEN
 10
909.5
 20
176.5
 30
0.0
 11
913.0
 21
176.5
 31
0.0
  0
LINE
  8
L-ZISSEN
 10
909.5
 20
153.5
 30
0.0
 11
913.0
 21
153.5
 31
0.0
  0
LINE
  8
L-ZISSEN
 10
909.5
 20
179.5
 30
0.0
 11
909.5
 21
173.87412
 31
0.0
  0
LINE
  8
L-ZISSEN
 10
885.0
 20
178.5
 30
0.0
 11
885.0
 21
151.5
 31
0.0
  0
LINE
  8
L-ZISSEN
 10
885.0
 20
178.5
 30
0.0
 11
907.0
 21
178.5
 31
0.0
  0
LINE
  8
L-ZISSEN
 10
885.0
 20
151.5
 30
0.0
 11
907.0
 21
151.5
 31
0.0
  0
LINE
  8
L-ZISSEN
 10
907.0
 20
179.5
 30
0.0
 11
913.0
 21
179.5
 31
0.0
  0
LINE
  8
L-ZISSEN
 10
907.0
 20
150.5
 30
0.0
 11
913.0
 21
150.5
 31
0.0
  0
LINE
  8
L-ZISSEN
 10
907.0
 20
179.5
 30
0.0
 11
907.0
 21
178.0
 31
0.0
  0
LINE
  8
L-ZISSEN
 10
907.0
 20
65.5
 30
0.0
 11
907.0
 21
94.5
 31
0.0
  0
LINE
  8
L-ZISSEN
 10
909.5
 20
110.5
 30
0.0
 11
913.0
 21
110.5
 31
0.0
  0
LINE
  8
L-ZISSEN
 10
907.0
 20
94.5
 30
0.0
 11
913.0
 21
94.5
 31
0.0
  0
LINE
  8
L-ZISSEN
 10
907.0
 20
65.5
 30
0.0
 11
913.0
 21
65.5
 31
0.0
  0
LINE
  8
L-ZISSEN
 10
909.5
 20
94.5
 30
0.0
 11
909.5
 21
110.5
 31
0.0
  0
LINE
  8
L-ZISSEN
 10
885.0
 20
93.5
 30
0.0
 11
907.0
 21
93.5
 31
0.0
  0
LINE
  8
L-ZISSEN
 10
885.0
 20
66.5
 30
0.0
 11
907.0
 21
66.5
 31
0.0
  0
LINE
  8
L-ZISSEN
 10
913.0
 20
120.5
 30
0.0
 11
913.0
 21
105.5
 31
0.0
  0
LINE
  8
L-ZISSEN
 10
885.0
 20
66.5
 30
0.0
 11
885.0
 21
93.5
 31
0.0
  0
LINE
  8
L-ZISSEN
 10
887.0
 20
93.5
 30
0.0
 11
887.0
 21
120.5
 31
0.0
  0
LINE
  8
L-ZISSEN
 10
887.0
 20
120.5
 30
0.0
 11
913.0
 21
120.5
 31
0.0
  0
CIRCLE
  8
L-ZISSEN
 10
900.0
 20
165.0
 30
0.0
 40
11.25
  0
CIRCLE
  8
L-ZISSEN
 10
900.0
 20
165.0
 30
0.0
 40
6.5
  0
LINE
  8
L-ZISSEN
 10
890.8
 20
127.65
 30
0.0
 11
909.2
 21
127.65
 31
0.0
  0
LINE
  8
L-ZISSEN
 10
908.5
 20
127.65
 30
0.0
 11
908.5
 21
130.0
 31
0.0
  0
LINE
  8
L-ZISSEN
 10
891.5
 20
127.65
 30
0.0
 11
891.5
 21
130.0
 31
0.0
  0
LINE
  8
L-ZISSEN
 10
909.2
 20
120.5
 30
0.0
 11
909.2
 21
127.65
 31
0.0
  0
LINE
  8
L-ZISSEN
 10
890.8
 20
120.5
 30
0.0
 11
890.8
 21
127.65
 31
0.0
  0
LINE
  8
L-ZISSEN
 10
889.030345
 20
130.0
 30
0.0
 11
910.969655
 21
130.0
 31
0.0
  0
LINE
  8
L-ZISSEN
 10
910.969655
 20
135.5
 30
0.0
 11
910.969655
 21
130.0
 31
0.0
  0
LINE
  8
L-ZISSEN
 10
889.030345
 20
135.5
 30
0.0
 11
889.030345
 21
130.0
 31
0.0
  0
LINE
  8
L-ZISSEN
 10
889.030345
 20
135.5
 30
0.0
 11
910.969655
 21
135.5
 31
0.0
  0
SOLID
  8
L-ZISSEN
 10
914.433721
 20
78.566279
 30
0.0
 11
914.821213
 21
79.108768
 31
0.0
 12
913.0
 22
80.0
 32
0.0
 13
913.0
 23
80.0
 33
0.0
  0
LINE
  8
L-ZISSEN
 10
914.627467
 20
78.837524
 30
0.0
 11
920.0
 21
75.0
 31
0.0
  0
LINE
  8
L-ZISSEN
 10
920.0
 20
75.0
 30
0.0
 11
922.0
 21
75.0
 31
0.0
  0
TEXT
  8
L-ZISSEN
 10
924.0
 20
72.75
 30
0.0
 40
4.5
  1
P.P
  0
SOLID
  8
L-ZISSEN
 10
914.433721
 20
163.566279
 30
0.0
 11
914.821213
 21
164.108768
 31
0.0
 12
913.0
 22
165.0
 32
0.0
 13
913.0
 23
165.0
 33
0.0
  0
LINE
  8
L-ZISSEN
 10
914.627467
 20
163.837524
 30
0.0
 11
920.0
 21
160.0
 31
0.0
  0
LINE
  8
L-ZISSEN
 10
920.0
 20
160.0
 30
0.0
 11
922.0
 21
160.0
 31
0.0
  0
TEXT
  8
L-ZISSEN
 10
924.0
 20
157.75
 30
0.0
 40
4.5
  1
P.P
  0
SOLID
  8
L-ZISSEN
 10
87.509434
 20
270.01438
 30
0.0
 11
87.742099
 21
269.389631
 31
0.0
 12
89.500014
 22
270.4
 32
0.0
 13
89.500014
 23
270.4
 33
0.0
  0
LINE
  8
L-ZISSEN
 10
87.625767
 20
269.702005
 30
0.0
 11
75.0
 21
265.0
 31
0.0
  0
LINE
  8
L-ZISSEN
 10
75.0
 20
265.0
 30
0.0
 11
73.0
 21
265.0
 31
0.0
  0
TEXT
  8
L-ZISSEN
 10
62.0
 20
262.75
 30
0.0
 40
4.5
  1
P.P
  0
SOLID
  8
L-ZISSEN
 10
90.075051
 20
301.957575
 30
0.0
 11
90.619889
 21
301.573394
 31
0.0
 12
91.500014
 22
303.4
 32
0.0
 13
91.500014
 23
303.4
 33
0.0
  0
LINE
  8
L-ZISSEN
 10
90.34747
 20
301.765484
 30
0.0
 11
75.0
 21
280.0
 31
0.0
  0
LINE
  8
L-ZISSEN
 10
75.0
 20
280.0
 30
0.0
 11
73.0
 21
280.0
 31
0.0
  0
TEXT
  8
L-ZISSEN
 10
62.0
 20
277.75
 30
0.0
 40
4.5
  1
P.P
  0
SOLID
  8
L-ZISSEN
 10
89.726217
 20
409.017781
 30
0.0
 11
90.140655
 21
408.495588
 31
0.0
 12
91.500014
 22
410.0
 32
0.0
 13
91.500014
 23
410.0
 33
0.0
  0
LINE
  8
L-ZISSEN
 10
89.933436
 20
408.756685
 30
0.0
 11
60.0
 21
385.0
 31
0.0
  0
LINE
  8
L-ZISSEN
 10
60.0
 20
385.0
 30
0.0
 11
58.0
 21
385.0
 31
0.0
  0
TEXT
  8
L-ZISSEN
 10
47.0
 20
382.75
 30
0.0
 40
4.5
  1
P.P
  0
ARC
  8
L-ZISSEN
 10
525.0
 20
280.0
 30
0.0
 40
10.0
 50
126.869835
 51
-90.0
  0
ARC
  8
L-ZISSEN
 10
525.0
 20
340.0
 30
0.0
 40
10.0
 50
90.0
 51
-126.869835
  0
LINE
  8
L-ZISSEN
 10
895.0
 20
240.0
 30
0.0
 11
904.6
 21
240.0
 31
0.0
  0
LINE
  8
L-ZISSEN
 10
895.0
 20
250.0
 30
0.0
 11
904.6
 21
250.0
 31
0.0
  0
LINE
  8
L-ZISSEN
 10
895.0
 20
250.0
 30
0.0
 11
895.0
 21
240.0
 31
0.0
  0
LINE
  8
L-ZISSEN
 10
895.0
 20
275.773503
 30
0.0
 11
895.0
 21
264.226497
 31
0.0
  0
LINE
  8
L-ZISSEN
 10
895.0
 20
264.226497
 30
0.0
 11
906.6
 21
264.226497
 31
0.0
  0
LINE
  8
L-ZISSEN
 10
895.0
 20
275.773503
 30
0.0
 11
906.6
 21
275.773503
 31
0.0
  0
SOLID
  8
L-ZISSEN
 10
908.148091
 20
268.690601
 30
0.0
 11
908.48908
 21
269.263463
 31
0.0
 12
906.6
 22
270.0
 32
0.0
 13
906.6
 23
270.0
 33
0.0
  0
LINE
  8
L-ZISSEN
 10
908.318586
 20
268.977032
 30
0.0
 11
915.0
 21
265.0
 31
0.0
  0
LINE
  8
L-ZISSEN
 10
915.0
 20
265.0
 30
0.0
 11
917.0
 21
265.0
 31
0.0
  0
TEXT
  8
L-ZISSEN
 10
919.0
 20
262.75
 30
0.0
 40
4.5
  1
P.P
  0
LINE
  8
L-ZISSEN
  6
CONTINUOUS
 62
     7
 10
292.499986
 20
262.0
 30
0.0
 11
292.499986
 21
218.000007
 31
0.0
  0
LINE
  8
L-ZISSEN
 10
292.499986
 20
262.0
 30
0.0
 11
290.499986
 21
262.0
 31
0.0
  0
LINE
  8
L-ZISSEN
  6
CONTINUOUS
 62
     7
 10
292.499986
 20
92.0
 30
0.0
 11
292.499986
 21
48.000007
 31
0.0
  0
LINE
  8
L-ZISSEN
 10
256.0
 20
48.0
 30
0.0
 11
292.499986
 21
48.0
 31
0.0
  0
LINE
  8
L-ZISSEN
 10
297.599986
 20
64.0
 30
0.0
 11
297.599986
 21
76.0
 31
0.0
  0
LINE
  8
L-ZISSEN
 10
297.599986
 20
64.0
 30
0.0
 11
292.499986
 21
64.0
 31
0.0
  0
LINE
  8
L-ZISSEN
 10
297.599986
 20
76.0
 30
0.0
 11
292.499986
 21
76.0
 31
0.0
  0
LINE
  8
L-ZISSEN
  6
CONTINUOUS
 62
     7
 10
87.500014
 20
262.0
 30
0.0
 11
87.500014
 21
218.000007
 31
0.0
  0
LINE
  8
L-ZISSEN
 10
87.500014
 20
262.0
 30
0.0
 11
89.500014
 21
262.0
 31
0.0
  0
LINE
  8
L-ZISSEN
 10
290.499986
 20
394.0
 30
0.0
 11
290.499986
 21
394.75
 31
0.0
  0
LINE
  8
L-ZISSEN
 10
290.499986
 20
425.25
 30
0.0
 11
290.499986
 21
426.0
 31
0.0
  0
LINE
  8
L-ZISSEN
 10
292.499986
 20
388.000007
 30
0.0
 11
292.499986
 21
394.75
 31
0.0
  0
LINE
  8
L-ZISSEN
 10
292.499986
 20
425.25
 30
0.0
 11
292.499986
 21
431.999993
 31
0.0
  0
LINE
  8
L-ZISSEN
 10
87.500014
 20
388.000007
 30
0.0
 11
87.500014
 21
394.75
 31
0.0
  0
LINE
  8
L-ZISSEN
 10
87.500014
 20
425.25
 30
0.0
 11
87.500014
 21
431.999993
 31
0.0
  0
LINE
  8
L-ZISSEN
 10
89.500014
 20
394.0
 30
0.0
 11
89.500014
 21
394.75
 31
0.0
  0
LINE
  8
L-ZISSEN
 10
89.500014
 20
425.25
 30
0.0
 11
89.500014
 21
426.0
 31
0.0
  0
LINE
  8
L-ZISSEN
 10
292.999986
 20
54.75
 30
0.0
 11
292.499986
 21
54.75
 31
0.0
  0
LINE
  8
L-ZISSEN
 10
292.999986
 20
85.25
 30
0.0
 11
292.999986
 21
76.0
 31
0.0
  0
LINE
  8
L-ZISSEN
 10
292.999986
 20
85.25
 30
0.0
 11
292.499986
 21
85.25
 31
0.0
  0
LINE
  8
L-ZISSEN
 10
292.999986
 20
64.0
 30
0.0
 11
292.999986
 21
54.75
 31
0.0
  0
LINE
  8
L-ZISSEN
 10
87.000014
 20
64.0
 30
0.0
 11
87.000014
 21
54.75
 31
0.0
  0
LINE
  8
L-ZISSEN
 10
87.000014
 20
85.25
 30
0.0
 11
87.500014
 21
85.25
 31
0.0
  0
LINE
  8
L-ZISSEN
 10
87.000014
 20
85.25
 30
0.0
 11
87.000014
 21
76.0
 31
0.0
  0
LINE
  8
L-ZISSEN
 10
87.000014
 20
54.75
 30
0.0
 11
87.500014
 21
54.75
 31
0.0
  0
LINE
  8
L-ZISSEN
 10
82.400014
 20
76.0
 30
0.0
 11
87.500014
 21
76.0
 31
0.0
  0
LINE
  8
L-ZISSEN
 10
82.400014
 20
64.0
 30
0.0
 11
87.500014
 21
64.0
 31
0.0
  0
LINE
  8
L-ZISSEN
 10
82.400014
 20
64.0
 30
0.0
 11
82.400014
 21
76.0
 31
0.0
  0
LINE
  8
L-ZISSEN
  6
CONTINUOUS
 62
     7
 10
87.500014
 20
92.0
 30
0.0
 11
87.500014
 21
48.000007
 31
0.0
  0
LINE
  8
L-ZISSEN
 10
55.800014
 20
83.75
 30
0.0
 11
87.000014
 21
83.75
 31
0.0
  0
LINE
  8
L-ZISSEN
 10
55.800014
 20
56.25
 30
0.0
 11
87.000014
 21
56.25
 31
0.0
  0
LINE
  8
L-ZISSEN
 10
55.800014
 20
83.75
 30
0.0
 11
55.800014
 21
56.25
 31
0.0
  0
LINE
  8
L-ZISSEN
 10
124.0
 20
48.0
 30
0.0
 11
87.500014
 21
48.0
 31
0.0
  0
LINE
  8
L-ZISSEN
  6
CONTINUOUS
 62
     7
 10
292.499986
 20
558.0
 30
0.0
 11
292.499986
 21
601.999993
 31
0.0
  0
LINE
  8
L-ZISSEN
 10
292.499986
 20
558.0
 30
0.0
 11
290.499986
 21
558.0
 31
0.0
  0
LINE
  8
L-ZISSEN
  6
CONTINUOUS
 62
     7
 10
87.500014
 20
558.0
 30
0.0
 11
87.500014
 21
601.999993
 31
0.0
  0
LINE
  8
L-ZISSEN
 10
87.500014
 20
558.0
 30
0.0
 11
89.500014
 21
558.0
 31
0.0
  0
SOLID
  8
L-ZISSEN
 10
969.532951
 20
39.508238
 30
0.0
 11
969.798769
 21
38.896858
 31
0.0
 12
971.5
 22
40.0
 32
0.0
 13
971.5
 23
40.0
 33
0.0
  0
LINE
  8
L-ZISSEN
 10
969.66586
 20
39.202548
 30
0.0
 11
960.0
 21
35.0
 31
0.0
  0
LINE
  8
L-ZISSEN
 10
960.0
 20
35.0
 30
0.0
 11
958.0
 21
35.0
 31
0.0
  0
TEXT
  8
L-ZISSEN
 10
947.0
 20
32.75
 30
0.0
 40
4.5
  1
P.P
  0
SOLID
  8
L-ZISSEN
 10
292.890124
 20
68.010301
 30
0.0
 11
293.514343
 21
68.244383
 31
0.0
 12
292.499986
 22
70.0
 32
0.0
 13
292.499986
 23
70.0
 33
0.0
  0
LINE
  8
L-ZISSEN
 10
293.202234
 20
68.127342
 30
0.0
 11
300.0
 21
50.0
 31
0.0
  0
LINE
  8
L-ZISSEN
 10
300.0
 20
50.0
 30
0.0
 11
302.0
 21
50.0
 31
0.0
  0
TEXT
  8
L-ZISSEN
 10
304.0
 20
47.75
 30
0.0
 40
4.5
  1
P.P
  0
LINE
  8
L-ZISSEN
 10
973.0
 20
25.5
 30
0.0
 11
973.0
 21
54.5
 31
0.0
  0
LINE
  8
L-ZISSEN
 10
973.0
 20
54.5
 30
0.0
 11
971.5
 21
54.5
 31
0.0
  0
LINE
  8
L-ZISSEN
 10
973.0
 20
25.5
 30
0.0
 11
971.5
 21
25.5
 31
0.0
  0
LINE
  8
L-ZISSEN
 10
907.0
 20
25.5
 30
0.0
 11
908.5
 21
25.5
 31
0.0
  0
LINE
  8
L-ZISSEN
 10
907.0
 20
54.5
 30
0.0
 11
908.5
 21
54.5
 31
0.0
  0
LINE
  8
L-ZISSEN
 10
907.0
 20
25.5
 30
0.0
 11
907.0
 21
54.5
 31
0.0
  0
SOLID
  8
L-ZISSEN
 10
910.201231
 20
38.896858
 30
0.0
 11
910.467049
 21
39.508238
 31
0.0
 12
908.5
 22
40.0
 32
0.0
 13
908.5
 23
40.0
 33
0.0
  0
LINE
  8
L-ZISSEN
 10
910.33414
 20
39.202548
 30
0.0
 11
920.0
 21
35.0
 31
0.0
  0
LINE
  8
L-ZISSEN
 10
920.0
 20
35.0
 30
0.0
 11
922.0
 21
35.0
 31
0.0
  0
TEXT
  8
L-ZISSEN
 10
924.0
 20
32.75
 30
0.0
 40
4.5
  1
P.P
  0
SOLID
  8
L-ZISSEN
 10
86.485657
 20
68.244383
 30
0.0
 11
87.109876
 21
68.010301
 31
0.0
 12
87.500014
 22
70.0
 32
0.0
 13
87.500014
 23
70.0
 33
0.0
  0
LINE
  8
L-ZISSEN
 10
86.797766
 20
68.127342
 30
0.0
 11
80.0
 21
50.0
 31
0.0
  0
LINE
  8
L-ZISSEN
 10
80.0
 20
50.0
 30
0.0
 11
78.0
 21
50.0
 31
0.0
  0
TEXT
  8
L-ZISSEN
 10
67.0
 20
47.75
 30
0.0
 40
4.5
  1
P.P
  0
SOLID
  8
L-ZISSEN
 10
906.258073
 20
243.832994
 30
0.0
 11
906.546936
 21
244.433829
 31
0.0
 12
904.6
 22
245.0
 32
0.0
 13
904.6
 23
245.0
 33
0.0
  0
LINE
  8
L-ZISSEN
 10
906.402505
 20
244.133411
 30
0.0
 11
915.0
 21
240.0
 31
0.0
  0
LINE
  8
L-ZISSEN
 10
915.0
 20
240.0
 30
0.0
 11
917.0
 21
240.0
 31
0.0
  0
TEXT
  8
L-ZISSEN
 10
919.0
 20
237.75
 30
0.0
 40
4.5
  1
P.P
  0
SOLID
  8
L-ZISSEN
 10
963.453064
 20
244.433829
 30
0.0
 11
963.741927
 21
243.832994
 31
0.0
 12
965.4
 22
245.0
 32
0.0
 13
965.4
 23
245.0
 33
0.0
  0
LINE
  8
L-ZISSEN
 10
963.597495
 20
244.133411
 30
0.0
 11
955.0
 21
240.0
 31
0.0
  0
LINE
  8
L-ZISSEN
 10
955.0
 20
240.0
 30
0.0
 11
953.0
 21
240.0
 31
0.0
  0
TEXT
  8
L-ZISSEN
 10
942.0
 20
237.75
 30
0.0
 40
4.5
  1
P.P
  0
LINE
  8
L-ZISSEN
 10
403.777776
 20
264.999992
 30
0.0
 11
406.0
 21
275.0
 31
0.0
  0
CIRCLE
  8
L-ZISSEN
 10
155.0
 20
617.999993
 30
0.0
 40
9.3155
  0
CIRCLE
  8
L-ZISSEN
 10
225.0
 20
617.999993
 30
0.0
 40
9.3155
  0
SOLID
  8
L-ZISSEN
 10
188.755731
 20
200.399099
 30
0.0
 11
189.342202
 21
200.082088
 31
0.0
 12
190.0
 22
202.000007
 32
0.0
 13
190.0
 23
202.000007
 33
0.0
  0
LINE
  8
L-ZISSEN
 10
189.048966
 20
200.240594
 30
0.0
 11
170.0
 21
165.0
 31
0.0
  0
LINE
  8
L-ZISSEN
 10
170.0
 20
165.0
 30
0.0
 11
168.0
 21
165.0
 31
0.0
  0
TEXT
  8
L-ZISSEN
 10
136.0
 20
162.75
 30
0.0
 40
4.5
  1
"1" PORT
  0
TEXT
  8
L-ZISSEN
 10
140.0
 20
155.0
 30
0.0
 40
4.5
  1
Rc 1/4
  0
TEXT
  8
L-ZISSEN
 10
140.0
 20
145.0
 30
0.0
 40
4.5
  1
Rc 3/8
  0
TEXT
  8
L-ZISSEN
 10
140.0
 20
135.0
 30
0.0
 40
4.5
  1
Rc 1/2
  0
TEXT
  8
L-ZISSEN
 10
133.0
 20
670.0
 30
0.0
 40
4.5
  1
03
  0
TEXT
  8
L-ZISSEN
 10
133.0
 20
677.0
 30
0.0
 40
4.5
  1
02U
  0
TEXT
  8
L-ZISSEN
 10
133.0
 20
663.0
 30
0.0
 40
4.5
  1
04
  0
ENDSEC
  0
EOF
