  0
SECTION
  2
HEADER
  9
$ACADVER
  1
AC1006
  9
$INSBASE
 10
0.0
 20
0.0
 30
0.0
  9
$EXTMIN
 10
25.0
 20
20.0
  9
$EXTMAX
 10
1945.0
 20
1465.0
  9
$LIMMIN
 10
0.0
 20
0.0
  9
$LIMMAX
 10
2100.0
 20
1485.0
  9
$ORTHOMODE
 70
     0
  9
$REGENMODE
 70
     1
  9
$FILLMODE
 70
     1
  9
$QTEXTMODE
 70
     0
  9
$MIRRTEXT
 70
     1
  9
$DRAGMODE
 70
     2
  9
$LTSCALE
 40
1.0
  9
$OSMODE
 70
     0
  9
$ATTMODE
 70
     1
  9
$TEXTSIZE
 40
4.5
  9
$TRACEWID
 40
0.05
  9
$TEXTSTYLE
  7
STANDARD
  9
$CLAYER
  8
L-ZISSEN
  9
$CELTYPE
  6
BYLAYER
  9
$CECOLOR
 62
   256
  9
$DIMSCALE
 40
1.0
  9
$DIMASZ
 40
2.0
  9
$DIMEXO
 40
2.0
  9
$DIMDLI
 40
0.38
  9
$DIMRND
 40
0.0
  9
$DIMDLE
 40
1.0
  9
$DIMEXE
 40
2.0
  9
$DIMTP
 40
0.0
  9
$DIMTM
 40
0.0
  9
$DIMTXT
 40
4.5
  9
$DIMCEN
 40
0.09
  9
$DIMTSZ
 40
0.0
  9
$DIMTOL
 70
     0
  9
$DIMLIM
 70
     0
  9
$DIMTIH
 70
     0
  9
$DIMTOH
 70
     0
  9
$DIMSE1
 70
     0
  9
$DIMSE2
 70
     0
  9
$DIMTAD
 70
     1
  9
$DIMZIN
 70
     0
  9
$DIMBLK
  1

  9
$DIMASO
 70
     0
  9
$DIMSHO
 70
     0
  9
$DIMPOST
  1

  9
$DIMAPOST
  1

  9
$DIMALT
 70
     0
  9
$DIMALTD
 70
     2
  9
$DIMALTF
 40
25.4
  9
$DIMLFAC
 40
1.0
  9
$DIMTOFL
 70
     1
  9
$DIMTVP
 40
0.0
  9
$DIMTIX
 70
     1
  9
$DIMSOXD
 70
     0
  9
$DIMSAH
 70
     0
  9
$DIMBLK1
  1

  9
$DIMBLK2
  1

  9
$LUNITS
 70
     2
  9
$LUPREC
 70
     4
  9
$AXISMODE
 70
     0
  9
$AXISUNIT
 10
0.0
 20
0.0
  9
$SKETCHINC
 40
0.1
  9
$FILLETRAD
 40
0.0
  9
$AUNITS
 70
     0
  9
$AUPREC
 70
     0
  9
$MENU
  1
acad
  9
$ELEVATION
 40
0.0
  9
$THICKNESS
 40
0.0
  9
$LIMCHECK
 70
     0
  9
$BLIPMODE
 70
     1
  9
$CHAMFERA
 40
0.0
  9
$CHAMFERB
 40
0.0
  9
$SKPOLY
 70
     0
  9
$TDCREATE
 40
2449002.7248957176
  9
$TDUPDATE
 40
2449002.7248957176
  9
$TDINDWG
 40
0.0000000000
  9
$TDUSRTIMER
 40
0.0000000000
  9
$USRTIMER
 70
     1
  9
$ANGBASE
 50
0.0
  9
$ANGDIR
 70
     0
  9
$PDMODE
 70
     0
  9
$PDSIZE
 40
0.0
  9
$PLINEWID
 40
0.0
  9
$COORDS
 70
     2
  9
$SPLFRAME
 70
     0
  9
$SPLINETYPE
 70
     6
  9
$SPLINESEGS
 70
     8
  9
$ATTDIA
 70
     0
  9
$ATTREQ
 70
     1
  9
$HANDLING
 70
     0
  9
$HANDSEED
  5
0
  9
$SURFTAB1
 70
     6
  9
$SURFTAB2
 70
     6
  9
$SURFTYPE
 70
     6
  9
$SURFU
 70
     6
  9
$SURFV
 70
     6
  9
$FLATLAND
 70
     0
  9
$UCSNAME
  2

  9
$UCSORG
 10
0.0
 20
0.0
 30
0.0
  9
$UCSXDIR
 10
1.0
 20
0.0
 30
0.0
  9
$UCSYDIR
 10
0.0
 20
1.0
 30
0.0
  9
$USERI1
 70
     0
  9
$USERI2
 70
     0
  9
$USERI3
 70
     0
  9
$USERI4
 70
     0
  9
$USERI5
 70
     0
  9
$USERR1
 40
0.0
  9
$USERR2
 40
0.0
  9
$USERR3
 40
0.0
  9
$USERR4
 40
0.0
  9
$USERR5
 40
0.0
  9
$WORLDVIEW
 70
     1
  0
ENDSEC
  0
SECTION
  2
TABLES
  0
TABLE
  2
VPORT
 70
     2
  0
VPORT
  2
*ACTIVE
 70
     0
 10
0.0
 20
0.0
 11
1.0
 21
1.0
 12
1191.139945
 22
769.122594
 13
0.0
 23
0.0
 14
5.0
 24
5.0
 15
0.0
 25
0.0
 16
0.0
 26
0.0
 36
1.0
 17
0.0
 27
0.0
 37
0.0
 40
1538.245188
 41
1.5487
 42
50.0
 43
0.0
 44
0.0
 50
0.0
 51
0.0
 71
     0
 72
   100
 73
     1
 74
     0
 75
     0
 76
     0
 77
     0
 78
     0
  0
ENDTAB
  0
TABLE
  2
LTYPE
 70
     2
  0
LTYPE
  2
CONTINUOUS
 70
    64
  3
Solid line
 72
    65
 73
     0
 40
0.0
  0
LTYPE
  2
CENTER
 70
    64
  3
____ _ ____ _ ____ _ ____ _ 
 72
    65
 73
     4
 40
60.0
 49
45.0
 49
-5.0
 49
5.0
 49
-5.0
  0
ENDTAB
  0
TABLE
  2
LAYER
 70
     3
  0
LAYER
  2
0
 70
     0
 62
     7
  6
CONTINUOUS
  0
LAYER
  2
L-ZISSEN
 70
    64
 62
     7
  6
CONTINUOUS
  0
LAYER
  2
L-TYUSIN
 70
    64
 62
     1
  6
CENTER
  0
ENDTAB
  0
TABLE
  2
STYLE
 70
     1
  0
STYLE
  2
STANDARD
 70
    64
 40
0.0
 41
1.0
 50
0.0
 71
     0
 42
4.5
  3
TXT
  4

  0
ENDTAB
  0
TABLE
  2
VIEW
 70
     0
  0
ENDTAB
  0
TABLE
  2
UCS
 70
     0
  0
ENDTAB
  0
TABLE
  2
DWGMGR
 70
     0
  0
ENDTAB
  0
ENDSEC
  0
SECTION
  2
BLOCKS
  0
ENDSEC
  0
SECTION
  2
ENTITIES
  0
LINE
  8
L-TYUSIN
 10
1645.0
 20
780.0
 30
0.0
 11
1945.0
 21
780.0
 31
0.0
  0
LINE
  8
L-ZISSEN
 10
1875.5
 20
578.969655
 30
0.0
 11
1875.5
 21
557.030345
 31
0.0
  0
LINE
  8
L-ZISSEN
 10
1875.5
 20
578.969655
 30
0.0
 11
1870.0
 21
578.969655
 31
0.0
  0
LINE
  8
L-ZISSEN
 10
1875.5
 20
557.030345
 30
0.0
 11
1870.0
 21
557.030345
 31
0.0
  0
LINE
  8
L-ZISSEN
 10
1870.0
 20
578.969655
 30
0.0
 11
1870.0
 21
557.030345
 31
0.0
  0
LINE
  8
L-ZISSEN
 10
1860.5
 20
577.2
 30
0.0
 11
1867.65
 21
577.2
 31
0.0
  0
LINE
  8
L-ZISSEN
 10
1860.5
 20
558.8
 30
0.0
 11
1867.65
 21
558.8
 31
0.0
  0
LINE
  8
L-ZISSEN
 10
1867.65
 20
576.5
 30
0.0
 11
1870.0
 21
576.5
 31
0.0
  0
LINE
  8
L-ZISSEN
 10
1867.65
 20
559.5
 30
0.0
 11
1870.0
 21
559.5
 31
0.0
  0
LINE
  8
L-ZISSEN
 10
1867.65
 20
577.2
 30
0.0
 11
1867.65
 21
558.8
 31
0.0
  0
CIRCLE
  8
L-ZISSEN
 10
1910.0
 20
568.0
 30
0.0
 40
6.5
  0
CIRCLE
  8
L-ZISSEN
 10
1910.0
 20
568.0
 30
0.0
 40
11.25
  0
LINE
  8
L-ZISSEN
 10
1860.5
 20
581.0
 30
0.0
 11
1860.5
 21
555.0
 31
0.0
  0
LINE
  8
L-ZISSEN
 10
1833.5
 20
581.0
 30
0.0
 11
1860.5
 21
581.0
 31
0.0
  0
LINE
  8
L-ZISSEN
 10
1806.5
 20
583.0
 30
0.0
 11
1833.5
 21
583.0
 31
0.0
  0
LINE
  8
L-ZISSEN
 10
1860.5
 20
555.0
 30
0.0
 11
1845.5
 21
555.0
 31
0.0
  0
LINE
  8
L-ZISSEN
 10
1806.5
 20
583.0
 30
0.0
 11
1806.5
 21
561.0
 31
0.0
  0
LINE
  8
L-ZISSEN
 10
1833.5
 20
583.0
 30
0.0
 11
1833.5
 21
561.0
 31
0.0
  0
LINE
  8
L-ZISSEN
 10
1834.5
 20
558.5
 30
0.0
 11
1850.5
 21
558.5
 31
0.0
  0
LINE
  8
L-ZISSEN
 10
1805.5
 20
561.0
 30
0.0
 11
1805.5
 21
555.0
 31
0.0
  0
LINE
  8
L-ZISSEN
 10
1834.5
 20
561.0
 30
0.0
 11
1834.5
 21
555.0
 31
0.0
  0
LINE
  8
L-ZISSEN
 10
1850.5
 20
558.5
 30
0.0
 11
1850.5
 21
555.0
 31
0.0
  0
LINE
  8
L-ZISSEN
 10
1805.5
 20
561.0
 30
0.0
 11
1834.5
 21
561.0
 31
0.0
  0
LINE
  8
L-ZISSEN
 10
1807.0
 20
641.5
 30
0.0
 11
1807.0
 21
614.5
 31
0.0
  0
LINE
  8
L-ZISSEN
 10
1833.0
 20
614.5
 30
0.0
 11
1833.0
 21
641.5
 31
0.0
  0
LINE
  8
L-ZISSEN
 10
1807.0
 20
614.5
 30
0.0
 11
1833.0
 21
614.5
 31
0.0
  0
LINE
  8
L-ZISSEN
 10
1810.8
 20
607.35
 30
0.0
 11
1829.2
 21
607.35
 31
0.0
  0
LINE
  8
L-ZISSEN
 10
1828.5
 20
607.35
 30
0.0
 11
1828.5
 21
605.0
 31
0.0
  0
LINE
  8
L-ZISSEN
 10
1811.5
 20
607.35
 30
0.0
 11
1811.5
 21
605.0
 31
0.0
  0
LINE
  8
L-ZISSEN
 10
1829.2
 20
614.5
 30
0.0
 11
1829.2
 21
607.35
 31
0.0
  0
LINE
  8
L-ZISSEN
 10
1810.8
 20
614.5
 30
0.0
 11
1810.8
 21
607.35
 31
0.0
  0
LINE
  8
L-ZISSEN
 10
1809.030345
 20
605.0
 30
0.0
 11
1830.969655
 21
605.0
 31
0.0
  0
LINE
  8
L-ZISSEN
 10
1830.969655
 20
599.5
 30
0.0
 11
1830.969655
 21
605.0
 31
0.0
  0
LINE
  8
L-ZISSEN
 10
1809.030345
 20
599.5
 30
0.0
 11
1809.030345
 21
605.0
 31
0.0
  0
LINE
  8
L-ZISSEN
 10
1809.030345
 20
599.5
 30
0.0
 11
1830.969655
 21
599.5
 31
0.0
  0
LINE
  8
L-ZISSEN
 10
1806.5
 20
641.5
 30
0.0
 11
1833.5
 21
641.5
 31
0.0
  0
LINE
  8
L-ZISSEN
 10
1806.5
 20
668.5
 30
0.0
 11
1833.5
 21
668.5
 31
0.0
  0
LINE
  8
L-ZISSEN
 10
1806.5
 20
668.5
 30
0.0
 11
1806.5
 21
641.5
 31
0.0
  0
LINE
  8
L-ZISSEN
 10
1833.5
 20
668.5
 30
0.0
 11
1833.5
 21
641.5
 31
0.0
  0
LINE
  8
L-ZISSEN
 10
1834.5
 20
669.5
 30
0.0
 11
1805.5
 21
669.5
 31
0.0
  0
LINE
  8
L-ZISSEN
 10
1805.5
 20
669.5
 30
0.0
 11
1805.5
 21
640.5
 31
0.0
  0
LINE
  8
L-ZISSEN
 10
1805.5
 20
640.5
 30
0.0
 11
1807.0
 21
640.5
 31
0.0
  0
LINE
  8
L-ZISSEN
 10
1834.5
 20
640.5
 30
0.0
 11
1834.5
 21
669.5
 31
0.0
  0
LINE
  8
L-ZISSEN
 10
1833.0
 20
640.5
 30
0.0
 11
1834.5
 21
640.5
 31
0.0
  0
LINE
  8
L-ZISSEN
 10
1924.5
 20
561.0
 30
0.0
 11
1923.0
 21
561.0
 31
0.0
  0
LINE
  8
L-ZISSEN
 10
1895.5
 20
561.0
 30
0.0
 11
1895.5
 21
555.0
 31
0.0
  0
LINE
  8
L-ZISSEN
 10
1924.5
 20
561.0
 30
0.0
 11
1924.5
 21
555.0
 31
0.0
  0
LINE
  8
L-ZISSEN
 10
1896.5
 20
583.0
 30
0.0
 11
1896.5
 21
561.0
 31
0.0
  0
LINE
  8
L-ZISSEN
 10
1923.5
 20
583.0
 30
0.0
 11
1923.5
 21
561.0
 31
0.0
  0
LINE
  8
L-ZISSEN
 10
1923.5
 20
583.0
 30
0.0
 11
1896.5
 21
583.0
 31
0.0
  0
LINE
  8
L-ZISSEN
 10
1924.5
 20
558.5
 30
0.0
 11
1918.87412
 21
558.5
 31
0.0
  0
LINE
  8
L-ZISSEN
 10
1898.5
 20
558.5
 30
0.0
 11
1898.5
 21
555.0
 31
0.0
  0
LINE
  8
L-ZISSEN
 10
1921.5
 20
558.5
 30
0.0
 11
1921.5
 21
555.0
 31
0.0
  0
LINE
  8
L-ZISSEN
 10
1901.12588
 20
558.5
 30
0.0
 11
1895.5
 21
558.5
 31
0.0
  0
CIRCLE
  8
L-ZISSEN
 10
1910.0
 20
568.0
 30
0.0
 40
13.0
  0
LINE
  8
L-ZISSEN
 10
1923.0
 20
568.0
 30
0.0
 11
1923.0
 21
558.5
 31
0.0
  0
LINE
  8
L-ZISSEN
 10
1897.0
 20
568.0
 30
0.0
 11
1897.0
 21
558.5
 31
0.0
  0
LINE
  8
L-ZISSEN
 10
1897.0
 20
561.0
 30
0.0
 11
1895.5
 21
561.0
 31
0.0
  0
TEXT
  8
L-ZISSEN
 10
1655.0
 20
765.0
 30
0.0
 40
4.5
  1
ELECTRICAL CONNECTION
  0
LINE
  8
L-TYUSIN
 10
1262.8
 20
600.0
 30
0.0
 11
1617.2
 21
600.0
 31
0.0
  0
LINE
  8
L-ZISSEN
 10
1485.8
 20
574.0
 30
0.0
 11
1485.8
 21
626.0
 31
0.0
  0
LINE
  8
L-ZISSEN
 10
1565.3
 20
626.0
 30
0.0
 11
1477.7
 21
626.0
 31
0.0
  0
LINE
  8
L-ZISSEN
 10
1394.2
 20
626.0
 30
0.0
 11
1394.2
 21
574.0
 31
0.0
  0
LINE
  8
L-ZISSEN
 10
1314.7
 20
574.0
 30
0.0
 11
1565.3
 21
574.0
 31
0.0
  0
LINE
  8
L-ZISSEN
 10
1565.3
 20
624.0
 30
0.0
 11
1609.2
 21
624.0
 31
0.0
  0
LINE
  8
L-ZISSEN
 10
1609.2
 20
581.2
 30
0.0
 11
1565.3
 21
581.2
 31
0.0
  0
LINE
  8
L-ZISSEN
 10
1609.2
 20
624.0
 30
0.0
 11
1609.2
 21
581.2
 31
0.0
  0
LINE
  8
L-ZISSEN
 10
1612.2
 20
609.814955
 30
0.0
 11
1609.2
 21
609.814955
 31
0.0
  0
LINE
  8
L-ZISSEN
 10
1612.2
 20
590.185045
 30
0.0
 11
1609.2
 21
590.185045
 31
0.0
  0
LINE
  8
L-ZISSEN
 10
1612.2
 20
609.814955
 30
0.0
 11
1612.2
 21
590.185045
 31
0.0
  0
LINE
  8
L-ZISSEN
 10
1569.95
 20
659.7
 30
0.0
 11
1569.95
 21
628.5
 31
0.0
  0
LINE
  8
L-ZISSEN
 10
1569.95
 20
659.7
 30
0.0
 11
1612.95
 21
659.7
 31
0.0
  0
LINE
  8
L-ZISSEN
 10
1597.45
 20
637.2
 30
0.0
 11
1612.95
 21
637.2
 31
0.0
  0
LINE
  8
L-ZISSEN
 10
1612.95
 20
659.7
 30
0.0
 11
1612.95
 21
637.2
 31
0.0
  0
LINE
  8
L-ZISSEN
 10
1597.45
 20
659.7
 30
0.0
 11
1597.45
 21
628.5
 31
0.0
  0
LINE
  8
L-ZISSEN
 10
1623.7
 20
659.419655
 30
0.0
 11
1623.7
 21
637.480345
 31
0.0
  0
LINE
  8
L-ZISSEN
 10
1623.7
 20
659.419655
 30
0.0
 11
1618.2
 21
659.419655
 31
0.0
  0
LINE
  8
L-ZISSEN
 10
1623.7
 20
637.480345
 30
0.0
 11
1618.2
 21
637.480345
 31
0.0
  0
LINE
  8
L-ZISSEN
 10
1618.2
 20
659.419655
 30
0.0
 11
1618.2
 21
637.480345
 31
0.0
  0
LINE
  8
L-ZISSEN
 10
1612.95
 20
657.65
 30
0.0
 11
1615.85
 21
657.65
 31
0.0
  0
LINE
  8
L-ZISSEN
 10
1612.95
 20
639.25
 30
0.0
 11
1615.85
 21
639.25
 31
0.0
  0
LINE
  8
L-ZISSEN
 10
1615.85
 20
656.95
 30
0.0
 11
1618.2
 21
656.95
 31
0.0
  0
LINE
  8
L-ZISSEN
 10
1615.85
 20
639.95
 30
0.0
 11
1618.2
 21
639.95
 31
0.0
  0
LINE
  8
L-ZISSEN
 10
1615.85
 20
657.65
 30
0.0
 11
1615.85
 21
639.25
 31
0.0
  0
LINE
  8
L-ZISSEN
 10
1568.45
 20
628.5
 30
0.0
 11
1568.45
 21
624.0
 31
0.0
  0
LINE
  8
L-ZISSEN
 10
1598.95
 20
628.5
 30
0.0
 11
1598.95
 21
624.0
 31
0.0
  0
LINE
  8
L-ZISSEN
 10
1568.45
 20
628.5
 30
0.0
 11
1598.95
 21
628.5
 31
0.0
  0
LINE
  8
L-ZISSEN
 10
415.6
 20
875.3
 30
0.0
 11
384.4
 21
875.3
 31
0.0
  0
LINE
  8
L-ZISSEN
 10
417.0
 20
795.8
 30
0.0
 11
383.0
 21
795.8
 31
0.0
  0
LINE
  8
L-TYUSIN
 10
400.0
 20
561.3
 30
0.0
 11
400.0
 21
938.7
 31
0.0
  0
LINE
  8
L-ZISSEN
 10
411.25
 20
908.95
 30
0.0
 11
415.0
 21
908.95
 31
0.0
  0
LINE
  8
L-ZISSEN
 10
385.0
 20
878.95
 30
0.0
 11
415.0
 21
878.95
 31
0.0
  0
LINE
  8
L-ZISSEN
 10
385.0
 20
908.95
 30
0.0
 11
388.75
 21
908.95
 31
0.0
  0
LINE
  8
L-ZISSEN
 10
413.75
 20
879.95
 30
0.0
 11
413.75
 21
907.45
 31
0.0
  0
LINE
  8
L-ZISSEN
 10
386.25
 20
879.95
 30
0.0
 11
386.25
 21
907.45
 31
0.0
  0
LINE
  8
L-ZISSEN
 10
413.75
 20
907.45
 30
0.0
 11
386.25
 21
907.45
 31
0.0
  0
LINE
  8
L-ZISSEN
 10
413.75
 20
879.95
 30
0.0
 11
386.25
 21
879.95
 31
0.0
  0
LINE
  8
L-ZISSEN
 10
388.75
 20
919.2
 30
0.0
 11
385.0
 21
919.2
 31
0.0
  0
LINE
  8
L-ZISSEN
 10
388.75
 20
907.45
 30
0.0
 11
388.75
 21
922.95
 31
0.0
  0
LINE
  8
L-ZISSEN
 10
411.25
 20
922.95
 30
0.0
 11
388.75
 21
922.95
 31
0.0
  0
LINE
  8
L-ZISSEN
 10
411.25
 20
907.45
 30
0.0
 11
411.25
 21
922.95
 31
0.0
  0
LINE
  8
L-ZISSEN
 10
409.2
 20
925.85
 30
0.0
 11
390.8
 21
925.85
 31
0.0
  0
LINE
  8
L-ZISSEN
 10
391.5
 20
925.85
 30
0.0
 11
391.5
 21
928.2
 31
0.0
  0
LINE
  8
L-ZISSEN
 10
408.5
 20
925.85
 30
0.0
 11
408.5
 21
928.2
 31
0.0
  0
LINE
  8
L-ZISSEN
 10
390.8
 20
922.95
 30
0.0
 11
390.8
 21
925.85
 31
0.0
  0
LINE
  8
L-ZISSEN
 10
409.2
 20
922.95
 30
0.0
 11
409.2
 21
925.85
 31
0.0
  0
LINE
  8
L-ZISSEN
 10
410.969655
 20
928.2
 30
0.0
 11
389.030345
 21
928.2
 31
0.0
  0
LINE
  8
L-ZISSEN
 10
389.030345
 20
933.7
 30
0.0
 11
389.030345
 21
928.2
 31
0.0
  0
LINE
  8
L-ZISSEN
 10
410.969655
 20
933.7
 30
0.0
 11
410.969655
 21
928.2
 31
0.0
  0
LINE
  8
L-ZISSEN
 10
410.969655
 20
933.7
 30
0.0
 11
389.030345
 21
933.7
 31
0.0
  0
LINE
  8
L-ZISSEN
 10
415.0
 20
919.2
 30
0.0
 11
415.0
 21
875.3
 31
0.0
  0
LINE
  8
L-ZISSEN
 10
385.0
 20
919.2
 30
0.0
 11
385.0
 21
875.3
 31
0.0
  0
LINE
  8
L-ZISSEN
 10
415.0
 20
919.2
 30
0.0
 11
411.25
 21
919.2
 31
0.0
  0
LINE
  8
L-ZISSEN
 10
391.5
 20
474.907477
 30
0.0
 11
391.5
 21
465.092523
 31
0.0
  0
LINE
  8
L-ZISSEN
 10
400.0
 20
479.814955
 30
0.0
 11
391.5
 21
474.907477
 31
0.0
  0
LINE
  8
L-ZISSEN
 10
408.5
 20
474.907477
 30
0.0
 11
400.0
 21
479.814955
 31
0.0
  0
LINE
  8
L-ZISSEN
 10
408.5
 20
465.092523
 30
0.0
 11
408.5
 21
474.907477
 31
0.0
  0
LINE
  8
L-ZISSEN
 10
400.0
 20
460.185045
 30
0.0
 11
408.5
 21
465.092523
 31
0.0
  0
LINE
  8
L-ZISSEN
 10
391.5
 20
465.092523
 30
0.0
 11
400.0
 21
460.185045
 31
0.0
  0
LINE
  8
L-ZISSEN
 10
384.75
 20
494.0
 30
0.0
 11
415.25
 21
494.0
 31
0.0
  0
LINE
  8
L-ZISSEN
 10
384.75
 20
498.5
 30
0.0
 11
415.25
 21
498.5
 31
0.0
  0
LINE
  8
L-ZISSEN
 10
415.25
 20
498.5
 30
0.0
 11
415.25
 21
494.0
 31
0.0
  0
LINE
  8
L-ZISSEN
 10
384.75
 20
498.5
 30
0.0
 11
384.75
 21
494.0
 31
0.0
  0
CIRCLE
  8
L-ZISSEN
 10
400.0
 20
518.45
 30
0.0
 40
6.5
  0
LINE
  8
L-ZISSEN
 10
386.25
 20
529.7
 30
0.0
 11
386.25
 21
498.5
 31
0.0
  0
LINE
  8
L-ZISSEN
 10
413.75
 20
529.7
 30
0.0
 11
413.75
 21
498.5
 31
0.0
  0
CIRCLE
  8
L-ZISSEN
 10
400.0
 20
518.45
 30
0.0
 40
11.25
  0
LINE
  8
L-ZISSEN
 10
386.25
 20
529.7
 30
0.0
 11
413.75
 21
529.7
 31
0.0
  0
LINE
  8
L-ZISSEN
 10
385.0
 20
451.2
 30
0.0
 11
415.0
 21
451.2
 31
0.0
  0
LINE
  8
L-TYUSIN
 10
400.0
 20
438.0
 30
0.0
 11
400.0
 21
534.7
 31
0.0
  0
LINE
  8
L-TYUSIN
 10
379.0
 20
470.0
 30
0.0
 11
421.0
 21
470.0
 31
0.0
  0
LINE
  8
L-ZISSEN
 10
375.0
 20
444.0
 30
0.0
 11
425.0
 21
444.0
 31
0.0
  0
LINE
  8
L-ZISSEN
 10
1543.771797
 20
632.9
 30
0.0
 11
1557.628203
 21
632.9
 31
0.0
  0
LINE
  8
L-ZISSEN
 10
1557.628203
 20
632.9
 30
0.0
 11
1557.628203
 21
626.0
 31
0.0
  0
LINE
  8
L-ZISSEN
 10
1543.771797
 20
632.9
 30
0.0
 11
1543.771797
 21
626.0
 31
0.0
  0
LINE
  8
L-ZISSEN
 10
394.0
 20
864.164102
 30
0.0
 11
400.0
 21
867.628203
 31
0.0
  0
LINE
  8
L-ZISSEN
 10
400.0
 20
867.628203
 30
0.0
 11
406.0
 21
864.164102
 31
0.0
  0
LINE
  8
L-ZISSEN
 10
406.0
 20
864.164102
 30
0.0
 11
406.0
 21
857.235898
 31
0.0
  0
LINE
  8
L-ZISSEN
 10
406.0
 20
857.235898
 30
0.0
 11
400.0
 21
853.771797
 31
0.0
  0
LINE
  8
L-ZISSEN
 10
400.0
 20
853.771797
 30
0.0
 11
394.0
 21
857.235898
 31
0.0
  0
LINE
  8
L-ZISSEN
 10
394.0
 20
857.235898
 30
0.0
 11
394.0
 21
864.164102
 31
0.0
  0
LINE
  8
L-ZISSEN
 10
1805.0
 20
629.5
 30
0.0
 11
1807.0
 21
629.5
 31
0.0
  0
LINE
  8
L-ZISSEN
 10
1833.0
 20
629.5
 30
0.0
 11
1835.0
 21
629.5
 31
0.0
  0
TEXT
  8
L-ZISSEN
 10
1655.0
 20
925.0
 30
0.0
 40
4.5
  1
EXTERNAL PILOT AIR SUPPLY
  0
LINE
  8
L-TYUSIN
 10
1705.0
 20
908.0
 30
0.0
 11
1705.0
 21
892.0
 31
0.0
  0
CIRCLE
  8
L-ZISSEN
 10
1705.0
 20
900.0
 30
0.0
 40
4.283
  0
TEXT
  8
L-ZISSEN
 10
1655.0
 20
855.0
 30
0.0
 40
4.5
  1
LOCK TYPE MANUAL OPERATION BUTTON
  0
LINE
  8
L-ZISSEN
 10
1742.113249
 20
835.0
 30
0.0
 11
1739.226497
 21
830.0
 31
0.0
  0
LINE
  8
L-ZISSEN
 10
1739.226497
 20
830.0
 30
0.0
 11
1742.113249
 21
825.0
 31
0.0
  0
LINE
  8
L-ZISSEN
 10
1742.113249
 20
825.0
 30
0.0
 11
1747.886751
 21
825.0
 31
0.0
  0
LINE
  8
L-ZISSEN
 10
1747.886751
 20
825.0
 30
0.0
 11
1750.773503
 21
830.0
 31
0.0
  0
LINE
  8
L-ZISSEN
 10
1750.773503
 20
830.0
 30
0.0
 11
1747.886751
 21
835.0
 31
0.0
  0
LINE
  8
L-ZISSEN
 10
1747.886751
 20
835.0
 30
0.0
 11
1742.113249
 21
835.0
 31
0.0
  0
LINE
  8
L-ZISSEN
 10
1739.226497
 20
816.4
 30
0.0
 11
1739.226497
 21
805.0
 31
0.0
  0
SOLID
  8
L-ZISSEN
 10
1743.520799
 20
831.38675
 30
0.0
 11
1743.150999
 21
830.83205
 31
0.0
 12
1745.0
 22
830.0
 32
0.0
 13
1745.0
 23
830.0
 33
0.0
  0
LINE
  8
L-ZISSEN
 10
1743.335899
 20
831.1094
 30
0.0
 11
1730.0
 21
840.0
 31
0.0
  0
LINE
  8
L-ZISSEN
 10
1730.0
 20
840.0
 30
0.0
 11
1728.0
 21
840.0
 31
0.0
  0
TEXT
  8
L-ZISSEN
 10
1717.0
 20
837.75
 30
0.0
 40
4.5
  1
P.P
  0
LINE
  8
L-ZISSEN
 10
1750.773503
 20
816.4
 30
0.0
 11
1750.773503
 21
805.0
 31
0.0
  0
LINE
  8
L-ZISSEN
 10
1739.226497
 20
816.4
 30
0.0
 11
1750.773503
 21
816.4
 31
0.0
  0
SOLID
  8
L-ZISSEN
 10
1743.150999
 20
804.16795
 30
0.0
 11
1743.520799
 21
803.61325
 31
0.0
 12
1745.0
 22
805.0
 32
0.0
 13
1745.0
 23
805.0
 33
0.0
  0
LINE
  8
L-ZISSEN
 10
1743.335899
 20
803.8906
 30
0.0
 11
1730.0
 21
795.0
 31
0.0
  0
LINE
  8
L-ZISSEN
 10
1730.0
 20
795.0
 30
0.0
 11
1728.0
 21
795.0
 31
0.0
  0
TEXT
  8
L-ZISSEN
 10
1717.0
 20
792.75
 30
0.0
 40
4.5
  1
P.P
  0
LINE
  8
L-ZISSEN
 10
1895.5
 20
557.0
 30
0.0
 11
1894.0
 21
557.0
 31
0.0
  0
LINE
  8
L-ZISSEN
 10
1926.0
 20
557.0
 30
0.0
 11
1924.5
 21
557.0
 31
0.0
  0
CIRCLE
  8
L-ZISSEN
 10
400.0
 20
470.0
 30
0.0
 40
2.067
  0
LINE
  8
L-ZISSEN
 10
1402.3
 20
626.0
 30
0.0
 11
1402.3
 21
582.0
 31
0.0
  0
LINE
  8
L-ZISSEN
 10
1477.7
 20
582.0
 30
0.0
 11
1477.7
 21
626.0
 31
0.0
  0
LINE
  8
L-ZISSEN
 10
1477.7
 20
614.0
 30
0.0
 11
1402.3
 21
614.0
 31
0.0
  0
LINE
  8
L-ZISSEN
 10
1402.3
 20
626.0
 30
0.0
 11
1314.7
 21
626.0
 31
0.0
  0
LINE
  8
L-ZISSEN
 10
1485.8
 20
582.0
 30
0.0
 11
1461.5
 21
582.0
 31
0.0
  0
LINE
  8
L-TYUSIN
 10
1440.0
 20
619.0
 30
0.0
 11
1440.0
 21
568.0
 31
0.0
  0
LINE
  8
L-ZISSEN
 10
383.0
 20
712.3
 30
0.0
 11
417.0
 21
712.3
 31
0.0
  0
LINE
  8
L-ZISSEN
 10
417.0
 20
787.7
 30
0.0
 11
383.0
 21
787.7
 31
0.0
  0
LINE
  8
L-ZISSEN
 10
417.0
 20
704.2
 30
0.0
 11
417.0
 21
712.3
 31
0.0
  0
LINE
  8
L-ZISSEN
 10
383.0
 20
704.2
 30
0.0
 11
383.0
 21
712.3
 31
0.0
  0
LINE
  8
L-ZISSEN
 10
384.0
 20
787.7
 30
0.0
 11
384.0
 21
785.5
 31
0.0
  0
LINE
  8
L-ZISSEN
 10
417.0
 20
787.7
 30
0.0
 11
417.0
 21
795.8
 31
0.0
  0
LINE
  8
L-ZISSEN
 10
383.0
 20
787.7
 30
0.0
 11
383.0
 21
795.8
 31
0.0
  0
LINE
  8
L-ZISSEN
 10
425.0
 20
771.5
 30
0.0
 11
416.0
 21
771.5
 31
0.0
  0
LINE
  8
L-ZISSEN
 10
425.0
 20
760.5
 30
0.0
 11
425.0
 21
771.5
 31
0.0
  0
LINE
  8
L-ZISSEN
 10
425.0
 20
760.5
 30
0.0
 11
416.0
 21
760.5
 31
0.0
  0
LINE
  8
L-ZISSEN
 10
416.0
 20
787.7
 30
0.0
 11
416.0
 21
771.5
 31
0.0
  0
LINE
  8
L-ZISSEN
 10
425.0
 20
739.5
 30
0.0
 11
416.0
 21
739.5
 31
0.0
  0
LINE
  8
L-ZISSEN
 10
425.0
 20
739.5
 30
0.0
 11
425.0
 21
728.5
 31
0.0
  0
LINE
  8
L-ZISSEN
 10
425.0
 20
728.5
 30
0.0
 11
416.0
 21
728.5
 31
0.0
  0
LINE
  8
L-ZISSEN
 10
375.0
 20
785.5
 30
0.0
 11
384.0
 21
785.5
 31
0.0
  0
LINE
  8
L-ZISSEN
 10
375.0
 20
774.5
 30
0.0
 11
375.0
 21
785.5
 31
0.0
  0
LINE
  8
L-ZISSEN
 10
375.0
 20
774.5
 30
0.0
 11
384.0
 21
774.5
 31
0.0
  0
LINE
  8
L-ZISSEN
 10
375.0
 20
725.5
 30
0.0
 11
384.0
 21
725.5
 31
0.0
  0
LINE
  8
L-ZISSEN
 10
375.0
 20
714.5
 30
0.0
 11
375.0
 21
725.5
 31
0.0
  0
LINE
  8
L-ZISSEN
 10
375.0
 20
714.5
 30
0.0
 11
384.0
 21
714.5
 31
0.0
  0
LINE
  8
L-ZISSEN
 10
415.6
 20
795.8
 30
0.0
 11
415.6
 21
875.3
 31
0.0
  0
LINE
  8
L-ZISSEN
 10
384.4
 20
795.8
 30
0.0
 11
384.4
 21
875.3
 31
0.0
  0
LINE
  8
L-ZISSEN
 10
1450.5
 20
573.0
 30
0.0
 11
1450.5
 21
605.0
 31
0.0
  0
LINE
  8
L-ZISSEN
 10
1461.5
 20
573.0
 30
0.0
 11
1461.5
 21
605.0
 31
0.0
  0
LINE
  8
L-ZISSEN
 10
1461.5
 20
605.0
 30
0.0
 11
1450.5
 21
605.0
 31
0.0
  0
LINE
  8
L-ZISSEN
 10
1450.5
 20
582.0
 30
0.0
 11
1429.5
 21
582.0
 31
0.0
  0
LINE
  8
L-ZISSEN
 10
1460.25
 20
611.3
 30
0.0
 11
1451.75
 21
611.3
 31
0.0
  0
LINE
  8
L-ZISSEN
 10
1451.75
 20
611.3
 30
0.0
 11
1451.75
 21
605.0
 31
0.0
  0
LINE
  8
L-ZISSEN
 10
1460.25
 20
611.3
 30
0.0
 11
1460.25
 21
605.0
 31
0.0
  0
LINE
  8
L-ZISSEN
 10
1419.75
 20
611.3
 30
0.0
 11
1419.75
 21
605.0
 31
0.0
  0
LINE
  8
L-ZISSEN
 10
1428.25
 20
611.3
 30
0.0
 11
1428.25
 21
605.0
 31
0.0
  0
LINE
  8
L-ZISSEN
 10
1419.75
 20
611.3
 30
0.0
 11
1428.25
 21
611.3
 31
0.0
  0
LINE
  8
L-ZISSEN
 10
1418.5
 20
605.0
 30
0.0
 11
1429.5
 21
605.0
 31
0.0
  0
LINE
  8
L-ZISSEN
 10
1418.5
 20
573.0
 30
0.0
 11
1418.5
 21
605.0
 31
0.0
  0
LINE
  8
L-ZISSEN
 10
1429.5
 20
573.0
 30
0.0
 11
1429.5
 21
605.0
 31
0.0
  0
LINE
  8
L-ZISSEN
 10
1418.5
 20
582.0
 30
0.0
 11
1394.2
 21
582.0
 31
0.0
  0
CIRCLE
  8
L-ZISSEN
 10
380.5
 20
720.0
 30
0.0
 40
4.25
  0
LINE
  8
L-ZISSEN
 10
384.0
 20
714.5
 30
0.0
 11
384.0
 21
712.3
 31
0.0
  0
LINE
  8
L-ZISSEN
 10
384.0
 20
774.5
 30
0.0
 11
384.0
 21
725.5
 31
0.0
  0
LINE
  8
L-ZISSEN
 10
416.0
 20
760.5
 30
0.0
 11
416.0
 21
739.5
 31
0.0
  0
LINE
  8
L-ZISSEN
 10
416.0
 20
728.5
 30
0.0
 11
416.0
 21
712.3
 31
0.0
  0
CIRCLE
  8
L-ZISSEN
 10
380.5
 20
780.0
 30
0.0
 40
4.25
  0
CIRCLE
  8
L-ZISSEN
 10
419.5
 20
766.0
 30
0.0
 40
4.25
  0
CIRCLE
  8
L-ZISSEN
 10
419.5
 20
734.0
 30
0.0
 40
4.25
  0
LINE
  8
L-ZISSEN
 10
1394.0
 20
574.0
 30
0.0
 11
1394.0
 21
573.0
 31
0.0
  0
LINE
  8
L-ZISSEN
 10
1486.0
 20
574.0
 30
0.0
 11
1486.0
 21
573.0
 31
0.0
  0
LINE
  8
L-ZISSEN
 10
385.0
 20
451.2
 30
0.0
 11
385.0
 21
494.0
 31
0.0
  0
LINE
  8
L-ZISSEN
 10
415.0
 20
451.2
 30
0.0
 11
415.0
 21
494.0
 31
0.0
  0
LINE
  8
L-ZISSEN
 10
384.4
 20
444.0
 30
0.0
 11
384.4
 21
496.0
 31
0.0
  0
LINE
  8
L-ZISSEN
 10
415.6
 20
444.0
 30
0.0
 11
415.6
 21
496.0
 31
0.0
  0
LINE
  8
L-ZISSEN
 10
417.0
 20
496.0
 30
0.0
 11
415.25
 21
496.0
 31
0.0
  0
LINE
  8
L-ZISSEN
 10
384.75
 20
496.0
 30
0.0
 11
383.0
 21
496.0
 31
0.0
  0
LINE
  8
L-ZISSEN
 10
417.0
 20
496.0
 30
0.0
 11
417.0
 21
443.0
 31
0.0
  0
LINE
  8
L-ZISSEN
 10
383.0
 20
496.0
 30
0.0
 11
383.0
 21
443.0
 31
0.0
  0
LINE
  8
L-ZISSEN
 10
425.0
 20
443.0
 30
0.0
 11
425.0
 21
475.0
 31
0.0
  0
LINE
  8
L-ZISSEN
 10
425.0
 20
475.0
 30
0.0
 11
417.0
 21
475.0
 31
0.0
  0
LINE
  8
L-ZISSEN
 10
423.75
 20
481.3
 30
0.0
 11
417.0
 21
481.3
 31
0.0
  0
LINE
  8
L-ZISSEN
 10
423.75
 20
481.3
 30
0.0
 11
423.75
 21
475.0
 31
0.0
  0
LINE
  8
L-ZISSEN
 10
376.25
 20
481.3
 30
0.0
 11
383.0
 21
481.3
 31
0.0
  0
LINE
  8
L-ZISSEN
 10
376.25
 20
481.3
 30
0.0
 11
376.25
 21
475.0
 31
0.0
  0
LINE
  8
L-ZISSEN
 10
375.0
 20
475.0
 30
0.0
 11
383.0
 21
475.0
 31
0.0
  0
LINE
  8
L-ZISSEN
 10
375.0
 20
443.0
 30
0.0
 11
375.0
 21
475.0
 31
0.0
  0
SOLID
  8
L-ZISSEN
 10
401.768868
 20
493.008932
 30
0.0
 11
401.994681
 21
493.63619
 31
0.0
 12
400.0
 22
494.0
 32
0.0
 13
400.0
 23
494.0
 33
0.0
  0
LINE
  8
L-ZISSEN
 10
401.881775
 20
493.322561
 30
0.0
 11
425.0
 21
485.0
 31
0.0
  0
LINE
  8
L-ZISSEN
 10
425.0
 20
485.0
 30
0.0
 11
427.0
 21
485.0
 31
0.0
  0
TEXT
  8
L-ZISSEN
 10
429.0
 20
482.75
 30
0.0
 40
4.5
  1
P.P
  0
LINE
  8
L-ZISSEN
 10
415.6
 20
170.0
 30
0.0
 11
415.6
 21
94.7
 31
0.0
  0
LINE
  8
L-ZISSEN
 10
384.4
 20
170.0
 30
0.0
 11
384.4
 21
94.7
 31
0.0
  0
LINE
  8
L-ZISSEN
 10
385.0
 20
50.8
 30
0.0
 11
415.0
 21
50.8
 31
0.0
  0
LINE
  8
L-ZISSEN
 10
415.0
 20
50.8
 30
0.0
 11
415.0
 21
94.7
 31
0.0
  0
LINE
  8
L-ZISSEN
 10
385.0
 20
50.8
 30
0.0
 11
385.0
 21
94.7
 31
0.0
  0
LINE
  8
L-ZISSEN
 10
389.030345
 20
36.3
 30
0.0
 11
410.969655
 21
36.3
 31
0.0
  0
LINE
  8
L-ZISSEN
 10
389.030345
 20
36.3
 30
0.0
 11
389.030345
 21
41.8
 31
0.0
  0
LINE
  8
L-ZISSEN
 10
410.969655
 20
36.3
 30
0.0
 11
410.969655
 21
41.8
 31
0.0
  0
LINE
  8
L-ZISSEN
 10
389.030345
 20
41.8
 30
0.0
 11
410.969655
 21
41.8
 31
0.0
  0
LINE
  8
L-ZISSEN
 10
390.8
 20
47.05
 30
0.0
 11
390.8
 21
44.15
 31
0.0
  0
LINE
  8
L-ZISSEN
 10
409.2
 20
47.05
 30
0.0
 11
409.2
 21
44.15
 31
0.0
  0
LINE
  8
L-ZISSEN
 10
391.5
 20
44.15
 30
0.0
 11
391.5
 21
41.8
 31
0.0
  0
LINE
  8
L-ZISSEN
 10
408.5
 20
44.15
 30
0.0
 11
408.5
 21
41.8
 31
0.0
  0
LINE
  8
L-ZISSEN
 10
390.8
 20
44.15
 30
0.0
 11
409.2
 21
44.15
 31
0.0
  0
LINE
  8
L-ZISSEN
 10
388.75
 20
50.8
 30
0.0
 11
388.75
 21
47.05
 31
0.0
  0
LINE
  8
L-ZISSEN
 10
388.75
 20
47.05
 30
0.0
 11
411.25
 21
47.05
 31
0.0
  0
LINE
  8
L-ZISSEN
 10
411.25
 20
50.8
 30
0.0
 11
411.25
 21
47.05
 31
0.0
  0
LINE
  8
L-TYUSIN
 10
400.0
 20
408.7
 30
0.0
 11
400.0
 21
31.3
 31
0.0
  0
LINE
  8
L-ZISSEN
 10
384.4
 20
94.7
 30
0.0
 11
415.6
 21
94.7
 31
0.0
  0
LINE
  8
L-ZISSEN
 10
1809.030345
 20
374.5
 30
0.0
 11
1830.969655
 21
374.5
 31
0.0
  0
LINE
  8
L-ZISSEN
 10
1809.030345
 20
374.5
 30
0.0
 11
1809.030345
 21
380.0
 31
0.0
  0
LINE
  8
L-ZISSEN
 10
1830.969655
 20
374.5
 30
0.0
 11
1830.969655
 21
380.0
 31
0.0
  0
LINE
  8
L-ZISSEN
 10
1809.030345
 20
380.0
 30
0.0
 11
1830.969655
 21
380.0
 31
0.0
  0
LINE
  8
L-ZISSEN
 10
1810.8
 20
389.5
 30
0.0
 11
1810.8
 21
382.35
 31
0.0
  0
LINE
  8
L-ZISSEN
 10
1829.2
 20
389.5
 30
0.0
 11
1829.2
 21
382.35
 31
0.0
  0
LINE
  8
L-ZISSEN
 10
1811.5
 20
382.35
 30
0.0
 11
1811.5
 21
380.0
 31
0.0
  0
LINE
  8
L-ZISSEN
 10
1828.5
 20
382.35
 30
0.0
 11
1828.5
 21
380.0
 31
0.0
  0
LINE
  8
L-ZISSEN
 10
1810.8
 20
382.35
 30
0.0
 11
1829.2
 21
382.35
 31
0.0
  0
LINE
  8
L-ZISSEN
 10
1807.0
 20
389.5
 30
0.0
 11
1833.0
 21
389.5
 31
0.0
  0
LINE
  8
L-ZISSEN
 10
1833.0
 20
389.5
 30
0.0
 11
1833.0
 21
404.5
 31
0.0
  0
LINE
  8
L-ZISSEN
 10
1807.0
 20
404.5
 30
0.0
 11
1807.0
 21
389.5
 31
0.0
  0
LINE
  8
L-ZISSEN
 10
1833.0
 20
399.5
 30
0.0
 11
1830.0
 21
399.5
 31
0.0
  0
LINE
  8
L-ZISSEN
 10
1830.0
 20
399.5
 30
0.0
 11
1830.0
 21
402.5
 31
0.0
  0
LINE
  8
L-ZISSEN
 10
1810.0
 20
402.5
 30
0.0
 11
1811.5
 21
402.5
 31
0.0
  0
LINE
  8
L-ZISSEN
 10
1810.0
 20
399.5
 30
0.0
 11
1810.0
 21
402.5
 31
0.0
  0
LINE
  8
L-ZISSEN
 10
1807.0
 20
399.5
 30
0.0
 11
1810.0
 21
399.5
 31
0.0
  0
LINE
  8
L-ZISSEN
 10
384.4
 20
270.0
 30
0.0
 11
384.4
 21
345.3
 31
0.0
  0
LINE
  8
L-ZISSEN
 10
415.6
 20
270.0
 30
0.0
 11
415.6
 21
345.3
 31
0.0
  0
LINE
  8
L-ZISSEN
 10
384.4
 20
704.2
 30
0.0
 11
384.4
 21
624.7
 31
0.0
  0
LINE
  8
L-ZISSEN
 10
415.6
 20
704.2
 30
0.0
 11
415.6
 21
624.7
 31
0.0
  0
LINE
  8
L-ZISSEN
 10
417.0
 20
704.2
 30
0.0
 11
383.0
 21
704.2
 31
0.0
  0
LINE
  8
L-ZISSEN
 10
1807.0
 20
500.5
 30
0.0
 11
1810.0
 21
500.5
 31
0.0
  0
LINE
  8
L-ZISSEN
 10
1810.0
 20
500.5
 30
0.0
 11
1810.0
 21
497.5
 31
0.0
  0
LINE
  8
L-ZISSEN
 10
1810.0
 20
497.5
 30
0.0
 11
1811.5
 21
497.5
 31
0.0
  0
LINE
  8
L-ZISSEN
 10
1830.0
 20
500.5
 30
0.0
 11
1830.0
 21
497.5
 31
0.0
  0
LINE
  8
L-ZISSEN
 10
1833.0
 20
500.5
 30
0.0
 11
1830.0
 21
500.5
 31
0.0
  0
LINE
  8
L-ZISSEN
 10
1807.0
 20
495.5
 30
0.0
 11
1807.0
 21
510.5
 31
0.0
  0
LINE
  8
L-ZISSEN
 10
1833.0
 20
510.5
 30
0.0
 11
1833.0
 21
495.5
 31
0.0
  0
LINE
  8
L-ZISSEN
 10
1807.0
 20
510.5
 30
0.0
 11
1833.0
 21
510.5
 31
0.0
  0
LINE
  8
L-ZISSEN
 10
1810.8
 20
517.65
 30
0.0
 11
1829.2
 21
517.65
 31
0.0
  0
LINE
  8
L-ZISSEN
 10
1828.5
 20
517.65
 30
0.0
 11
1828.5
 21
520.0
 31
0.0
  0
LINE
  8
L-ZISSEN
 10
1811.5
 20
517.65
 30
0.0
 11
1811.5
 21
520.0
 31
0.0
  0
LINE
  8
L-ZISSEN
 10
1829.2
 20
510.5
 30
0.0
 11
1829.2
 21
517.65
 31
0.0
  0
LINE
  8
L-ZISSEN
 10
1810.8
 20
510.5
 30
0.0
 11
1810.8
 21
517.65
 31
0.0
  0
LINE
  8
L-ZISSEN
 10
1809.030345
 20
520.0
 30
0.0
 11
1830.969655
 21
520.0
 31
0.0
  0
LINE
  8
L-ZISSEN
 10
1830.969655
 20
525.5
 30
0.0
 11
1830.969655
 21
520.0
 31
0.0
  0
LINE
  8
L-ZISSEN
 10
1809.030345
 20
525.5
 30
0.0
 11
1809.030345
 21
520.0
 31
0.0
  0
LINE
  8
L-ZISSEN
 10
1809.030345
 20
525.5
 30
0.0
 11
1830.969655
 21
525.5
 31
0.0
  0
LINE
  8
L-ZISSEN
 10
1833.0
 20
720.5
 30
0.0
 11
1835.0
 21
720.5
 31
0.0
  0
LINE
  8
L-ZISSEN
 10
1805.0
 20
720.5
 30
0.0
 11
1807.0
 21
720.5
 31
0.0
  0
LINE
  8
L-ZISSEN
 10
1833.0
 20
709.5
 30
0.0
 11
1834.5
 21
709.5
 31
0.0
  0
LINE
  8
L-ZISSEN
 10
1834.5
 20
709.5
 30
0.0
 11
1834.5
 21
680.5
 31
0.0
  0
LINE
  8
L-ZISSEN
 10
1805.5
 20
709.5
 30
0.0
 11
1807.0
 21
709.5
 31
0.0
  0
LINE
  8
L-ZISSEN
 10
1805.5
 20
680.5
 30
0.0
 11
1805.5
 21
709.5
 31
0.0
  0
LINE
  8
L-ZISSEN
 10
1834.5
 20
680.5
 30
0.0
 11
1805.5
 21
680.5
 31
0.0
  0
LINE
  8
L-ZISSEN
 10
1833.5
 20
681.5
 30
0.0
 11
1833.5
 21
708.5
 31
0.0
  0
LINE
  8
L-ZISSEN
 10
1806.5
 20
681.5
 30
0.0
 11
1806.5
 21
708.5
 31
0.0
  0
LINE
  8
L-ZISSEN
 10
1806.5
 20
681.5
 30
0.0
 11
1833.5
 21
681.5
 31
0.0
  0
LINE
  8
L-ZISSEN
 10
1806.5
 20
708.5
 30
0.0
 11
1833.5
 21
708.5
 31
0.0
  0
LINE
  8
L-ZISSEN
 10
1809.030345
 20
750.5
 30
0.0
 11
1830.969655
 21
750.5
 31
0.0
  0
LINE
  8
L-ZISSEN
 10
1809.030345
 20
750.5
 30
0.0
 11
1809.030345
 21
745.0
 31
0.0
  0
LINE
  8
L-ZISSEN
 10
1830.969655
 20
750.5
 30
0.0
 11
1830.969655
 21
745.0
 31
0.0
  0
LINE
  8
L-ZISSEN
 10
1809.030345
 20
745.0
 30
0.0
 11
1830.969655
 21
745.0
 31
0.0
  0
LINE
  8
L-ZISSEN
 10
1810.8
 20
735.5
 30
0.0
 11
1810.8
 21
742.65
 31
0.0
  0
LINE
  8
L-ZISSEN
 10
1829.2
 20
735.5
 30
0.0
 11
1829.2
 21
742.65
 31
0.0
  0
LINE
  8
L-ZISSEN
 10
1811.5
 20
742.65
 30
0.0
 11
1811.5
 21
745.0
 31
0.0
  0
LINE
  8
L-ZISSEN
 10
1828.5
 20
742.65
 30
0.0
 11
1828.5
 21
745.0
 31
0.0
  0
LINE
  8
L-ZISSEN
 10
1810.8
 20
742.65
 30
0.0
 11
1829.2
 21
742.65
 31
0.0
  0
LINE
  8
L-ZISSEN
 10
1807.0
 20
735.5
 30
0.0
 11
1833.0
 21
735.5
 31
0.0
  0
LINE
  8
L-ZISSEN
 10
1833.0
 20
735.5
 30
0.0
 11
1833.0
 21
708.5
 31
0.0
  0
LINE
  8
L-ZISSEN
 10
1807.0
 20
708.5
 30
0.0
 11
1807.0
 21
735.5
 31
0.0
  0
LINE
  8
L-ZISSEN
 10
1533.3
 20
574.0
 30
0.0
 11
1533.3
 21
626.0
 31
0.0
  0
LINE
  8
L-ZISSEN
 10
1565.3
 20
574.0
 30
0.0
 11
1565.3
 21
626.0
 31
0.0
  0
LINE
  8
L-ZISSEN
 10
415.6
 20
843.3
 30
0.0
 11
384.4
 21
843.3
 31
0.0
  0
SOLID
  8
L-ZISSEN
 10
1585.530004
 20
623.126961
 30
0.0
 11
1585.714233
 21
623.767667
 31
0.0
 12
1583.7
 22
624.0
 32
0.0
 13
1583.7
 23
624.0
 33
0.0
  0
LINE
  8
L-ZISSEN
 10
1585.622118
 20
623.447314
 30
0.0
 11
1615.0
 21
615.0
 31
0.0
  0
LINE
  8
L-ZISSEN
 10
1615.0
 20
615.0
 30
0.0
 11
1617.0
 21
615.0
 31
0.0
  0
TEXT
  8
L-ZISSEN
 10
1619.0
 20
612.75
 30
0.0
 40
4.5
  1
P.P
  0
LINE
  8
L-ZISSEN
 10
415.6
 20
656.7
 30
0.0
 11
384.4
 21
656.7
 31
0.0
  0
LINE
  8
L-ZISSEN
 10
1314.7
 20
574.0
 30
0.0
 11
1314.7
 21
626.0
 31
0.0
  0
LINE
  8
L-ZISSEN
 10
1346.7
 20
574.0
 30
0.0
 11
1346.7
 21
626.0
 31
0.0
  0
LINE
  8
L-ZISSEN
 10
394.0
 20
642.764102
 30
0.0
 11
394.0
 21
635.835898
 31
0.0
  0
LINE
  8
L-ZISSEN
 10
400.0
 20
646.228203
 30
0.0
 11
394.0
 21
642.764102
 31
0.0
  0
LINE
  8
L-ZISSEN
 10
406.0
 20
642.764102
 30
0.0
 11
400.0
 21
646.228203
 31
0.0
  0
LINE
  8
L-ZISSEN
 10
406.0
 20
635.835898
 30
0.0
 11
406.0
 21
642.764102
 31
0.0
  0
LINE
  8
L-ZISSEN
 10
400.0
 20
632.371797
 30
0.0
 11
406.0
 21
635.835898
 31
0.0
  0
LINE
  8
L-ZISSEN
 10
394.0
 20
635.835898
 30
0.0
 11
400.0
 21
632.371797
 31
0.0
  0
LINE
  8
L-ZISSEN
 10
1336.228203
 20
632.9
 30
0.0
 11
1336.228203
 21
626.0
 31
0.0
  0
LINE
  8
L-ZISSEN
 10
1322.371797
 20
632.9
 30
0.0
 11
1322.371797
 21
626.0
 31
0.0
  0
LINE
  8
L-ZISSEN
 10
1336.228203
 20
632.9
 30
0.0
 11
1322.371797
 21
632.9
 31
0.0
  0
LINE
  8
L-ZISSEN
 10
415.0
 20
580.8
 30
0.0
 11
411.25
 21
580.8
 31
0.0
  0
LINE
  8
L-ZISSEN
 10
385.0
 20
580.8
 30
0.0
 11
385.0
 21
624.7
 31
0.0
  0
LINE
  8
L-ZISSEN
 10
415.0
 20
580.8
 30
0.0
 11
415.0
 21
624.7
 31
0.0
  0
LINE
  8
L-ZISSEN
 10
410.969655
 20
566.3
 30
0.0
 11
389.030345
 21
566.3
 31
0.0
  0
LINE
  8
L-ZISSEN
 10
410.969655
 20
566.3
 30
0.0
 11
410.969655
 21
571.8
 31
0.0
  0
LINE
  8
L-ZISSEN
 10
389.030345
 20
566.3
 30
0.0
 11
389.030345
 21
571.8
 31
0.0
  0
LINE
  8
L-ZISSEN
 10
410.969655
 20
571.8
 30
0.0
 11
389.030345
 21
571.8
 31
0.0
  0
LINE
  8
L-ZISSEN
 10
409.2
 20
577.05
 30
0.0
 11
409.2
 21
574.15
 31
0.0
  0
LINE
  8
L-ZISSEN
 10
390.8
 20
577.05
 30
0.0
 11
390.8
 21
574.15
 31
0.0
  0
LINE
  8
L-ZISSEN
 10
408.5
 20
574.15
 30
0.0
 11
408.5
 21
571.8
 31
0.0
  0
LINE
  8
L-ZISSEN
 10
391.5
 20
574.15
 30
0.0
 11
391.5
 21
571.8
 31
0.0
  0
LINE
  8
L-ZISSEN
 10
409.2
 20
574.15
 30
0.0
 11
390.8
 21
574.15
 31
0.0
  0
LINE
  8
L-ZISSEN
 10
411.25
 20
592.55
 30
0.0
 11
411.25
 21
577.05
 31
0.0
  0
LINE
  8
L-ZISSEN
 10
411.25
 20
577.05
 30
0.0
 11
388.75
 21
577.05
 31
0.0
  0
LINE
  8
L-ZISSEN
 10
388.75
 20
592.55
 30
0.0
 11
388.75
 21
577.05
 31
0.0
  0
LINE
  8
L-ZISSEN
 10
388.75
 20
580.8
 30
0.0
 11
385.0
 21
580.8
 31
0.0
  0
LINE
  8
L-ZISSEN
 10
413.75
 20
620.05
 30
0.0
 11
386.25
 21
620.05
 31
0.0
  0
LINE
  8
L-ZISSEN
 10
413.75
 20
592.55
 30
0.0
 11
386.25
 21
592.55
 31
0.0
  0
LINE
  8
L-ZISSEN
 10
386.25
 20
620.05
 30
0.0
 11
386.25
 21
592.55
 31
0.0
  0
LINE
  8
L-ZISSEN
 10
413.75
 20
620.05
 30
0.0
 11
413.75
 21
592.55
 31
0.0
  0
LINE
  8
L-ZISSEN
 10
385.0
 20
591.05
 30
0.0
 11
388.75
 21
591.05
 31
0.0
  0
LINE
  8
L-ZISSEN
 10
385.0
 20
621.05
 30
0.0
 11
415.0
 21
621.05
 31
0.0
  0
LINE
  8
L-ZISSEN
 10
411.25
 20
591.05
 30
0.0
 11
415.0
 21
591.05
 31
0.0
  0
LINE
  8
L-ZISSEN
 10
415.6
 20
624.7
 30
0.0
 11
384.4
 21
624.7
 31
0.0
  0
LINE
  8
L-ZISSEN
 10
1311.55
 20
628.5
 30
0.0
 11
1281.05
 21
628.5
 31
0.0
  0
LINE
  8
L-ZISSEN
 10
1281.05
 20
628.5
 30
0.0
 11
1281.05
 21
624.0
 31
0.0
  0
LINE
  8
L-ZISSEN
 10
1311.55
 20
628.5
 30
0.0
 11
1311.55
 21
624.0
 31
0.0
  0
LINE
  8
L-ZISSEN
 10
1264.15
 20
657.65
 30
0.0
 11
1264.15
 21
639.25
 31
0.0
  0
LINE
  8
L-ZISSEN
 10
1264.15
 20
639.95
 30
0.0
 11
1261.8
 21
639.95
 31
0.0
  0
LINE
  8
L-ZISSEN
 10
1264.15
 20
656.95
 30
0.0
 11
1261.8
 21
656.95
 31
0.0
  0
LINE
  8
L-ZISSEN
 10
1267.05
 20
639.25
 30
0.0
 11
1264.15
 21
639.25
 31
0.0
  0
LINE
  8
L-ZISSEN
 10
1267.05
 20
657.65
 30
0.0
 11
1264.15
 21
657.65
 31
0.0
  0
LINE
  8
L-ZISSEN
 10
1261.8
 20
659.419655
 30
0.0
 11
1261.8
 21
637.480345
 31
0.0
  0
LINE
  8
L-ZISSEN
 10
1256.3
 20
637.480345
 30
0.0
 11
1261.8
 21
637.480345
 31
0.0
  0
LINE
  8
L-ZISSEN
 10
1256.3
 20
659.419655
 30
0.0
 11
1261.8
 21
659.419655
 31
0.0
  0
LINE
  8
L-ZISSEN
 10
1256.3
 20
659.419655
 30
0.0
 11
1256.3
 21
637.480345
 31
0.0
  0
LINE
  8
L-ZISSEN
 10
1282.55
 20
659.7
 30
0.0
 11
1282.55
 21
628.5
 31
0.0
  0
LINE
  8
L-ZISSEN
 10
1267.05
 20
659.7
 30
0.0
 11
1267.05
 21
637.2
 31
0.0
  0
LINE
  8
L-ZISSEN
 10
1282.55
 20
637.2
 30
0.0
 11
1267.05
 21
637.2
 31
0.0
  0
LINE
  8
L-ZISSEN
 10
1310.05
 20
659.7
 30
0.0
 11
1267.05
 21
659.7
 31
0.0
  0
LINE
  8
L-ZISSEN
 10
1310.05
 20
659.7
 30
0.0
 11
1310.05
 21
628.5
 31
0.0
  0
LINE
  8
L-ZISSEN
 10
1267.8
 20
609.814955
 30
0.0
 11
1267.8
 21
590.185045
 31
0.0
  0
LINE
  8
L-ZISSEN
 10
1267.8
 20
590.185045
 30
0.0
 11
1270.8
 21
590.185045
 31
0.0
  0
LINE
  8
L-ZISSEN
 10
1267.8
 20
609.814955
 30
0.0
 11
1270.8
 21
609.814955
 31
0.0
  0
LINE
  8
L-ZISSEN
 10
1270.8
 20
624.0
 30
0.0
 11
1270.8
 21
581.2
 31
0.0
  0
LINE
  8
L-ZISSEN
 10
1270.8
 20
581.2
 30
0.0
 11
1314.7
 21
581.2
 31
0.0
  0
LINE
  8
L-ZISSEN
 10
1314.7
 20
624.0
 30
0.0
 11
1270.8
 21
624.0
 31
0.0
  0
LINE
  8
L-ZISSEN
 10
415.6
 20
126.7
 30
0.0
 11
384.4
 21
126.7
 31
0.0
  0
LINE
  8
L-ZISSEN
 10
415.6
 20
313.3
 30
0.0
 11
384.4
 21
313.3
 31
0.0
  0
LINE
  8
L-ZISSEN
 10
384.4
 20
345.3
 30
0.0
 11
415.6
 21
345.3
 31
0.0
  0
LINE
  8
L-ZISSEN
 10
411.25
 20
389.2
 30
0.0
 11
411.25
 21
392.95
 31
0.0
  0
LINE
  8
L-ZISSEN
 10
388.75
 20
392.95
 30
0.0
 11
411.25
 21
392.95
 31
0.0
  0
LINE
  8
L-ZISSEN
 10
388.75
 20
389.2
 30
0.0
 11
388.75
 21
392.95
 31
0.0
  0
LINE
  8
L-ZISSEN
 10
390.8
 20
395.85
 30
0.0
 11
409.2
 21
395.85
 31
0.0
  0
LINE
  8
L-ZISSEN
 10
408.5
 20
395.85
 30
0.0
 11
408.5
 21
398.2
 31
0.0
  0
LINE
  8
L-ZISSEN
 10
391.5
 20
395.85
 30
0.0
 11
391.5
 21
398.2
 31
0.0
  0
LINE
  8
L-ZISSEN
 10
409.2
 20
392.95
 30
0.0
 11
409.2
 21
395.85
 31
0.0
  0
LINE
  8
L-ZISSEN
 10
390.8
 20
392.95
 30
0.0
 11
390.8
 21
395.85
 31
0.0
  0
LINE
  8
L-ZISSEN
 10
389.030345
 20
398.2
 30
0.0
 11
410.969655
 21
398.2
 31
0.0
  0
LINE
  8
L-ZISSEN
 10
410.969655
 20
403.7
 30
0.0
 11
410.969655
 21
398.2
 31
0.0
  0
LINE
  8
L-ZISSEN
 10
389.030345
 20
403.7
 30
0.0
 11
389.030345
 21
398.2
 31
0.0
  0
LINE
  8
L-ZISSEN
 10
389.030345
 20
403.7
 30
0.0
 11
410.969655
 21
403.7
 31
0.0
  0
LINE
  8
L-ZISSEN
 10
385.0
 20
389.2
 30
0.0
 11
385.0
 21
345.3
 31
0.0
  0
LINE
  8
L-ZISSEN
 10
415.0
 20
389.2
 30
0.0
 11
415.0
 21
345.3
 31
0.0
  0
LINE
  8
L-ZISSEN
 10
385.0
 20
389.2
 30
0.0
 11
415.0
 21
389.2
 31
0.0
  0
SOLID
  8
L-ZISSEN
 10
1294.285767
 20
623.767667
 30
0.0
 11
1294.469996
 21
623.126961
 31
0.0
 12
1296.3
 22
624.0
 32
0.0
 13
1296.3
 23
624.0
 33
0.0
  0
LINE
  8
L-ZISSEN
 10
1294.377882
 20
623.447314
 30
0.0
 11
1265.0
 21
615.0
 31
0.0
  0
LINE
  8
L-ZISSEN
 10
1265.0
 20
615.0
 30
0.0
 11
1263.0
 21
615.0
 31
0.0
  0
TEXT
  8
L-ZISSEN
 10
1252.0
 20
612.75
 30
0.0
 40
4.5
  1
P.P
  0
SOLID
  8
L-ZISSEN
 10
1550.00905
 20
627.906227
 30
0.0
 11
1549.428163
 21
627.579095
 31
0.0
 12
1550.7
 22
626.0
 32
0.0
 13
1550.7
 23
626.0
 33
0.0
  0
LINE
  8
L-ZISSEN
 10
1549.718607
 20
627.742661
 30
0.0
 11
1540.0
 21
645.0
 31
0.0
  0
LINE
  8
L-ZISSEN
 10
1540.0
 20
645.0
 30
0.0
 11
1538.0
 21
645.0
 31
0.0
  0
TEXT
  8
L-ZISSEN
 10
1527.0
 20
642.75
 30
0.0
 40
4.5
  1
P.P
  0
SOLID
  8
L-ZISSEN
 10
1330.571837
 20
627.579095
 30
0.0
 11
1329.99095
 21
627.906227
 31
0.0
 12
1329.3
 22
626.0
 32
0.0
 13
1329.3
 23
626.0
 33
0.0
  0
LINE
  8
L-ZISSEN
 10
1330.281393
 20
627.742661
 30
0.0
 11
1340.0
 21
645.0
 31
0.0
  0
LINE
  8
L-ZISSEN
 10
1340.0
 20
645.0
 30
0.0
 11
1342.0
 21
645.0
 31
0.0
  0
TEXT
  8
L-ZISSEN
 10
1344.0
 20
642.75
 30
0.0
 40
4.5
  1
P.P
  0
LINE
  8
L-TYUSIN
 10
1364.2
 20
860.0
 30
0.0
 11
1594.7
 21
860.0
 31
0.0
  0
LINE
  8
L-ZISSEN
 10
1485.8
 20
834.0
 30
0.0
 11
1485.8
 21
886.0
 31
0.0
  0
LINE
  8
L-ZISSEN
 10
1542.8
 20
886.0
 30
0.0
 11
1477.7
 21
886.0
 31
0.0
  0
LINE
  8
L-ZISSEN
 10
1394.2
 20
886.0
 30
0.0
 11
1394.2
 21
834.0
 31
0.0
  0
LINE
  8
L-ZISSEN
 10
1386.2
 20
834.0
 30
0.0
 11
1542.8
 21
834.0
 31
0.0
  0
LINE
  8
L-ZISSEN
 10
1542.8
 20
834.0
 30
0.0
 11
1542.8
 21
886.0
 31
0.0
  0
LINE
  8
L-ZISSEN
 10
1369.2
 20
871.0
 30
0.0
 11
1369.2
 21
849.0
 31
0.0
  0
LINE
  8
L-ZISSEN
 10
1386.2
 20
886.0
 30
0.0
 11
1386.2
 21
834.0
 31
0.0
  0
LINE
  8
L-ZISSEN
 10
1376.2
 20
875.465838
 30
0.0
 11
1376.2
 21
846.0
 31
0.0
  0
LINE
  8
L-ZISSEN
 10
1376.2
 20
846.0
 30
0.0
 11
1386.2
 21
846.0
 31
0.0
  0
LINE
  8
L-ZISSEN
 10
1369.2
 20
849.0
 30
0.0
 11
1376.2
 21
849.0
 31
0.0
  0
LINE
  8
L-ZISSEN
 10
1369.2
 20
871.0
 30
0.0
 11
1376.2
 21
871.0
 31
0.0
  0
LINE
  8
L-ZISSEN
 10
1542.8
 20
884.0
 30
0.0
 11
1586.7
 21
884.0
 31
0.0
  0
LINE
  8
L-ZISSEN
 10
1586.7
 20
841.2
 30
0.0
 11
1542.8
 21
841.2
 31
0.0
  0
LINE
  8
L-ZISSEN
 10
1586.7
 20
884.0
 30
0.0
 11
1586.7
 21
841.2
 31
0.0
  0
LINE
  8
L-ZISSEN
 10
1589.7
 20
869.814955
 30
0.0
 11
1586.7
 21
869.814955
 31
0.0
  0
LINE
  8
L-ZISSEN
 10
1589.7
 20
850.185045
 30
0.0
 11
1586.7
 21
850.185045
 31
0.0
  0
LINE
  8
L-ZISSEN
 10
1589.7
 20
869.814955
 30
0.0
 11
1589.7
 21
850.185045
 31
0.0
  0
LINE
  8
L-ZISSEN
 10
1547.45
 20
919.7
 30
0.0
 11
1547.45
 21
888.5
 31
0.0
  0
LINE
  8
L-ZISSEN
 10
1547.45
 20
919.7
 30
0.0
 11
1590.45
 21
919.7
 31
0.0
  0
LINE
  8
L-ZISSEN
 10
1574.95
 20
897.2
 30
0.0
 11
1590.45
 21
897.2
 31
0.0
  0
LINE
  8
L-ZISSEN
 10
1590.45
 20
919.7
 30
0.0
 11
1590.45
 21
897.2
 31
0.0
  0
LINE
  8
L-ZISSEN
 10
1574.95
 20
919.7
 30
0.0
 11
1574.95
 21
888.5
 31
0.0
  0
LINE
  8
L-ZISSEN
 10
1601.2
 20
919.419655
 30
0.0
 11
1601.2
 21
897.480345
 31
0.0
  0
LINE
  8
L-ZISSEN
 10
1601.2
 20
919.419655
 30
0.0
 11
1595.7
 21
919.419655
 31
0.0
  0
LINE
  8
L-ZISSEN
 10
1601.2
 20
897.480345
 30
0.0
 11
1595.7
 21
897.480345
 31
0.0
  0
LINE
  8
L-ZISSEN
 10
1595.7
 20
919.419655
 30
0.0
 11
1595.7
 21
897.480345
 31
0.0
  0
LINE
  8
L-ZISSEN
 10
1590.45
 20
917.65
 30
0.0
 11
1593.35
 21
917.65
 31
0.0
  0
LINE
  8
L-ZISSEN
 10
1590.45
 20
899.25
 30
0.0
 11
1593.35
 21
899.25
 31
0.0
  0
LINE
  8
L-ZISSEN
 10
1593.35
 20
916.95
 30
0.0
 11
1595.7
 21
916.95
 31
0.0
  0
LINE
  8
L-ZISSEN
 10
1593.35
 20
899.95
 30
0.0
 11
1595.7
 21
899.95
 31
0.0
  0
LINE
  8
L-ZISSEN
 10
1593.35
 20
917.65
 30
0.0
 11
1593.35
 21
899.25
 31
0.0
  0
LINE
  8
L-ZISSEN
 10
1545.95
 20
888.5
 30
0.0
 11
1545.95
 21
884.0
 31
0.0
  0
LINE
  8
L-ZISSEN
 10
1576.45
 20
888.5
 30
0.0
 11
1576.45
 21
884.0
 31
0.0
  0
LINE
  8
L-ZISSEN
 10
1545.95
 20
888.5
 30
0.0
 11
1576.45
 21
888.5
 31
0.0
  0
LINE
  8
L-ZISSEN
 10
89.0
 20
679.2
 30
0.0
 11
89.0
 21
686.2
 31
0.0
  0
LINE
  8
L-ZISSEN
 10
86.0
 20
686.2
 30
0.0
 11
86.0
 21
692.6
 31
0.0
  0
LINE
  8
L-ZISSEN
 10
111.0
 20
679.2
 30
0.0
 11
111.0
 21
686.2
 31
0.0
  0
LINE
  8
L-ZISSEN
 10
114.0
 20
686.2
 30
0.0
 11
114.0
 21
692.6
 31
0.0
  0
LINE
  8
L-ZISSEN
 10
86.0
 20
686.2
 30
0.0
 11
114.0
 21
686.2
 31
0.0
  0
LINE
  8
L-ZISSEN
 10
84.4
 20
696.2
 30
0.0
 11
115.6
 21
696.2
 31
0.0
  0
LINE
  8
L-ZISSEN
 10
89.0
 20
679.2
 30
0.0
 11
111.0
 21
679.2
 31
0.0
  0
LINE
  8
L-ZISSEN
 10
115.6
 20
852.8
 30
0.0
 11
84.4
 21
852.8
 31
0.0
  0
LINE
  8
L-ZISSEN
 10
83.0
 20
704.2
 30
0.0
 11
117.0
 21
704.2
 31
0.0
  0
LINE
  8
L-ZISSEN
 10
117.0
 20
795.8
 30
0.0
 11
83.0
 21
795.8
 31
0.0
  0
LINE
  8
L-TYUSIN
 10
79.0
 20
750.0
 30
0.0
 11
121.0
 21
750.0
 31
0.0
  0
LINE
  8
L-TYUSIN
 10
100.0
 20
674.2
 30
0.0
 11
100.0
 21
916.2
 31
0.0
  0
LINE
  8
L-ZISSEN
 10
111.25
 20
886.45
 30
0.0
 11
115.0
 21
886.45
 31
0.0
  0
LINE
  8
L-ZISSEN
 10
85.0
 20
856.45
 30
0.0
 11
115.0
 21
856.45
 31
0.0
  0
LINE
  8
L-ZISSEN
 10
85.0
 20
886.45
 30
0.0
 11
88.75
 21
886.45
 31
0.0
  0
LINE
  8
L-ZISSEN
 10
113.75
 20
857.45
 30
0.0
 11
113.75
 21
884.95
 31
0.0
  0
LINE
  8
L-ZISSEN
 10
86.25
 20
857.45
 30
0.0
 11
86.25
 21
884.95
 31
0.0
  0
LINE
  8
L-ZISSEN
 10
113.75
 20
884.95
 30
0.0
 11
86.25
 21
884.95
 31
0.0
  0
LINE
  8
L-ZISSEN
 10
113.75
 20
857.45
 30
0.0
 11
86.25
 21
857.45
 31
0.0
  0
LINE
  8
L-ZISSEN
 10
88.75
 20
896.7
 30
0.0
 11
85.0
 21
896.7
 31
0.0
  0
LINE
  8
L-ZISSEN
 10
88.75
 20
884.95
 30
0.0
 11
88.75
 21
900.45
 31
0.0
  0
LINE
  8
L-ZISSEN
 10
111.25
 20
900.45
 30
0.0
 11
88.75
 21
900.45
 31
0.0
  0
LINE
  8
L-ZISSEN
 10
111.25
 20
884.95
 30
0.0
 11
111.25
 21
900.45
 31
0.0
  0
LINE
  8
L-ZISSEN
 10
109.2
 20
903.35
 30
0.0
 11
90.8
 21
903.35
 31
0.0
  0
LINE
  8
L-ZISSEN
 10
91.5
 20
903.35
 30
0.0
 11
91.5
 21
905.7
 31
0.0
  0
LINE
  8
L-ZISSEN
 10
108.5
 20
903.35
 30
0.0
 11
108.5
 21
905.7
 31
0.0
  0
LINE
  8
L-ZISSEN
 10
90.8
 20
900.45
 30
0.0
 11
90.8
 21
903.35
 31
0.0
  0
LINE
  8
L-ZISSEN
 10
109.2
 20
900.45
 30
0.0
 11
109.2
 21
903.35
 31
0.0
  0
LINE
  8
L-ZISSEN
 10
110.969655
 20
905.7
 30
0.0
 11
89.030345
 21
905.7
 31
0.0
  0
LINE
  8
L-ZISSEN
 10
89.030345
 20
911.2
 30
0.0
 11
89.030345
 21
905.7
 31
0.0
  0
LINE
  8
L-ZISSEN
 10
110.969655
 20
911.2
 30
0.0
 11
110.969655
 21
905.7
 31
0.0
  0
LINE
  8
L-ZISSEN
 10
110.969655
 20
911.2
 30
0.0
 11
89.030345
 21
911.2
 31
0.0
  0
LINE
  8
L-ZISSEN
 10
115.0
 20
896.7
 30
0.0
 11
115.0
 21
852.8
 31
0.0
  0
LINE
  8
L-ZISSEN
 10
85.0
 20
896.7
 30
0.0
 11
85.0
 21
852.8
 31
0.0
  0
LINE
  8
L-ZISSEN
 10
115.0
 20
896.7
 30
0.0
 11
111.25
 21
896.7
 31
0.0
  0
LINE
  8
L-ZISSEN
 10
1535.128203
 20
892.9
 30
0.0
 11
1521.271797
 21
892.9
 31
0.0
  0
LINE
  8
L-ZISSEN
 10
1521.271797
 20
892.9
 30
0.0
 11
1521.271797
 21
886.0
 31
0.0
  0
LINE
  8
L-ZISSEN
 10
1535.128203
 20
892.9
 30
0.0
 11
1535.128203
 21
886.0
 31
0.0
  0
CIRCLE
  8
L-ZISSEN
 10
100.0
 20
470.0
 30
0.0
 40
11.0
  0
CIRCLE
  8
L-ZISSEN
 10
100.0
 20
470.0
 30
0.0
 40
14.0
  0
ARC
  8
L-ZISSEN
 10
108.42541
 20
481.180897
 30
0.0
 40
4.284941
 50
323.0
 51
143.0
  0
LINE
  8
L-ZISSEN
 10
105.003305
 20
483.759639
 30
0.0
 11
104.598968
 21
483.223067
 31
0.0
  0
LINE
  8
L-ZISSEN
 10
111.847516
 20
478.602156
 30
0.0
 11
111.44318
 21
478.065583
 31
0.0
  0
LINE
  8
L-ZISSEN
 10
112.710351
 20
686.2
 30
0.0
 11
112.710351
 21
692.6
 31
0.0
  0
LINE
  8
L-ZISSEN
 10
104.598968
 20
686.2
 30
0.0
 11
104.598968
 21
696.2
 31
0.0
  0
LINE
  8
L-ZISSEN
 10
1376.2
 20
875.465838
 30
0.0
 11
1386.2
 21
875.465838
 31
0.0
  0
LINE
  8
L-ZISSEN
 10
1376.2
 20
868.065583
 30
0.0
 11
1386.2
 21
868.065583
 31
0.0
  0
LINE
  8
L-ZISSEN
 10
106.0
 20
502.9
 30
0.0
 11
94.0
 21
502.9
 31
0.0
  0
LINE
  8
L-ZISSEN
 10
106.0
 20
496.0
 30
0.0
 11
106.0
 21
502.9
 31
0.0
  0
LINE
  8
L-ZISSEN
 10
94.0
 20
502.9
 30
0.0
 11
94.0
 21
496.0
 31
0.0
  0
LINE
  8
L-ZISSEN
 10
94.0
 20
834.735898
 30
0.0
 11
100.0
 21
831.271797
 31
0.0
  0
LINE
  8
L-ZISSEN
 10
100.0
 20
831.271797
 30
0.0
 11
106.0
 21
834.735898
 31
0.0
  0
LINE
  8
L-ZISSEN
 10
106.0
 20
834.735898
 30
0.0
 11
106.0
 21
841.664102
 31
0.0
  0
LINE
  8
L-ZISSEN
 10
106.0
 20
841.664102
 30
0.0
 11
100.0
 21
845.128203
 31
0.0
  0
LINE
  8
L-ZISSEN
 10
100.0
 20
845.128203
 30
0.0
 11
94.0
 21
841.664102
 31
0.0
  0
LINE
  8
L-ZISSEN
 10
94.0
 20
841.664102
 30
0.0
 11
94.0
 21
834.735898
 31
0.0
  0
LINE
  8
L-ZISSEN
 10
1696.547005
 20
816.4
 30
0.0
 11
1706.547005
 21
816.4
 31
0.0
  0
LINE
  8
L-ZISSEN
 10
1696.547005
 20
816.4
 30
0.0
 11
1696.547005
 21
805.0
 31
0.0
  0
LINE
  8
L-ZISSEN
 10
1706.547005
 20
816.4
 30
0.0
 11
1706.547005
 21
805.0
 31
0.0
  0
SOLID
  8
L-ZISSEN
 10
1699.89709
 20
803.821489
 30
0.0
 11
1700.368494
 21
803.350084
 31
0.0
 12
1701.547005
 22
805.0
 32
0.0
 13
1701.547005
 23
805.0
 33
0.0
  0
LINE
  8
L-ZISSEN
 10
1700.132792
 20
803.585786
 30
0.0
 11
1691.547005
 21
795.0
 31
0.0
  0
LINE
  8
L-ZISSEN
 10
1691.547005
 20
795.0
 30
0.0
 11
1689.547005
 21
795.0
 31
0.0
  0
TEXT
  8
L-ZISSEN
 10
1678.547005
 20
792.75
 30
0.0
 40
4.5
  1
P.P
  0
CIRCLE
  8
L-ZISSEN
 10
111.0
 20
491.0
 30
0.0
 40
3.5
  0
CIRCLE
  8
L-ZISSEN
 10
89.0
 20
491.0
 30
0.0
 40
3.5
  0
CIRCLE
  8
L-ZISSEN
 10
89.0
 20
449.0
 30
0.0
 40
3.5
  0
CIRCLE
  8
L-ZISSEN
 10
111.0
 20
449.0
 30
0.0
 40
3.5
  0
LINE
  8
L-ZISSEN
 10
1382.6
 20
884.5
 30
0.0
 11
1382.6
 21
877.5
 31
0.0
  0
LINE
  8
L-ZISSEN
 10
1382.6
 20
884.5
 30
0.0
 11
1386.2
 21
884.5
 31
0.0
  0
LINE
  8
L-ZISSEN
 10
1382.6
 20
877.5
 30
0.0
 11
1386.2
 21
877.5
 31
0.0
  0
LINE
  8
L-ZISSEN
 10
1382.6
 20
842.5
 30
0.0
 11
1386.2
 21
842.5
 31
0.0
  0
LINE
  8
L-ZISSEN
 10
1382.6
 20
835.5
 30
0.0
 11
1382.6
 21
842.5
 31
0.0
  0
LINE
  8
L-ZISSEN
 10
1382.6
 20
835.5
 30
0.0
 11
1386.2
 21
835.5
 31
0.0
  0
LINE
  8
L-ZISSEN
 10
114.5
 20
692.6
 30
0.0
 11
114.5
 21
696.2
 31
0.0
  0
LINE
  8
L-ZISSEN
 10
107.5
 20
692.6
 30
0.0
 11
107.5
 21
696.2
 31
0.0
  0
LINE
  8
L-ZISSEN
 10
107.5
 20
692.6
 30
0.0
 11
114.5
 21
692.6
 31
0.0
  0
LINE
  8
L-ZISSEN
 10
92.5
 20
692.6
 30
0.0
 11
85.5
 21
692.6
 31
0.0
  0
LINE
  8
L-ZISSEN
 10
92.5
 20
692.6
 30
0.0
 11
92.5
 21
696.2
 31
0.0
  0
LINE
  8
L-ZISSEN
 10
85.5
 20
692.6
 30
0.0
 11
85.5
 21
696.2
 31
0.0
  0
LINE
  8
L-ZISSEN
 10
1783.5
 20
583.0
 30
0.0
 11
1756.5
 21
583.0
 31
0.0
  0
LINE
  8
L-ZISSEN
 10
1783.5
 20
583.0
 30
0.0
 11
1783.5
 21
561.0
 31
0.0
  0
LINE
  8
L-ZISSEN
 10
1756.5
 20
583.0
 30
0.0
 11
1756.5
 21
561.0
 31
0.0
  0
LINE
  8
L-ZISSEN
 10
1784.5
 20
561.0
 30
0.0
 11
1784.5
 21
557.0
 31
0.0
  0
LINE
  8
L-ZISSEN
 10
1755.5
 20
561.0
 30
0.0
 11
1755.5
 21
557.0
 31
0.0
  0
LINE
  8
L-ZISSEN
 10
1784.5
 20
561.0
 30
0.0
 11
1776.0
 21
561.0
 31
0.0
  0
LINE
  8
L-ZISSEN
 10
1764.0
 20
561.0
 30
0.0
 11
1755.5
 21
561.0
 31
0.0
  0
LINE
  8
L-ZISSEN
 10
1402.3
 20
886.0
 30
0.0
 11
1402.3
 21
842.0
 31
0.0
  0
LINE
  8
L-ZISSEN
 10
1477.7
 20
842.0
 30
0.0
 11
1477.7
 21
886.0
 31
0.0
  0
LINE
  8
L-ZISSEN
 10
1477.7
 20
874.0
 30
0.0
 11
1402.3
 21
874.0
 31
0.0
  0
LINE
  8
L-ZISSEN
 10
1402.3
 20
886.0
 30
0.0
 11
1386.2
 21
886.0
 31
0.0
  0
LINE
  8
L-ZISSEN
 10
1485.8
 20
842.0
 30
0.0
 11
1461.5
 21
842.0
 31
0.0
  0
LINE
  8
L-TYUSIN
 10
1440.0
 20
879.0
 30
0.0
 11
1440.0
 21
828.0
 31
0.0
  0
LINE
  8
L-ZISSEN
 10
83.0
 20
712.3
 30
0.0
 11
117.0
 21
712.3
 31
0.0
  0
LINE
  8
L-ZISSEN
 10
117.0
 20
787.7
 30
0.0
 11
83.0
 21
787.7
 31
0.0
  0
LINE
  8
L-ZISSEN
 10
117.0
 20
704.2
 30
0.0
 11
117.0
 21
712.3
 31
0.0
  0
LINE
  8
L-ZISSEN
 10
83.0
 20
704.2
 30
0.0
 11
83.0
 21
712.3
 31
0.0
  0
LINE
  8
L-ZISSEN
 10
84.0
 20
787.7
 30
0.0
 11
84.0
 21
785.5
 31
0.0
  0
LINE
  8
L-ZISSEN
 10
117.0
 20
787.7
 30
0.0
 11
117.0
 21
795.8
 31
0.0
  0
LINE
  8
L-ZISSEN
 10
83.0
 20
787.7
 30
0.0
 11
83.0
 21
795.8
 31
0.0
  0
LINE
  8
L-ZISSEN
 10
125.0
 20
771.5
 30
0.0
 11
116.0
 21
771.5
 31
0.0
  0
LINE
  8
L-ZISSEN
 10
125.0
 20
760.5
 30
0.0
 11
125.0
 21
771.5
 31
0.0
  0
LINE
  8
L-ZISSEN
 10
125.0
 20
760.5
 30
0.0
 11
116.0
 21
760.5
 31
0.0
  0
LINE
  8
L-ZISSEN
 10
116.0
 20
787.7
 30
0.0
 11
116.0
 21
771.5
 31
0.0
  0
LINE
  8
L-ZISSEN
 10
125.0
 20
739.5
 30
0.0
 11
116.0
 21
739.5
 31
0.0
  0
LINE
  8
L-ZISSEN
 10
125.0
 20
739.5
 30
0.0
 11
125.0
 21
728.5
 31
0.0
  0
LINE
  8
L-ZISSEN
 10
125.0
 20
728.5
 30
0.0
 11
116.0
 21
728.5
 31
0.0
  0
LINE
  8
L-ZISSEN
 10
75.0
 20
785.5
 30
0.0
 11
84.0
 21
785.5
 31
0.0
  0
LINE
  8
L-ZISSEN
 10
75.0
 20
774.5
 30
0.0
 11
75.0
 21
785.5
 31
0.0
  0
LINE
  8
L-ZISSEN
 10
75.0
 20
774.5
 30
0.0
 11
84.0
 21
774.5
 31
0.0
  0
LINE
  8
L-ZISSEN
 10
75.0
 20
725.5
 30
0.0
 11
84.0
 21
725.5
 31
0.0
  0
LINE
  8
L-ZISSEN
 10
75.0
 20
714.5
 30
0.0
 11
75.0
 21
725.5
 31
0.0
  0
LINE
  8
L-ZISSEN
 10
75.0
 20
714.5
 30
0.0
 11
84.0
 21
714.5
 31
0.0
  0
LINE
  8
L-ZISSEN
 10
84.4
 20
704.2
 30
0.0
 11
84.4
 21
696.2
 31
0.0
  0
LINE
  8
L-ZISSEN
 10
115.6
 20
704.2
 30
0.0
 11
115.6
 21
696.2
 31
0.0
  0
LINE
  8
L-ZISSEN
 10
115.6
 20
795.8
 30
0.0
 11
115.6
 21
852.8
 31
0.0
  0
LINE
  8
L-ZISSEN
 10
84.4
 20
795.8
 30
0.0
 11
84.4
 21
852.8
 31
0.0
  0
LINE
  8
L-ZISSEN
 10
1450.5
 20
833.0
 30
0.0
 11
1450.5
 21
865.0
 31
0.0
  0
LINE
  8
L-ZISSEN
 10
1461.5
 20
833.0
 30
0.0
 11
1461.5
 21
865.0
 31
0.0
  0
LINE
  8
L-ZISSEN
 10
1461.5
 20
865.0
 30
0.0
 11
1450.5
 21
865.0
 31
0.0
  0
LINE
  8
L-ZISSEN
 10
1450.5
 20
842.0
 30
0.0
 11
1429.5
 21
842.0
 31
0.0
  0
LINE
  8
L-ZISSEN
 10
1460.25
 20
871.3
 30
0.0
 11
1451.75
 21
871.3
 31
0.0
  0
LINE
  8
L-ZISSEN
 10
1451.75
 20
871.3
 30
0.0
 11
1451.75
 21
865.0
 31
0.0
  0
LINE
  8
L-ZISSEN
 10
1460.25
 20
871.3
 30
0.0
 11
1460.25
 21
865.0
 31
0.0
  0
LINE
  8
L-ZISSEN
 10
1419.75
 20
871.3
 30
0.0
 11
1419.75
 21
865.0
 31
0.0
  0
LINE
  8
L-ZISSEN
 10
1428.25
 20
871.3
 30
0.0
 11
1428.25
 21
865.0
 31
0.0
  0
LINE
  8
L-ZISSEN
 10
1419.75
 20
871.3
 30
0.0
 11
1428.25
 21
871.3
 31
0.0
  0
LINE
  8
L-ZISSEN
 10
1418.5
 20
865.0
 30
0.0
 11
1429.5
 21
865.0
 31
0.0
  0
LINE
  8
L-ZISSEN
 10
1418.5
 20
833.0
 30
0.0
 11
1418.5
 21
865.0
 31
0.0
  0
LINE
  8
L-ZISSEN
 10
1429.5
 20
833.0
 30
0.0
 11
1429.5
 21
865.0
 31
0.0
  0
LINE
  8
L-ZISSEN
 10
1418.5
 20
842.0
 30
0.0
 11
1394.2
 21
842.0
 31
0.0
  0
CIRCLE
  8
L-ZISSEN
 10
80.5
 20
720.0
 30
0.0
 40
4.25
  0
LINE
  8
L-ZISSEN
 10
84.0
 20
714.5
 30
0.0
 11
84.0
 21
712.3
 31
0.0
  0
LINE
  8
L-ZISSEN
 10
84.0
 20
774.5
 30
0.0
 11
84.0
 21
725.5
 31
0.0
  0
LINE
  8
L-ZISSEN
 10
116.0
 20
760.5
 30
0.0
 11
116.0
 21
739.5
 31
0.0
  0
LINE
  8
L-ZISSEN
 10
116.0
 20
728.5
 30
0.0
 11
116.0
 21
712.3
 31
0.0
  0
CIRCLE
  8
L-ZISSEN
 10
80.5
 20
780.0
 30
0.0
 40
4.25
  0
CIRCLE
  8
L-ZISSEN
 10
119.5
 20
766.0
 30
0.0
 40
4.25
  0
CIRCLE
  8
L-ZISSEN
 10
119.5
 20
734.0
 30
0.0
 40
4.25
  0
LINE
  8
L-ZISSEN
 10
1394.0
 20
834.0
 30
0.0
 11
1394.0
 21
833.0
 31
0.0
  0
LINE
  8
L-ZISSEN
 10
1486.0
 20
834.0
 30
0.0
 11
1486.0
 21
833.0
 31
0.0
  0
LINE
  8
L-ZISSEN
 10
75.0
 20
443.0
 30
0.0
 11
75.0
 21
475.0
 31
0.0
  0
LINE
  8
L-ZISSEN
 10
75.0
 20
475.0
 30
0.0
 11
83.0
 21
475.0
 31
0.0
  0
LINE
  8
L-ZISSEN
 10
76.25
 20
481.3
 30
0.0
 11
76.25
 21
475.0
 31
0.0
  0
LINE
  8
L-ZISSEN
 10
76.25
 20
481.3
 30
0.0
 11
83.0
 21
481.3
 31
0.0
  0
LINE
  8
L-ZISSEN
 10
123.75
 20
481.3
 30
0.0
 11
123.75
 21
475.0
 31
0.0
  0
LINE
  8
L-ZISSEN
 10
123.75
 20
481.3
 30
0.0
 11
117.0
 21
481.3
 31
0.0
  0
LINE
  8
L-ZISSEN
 10
125.0
 20
475.0
 30
0.0
 11
117.0
 21
475.0
 31
0.0
  0
LINE
  8
L-ZISSEN
 10
125.0
 20
443.0
 30
0.0
 11
125.0
 21
475.0
 31
0.0
  0
LINE
  8
L-ZISSEN
 10
83.0
 20
496.0
 30
0.0
 11
83.0
 21
443.0
 31
0.0
  0
LINE
  8
L-ZISSEN
 10
117.0
 20
496.0
 30
0.0
 11
117.0
 21
443.0
 31
0.0
  0
LINE
  8
L-ZISSEN
 10
117.0
 20
496.0
 30
0.0
 11
83.0
 21
496.0
 31
0.0
  0
LINE
  8
L-ZISSEN
 10
115.6
 20
444.0
 30
0.0
 11
115.6
 21
496.0
 31
0.0
  0
LINE
  8
L-ZISSEN
 10
84.4
 20
444.0
 30
0.0
 11
84.4
 21
496.0
 31
0.0
  0
LINE
  8
L-ZISSEN
 10
75.0
 20
444.0
 30
0.0
 11
125.0
 21
444.0
 31
0.0
  0
LINE
  8
L-TYUSIN
 10
79.0
 20
470.0
 30
0.0
 11
121.0
 21
470.0
 31
0.0
  0
LINE
  8
L-TYUSIN
 10
100.0
 20
438.0
 30
0.0
 11
100.0
 21
534.7
 31
0.0
  0
LINE
  8
L-ZISSEN
 10
86.25
 20
529.7
 30
0.0
 11
113.75
 21
529.7
 31
0.0
  0
LINE
  8
L-ZISSEN
 10
113.75
 20
529.7
 30
0.0
 11
113.75
 21
498.5
 31
0.0
  0
LINE
  8
L-ZISSEN
 10
86.25
 20
529.7
 30
0.0
 11
86.25
 21
498.5
 31
0.0
  0
LINE
  8
L-ZISSEN
 10
84.75
 20
498.5
 30
0.0
 11
84.75
 21
496.0
 31
0.0
  0
LINE
  8
L-ZISSEN
 10
115.25
 20
498.5
 30
0.0
 11
115.25
 21
496.0
 31
0.0
  0
LINE
  8
L-ZISSEN
 10
84.75
 20
498.5
 30
0.0
 11
94.0
 21
498.5
 31
0.0
  0
LINE
  8
L-ZISSEN
 10
106.0
 20
498.5
 30
0.0
 11
115.25
 21
498.5
 31
0.0
  0
SOLID
  8
L-ZISSEN
 10
1563.046891
 20
883.163277
 30
0.0
 11
1563.218428
 21
883.807496
 31
0.0
 12
1561.2
 22
884.0
 32
0.0
 13
1561.2
 23
884.0
 33
0.0
  0
LINE
  8
L-ZISSEN
 10
1563.13266
 20
883.485387
 30
0.0
 11
1595.0
 21
875.0
 31
0.0
  0
LINE
  8
L-ZISSEN
 10
1595.0
 20
875.0
 30
0.0
 11
1597.0
 21
875.0
 31
0.0
  0
TEXT
  8
L-ZISSEN
 10
1599.0
 20
872.75
 30
0.0
 40
4.5
  1
P.P
  0
SOLID
  8
L-ZISSEN
 10
1527.070504
 20
887.68385
 30
0.0
 11
1526.585444
 21
887.226508
 31
0.0
 12
1528.2
 22
886.0
 32
0.0
 13
1528.2
 23
886.0
 33
0.0
  0
LINE
  8
L-ZISSEN
 10
1526.827974
 20
887.455179
 30
0.0
 11
1515.0
 21
900.0
 31
0.0
  0
LINE
  8
L-ZISSEN
 10
1515.0
 20
900.0
 30
0.0
 11
1513.0
 21
900.0
 31
0.0
  0
TEXT
  8
L-ZISSEN
 10
1502.0
 20
897.75
 30
0.0
 40
4.5
  1
P.P
  0
SOLID
  8
L-ZISSEN
 10
98.779584
 20
497.619165
 30
0.0
 11
98.320418
 21
497.135832
 31
0.0
 12
100.0
 22
496.0
 32
0.0
 13
100.0
 23
496.0
 33
0.0
  0
LINE
  8
L-ZISSEN
 10
98.550001
 20
497.377499
 30
0.0
 11
80.0
 21
515.0
 31
0.0
  0
LINE
  8
L-ZISSEN
 10
80.0
 20
515.0
 30
0.0
 11
78.0
 21
515.0
 31
0.0
  0
TEXT
  8
L-ZISSEN
 10
67.0
 20
512.75
 30
0.0
 40
4.5
  1
P.P
  0
LINE
  8
L-ZISSEN
 10
115.6
 20
273.8
 30
0.0
 11
115.6
 21
270.0
 31
0.0
  0
LINE
  8
L-ZISSEN
 10
84.4
 20
273.8
 30
0.0
 11
84.4
 21
270.0
 31
0.0
  0
LINE
  8
L-ZISSEN
 10
114.5
 20
277.4
 30
0.0
 11
114.5
 21
273.8
 31
0.0
  0
LINE
  8
L-ZISSEN
 10
107.5
 20
277.4
 30
0.0
 11
107.5
 21
273.8
 31
0.0
  0
LINE
  8
L-ZISSEN
 10
107.5
 20
277.4
 30
0.0
 11
114.5
 21
277.4
 31
0.0
  0
LINE
  8
L-ZISSEN
 10
92.5
 20
277.4
 30
0.0
 11
85.5
 21
277.4
 31
0.0
  0
LINE
  8
L-ZISSEN
 10
92.5
 20
277.4
 30
0.0
 11
92.5
 21
273.8
 31
0.0
  0
LINE
  8
L-ZISSEN
 10
85.5
 20
277.4
 30
0.0
 11
85.5
 21
273.8
 31
0.0
  0
LINE
  8
L-ZISSEN
 10
85.0
 20
73.3
 30
0.0
 11
115.0
 21
73.3
 31
0.0
  0
LINE
  8
L-ZISSEN
 10
115.0
 20
73.3
 30
0.0
 11
115.0
 21
117.2
 31
0.0
  0
LINE
  8
L-ZISSEN
 10
85.0
 20
73.3
 30
0.0
 11
85.0
 21
117.2
 31
0.0
  0
LINE
  8
L-ZISSEN
 10
89.030345
 20
58.8
 30
0.0
 11
110.969655
 21
58.8
 31
0.0
  0
LINE
  8
L-ZISSEN
 10
89.030345
 20
58.8
 30
0.0
 11
89.030345
 21
64.3
 31
0.0
  0
LINE
  8
L-ZISSEN
 10
110.969655
 20
58.8
 30
0.0
 11
110.969655
 21
64.3
 31
0.0
  0
LINE
  8
L-ZISSEN
 10
89.030345
 20
64.3
 30
0.0
 11
110.969655
 21
64.3
 31
0.0
  0
LINE
  8
L-ZISSEN
 10
90.8
 20
69.55
 30
0.0
 11
90.8
 21
66.65
 31
0.0
  0
LINE
  8
L-ZISSEN
 10
109.2
 20
69.55
 30
0.0
 11
109.2
 21
66.65
 31
0.0
  0
LINE
  8
L-ZISSEN
 10
91.5
 20
66.65
 30
0.0
 11
91.5
 21
64.3
 31
0.0
  0
LINE
  8
L-ZISSEN
 10
108.5
 20
66.65
 30
0.0
 11
108.5
 21
64.3
 31
0.0
  0
LINE
  8
L-ZISSEN
 10
90.8
 20
66.65
 30
0.0
 11
109.2
 21
66.65
 31
0.0
  0
LINE
  8
L-ZISSEN
 10
88.75
 20
73.3
 30
0.0
 11
88.75
 21
69.55
 31
0.0
  0
LINE
  8
L-ZISSEN
 10
88.75
 20
69.55
 30
0.0
 11
111.25
 21
69.55
 31
0.0
  0
LINE
  8
L-ZISSEN
 10
111.25
 20
73.3
 30
0.0
 11
111.25
 21
69.55
 31
0.0
  0
LINE
  8
L-TYUSIN
 10
100.0
 20
295.8
 30
0.0
 11
100.0
 21
53.8
 31
0.0
  0
LINE
  8
L-ZISSEN
 10
84.4
 20
117.2
 30
0.0
 11
115.6
 21
117.2
 31
0.0
  0
LINE
  8
L-ZISSEN
 10
111.0
 20
290.8
 30
0.0
 11
89.0
 21
290.8
 31
0.0
  0
LINE
  8
L-ZISSEN
 10
115.6
 20
273.8
 30
0.0
 11
84.4
 21
273.8
 31
0.0
  0
LINE
  8
L-ZISSEN
 10
114.0
 20
283.8
 30
0.0
 11
86.0
 21
283.8
 31
0.0
  0
LINE
  8
L-ZISSEN
 10
86.0
 20
283.8
 30
0.0
 11
86.0
 21
277.4
 31
0.0
  0
LINE
  8
L-ZISSEN
 10
89.0
 20
290.8
 30
0.0
 11
89.0
 21
283.8
 31
0.0
  0
LINE
  8
L-ZISSEN
 10
114.0
 20
283.8
 30
0.0
 11
114.0
 21
277.4
 31
0.0
  0
LINE
  8
L-ZISSEN
 10
111.0
 20
290.8
 30
0.0
 11
111.0
 21
283.8
 31
0.0
  0
LINE
  8
L-TYUSIN
 10
1285.3
 20
730.0
 30
0.0
 11
1594.7
 21
730.0
 31
0.0
  0
LINE
  8
L-ZISSEN
 10
1485.8
 20
704.0
 30
0.0
 11
1485.8
 21
756.0
 31
0.0
  0
LINE
  8
L-ZISSEN
 10
1542.8
 20
756.0
 30
0.0
 11
1477.7
 21
756.0
 31
0.0
  0
LINE
  8
L-ZISSEN
 10
1394.2
 20
756.0
 30
0.0
 11
1394.2
 21
704.0
 31
0.0
  0
LINE
  8
L-ZISSEN
 10
1337.2
 20
704.0
 30
0.0
 11
1542.8
 21
704.0
 31
0.0
  0
LINE
  8
L-ZISSEN
 10
1542.8
 20
704.0
 30
0.0
 11
1542.8
 21
756.0
 31
0.0
  0
LINE
  8
L-ZISSEN
 10
1542.8
 20
754.0
 30
0.0
 11
1586.7
 21
754.0
 31
0.0
  0
LINE
  8
L-ZISSEN
 10
1586.7
 20
711.2
 30
0.0
 11
1542.8
 21
711.2
 31
0.0
  0
LINE
  8
L-ZISSEN
 10
1586.7
 20
754.0
 30
0.0
 11
1586.7
 21
711.2
 31
0.0
  0
LINE
  8
L-ZISSEN
 10
1589.7
 20
739.814955
 30
0.0
 11
1586.7
 21
739.814955
 31
0.0
  0
LINE
  8
L-ZISSEN
 10
1589.7
 20
720.185045
 30
0.0
 11
1586.7
 21
720.185045
 31
0.0
  0
LINE
  8
L-ZISSEN
 10
1589.7
 20
739.814955
 30
0.0
 11
1589.7
 21
720.185045
 31
0.0
  0
LINE
  8
L-ZISSEN
 10
1547.45
 20
789.7
 30
0.0
 11
1547.45
 21
758.5
 31
0.0
  0
LINE
  8
L-ZISSEN
 10
1547.45
 20
789.7
 30
0.0
 11
1590.45
 21
789.7
 31
0.0
  0
LINE
  8
L-ZISSEN
 10
1574.95
 20
767.2
 30
0.0
 11
1590.45
 21
767.2
 31
0.0
  0
LINE
  8
L-ZISSEN
 10
1590.45
 20
789.7
 30
0.0
 11
1590.45
 21
767.2
 31
0.0
  0
LINE
  8
L-ZISSEN
 10
1574.95
 20
789.7
 30
0.0
 11
1574.95
 21
758.5
 31
0.0
  0
LINE
  8
L-ZISSEN
 10
1601.2
 20
789.419655
 30
0.0
 11
1601.2
 21
767.480345
 31
0.0
  0
LINE
  8
L-ZISSEN
 10
1601.2
 20
789.419655
 30
0.0
 11
1595.7
 21
789.419655
 31
0.0
  0
LINE
  8
L-ZISSEN
 10
1601.2
 20
767.480345
 30
0.0
 11
1595.7
 21
767.480345
 31
0.0
  0
LINE
  8
L-ZISSEN
 10
1595.7
 20
789.419655
 30
0.0
 11
1595.7
 21
767.480345
 31
0.0
  0
LINE
  8
L-ZISSEN
 10
1590.45
 20
787.65
 30
0.0
 11
1593.35
 21
787.65
 31
0.0
  0
LINE
  8
L-ZISSEN
 10
1590.45
 20
769.25
 30
0.0
 11
1593.35
 21
769.25
 31
0.0
  0
LINE
  8
L-ZISSEN
 10
1593.35
 20
786.95
 30
0.0
 11
1595.7
 21
786.95
 31
0.0
  0
LINE
  8
L-ZISSEN
 10
1593.35
 20
769.95
 30
0.0
 11
1595.7
 21
769.95
 31
0.0
  0
LINE
  8
L-ZISSEN
 10
1593.35
 20
787.65
 30
0.0
 11
1593.35
 21
769.25
 31
0.0
  0
LINE
  8
L-ZISSEN
 10
1545.95
 20
758.5
 30
0.0
 11
1545.95
 21
754.0
 31
0.0
  0
LINE
  8
L-ZISSEN
 10
1576.45
 20
758.5
 30
0.0
 11
1576.45
 21
754.0
 31
0.0
  0
LINE
  8
L-ZISSEN
 10
1545.95
 20
758.5
 30
0.0
 11
1576.45
 21
758.5
 31
0.0
  0
LINE
  8
L-ZISSEN
 10
265.6
 20
852.8
 30
0.0
 11
234.4
 21
852.8
 31
0.0
  0
LINE
  8
L-ZISSEN
 10
267.0
 20
795.8
 30
0.0
 11
233.0
 21
795.8
 31
0.0
  0
LINE
  8
L-TYUSIN
 10
250.0
 20
583.8
 30
0.0
 11
250.0
 21
916.2
 31
0.0
  0
LINE
  8
L-ZISSEN
 10
261.25
 20
886.45
 30
0.0
 11
265.0
 21
886.45
 31
0.0
  0
LINE
  8
L-ZISSEN
 10
235.0
 20
856.45
 30
0.0
 11
265.0
 21
856.45
 31
0.0
  0
LINE
  8
L-ZISSEN
 10
235.0
 20
886.45
 30
0.0
 11
238.75
 21
886.45
 31
0.0
  0
LINE
  8
L-ZISSEN
 10
263.75
 20
857.45
 30
0.0
 11
263.75
 21
884.95
 31
0.0
  0
LINE
  8
L-ZISSEN
 10
236.25
 20
857.45
 30
0.0
 11
236.25
 21
884.95
 31
0.0
  0
LINE
  8
L-ZISSEN
 10
263.75
 20
884.95
 30
0.0
 11
236.25
 21
884.95
 31
0.0
  0
LINE
  8
L-ZISSEN
 10
263.75
 20
857.45
 30
0.0
 11
236.25
 21
857.45
 31
0.0
  0
LINE
  8
L-ZISSEN
 10
238.75
 20
896.7
 30
0.0
 11
235.0
 21
896.7
 31
0.0
  0
LINE
  8
L-ZISSEN
 10
238.75
 20
884.95
 30
0.0
 11
238.75
 21
900.45
 31
0.0
  0
LINE
  8
L-ZISSEN
 10
261.25
 20
900.45
 30
0.0
 11
238.75
 21
900.45
 31
0.0
  0
LINE
  8
L-ZISSEN
 10
261.25
 20
884.95
 30
0.0
 11
261.25
 21
900.45
 31
0.0
  0
LINE
  8
L-ZISSEN
 10
259.2
 20
903.35
 30
0.0
 11
240.8
 21
903.35
 31
0.0
  0
LINE
  8
L-ZISSEN
 10
241.5
 20
903.35
 30
0.0
 11
241.5
 21
905.7
 31
0.0
  0
LINE
  8
L-ZISSEN
 10
258.5
 20
903.35
 30
0.0
 11
258.5
 21
905.7
 31
0.0
  0
LINE
  8
L-ZISSEN
 10
240.8
 20
900.45
 30
0.0
 11
240.8
 21
903.35
 31
0.0
  0
LINE
  8
L-ZISSEN
 10
259.2
 20
900.45
 30
0.0
 11
259.2
 21
903.35
 31
0.0
  0
LINE
  8
L-ZISSEN
 10
260.969655
 20
905.7
 30
0.0
 11
239.030345
 21
905.7
 31
0.0
  0
LINE
  8
L-ZISSEN
 10
239.030345
 20
911.2
 30
0.0
 11
239.030345
 21
905.7
 31
0.0
  0
LINE
  8
L-ZISSEN
 10
260.969655
 20
911.2
 30
0.0
 11
260.969655
 21
905.7
 31
0.0
  0
LINE
  8
L-ZISSEN
 10
260.969655
 20
911.2
 30
0.0
 11
239.030345
 21
911.2
 31
0.0
  0
LINE
  8
L-ZISSEN
 10
265.0
 20
896.7
 30
0.0
 11
265.0
 21
852.8
 31
0.0
  0
LINE
  8
L-ZISSEN
 10
235.0
 20
896.7
 30
0.0
 11
235.0
 21
852.8
 31
0.0
  0
LINE
  8
L-ZISSEN
 10
265.0
 20
896.7
 30
0.0
 11
261.25
 21
896.7
 31
0.0
  0
LINE
  8
L-ZISSEN
 10
241.5
 20
474.907477
 30
0.0
 11
241.5
 21
465.092523
 31
0.0
  0
LINE
  8
L-ZISSEN
 10
250.0
 20
479.814955
 30
0.0
 11
241.5
 21
474.907477
 31
0.0
  0
LINE
  8
L-ZISSEN
 10
258.5
 20
474.907477
 30
0.0
 11
250.0
 21
479.814955
 31
0.0
  0
LINE
  8
L-ZISSEN
 10
258.5
 20
465.092523
 30
0.0
 11
258.5
 21
474.907477
 31
0.0
  0
LINE
  8
L-ZISSEN
 10
250.0
 20
460.185045
 30
0.0
 11
258.5
 21
465.092523
 31
0.0
  0
LINE
  8
L-ZISSEN
 10
241.5
 20
465.092523
 30
0.0
 11
250.0
 21
460.185045
 31
0.0
  0
LINE
  8
L-ZISSEN
 10
234.75
 20
494.0
 30
0.0
 11
265.25
 21
494.0
 31
0.0
  0
LINE
  8
L-ZISSEN
 10
234.75
 20
498.5
 30
0.0
 11
265.25
 21
498.5
 31
0.0
  0
LINE
  8
L-ZISSEN
 10
265.25
 20
498.5
 30
0.0
 11
265.25
 21
494.0
 31
0.0
  0
LINE
  8
L-ZISSEN
 10
234.75
 20
498.5
 30
0.0
 11
234.75
 21
494.0
 31
0.0
  0
CIRCLE
  8
L-ZISSEN
 10
250.0
 20
518.45
 30
0.0
 40
6.5
  0
LINE
  8
L-ZISSEN
 10
236.25
 20
529.7
 30
0.0
 11
236.25
 21
498.5
 31
0.0
  0
LINE
  8
L-ZISSEN
 10
263.75
 20
529.7
 30
0.0
 11
263.75
 21
498.5
 31
0.0
  0
CIRCLE
  8
L-ZISSEN
 10
250.0
 20
518.45
 30
0.0
 40
11.25
  0
LINE
  8
L-ZISSEN
 10
236.25
 20
529.7
 30
0.0
 11
263.75
 21
529.7
 31
0.0
  0
LINE
  8
L-ZISSEN
 10
235.0
 20
451.2
 30
0.0
 11
265.0
 21
451.2
 31
0.0
  0
LINE
  8
L-TYUSIN
 10
250.0
 20
438.0
 30
0.0
 11
250.0
 21
534.7
 31
0.0
  0
LINE
  8
L-TYUSIN
 10
229.0
 20
470.0
 30
0.0
 11
271.0
 21
470.0
 31
0.0
  0
LINE
  8
L-ZISSEN
 10
225.0
 20
444.0
 30
0.0
 11
275.0
 21
444.0
 31
0.0
  0
LINE
  8
L-ZISSEN
 10
1535.128203
 20
762.9
 30
0.0
 11
1521.271797
 21
762.9
 31
0.0
  0
LINE
  8
L-ZISSEN
 10
1521.271797
 20
762.9
 30
0.0
 11
1521.271797
 21
756.0
 31
0.0
  0
LINE
  8
L-ZISSEN
 10
1535.128203
 20
762.9
 30
0.0
 11
1535.128203
 21
756.0
 31
0.0
  0
LINE
  8
L-ZISSEN
 10
244.0
 20
834.735898
 30
0.0
 11
250.0
 21
831.271797
 31
0.0
  0
LINE
  8
L-ZISSEN
 10
250.0
 20
831.271797
 30
0.0
 11
256.0
 21
834.735898
 31
0.0
  0
LINE
  8
L-ZISSEN
 10
256.0
 20
834.735898
 30
0.0
 11
256.0
 21
841.664102
 31
0.0
  0
LINE
  8
L-ZISSEN
 10
256.0
 20
841.664102
 30
0.0
 11
250.0
 21
845.128203
 31
0.0
  0
LINE
  8
L-ZISSEN
 10
250.0
 20
845.128203
 30
0.0
 11
244.0
 21
841.664102
 31
0.0
  0
LINE
  8
L-ZISSEN
 10
244.0
 20
841.664102
 30
0.0
 11
244.0
 21
834.735898
 31
0.0
  0
CIRCLE
  8
L-ZISSEN
 10
250.0
 20
470.0
 30
0.0
 40
2.067
  0
LINE
  8
L-ZISSEN
 10
1402.3
 20
756.0
 30
0.0
 11
1402.3
 21
712.0
 31
0.0
  0
LINE
  8
L-ZISSEN
 10
1477.7
 20
712.0
 30
0.0
 11
1477.7
 21
756.0
 31
0.0
  0
LINE
  8
L-ZISSEN
 10
1477.7
 20
744.0
 30
0.0
 11
1402.3
 21
744.0
 31
0.0
  0
LINE
  8
L-ZISSEN
 10
1402.3
 20
756.0
 30
0.0
 11
1337.2
 21
756.0
 31
0.0
  0
LINE
  8
L-ZISSEN
 10
1485.8
 20
712.0
 30
0.0
 11
1461.5
 21
712.0
 31
0.0
  0
LINE
  8
L-TYUSIN
 10
1440.0
 20
749.0
 30
0.0
 11
1440.0
 21
698.0
 31
0.0
  0
LINE
  8
L-ZISSEN
 10
233.0
 20
712.3
 30
0.0
 11
267.0
 21
712.3
 31
0.0
  0
LINE
  8
L-ZISSEN
 10
267.0
 20
787.7
 30
0.0
 11
233.0
 21
787.7
 31
0.0
  0
LINE
  8
L-ZISSEN
 10
267.0
 20
704.2
 30
0.0
 11
267.0
 21
712.3
 31
0.0
  0
LINE
  8
L-ZISSEN
 10
233.0
 20
704.2
 30
0.0
 11
233.0
 21
712.3
 31
0.0
  0
LINE
  8
L-ZISSEN
 10
234.0
 20
787.7
 30
0.0
 11
234.0
 21
785.5
 31
0.0
  0
LINE
  8
L-ZISSEN
 10
267.0
 20
787.7
 30
0.0
 11
267.0
 21
795.8
 31
0.0
  0
LINE
  8
L-ZISSEN
 10
233.0
 20
787.7
 30
0.0
 11
233.0
 21
795.8
 31
0.0
  0
LINE
  8
L-ZISSEN
 10
275.0
 20
771.5
 30
0.0
 11
266.0
 21
771.5
 31
0.0
  0
LINE
  8
L-ZISSEN
 10
275.0
 20
760.5
 30
0.0
 11
275.0
 21
771.5
 31
0.0
  0
LINE
  8
L-ZISSEN
 10
275.0
 20
760.5
 30
0.0
 11
266.0
 21
760.5
 31
0.0
  0
LINE
  8
L-ZISSEN
 10
266.0
 20
787.7
 30
0.0
 11
266.0
 21
771.5
 31
0.0
  0
LINE
  8
L-ZISSEN
 10
275.0
 20
739.5
 30
0.0
 11
266.0
 21
739.5
 31
0.0
  0
LINE
  8
L-ZISSEN
 10
275.0
 20
739.5
 30
0.0
 11
275.0
 21
728.5
 31
0.0
  0
LINE
  8
L-ZISSEN
 10
275.0
 20
728.5
 30
0.0
 11
266.0
 21
728.5
 31
0.0
  0
LINE
  8
L-ZISSEN
 10
225.0
 20
785.5
 30
0.0
 11
234.0
 21
785.5
 31
0.0
  0
LINE
  8
L-ZISSEN
 10
225.0
 20
774.5
 30
0.0
 11
225.0
 21
785.5
 31
0.0
  0
LINE
  8
L-ZISSEN
 10
225.0
 20
774.5
 30
0.0
 11
234.0
 21
774.5
 31
0.0
  0
LINE
  8
L-ZISSEN
 10
225.0
 20
725.5
 30
0.0
 11
234.0
 21
725.5
 31
0.0
  0
LINE
  8
L-ZISSEN
 10
225.0
 20
714.5
 30
0.0
 11
225.0
 21
725.5
 31
0.0
  0
LINE
  8
L-ZISSEN
 10
225.0
 20
714.5
 30
0.0
 11
234.0
 21
714.5
 31
0.0
  0
LINE
  8
L-ZISSEN
 10
265.6
 20
795.8
 30
0.0
 11
265.6
 21
852.8
 31
0.0
  0
LINE
  8
L-ZISSEN
 10
234.4
 20
795.8
 30
0.0
 11
234.4
 21
852.8
 31
0.0
  0
LINE
  8
L-ZISSEN
 10
1450.5
 20
703.0
 30
0.0
 11
1450.5
 21
735.0
 31
0.0
  0
LINE
  8
L-ZISSEN
 10
1461.5
 20
703.0
 30
0.0
 11
1461.5
 21
735.0
 31
0.0
  0
LINE
  8
L-ZISSEN
 10
1461.5
 20
735.0
 30
0.0
 11
1450.5
 21
735.0
 31
0.0
  0
LINE
  8
L-ZISSEN
 10
1450.5
 20
712.0
 30
0.0
 11
1429.5
 21
712.0
 31
0.0
  0
LINE
  8
L-ZISSEN
 10
1460.25
 20
741.3
 30
0.0
 11
1451.75
 21
741.3
 31
0.0
  0
LINE
  8
L-ZISSEN
 10
1451.75
 20
741.3
 30
0.0
 11
1451.75
 21
735.0
 31
0.0
  0
LINE
  8
L-ZISSEN
 10
1460.25
 20
741.3
 30
0.0
 11
1460.25
 21
735.0
 31
0.0
  0
LINE
  8
L-ZISSEN
 10
1419.75
 20
741.3
 30
0.0
 11
1419.75
 21
735.0
 31
0.0
  0
LINE
  8
L-ZISSEN
 10
1428.25
 20
741.3
 30
0.0
 11
1428.25
 21
735.0
 31
0.0
  0
LINE
  8
L-ZISSEN
 10
1419.75
 20
741.3
 30
0.0
 11
1428.25
 21
741.3
 31
0.0
  0
LINE
  8
L-ZISSEN
 10
1418.5
 20
735.0
 30
0.0
 11
1429.5
 21
735.0
 31
0.0
  0
LINE
  8
L-ZISSEN
 10
1418.5
 20
703.0
 30
0.0
 11
1418.5
 21
735.0
 31
0.0
  0
LINE
  8
L-ZISSEN
 10
1429.5
 20
703.0
 30
0.0
 11
1429.5
 21
735.0
 31
0.0
  0
LINE
  8
L-ZISSEN
 10
1418.5
 20
712.0
 30
0.0
 11
1394.2
 21
712.0
 31
0.0
  0
CIRCLE
  8
L-ZISSEN
 10
230.5
 20
720.0
 30
0.0
 40
4.25
  0
LINE
  8
L-ZISSEN
 10
234.0
 20
714.5
 30
0.0
 11
234.0
 21
712.3
 31
0.0
  0
LINE
  8
L-ZISSEN
 10
234.0
 20
774.5
 30
0.0
 11
234.0
 21
725.5
 31
0.0
  0
LINE
  8
L-ZISSEN
 10
266.0
 20
760.5
 30
0.0
 11
266.0
 21
739.5
 31
0.0
  0
LINE
  8
L-ZISSEN
 10
266.0
 20
728.5
 30
0.0
 11
266.0
 21
712.3
 31
0.0
  0
CIRCLE
  8
L-ZISSEN
 10
230.5
 20
780.0
 30
0.0
 40
4.25
  0
CIRCLE
  8
L-ZISSEN
 10
269.5
 20
766.0
 30
0.0
 40
4.25
  0
CIRCLE
  8
L-ZISSEN
 10
269.5
 20
734.0
 30
0.0
 40
4.25
  0
LINE
  8
L-ZISSEN
 10
1394.0
 20
704.0
 30
0.0
 11
1394.0
 21
703.0
 31
0.0
  0
LINE
  8
L-ZISSEN
 10
1486.0
 20
704.0
 30
0.0
 11
1486.0
 21
703.0
 31
0.0
  0
LINE
  8
L-ZISSEN
 10
235.0
 20
451.2
 30
0.0
 11
235.0
 21
494.0
 31
0.0
  0
LINE
  8
L-ZISSEN
 10
265.0
 20
451.2
 30
0.0
 11
265.0
 21
494.0
 31
0.0
  0
LINE
  8
L-ZISSEN
 10
234.4
 20
444.0
 30
0.0
 11
234.4
 21
496.0
 31
0.0
  0
LINE
  8
L-ZISSEN
 10
265.6
 20
444.0
 30
0.0
 11
265.6
 21
496.0
 31
0.0
  0
LINE
  8
L-ZISSEN
 10
267.0
 20
496.0
 30
0.0
 11
265.25
 21
496.0
 31
0.0
  0
LINE
  8
L-ZISSEN
 10
234.75
 20
496.0
 30
0.0
 11
233.0
 21
496.0
 31
0.0
  0
LINE
  8
L-ZISSEN
 10
267.0
 20
496.0
 30
0.0
 11
267.0
 21
443.0
 31
0.0
  0
LINE
  8
L-ZISSEN
 10
233.0
 20
496.0
 30
0.0
 11
233.0
 21
443.0
 31
0.0
  0
LINE
  8
L-ZISSEN
 10
275.0
 20
443.0
 30
0.0
 11
275.0
 21
475.0
 31
0.0
  0
LINE
  8
L-ZISSEN
 10
275.0
 20
475.0
 30
0.0
 11
267.0
 21
475.0
 31
0.0
  0
LINE
  8
L-ZISSEN
 10
273.75
 20
481.3
 30
0.0
 11
267.0
 21
481.3
 31
0.0
  0
LINE
  8
L-ZISSEN
 10
273.75
 20
481.3
 30
0.0
 11
273.75
 21
475.0
 31
0.0
  0
LINE
  8
L-ZISSEN
 10
226.25
 20
481.3
 30
0.0
 11
233.0
 21
481.3
 31
0.0
  0
LINE
  8
L-ZISSEN
 10
226.25
 20
481.3
 30
0.0
 11
226.25
 21
475.0
 31
0.0
  0
LINE
  8
L-ZISSEN
 10
225.0
 20
475.0
 30
0.0
 11
233.0
 21
475.0
 31
0.0
  0
LINE
  8
L-ZISSEN
 10
225.0
 20
443.0
 30
0.0
 11
225.0
 21
475.0
 31
0.0
  0
SOLID
  8
L-ZISSEN
 10
1563.046891
 20
753.163277
 30
0.0
 11
1563.218428
 21
753.807496
 31
0.0
 12
1561.2
 22
754.0
 32
0.0
 13
1561.2
 23
754.0
 33
0.0
  0
LINE
  8
L-ZISSEN
 10
1563.13266
 20
753.485387
 30
0.0
 11
1595.0
 21
745.0
 31
0.0
  0
LINE
  8
L-ZISSEN
 10
1595.0
 20
745.0
 30
0.0
 11
1597.0
 21
745.0
 31
0.0
  0
TEXT
  8
L-ZISSEN
 10
1599.0
 20
742.75
 30
0.0
 40
4.5
  1
P.P
  0
SOLID
  8
L-ZISSEN
 10
251.768868
 20
493.008932
 30
0.0
 11
251.994681
 21
493.63619
 31
0.0
 12
250.0
 22
494.0
 32
0.0
 13
250.0
 23
494.0
 33
0.0
  0
LINE
  8
L-ZISSEN
 10
251.881775
 20
493.322561
 30
0.0
 11
275.0
 21
485.0
 31
0.0
  0
LINE
  8
L-ZISSEN
 10
275.0
 20
485.0
 30
0.0
 11
277.0
 21
485.0
 31
0.0
  0
TEXT
  8
L-ZISSEN
 10
279.0
 20
482.75
 30
0.0
 40
4.5
  1
P.P
  0
SOLID
  8
L-ZISSEN
 10
1527.070504
 20
757.68385
 30
0.0
 11
1526.585444
 21
757.226508
 31
0.0
 12
1528.2
 22
756.0
 32
0.0
 13
1528.2
 23
756.0
 33
0.0
  0
LINE
  8
L-ZISSEN
 10
1526.827974
 20
757.455179
 30
0.0
 11
1515.0
 21
770.0
 31
0.0
  0
LINE
  8
L-ZISSEN
 10
1515.0
 20
770.0
 30
0.0
 11
1513.0
 21
770.0
 31
0.0
  0
TEXT
  8
L-ZISSEN
 10
1502.0
 20
767.75
 30
0.0
 40
4.5
  1
P.P
  0
LINE
  8
L-ZISSEN
 10
265.6
 20
170.0
 30
0.0
 11
265.6
 21
117.2
 31
0.0
  0
LINE
  8
L-ZISSEN
 10
234.4
 20
170.0
 30
0.0
 11
234.4
 21
117.2
 31
0.0
  0
LINE
  8
L-ZISSEN
 10
235.0
 20
73.3
 30
0.0
 11
265.0
 21
73.3
 31
0.0
  0
LINE
  8
L-ZISSEN
 10
265.0
 20
73.3
 30
0.0
 11
265.0
 21
117.2
 31
0.0
  0
LINE
  8
L-ZISSEN
 10
235.0
 20
73.3
 30
0.0
 11
235.0
 21
117.2
 31
0.0
  0
LINE
  8
L-ZISSEN
 10
239.030345
 20
58.8
 30
0.0
 11
260.969655
 21
58.8
 31
0.0
  0
LINE
  8
L-ZISSEN
 10
239.030345
 20
58.8
 30
0.0
 11
239.030345
 21
64.3
 31
0.0
  0
LINE
  8
L-ZISSEN
 10
260.969655
 20
58.8
 30
0.0
 11
260.969655
 21
64.3
 31
0.0
  0
LINE
  8
L-ZISSEN
 10
239.030345
 20
64.3
 30
0.0
 11
260.969655
 21
64.3
 31
0.0
  0
LINE
  8
L-ZISSEN
 10
240.8
 20
69.55
 30
0.0
 11
240.8
 21
66.65
 31
0.0
  0
LINE
  8
L-ZISSEN
 10
259.2
 20
69.55
 30
0.0
 11
259.2
 21
66.65
 31
0.0
  0
LINE
  8
L-ZISSEN
 10
241.5
 20
66.65
 30
0.0
 11
241.5
 21
64.3
 31
0.0
  0
LINE
  8
L-ZISSEN
 10
258.5
 20
66.65
 30
0.0
 11
258.5
 21
64.3
 31
0.0
  0
LINE
  8
L-ZISSEN
 10
240.8
 20
66.65
 30
0.0
 11
259.2
 21
66.65
 31
0.0
  0
LINE
  8
L-ZISSEN
 10
238.75
 20
73.3
 30
0.0
 11
238.75
 21
69.55
 31
0.0
  0
LINE
  8
L-ZISSEN
 10
238.75
 20
69.55
 30
0.0
 11
261.25
 21
69.55
 31
0.0
  0
LINE
  8
L-ZISSEN
 10
261.25
 20
73.3
 30
0.0
 11
261.25
 21
69.55
 31
0.0
  0
LINE
  8
L-TYUSIN
 10
250.0
 20
386.2
 30
0.0
 11
250.0
 21
53.8
 31
0.0
  0
LINE
  8
L-ZISSEN
 10
234.4
 20
117.2
 30
0.0
 11
265.6
 21
117.2
 31
0.0
  0
LINE
  8
L-ZISSEN
 10
234.4
 20
270.0
 30
0.0
 11
234.4
 21
322.8
 31
0.0
  0
LINE
  8
L-ZISSEN
 10
265.6
 20
270.0
 30
0.0
 11
265.6
 21
322.8
 31
0.0
  0
LINE
  8
L-ZISSEN
 10
234.4
 20
322.8
 30
0.0
 11
265.6
 21
322.8
 31
0.0
  0
LINE
  8
L-ZISSEN
 10
265.0
 20
366.7
 30
0.0
 11
265.0
 21
322.8
 31
0.0
  0
LINE
  8
L-ZISSEN
 10
235.0
 20
366.7
 30
0.0
 11
235.0
 21
322.8
 31
0.0
  0
LINE
  8
L-ZISSEN
 10
261.25
 20
366.7
 30
0.0
 11
261.25
 21
370.45
 31
0.0
  0
LINE
  8
L-ZISSEN
 10
238.75
 20
370.45
 30
0.0
 11
261.25
 21
370.45
 31
0.0
  0
LINE
  8
L-ZISSEN
 10
238.75
 20
366.7
 30
0.0
 11
238.75
 21
370.45
 31
0.0
  0
LINE
  8
L-ZISSEN
 10
240.8
 20
373.35
 30
0.0
 11
259.2
 21
373.35
 31
0.0
  0
LINE
  8
L-ZISSEN
 10
258.5
 20
373.35
 30
0.0
 11
258.5
 21
375.7
 31
0.0
  0
LINE
  8
L-ZISSEN
 10
241.5
 20
373.35
 30
0.0
 11
241.5
 21
375.7
 31
0.0
  0
LINE
  8
L-ZISSEN
 10
259.2
 20
370.45
 30
0.0
 11
259.2
 21
373.35
 31
0.0
  0
LINE
  8
L-ZISSEN
 10
240.8
 20
370.45
 30
0.0
 11
240.8
 21
373.35
 31
0.0
  0
LINE
  8
L-ZISSEN
 10
239.030345
 20
375.7
 30
0.0
 11
260.969655
 21
375.7
 31
0.0
  0
LINE
  8
L-ZISSEN
 10
260.969655
 20
381.2
 30
0.0
 11
260.969655
 21
375.7
 31
0.0
  0
LINE
  8
L-ZISSEN
 10
239.030345
 20
381.2
 30
0.0
 11
239.030345
 21
375.7
 31
0.0
  0
LINE
  8
L-ZISSEN
 10
239.030345
 20
381.2
 30
0.0
 11
260.969655
 21
381.2
 31
0.0
  0
LINE
  8
L-ZISSEN
 10
235.0
 20
366.7
 30
0.0
 11
265.0
 21
366.7
 31
0.0
  0
LINE
  8
L-ZISSEN
 10
1344.871797
 20
762.9
 30
0.0
 11
1344.871797
 21
756.0
 31
0.0
  0
LINE
  8
L-ZISSEN
 10
1358.728203
 20
762.9
 30
0.0
 11
1358.728203
 21
756.0
 31
0.0
  0
LINE
  8
L-ZISSEN
 10
1344.871797
 20
762.9
 30
0.0
 11
1358.728203
 21
762.9
 31
0.0
  0
LINE
  8
L-ZISSEN
 10
1334.05
 20
758.5
 30
0.0
 11
1303.55
 21
758.5
 31
0.0
  0
LINE
  8
L-ZISSEN
 10
1303.55
 20
758.5
 30
0.0
 11
1303.55
 21
754.0
 31
0.0
  0
LINE
  8
L-ZISSEN
 10
1334.05
 20
758.5
 30
0.0
 11
1334.05
 21
754.0
 31
0.0
  0
LINE
  8
L-ZISSEN
 10
1286.65
 20
787.65
 30
0.0
 11
1286.65
 21
769.25
 31
0.0
  0
LINE
  8
L-ZISSEN
 10
1286.65
 20
769.95
 30
0.0
 11
1284.3
 21
769.95
 31
0.0
  0
LINE
  8
L-ZISSEN
 10
1286.65
 20
786.95
 30
0.0
 11
1284.3
 21
786.95
 31
0.0
  0
LINE
  8
L-ZISSEN
 10
1289.55
 20
769.25
 30
0.0
 11
1286.65
 21
769.25
 31
0.0
  0
LINE
  8
L-ZISSEN
 10
1289.55
 20
787.65
 30
0.0
 11
1286.65
 21
787.65
 31
0.0
  0
LINE
  8
L-ZISSEN
 10
1284.3
 20
789.419655
 30
0.0
 11
1284.3
 21
767.480345
 31
0.0
  0
LINE
  8
L-ZISSEN
 10
1278.8
 20
767.480345
 30
0.0
 11
1284.3
 21
767.480345
 31
0.0
  0
LINE
  8
L-ZISSEN
 10
1278.8
 20
789.419655
 30
0.0
 11
1284.3
 21
789.419655
 31
0.0
  0
LINE
  8
L-ZISSEN
 10
1278.8
 20
789.419655
 30
0.0
 11
1278.8
 21
767.480345
 31
0.0
  0
LINE
  8
L-ZISSEN
 10
1305.05
 20
789.7
 30
0.0
 11
1305.05
 21
758.5
 31
0.0
  0
LINE
  8
L-ZISSEN
 10
1289.55
 20
789.7
 30
0.0
 11
1289.55
 21
767.2
 31
0.0
  0
LINE
  8
L-ZISSEN
 10
1305.05
 20
767.2
 30
0.0
 11
1289.55
 21
767.2
 31
0.0
  0
LINE
  8
L-ZISSEN
 10
1332.55
 20
789.7
 30
0.0
 11
1289.55
 21
789.7
 31
0.0
  0
LINE
  8
L-ZISSEN
 10
1332.55
 20
789.7
 30
0.0
 11
1332.55
 21
758.5
 31
0.0
  0
LINE
  8
L-ZISSEN
 10
1290.3
 20
739.814955
 30
0.0
 11
1290.3
 21
720.185045
 31
0.0
  0
LINE
  8
L-ZISSEN
 10
1290.3
 20
720.185045
 30
0.0
 11
1293.3
 21
720.185045
 31
0.0
  0
LINE
  8
L-ZISSEN
 10
1290.3
 20
739.814955
 30
0.0
 11
1293.3
 21
739.814955
 31
0.0
  0
LINE
  8
L-ZISSEN
 10
1293.3
 20
754.0
 30
0.0
 11
1293.3
 21
711.2
 31
0.0
  0
LINE
  8
L-ZISSEN
 10
1293.3
 20
711.2
 30
0.0
 11
1337.2
 21
711.2
 31
0.0
  0
LINE
  8
L-ZISSEN
 10
1337.2
 20
754.0
 30
0.0
 11
1293.3
 21
754.0
 31
0.0
  0
LINE
  8
L-ZISSEN
 10
1337.2
 20
704.0
 30
0.0
 11
1337.2
 21
756.0
 31
0.0
  0
SOLID
  8
L-ZISSEN
 10
1353.640234
 20
756.851265
 30
0.0
 11
1353.264676
 21
757.402083
 31
0.0
 12
1351.8
 22
756.0
 32
0.0
 13
1351.8
 23
756.0
 33
0.0
  0
LINE
  8
L-ZISSEN
 10
1353.452455
 20
757.126674
 30
0.0
 11
1365.0
 21
765.0
 31
0.0
  0
LINE
  8
L-ZISSEN
 10
1365.0
 20
765.0
 30
0.0
 11
1367.0
 21
765.0
 31
0.0
  0
TEXT
  8
L-ZISSEN
 10
1369.0
 20
762.75
 30
0.0
 40
4.5
  1
P.P
  0
SOLID
  8
L-ZISSEN
 10
1316.781572
 20
753.807496
 30
0.0
 11
1316.953109
 21
753.163277
 31
0.0
 12
1318.8
 22
754.0
 32
0.0
 13
1318.8
 23
754.0
 33
0.0
  0
LINE
  8
L-ZISSEN
 10
1316.86734
 20
753.485387
 30
0.0
 11
1285.0
 21
745.0
 31
0.0
  0
LINE
  8
L-ZISSEN
 10
1285.0
 20
745.0
 30
0.0
 11
1283.0
 21
745.0
 31
0.0
  0
TEXT
  8
L-ZISSEN
 10
1272.0
 20
742.75
 30
0.0
 40
4.5
  1
P.P
  0
LINE
  8
L-ZISSEN
 10
234.4
 20
704.2
 30
0.0
 11
234.4
 21
647.2
 31
0.0
  0
LINE
  8
L-ZISSEN
 10
265.6
 20
704.2
 30
0.0
 11
265.6
 21
647.2
 31
0.0
  0
LINE
  8
L-ZISSEN
 10
244.0
 20
658.335898
 30
0.0
 11
244.0
 21
665.264102
 31
0.0
  0
LINE
  8
L-ZISSEN
 10
250.0
 20
654.871797
 30
0.0
 11
244.0
 21
658.335898
 31
0.0
  0
LINE
  8
L-ZISSEN
 10
256.0
 20
658.335898
 30
0.0
 11
250.0
 21
654.871797
 31
0.0
  0
LINE
  8
L-ZISSEN
 10
256.0
 20
665.264102
 30
0.0
 11
256.0
 21
658.335898
 31
0.0
  0
LINE
  8
L-ZISSEN
 10
250.0
 20
668.728203
 30
0.0
 11
256.0
 21
665.264102
 31
0.0
  0
LINE
  8
L-ZISSEN
 10
244.0
 20
665.264102
 30
0.0
 11
250.0
 21
668.728203
 31
0.0
  0
LINE
  8
L-ZISSEN
 10
265.0
 20
603.3
 30
0.0
 11
261.25
 21
603.3
 31
0.0
  0
LINE
  8
L-ZISSEN
 10
235.0
 20
603.3
 30
0.0
 11
235.0
 21
647.2
 31
0.0
  0
LINE
  8
L-ZISSEN
 10
265.0
 20
603.3
 30
0.0
 11
265.0
 21
647.2
 31
0.0
  0
LINE
  8
L-ZISSEN
 10
260.969655
 20
588.8
 30
0.0
 11
239.030345
 21
588.8
 31
0.0
  0
LINE
  8
L-ZISSEN
 10
260.969655
 20
588.8
 30
0.0
 11
260.969655
 21
594.3
 31
0.0
  0
LINE
  8
L-ZISSEN
 10
239.030345
 20
588.8
 30
0.0
 11
239.030345
 21
594.3
 31
0.0
  0
LINE
  8
L-ZISSEN
 10
260.969655
 20
594.3
 30
0.0
 11
239.030345
 21
594.3
 31
0.0
  0
LINE
  8
L-ZISSEN
 10
259.2
 20
599.55
 30
0.0
 11
259.2
 21
596.65
 31
0.0
  0
LINE
  8
L-ZISSEN
 10
240.8
 20
599.55
 30
0.0
 11
240.8
 21
596.65
 31
0.0
  0
LINE
  8
L-ZISSEN
 10
258.5
 20
596.65
 30
0.0
 11
258.5
 21
594.3
 31
0.0
  0
LINE
  8
L-ZISSEN
 10
241.5
 20
596.65
 30
0.0
 11
241.5
 21
594.3
 31
0.0
  0
LINE
  8
L-ZISSEN
 10
259.2
 20
596.65
 30
0.0
 11
240.8
 21
596.65
 31
0.0
  0
LINE
  8
L-ZISSEN
 10
261.25
 20
615.05
 30
0.0
 11
261.25
 21
599.55
 31
0.0
  0
LINE
  8
L-ZISSEN
 10
261.25
 20
599.55
 30
0.0
 11
238.75
 21
599.55
 31
0.0
  0
LINE
  8
L-ZISSEN
 10
238.75
 20
615.05
 30
0.0
 11
238.75
 21
599.55
 31
0.0
  0
LINE
  8
L-ZISSEN
 10
238.75
 20
603.3
 30
0.0
 11
235.0
 21
603.3
 31
0.0
  0
LINE
  8
L-ZISSEN
 10
263.75
 20
642.55
 30
0.0
 11
236.25
 21
642.55
 31
0.0
  0
LINE
  8
L-ZISSEN
 10
263.75
 20
615.05
 30
0.0
 11
236.25
 21
615.05
 31
0.0
  0
LINE
  8
L-ZISSEN
 10
236.25
 20
642.55
 30
0.0
 11
236.25
 21
615.05
 31
0.0
  0
LINE
  8
L-ZISSEN
 10
263.75
 20
642.55
 30
0.0
 11
263.75
 21
615.05
 31
0.0
  0
LINE
  8
L-ZISSEN
 10
235.0
 20
613.55
 30
0.0
 11
238.75
 21
613.55
 31
0.0
  0
LINE
  8
L-ZISSEN
 10
235.0
 20
643.55
 30
0.0
 11
265.0
 21
643.55
 31
0.0
  0
LINE
  8
L-ZISSEN
 10
261.25
 20
613.55
 30
0.0
 11
265.0
 21
613.55
 31
0.0
  0
LINE
  8
L-ZISSEN
 10
267.0
 20
704.2
 30
0.0
 11
233.0
 21
704.2
 31
0.0
  0
LINE
  8
L-ZISSEN
 10
265.6
 20
647.2
 30
0.0
 11
234.4
 21
647.2
 31
0.0
  0
LINE
  8
L-TYUSIN
 10
1364.2
 20
80.0
 30
0.0
 11
1538.8
 21
80.0
 31
0.0
  0
LINE
  8
L-ZISSEN
 10
1485.8
 20
54.0
 30
0.0
 11
1485.8
 21
106.0
 31
0.0
  0
LINE
  8
L-ZISSEN
 10
1533.8
 20
106.0
 30
0.0
 11
1477.7
 21
106.0
 31
0.0
  0
LINE
  8
L-ZISSEN
 10
1394.2
 20
106.0
 30
0.0
 11
1394.2
 21
54.0
 31
0.0
  0
LINE
  8
L-ZISSEN
 10
1386.2
 20
54.0
 30
0.0
 11
1533.8
 21
54.0
 31
0.0
  0
LINE
  8
L-ZISSEN
 10
1369.2
 20
91.0
 30
0.0
 11
1369.2
 21
69.0
 31
0.0
  0
LINE
  8
L-ZISSEN
 10
1386.2
 20
106.0
 30
0.0
 11
1386.2
 21
54.0
 31
0.0
  0
LINE
  8
L-ZISSEN
 10
1376.2
 20
95.465838
 30
0.0
 11
1376.2
 21
66.0
 31
0.0
  0
LINE
  8
L-ZISSEN
 10
1376.2
 20
66.0
 30
0.0
 11
1386.2
 21
66.0
 31
0.0
  0
LINE
  8
L-ZISSEN
 10
1369.2
 20
69.0
 30
0.0
 11
1376.2
 21
69.0
 31
0.0
  0
LINE
  8
L-ZISSEN
 10
1369.2
 20
91.0
 30
0.0
 11
1376.2
 21
91.0
 31
0.0
  0
LINE
  8
L-ZISSEN
 10
539.0
 20
679.2
 30
0.0
 11
539.0
 21
686.2
 31
0.0
  0
LINE
  8
L-ZISSEN
 10
536.0
 20
686.2
 30
0.0
 11
536.0
 21
692.6
 31
0.0
  0
LINE
  8
L-ZISSEN
 10
561.0
 20
679.2
 30
0.0
 11
561.0
 21
686.2
 31
0.0
  0
LINE
  8
L-ZISSEN
 10
564.0
 20
686.2
 30
0.0
 11
564.0
 21
692.6
 31
0.0
  0
LINE
  8
L-ZISSEN
 10
536.0
 20
686.2
 30
0.0
 11
564.0
 21
686.2
 31
0.0
  0
LINE
  8
L-ZISSEN
 10
534.4
 20
696.2
 30
0.0
 11
565.6
 21
696.2
 31
0.0
  0
LINE
  8
L-ZISSEN
 10
539.0
 20
679.2
 30
0.0
 11
561.0
 21
679.2
 31
0.0
  0
LINE
  8
L-ZISSEN
 10
533.0
 20
704.2
 30
0.0
 11
567.0
 21
704.2
 31
0.0
  0
LINE
  8
L-ZISSEN
 10
567.0
 20
795.8
 30
0.0
 11
533.0
 21
795.8
 31
0.0
  0
LINE
  8
L-TYUSIN
 10
550.0
 20
674.2
 30
0.0
 11
550.0
 21
848.8
 31
0.0
  0
CIRCLE
  8
L-ZISSEN
 10
550.0
 20
470.0
 30
0.0
 40
11.0
  0
CIRCLE
  8
L-ZISSEN
 10
550.0
 20
470.0
 30
0.0
 40
14.0
  0
ARC
  8
L-ZISSEN
 10
558.42541
 20
481.180897
 30
0.0
 40
4.284941
 50
323.0
 51
143.0
  0
LINE
  8
L-ZISSEN
 10
555.003305
 20
483.759639
 30
0.0
 11
554.598968
 21
483.223067
 31
0.0
  0
LINE
  8
L-ZISSEN
 10
561.847516
 20
478.602156
 30
0.0
 11
561.44318
 21
478.065583
 31
0.0
  0
LINE
  8
L-ZISSEN
 10
562.710351
 20
686.2
 30
0.0
 11
562.710351
 21
692.6
 31
0.0
  0
LINE
  8
L-ZISSEN
 10
554.598968
 20
686.2
 30
0.0
 11
554.598968
 21
696.2
 31
0.0
  0
LINE
  8
L-ZISSEN
 10
1376.2
 20
95.465838
 30
0.0
 11
1386.2
 21
95.465838
 31
0.0
  0
LINE
  8
L-ZISSEN
 10
1376.2
 20
88.065583
 30
0.0
 11
1386.2
 21
88.065583
 31
0.0
  0
CIRCLE
  8
L-ZISSEN
 10
561.0
 20
491.0
 30
0.0
 40
3.5
  0
CIRCLE
  8
L-ZISSEN
 10
539.0
 20
491.0
 30
0.0
 40
3.5
  0
CIRCLE
  8
L-ZISSEN
 10
539.0
 20
449.0
 30
0.0
 40
3.5
  0
CIRCLE
  8
L-ZISSEN
 10
561.0
 20
449.0
 30
0.0
 40
3.5
  0
LINE
  8
L-ZISSEN
 10
1382.6
 20
104.5
 30
0.0
 11
1382.6
 21
97.5
 31
0.0
  0
LINE
  8
L-ZISSEN
 10
1382.6
 20
104.5
 30
0.0
 11
1386.2
 21
104.5
 31
0.0
  0
LINE
  8
L-ZISSEN
 10
1382.6
 20
97.5
 30
0.0
 11
1386.2
 21
97.5
 31
0.0
  0
LINE
  8
L-ZISSEN
 10
1382.6
 20
62.5
 30
0.0
 11
1386.2
 21
62.5
 31
0.0
  0
LINE
  8
L-ZISSEN
 10
1382.6
 20
55.5
 30
0.0
 11
1382.6
 21
62.5
 31
0.0
  0
LINE
  8
L-ZISSEN
 10
1382.6
 20
55.5
 30
0.0
 11
1386.2
 21
55.5
 31
0.0
  0
LINE
  8
L-ZISSEN
 10
564.5
 20
692.6
 30
0.0
 11
564.5
 21
696.2
 31
0.0
  0
LINE
  8
L-ZISSEN
 10
557.5
 20
692.6
 30
0.0
 11
557.5
 21
696.2
 31
0.0
  0
LINE
  8
L-ZISSEN
 10
557.5
 20
692.6
 30
0.0
 11
564.5
 21
692.6
 31
0.0
  0
LINE
  8
L-ZISSEN
 10
542.5
 20
692.6
 30
0.0
 11
535.5
 21
692.6
 31
0.0
  0
LINE
  8
L-ZISSEN
 10
542.5
 20
692.6
 30
0.0
 11
542.5
 21
696.2
 31
0.0
  0
LINE
  8
L-ZISSEN
 10
535.5
 20
692.6
 30
0.0
 11
535.5
 21
696.2
 31
0.0
  0
LINE
  8
L-ZISSEN
 10
1402.3
 20
106.0
 30
0.0
 11
1402.3
 21
62.0
 31
0.0
  0
LINE
  8
L-ZISSEN
 10
1477.7
 20
62.0
 30
0.0
 11
1477.7
 21
106.0
 31
0.0
  0
LINE
  8
L-ZISSEN
 10
1477.7
 20
94.0
 30
0.0
 11
1402.3
 21
94.0
 31
0.0
  0
LINE
  8
L-ZISSEN
 10
1402.3
 20
106.0
 30
0.0
 11
1386.2
 21
106.0
 31
0.0
  0
LINE
  8
L-ZISSEN
 10
1485.8
 20
62.0
 30
0.0
 11
1461.5
 21
62.0
 31
0.0
  0
LINE
  8
L-TYUSIN
 10
1440.0
 20
99.0
 30
0.0
 11
1440.0
 21
48.0
 31
0.0
  0
LINE
  8
L-ZISSEN
 10
533.0
 20
712.3
 30
0.0
 11
567.0
 21
712.3
 31
0.0
  0
LINE
  8
L-ZISSEN
 10
567.0
 20
787.7
 30
0.0
 11
533.0
 21
787.7
 31
0.0
  0
LINE
  8
L-ZISSEN
 10
567.0
 20
704.2
 30
0.0
 11
567.0
 21
712.3
 31
0.0
  0
LINE
  8
L-ZISSEN
 10
533.0
 20
704.2
 30
0.0
 11
533.0
 21
712.3
 31
0.0
  0
LINE
  8
L-ZISSEN
 10
534.0
 20
787.7
 30
0.0
 11
534.0
 21
785.5
 31
0.0
  0
LINE
  8
L-ZISSEN
 10
567.0
 20
787.7
 30
0.0
 11
567.0
 21
795.8
 31
0.0
  0
LINE
  8
L-ZISSEN
 10
533.0
 20
787.7
 30
0.0
 11
533.0
 21
795.8
 31
0.0
  0
LINE
  8
L-ZISSEN
 10
575.0
 20
771.5
 30
0.0
 11
566.0
 21
771.5
 31
0.0
  0
LINE
  8
L-ZISSEN
 10
575.0
 20
760.5
 30
0.0
 11
575.0
 21
771.5
 31
0.0
  0
LINE
  8
L-ZISSEN
 10
575.0
 20
760.5
 30
0.0
 11
566.0
 21
760.5
 31
0.0
  0
LINE
  8
L-ZISSEN
 10
566.0
 20
787.7
 30
0.0
 11
566.0
 21
771.5
 31
0.0
  0
LINE
  8
L-ZISSEN
 10
575.0
 20
739.5
 30
0.0
 11
566.0
 21
739.5
 31
0.0
  0
LINE
  8
L-ZISSEN
 10
575.0
 20
739.5
 30
0.0
 11
575.0
 21
728.5
 31
0.0
  0
LINE
  8
L-ZISSEN
 10
575.0
 20
728.5
 30
0.0
 11
566.0
 21
728.5
 31
0.0
  0
LINE
  8
L-ZISSEN
 10
525.0
 20
785.5
 30
0.0
 11
534.0
 21
785.5
 31
0.0
  0
LINE
  8
L-ZISSEN
 10
525.0
 20
774.5
 30
0.0
 11
525.0
 21
785.5
 31
0.0
  0
LINE
  8
L-ZISSEN
 10
525.0
 20
774.5
 30
0.0
 11
534.0
 21
774.5
 31
0.0
  0
LINE
  8
L-ZISSEN
 10
525.0
 20
725.5
 30
0.0
 11
534.0
 21
725.5
 31
0.0
  0
LINE
  8
L-ZISSEN
 10
525.0
 20
714.5
 30
0.0
 11
525.0
 21
725.5
 31
0.0
  0
LINE
  8
L-ZISSEN
 10
525.0
 20
714.5
 30
0.0
 11
534.0
 21
714.5
 31
0.0
  0
LINE
  8
L-ZISSEN
 10
534.4
 20
704.2
 30
0.0
 11
534.4
 21
696.2
 31
0.0
  0
LINE
  8
L-ZISSEN
 10
565.6
 20
704.2
 30
0.0
 11
565.6
 21
696.2
 31
0.0
  0
LINE
  8
L-ZISSEN
 10
565.6
 20
795.8
 30
0.0
 11
565.6
 21
843.8
 31
0.0
  0
LINE
  8
L-ZISSEN
 10
534.4
 20
795.8
 30
0.0
 11
534.4
 21
843.8
 31
0.0
  0
LINE
  8
L-ZISSEN
 10
1450.5
 20
53.0
 30
0.0
 11
1450.5
 21
85.0
 31
0.0
  0
LINE
  8
L-ZISSEN
 10
1461.5
 20
53.0
 30
0.0
 11
1461.5
 21
85.0
 31
0.0
  0
LINE
  8
L-ZISSEN
 10
1461.5
 20
85.0
 30
0.0
 11
1450.5
 21
85.0
 31
0.0
  0
LINE
  8
L-ZISSEN
 10
1450.5
 20
62.0
 30
0.0
 11
1429.5
 21
62.0
 31
0.0
  0
LINE
  8
L-ZISSEN
 10
1460.25
 20
91.3
 30
0.0
 11
1451.75
 21
91.3
 31
0.0
  0
LINE
  8
L-ZISSEN
 10
1451.75
 20
91.3
 30
0.0
 11
1451.75
 21
85.0
 31
0.0
  0
LINE
  8
L-ZISSEN
 10
1460.25
 20
91.3
 30
0.0
 11
1460.25
 21
85.0
 31
0.0
  0
LINE
  8
L-ZISSEN
 10
1419.75
 20
91.3
 30
0.0
 11
1419.75
 21
85.0
 31
0.0
  0
LINE
  8
L-ZISSEN
 10
1428.25
 20
91.3
 30
0.0
 11
1428.25
 21
85.0
 31
0.0
  0
LINE
  8
L-ZISSEN
 10
1419.75
 20
91.3
 30
0.0
 11
1428.25
 21
91.3
 31
0.0
  0
LINE
  8
L-ZISSEN
 10
1418.5
 20
85.0
 30
0.0
 11
1429.5
 21
85.0
 31
0.0
  0
LINE
  8
L-ZISSEN
 10
1418.5
 20
53.0
 30
0.0
 11
1418.5
 21
85.0
 31
0.0
  0
LINE
  8
L-ZISSEN
 10
1429.5
 20
53.0
 30
0.0
 11
1429.5
 21
85.0
 31
0.0
  0
LINE
  8
L-ZISSEN
 10
1418.5
 20
62.0
 30
0.0
 11
1394.2
 21
62.0
 31
0.0
  0
CIRCLE
  8
L-ZISSEN
 10
530.5
 20
720.0
 30
0.0
 40
4.25
  0
LINE
  8
L-ZISSEN
 10
534.0
 20
714.5
 30
0.0
 11
534.0
 21
712.3
 31
0.0
  0
LINE
  8
L-ZISSEN
 10
534.0
 20
774.5
 30
0.0
 11
534.0
 21
725.5
 31
0.0
  0
LINE
  8
L-ZISSEN
 10
566.0
 20
760.5
 30
0.0
 11
566.0
 21
739.5
 31
0.0
  0
LINE
  8
L-ZISSEN
 10
566.0
 20
728.5
 30
0.0
 11
566.0
 21
712.3
 31
0.0
  0
CIRCLE
  8
L-ZISSEN
 10
530.5
 20
780.0
 30
0.0
 40
4.25
  0
CIRCLE
  8
L-ZISSEN
 10
569.5
 20
766.0
 30
0.0
 40
4.25
  0
CIRCLE
  8
L-ZISSEN
 10
569.5
 20
734.0
 30
0.0
 40
4.25
  0
LINE
  8
L-ZISSEN
 10
1394.0
 20
54.0
 30
0.0
 11
1394.0
 21
53.0
 31
0.0
  0
LINE
  8
L-ZISSEN
 10
1486.0
 20
54.0
 30
0.0
 11
1486.0
 21
53.0
 31
0.0
  0
LINE
  8
L-ZISSEN
 10
525.0
 20
443.0
 30
0.0
 11
525.0
 21
475.0
 31
0.0
  0
LINE
  8
L-ZISSEN
 10
525.0
 20
475.0
 30
0.0
 11
533.0
 21
475.0
 31
0.0
  0
LINE
  8
L-ZISSEN
 10
526.25
 20
481.3
 30
0.0
 11
526.25
 21
475.0
 31
0.0
  0
LINE
  8
L-ZISSEN
 10
526.25
 20
481.3
 30
0.0
 11
533.0
 21
481.3
 31
0.0
  0
LINE
  8
L-ZISSEN
 10
573.75
 20
481.3
 30
0.0
 11
573.75
 21
475.0
 31
0.0
  0
LINE
  8
L-ZISSEN
 10
573.75
 20
481.3
 30
0.0
 11
567.0
 21
481.3
 31
0.0
  0
LINE
  8
L-ZISSEN
 10
575.0
 20
475.0
 30
0.0
 11
567.0
 21
475.0
 31
0.0
  0
LINE
  8
L-ZISSEN
 10
575.0
 20
443.0
 30
0.0
 11
575.0
 21
475.0
 31
0.0
  0
LINE
  8
L-ZISSEN
 10
533.0
 20
496.0
 30
0.0
 11
533.0
 21
443.0
 31
0.0
  0
LINE
  8
L-ZISSEN
 10
567.0
 20
496.0
 30
0.0
 11
567.0
 21
443.0
 31
0.0
  0
LINE
  8
L-ZISSEN
 10
567.0
 20
496.0
 30
0.0
 11
533.0
 21
496.0
 31
0.0
  0
LINE
  8
L-ZISSEN
 10
565.6
 20
444.0
 30
0.0
 11
565.6
 21
496.0
 31
0.0
  0
LINE
  8
L-ZISSEN
 10
534.4
 20
444.0
 30
0.0
 11
534.4
 21
496.0
 31
0.0
  0
LINE
  8
L-ZISSEN
 10
525.0
 20
444.0
 30
0.0
 11
575.0
 21
444.0
 31
0.0
  0
LINE
  8
L-TYUSIN
 10
529.0
 20
470.0
 30
0.0
 11
571.0
 21
470.0
 31
0.0
  0
LINE
  8
L-TYUSIN
 10
550.0
 20
438.0
 30
0.0
 11
550.0
 21
501.0
 31
0.0
  0
LINE
  8
L-ZISSEN
 10
565.6
 20
170.0
 30
0.0
 11
565.6
 21
126.2
 31
0.0
  0
LINE
  8
L-ZISSEN
 10
534.4
 20
170.0
 30
0.0
 11
534.4
 21
126.2
 31
0.0
  0
LINE
  8
L-ZISSEN
 10
564.5
 20
277.4
 30
0.0
 11
564.5
 21
273.8
 31
0.0
  0
LINE
  8
L-ZISSEN
 10
557.5
 20
277.4
 30
0.0
 11
557.5
 21
273.8
 31
0.0
  0
LINE
  8
L-ZISSEN
 10
557.5
 20
277.4
 30
0.0
 11
564.5
 21
277.4
 31
0.0
  0
LINE
  8
L-ZISSEN
 10
542.5
 20
277.4
 30
0.0
 11
535.5
 21
277.4
 31
0.0
  0
LINE
  8
L-ZISSEN
 10
542.5
 20
277.4
 30
0.0
 11
542.5
 21
273.8
 31
0.0
  0
LINE
  8
L-ZISSEN
 10
535.5
 20
277.4
 30
0.0
 11
535.5
 21
273.8
 31
0.0
  0
LINE
  8
L-TYUSIN
 10
550.0
 20
295.8
 30
0.0
 11
550.0
 21
121.2
 31
0.0
  0
LINE
  8
L-ZISSEN
 10
561.0
 20
290.8
 30
0.0
 11
539.0
 21
290.8
 31
0.0
  0
LINE
  8
L-ZISSEN
 10
564.646926
 20
273.8
 30
0.0
 11
535.353074
 21
273.8
 31
0.0
  0
LINE
  8
L-ZISSEN
 10
564.0
 20
283.8
 30
0.0
 11
536.0
 21
283.8
 31
0.0
  0
LINE
  8
L-ZISSEN
 10
536.0
 20
283.8
 30
0.0
 11
536.0
 21
277.4
 31
0.0
  0
LINE
  8
L-ZISSEN
 10
539.0
 20
290.8
 30
0.0
 11
539.0
 21
283.8
 31
0.0
  0
LINE
  8
L-ZISSEN
 10
564.0
 20
283.8
 30
0.0
 11
564.0
 21
277.4
 31
0.0
  0
LINE
  8
L-ZISSEN
 10
561.0
 20
290.8
 30
0.0
 11
561.0
 21
283.8
 31
0.0
  0
LINE
  8
L-ZISSEN
 10
1533.8
 20
54.0
 30
0.0
 11
1533.8
 21
106.0
 31
0.0
  0
LINE
  8
L-ZISSEN
 10
534.4
 20
126.2
 30
0.0
 11
565.6
 21
126.2
 31
0.0
  0
LINE
  8
L-ZISSEN
 10
565.6
 20
843.8
 30
0.0
 11
534.4
 21
843.8
 31
0.0
  0
LINE
  8
L-TYUSIN
 10
1341.2
 20
210.0
 30
0.0
 11
1538.8
 21
210.0
 31
0.0
  0
LINE
  8
L-ZISSEN
 10
1485.8
 20
184.0
 30
0.0
 11
1485.8
 21
236.0
 31
0.0
  0
LINE
  8
L-ZISSEN
 10
1533.8
 20
236.0
 30
0.0
 11
1477.7
 21
236.0
 31
0.0
  0
LINE
  8
L-ZISSEN
 10
1394.2
 20
236.0
 30
0.0
 11
1394.2
 21
184.0
 31
0.0
  0
LINE
  8
L-ZISSEN
 10
1346.2
 20
184.0
 30
0.0
 11
1533.8
 21
184.0
 31
0.0
  0
LINE
  8
L-ZISSEN
 10
717.0
 20
795.8
 30
0.0
 11
683.0
 21
795.8
 31
0.0
  0
LINE
  8
L-TYUSIN
 10
700.0
 20
651.2
 30
0.0
 11
700.0
 21
848.8
 31
0.0
  0
LINE
  8
L-TYUSIN
 10
700.0
 20
438.0
 30
0.0
 11
700.0
 21
501.0
 31
0.0
  0
LINE
  8
L-TYUSIN
 10
690.0
 20
470.0
 30
0.0
 11
710.0
 21
470.0
 31
0.0
  0
LINE
  8
L-ZISSEN
 10
675.0
 20
444.0
 30
0.0
 11
725.0
 21
444.0
 31
0.0
  0
LINE
  8
L-ZISSEN
 10
1402.3
 20
236.0
 30
0.0
 11
1402.3
 21
192.0
 31
0.0
  0
LINE
  8
L-ZISSEN
 10
1477.7
 20
192.0
 30
0.0
 11
1477.7
 21
236.0
 31
0.0
  0
LINE
  8
L-ZISSEN
 10
1477.7
 20
224.0
 30
0.0
 11
1402.3
 21
224.0
 31
0.0
  0
LINE
  8
L-ZISSEN
 10
1402.3
 20
236.0
 30
0.0
 11
1346.2
 21
236.0
 31
0.0
  0
LINE
  8
L-ZISSEN
 10
1485.8
 20
192.0
 30
0.0
 11
1461.5
 21
192.0
 31
0.0
  0
LINE
  8
L-TYUSIN
 10
1440.0
 20
229.0
 30
0.0
 11
1440.0
 21
178.0
 31
0.0
  0
LINE
  8
L-ZISSEN
 10
683.0
 20
712.3
 30
0.0
 11
717.0
 21
712.3
 31
0.0
  0
LINE
  8
L-ZISSEN
 10
717.0
 20
787.7
 30
0.0
 11
683.0
 21
787.7
 31
0.0
  0
LINE
  8
L-ZISSEN
 10
717.0
 20
704.2
 30
0.0
 11
717.0
 21
712.3
 31
0.0
  0
LINE
  8
L-ZISSEN
 10
683.0
 20
704.2
 30
0.0
 11
683.0
 21
712.3
 31
0.0
  0
LINE
  8
L-ZISSEN
 10
684.0
 20
787.7
 30
0.0
 11
684.0
 21
785.5
 31
0.0
  0
LINE
  8
L-ZISSEN
 10
717.0
 20
787.7
 30
0.0
 11
717.0
 21
795.8
 31
0.0
  0
LINE
  8
L-ZISSEN
 10
683.0
 20
787.7
 30
0.0
 11
683.0
 21
795.8
 31
0.0
  0
LINE
  8
L-ZISSEN
 10
725.0
 20
771.5
 30
0.0
 11
716.0
 21
771.5
 31
0.0
  0
LINE
  8
L-ZISSEN
 10
725.0
 20
760.5
 30
0.0
 11
725.0
 21
771.5
 31
0.0
  0
LINE
  8
L-ZISSEN
 10
725.0
 20
760.5
 30
0.0
 11
716.0
 21
760.5
 31
0.0
  0
LINE
  8
L-ZISSEN
 10
716.0
 20
787.7
 30
0.0
 11
716.0
 21
771.5
 31
0.0
  0
LINE
  8
L-ZISSEN
 10
725.0
 20
739.5
 30
0.0
 11
716.0
 21
739.5
 31
0.0
  0
LINE
  8
L-ZISSEN
 10
725.0
 20
739.5
 30
0.0
 11
725.0
 21
728.5
 31
0.0
  0
LINE
  8
L-ZISSEN
 10
725.0
 20
728.5
 30
0.0
 11
716.0
 21
728.5
 31
0.0
  0
LINE
  8
L-ZISSEN
 10
675.0
 20
785.5
 30
0.0
 11
684.0
 21
785.5
 31
0.0
  0
LINE
  8
L-ZISSEN
 10
675.0
 20
774.5
 30
0.0
 11
675.0
 21
785.5
 31
0.0
  0
LINE
  8
L-ZISSEN
 10
675.0
 20
774.5
 30
0.0
 11
684.0
 21
774.5
 31
0.0
  0
LINE
  8
L-ZISSEN
 10
675.0
 20
725.5
 30
0.0
 11
684.0
 21
725.5
 31
0.0
  0
LINE
  8
L-ZISSEN
 10
675.0
 20
714.5
 30
0.0
 11
675.0
 21
725.5
 31
0.0
  0
LINE
  8
L-ZISSEN
 10
675.0
 20
714.5
 30
0.0
 11
684.0
 21
714.5
 31
0.0
  0
LINE
  8
L-ZISSEN
 10
715.6
 20
795.8
 30
0.0
 11
715.6
 21
843.8
 31
0.0
  0
LINE
  8
L-ZISSEN
 10
684.4
 20
795.8
 30
0.0
 11
684.4
 21
843.8
 31
0.0
  0
LINE
  8
L-ZISSEN
 10
1450.5
 20
183.0
 30
0.0
 11
1450.5
 21
215.0
 31
0.0
  0
LINE
  8
L-ZISSEN
 10
1461.5
 20
183.0
 30
0.0
 11
1461.5
 21
215.0
 31
0.0
  0
LINE
  8
L-ZISSEN
 10
1461.5
 20
215.0
 30
0.0
 11
1450.5
 21
215.0
 31
0.0
  0
LINE
  8
L-ZISSEN
 10
1450.5
 20
192.0
 30
0.0
 11
1429.5
 21
192.0
 31
0.0
  0
LINE
  8
L-ZISSEN
 10
1460.25
 20
221.3
 30
0.0
 11
1451.75
 21
221.3
 31
0.0
  0
LINE
  8
L-ZISSEN
 10
1451.75
 20
221.3
 30
0.0
 11
1451.75
 21
215.0
 31
0.0
  0
LINE
  8
L-ZISSEN
 10
1460.25
 20
221.3
 30
0.0
 11
1460.25
 21
215.0
 31
0.0
  0
LINE
  8
L-ZISSEN
 10
1419.75
 20
221.3
 30
0.0
 11
1419.75
 21
215.0
 31
0.0
  0
LINE
  8
L-ZISSEN
 10
1428.25
 20
221.3
 30
0.0
 11
1428.25
 21
215.0
 31
0.0
  0
LINE
  8
L-ZISSEN
 10
1419.75
 20
221.3
 30
0.0
 11
1428.25
 21
221.3
 31
0.0
  0
LINE
  8
L-ZISSEN
 10
1418.5
 20
215.0
 30
0.0
 11
1429.5
 21
215.0
 31
0.0
  0
LINE
  8
L-ZISSEN
 10
1418.5
 20
183.0
 30
0.0
 11
1418.5
 21
215.0
 31
0.0
  0
LINE
  8
L-ZISSEN
 10
1429.5
 20
183.0
 30
0.0
 11
1429.5
 21
215.0
 31
0.0
  0
LINE
  8
L-ZISSEN
 10
1418.5
 20
192.0
 30
0.0
 11
1394.2
 21
192.0
 31
0.0
  0
CIRCLE
  8
L-ZISSEN
 10
680.5
 20
720.0
 30
0.0
 40
4.25
  0
LINE
  8
L-ZISSEN
 10
684.0
 20
714.5
 30
0.0
 11
684.0
 21
712.3
 31
0.0
  0
LINE
  8
L-ZISSEN
 10
684.0
 20
774.5
 30
0.0
 11
684.0
 21
725.5
 31
0.0
  0
LINE
  8
L-ZISSEN
 10
716.0
 20
760.5
 30
0.0
 11
716.0
 21
739.5
 31
0.0
  0
LINE
  8
L-ZISSEN
 10
716.0
 20
728.5
 30
0.0
 11
716.0
 21
712.3
 31
0.0
  0
CIRCLE
  8
L-ZISSEN
 10
680.5
 20
780.0
 30
0.0
 40
4.25
  0
CIRCLE
  8
L-ZISSEN
 10
719.5
 20
766.0
 30
0.0
 40
4.25
  0
CIRCLE
  8
L-ZISSEN
 10
719.5
 20
734.0
 30
0.0
 40
4.25
  0
LINE
  8
L-ZISSEN
 10
1394.0
 20
184.0
 30
0.0
 11
1394.0
 21
183.0
 31
0.0
  0
LINE
  8
L-ZISSEN
 10
1486.0
 20
184.0
 30
0.0
 11
1486.0
 21
183.0
 31
0.0
  0
LINE
  8
L-ZISSEN
 10
684.4
 20
444.0
 30
0.0
 11
684.4
 21
496.0
 31
0.0
  0
LINE
  8
L-ZISSEN
 10
715.6
 20
444.0
 30
0.0
 11
715.6
 21
496.0
 31
0.0
  0
LINE
  8
L-ZISSEN
 10
717.0
 20
496.0
 30
0.0
 11
683.0
 21
496.0
 31
0.0
  0
LINE
  8
L-ZISSEN
 10
717.0
 20
496.0
 30
0.0
 11
717.0
 21
443.0
 31
0.0
  0
LINE
  8
L-ZISSEN
 10
683.0
 20
496.0
 30
0.0
 11
683.0
 21
443.0
 31
0.0
  0
LINE
  8
L-ZISSEN
 10
725.0
 20
443.0
 30
0.0
 11
725.0
 21
475.0
 31
0.0
  0
LINE
  8
L-ZISSEN
 10
725.0
 20
475.0
 30
0.0
 11
717.0
 21
475.0
 31
0.0
  0
LINE
  8
L-ZISSEN
 10
723.75
 20
481.3
 30
0.0
 11
717.0
 21
481.3
 31
0.0
  0
LINE
  8
L-ZISSEN
 10
723.75
 20
481.3
 30
0.0
 11
723.75
 21
475.0
 31
0.0
  0
LINE
  8
L-ZISSEN
 10
676.25
 20
481.3
 30
0.0
 11
683.0
 21
481.3
 31
0.0
  0
LINE
  8
L-ZISSEN
 10
676.25
 20
481.3
 30
0.0
 11
676.25
 21
475.0
 31
0.0
  0
LINE
  8
L-ZISSEN
 10
675.0
 20
475.0
 30
0.0
 11
683.0
 21
475.0
 31
0.0
  0
LINE
  8
L-ZISSEN
 10
675.0
 20
443.0
 30
0.0
 11
675.0
 21
475.0
 31
0.0
  0
LINE
  8
L-ZISSEN
 10
715.6
 20
170.0
 30
0.0
 11
715.6
 21
126.2
 31
0.0
  0
LINE
  8
L-ZISSEN
 10
684.4
 20
170.0
 30
0.0
 11
684.4
 21
126.2
 31
0.0
  0
LINE
  8
L-TYUSIN
 10
700.0
 20
318.8
 30
0.0
 11
700.0
 21
121.2
 31
0.0
  0
LINE
  8
L-ZISSEN
 10
684.4
 20
270.0
 30
0.0
 11
684.4
 21
313.8
 31
0.0
  0
LINE
  8
L-ZISSEN
 10
715.6
 20
270.0
 30
0.0
 11
715.6
 21
313.8
 31
0.0
  0
LINE
  8
L-ZISSEN
 10
684.4
 20
704.2
 30
0.0
 11
684.4
 21
656.2
 31
0.0
  0
LINE
  8
L-ZISSEN
 10
715.6
 20
704.2
 30
0.0
 11
715.6
 21
656.2
 31
0.0
  0
LINE
  8
L-ZISSEN
 10
717.0
 20
704.2
 30
0.0
 11
683.0
 21
704.2
 31
0.0
  0
LINE
  8
L-ZISSEN
 10
684.4
 20
126.2
 30
0.0
 11
715.6
 21
126.2
 31
0.0
  0
LINE
  8
L-ZISSEN
 10
715.6
 20
843.8
 30
0.0
 11
684.4
 21
843.8
 31
0.0
  0
LINE
  8
L-ZISSEN
 10
1533.8
 20
184.0
 30
0.0
 11
1533.8
 21
236.0
 31
0.0
  0
LINE
  8
L-ZISSEN
 10
715.6
 20
313.8
 30
0.0
 11
684.4
 21
313.8
 31
0.0
  0
LINE
  8
L-ZISSEN
 10
1346.2
 20
236.0
 30
0.0
 11
1346.2
 21
184.0
 31
0.0
  0
LINE
  8
L-ZISSEN
 10
684.4
 20
656.2
 30
0.0
 11
715.6
 21
656.2
 31
0.0
  0
CIRCLE
  8
L-ZISSEN
 10
700.0
 20
470.0
 30
0.0
 40
5.7225
  0
LINE
  8
L-TYUSIN
 10
1316.7
 20
340.0
 30
0.0
 11
1563.3
 21
340.0
 31
0.0
  0
LINE
  8
L-ZISSEN
 10
1485.8
 20
314.0
 30
0.0
 11
1485.8
 21
366.0
 31
0.0
  0
LINE
  8
L-ZISSEN
 10
1558.3
 20
366.0
 30
0.0
 11
1477.7
 21
366.0
 31
0.0
  0
LINE
  8
L-ZISSEN
 10
1394.2
 20
366.0
 30
0.0
 11
1394.2
 21
314.0
 31
0.0
  0
LINE
  8
L-ZISSEN
 10
1321.7
 20
314.0
 30
0.0
 11
1558.3
 21
314.0
 31
0.0
  0
LINE
  8
L-ZISSEN
 10
867.0
 20
795.8
 30
0.0
 11
833.0
 21
795.8
 31
0.0
  0
LINE
  8
L-TYUSIN
 10
850.0
 20
626.7
 30
0.0
 11
850.0
 21
873.3
 31
0.0
  0
LINE
  8
L-TYUSIN
 10
850.0
 20
438.0
 30
0.0
 11
850.0
 21
501.0
 31
0.0
  0
LINE
  8
L-TYUSIN
 10
840.0
 20
470.0
 30
0.0
 11
860.0
 21
470.0
 31
0.0
  0
LINE
  8
L-ZISSEN
 10
825.0
 20
444.0
 30
0.0
 11
875.0
 21
444.0
 31
0.0
  0
LINE
  8
L-ZISSEN
 10
1402.3
 20
366.0
 30
0.0
 11
1402.3
 21
322.0
 31
0.0
  0
LINE
  8
L-ZISSEN
 10
1477.7
 20
322.0
 30
0.0
 11
1477.7
 21
366.0
 31
0.0
  0
LINE
  8
L-ZISSEN
 10
1477.7
 20
354.0
 30
0.0
 11
1402.3
 21
354.0
 31
0.0
  0
LINE
  8
L-ZISSEN
 10
1402.3
 20
366.0
 30
0.0
 11
1321.7
 21
366.0
 31
0.0
  0
LINE
  8
L-ZISSEN
 10
1485.8
 20
322.0
 30
0.0
 11
1461.5
 21
322.0
 31
0.0
  0
LINE
  8
L-TYUSIN
 10
1440.0
 20
359.0
 30
0.0
 11
1440.0
 21
308.0
 31
0.0
  0
LINE
  8
L-ZISSEN
 10
833.0
 20
712.3
 30
0.0
 11
867.0
 21
712.3
 31
0.0
  0
LINE
  8
L-ZISSEN
 10
867.0
 20
787.7
 30
0.0
 11
833.0
 21
787.7
 31
0.0
  0
LINE
  8
L-ZISSEN
 10
867.0
 20
704.2
 30
0.0
 11
867.0
 21
712.3
 31
0.0
  0
LINE
  8
L-ZISSEN
 10
833.0
 20
704.2
 30
0.0
 11
833.0
 21
712.3
 31
0.0
  0
LINE
  8
L-ZISSEN
 10
834.0
 20
787.7
 30
0.0
 11
834.0
 21
785.5
 31
0.0
  0
LINE
  8
L-ZISSEN
 10
867.0
 20
787.7
 30
0.0
 11
867.0
 21
795.8
 31
0.0
  0
LINE
  8
L-ZISSEN
 10
833.0
 20
787.7
 30
0.0
 11
833.0
 21
795.8
 31
0.0
  0
LINE
  8
L-ZISSEN
 10
875.0
 20
771.5
 30
0.0
 11
866.0
 21
771.5
 31
0.0
  0
LINE
  8
L-ZISSEN
 10
875.0
 20
760.5
 30
0.0
 11
875.0
 21
771.5
 31
0.0
  0
LINE
  8
L-ZISSEN
 10
875.0
 20
760.5
 30
0.0
 11
866.0
 21
760.5
 31
0.0
  0
LINE
  8
L-ZISSEN
 10
866.0
 20
787.7
 30
0.0
 11
866.0
 21
771.5
 31
0.0
  0
LINE
  8
L-ZISSEN
 10
875.0
 20
739.5
 30
0.0
 11
866.0
 21
739.5
 31
0.0
  0
LINE
  8
L-ZISSEN
 10
875.0
 20
739.5
 30
0.0
 11
875.0
 21
728.5
 31
0.0
  0
LINE
  8
L-ZISSEN
 10
875.0
 20
728.5
 30
0.0
 11
866.0
 21
728.5
 31
0.0
  0
LINE
  8
L-ZISSEN
 10
825.0
 20
785.5
 30
0.0
 11
834.0
 21
785.5
 31
0.0
  0
LINE
  8
L-ZISSEN
 10
825.0
 20
774.5
 30
0.0
 11
825.0
 21
785.5
 31
0.0
  0
LINE
  8
L-ZISSEN
 10
825.0
 20
774.5
 30
0.0
 11
834.0
 21
774.5
 31
0.0
  0
LINE
  8
L-ZISSEN
 10
825.0
 20
725.5
 30
0.0
 11
834.0
 21
725.5
 31
0.0
  0
LINE
  8
L-ZISSEN
 10
825.0
 20
714.5
 30
0.0
 11
825.0
 21
725.5
 31
0.0
  0
LINE
  8
L-ZISSEN
 10
825.0
 20
714.5
 30
0.0
 11
834.0
 21
714.5
 31
0.0
  0
LINE
  8
L-ZISSEN
 10
865.6
 20
795.8
 30
0.0
 11
865.6
 21
868.3
 31
0.0
  0
LINE
  8
L-ZISSEN
 10
834.4
 20
795.8
 30
0.0
 11
834.4
 21
868.3
 31
0.0
  0
LINE
  8
L-ZISSEN
 10
1450.5
 20
313.0
 30
0.0
 11
1450.5
 21
345.0
 31
0.0
  0
LINE
  8
L-ZISSEN
 10
1461.5
 20
313.0
 30
0.0
 11
1461.5
 21
345.0
 31
0.0
  0
LINE
  8
L-ZISSEN
 10
1461.5
 20
345.0
 30
0.0
 11
1450.5
 21
345.0
 31
0.0
  0
LINE
  8
L-ZISSEN
 10
1450.5
 20
322.0
 30
0.0
 11
1429.5
 21
322.0
 31
0.0
  0
LINE
  8
L-ZISSEN
 10
1460.25
 20
351.3
 30
0.0
 11
1451.75
 21
351.3
 31
0.0
  0
LINE
  8
L-ZISSEN
 10
1451.75
 20
351.3
 30
0.0
 11
1451.75
 21
345.0
 31
0.0
  0
LINE
  8
L-ZISSEN
 10
1460.25
 20
351.3
 30
0.0
 11
1460.25
 21
345.0
 31
0.0
  0
LINE
  8
L-ZISSEN
 10
1419.75
 20
351.3
 30
0.0
 11
1419.75
 21
345.0
 31
0.0
  0
LINE
  8
L-ZISSEN
 10
1428.25
 20
351.3
 30
0.0
 11
1428.25
 21
345.0
 31
0.0
  0
LINE
  8
L-ZISSEN
 10
1419.75
 20
351.3
 30
0.0
 11
1428.25
 21
351.3
 31
0.0
  0
LINE
  8
L-ZISSEN
 10
1418.5
 20
345.0
 30
0.0
 11
1429.5
 21
345.0
 31
0.0
  0
LINE
  8
L-ZISSEN
 10
1418.5
 20
313.0
 30
0.0
 11
1418.5
 21
345.0
 31
0.0
  0
LINE
  8
L-ZISSEN
 10
1429.5
 20
313.0
 30
0.0
 11
1429.5
 21
345.0
 31
0.0
  0
LINE
  8
L-ZISSEN
 10
1418.5
 20
322.0
 30
0.0
 11
1394.2
 21
322.0
 31
0.0
  0
CIRCLE
  8
L-ZISSEN
 10
830.5
 20
720.0
 30
0.0
 40
4.25
  0
LINE
  8
L-ZISSEN
 10
834.0
 20
714.5
 30
0.0
 11
834.0
 21
712.3
 31
0.0
  0
LINE
  8
L-ZISSEN
 10
834.0
 20
774.5
 30
0.0
 11
834.0
 21
725.5
 31
0.0
  0
LINE
  8
L-ZISSEN
 10
866.0
 20
760.5
 30
0.0
 11
866.0
 21
739.5
 31
0.0
  0
LINE
  8
L-ZISSEN
 10
866.0
 20
728.5
 30
0.0
 11
866.0
 21
712.3
 31
0.0
  0
CIRCLE
  8
L-ZISSEN
 10
830.5
 20
780.0
 30
0.0
 40
4.25
  0
CIRCLE
  8
L-ZISSEN
 10
869.5
 20
766.0
 30
0.0
 40
4.25
  0
CIRCLE
  8
L-ZISSEN
 10
869.5
 20
734.0
 30
0.0
 40
4.25
  0
LINE
  8
L-ZISSEN
 10
1394.0
 20
314.0
 30
0.0
 11
1394.0
 21
313.0
 31
0.0
  0
LINE
  8
L-ZISSEN
 10
1486.0
 20
314.0
 30
0.0
 11
1486.0
 21
313.0
 31
0.0
  0
LINE
  8
L-ZISSEN
 10
834.4
 20
444.0
 30
0.0
 11
834.4
 21
496.0
 31
0.0
  0
LINE
  8
L-ZISSEN
 10
865.6
 20
444.0
 30
0.0
 11
865.6
 21
496.0
 31
0.0
  0
LINE
  8
L-ZISSEN
 10
867.0
 20
496.0
 30
0.0
 11
833.0
 21
496.0
 31
0.0
  0
LINE
  8
L-ZISSEN
 10
867.0
 20
496.0
 30
0.0
 11
867.0
 21
443.0
 31
0.0
  0
LINE
  8
L-ZISSEN
 10
833.0
 20
496.0
 30
0.0
 11
833.0
 21
443.0
 31
0.0
  0
LINE
  8
L-ZISSEN
 10
875.0
 20
443.0
 30
0.0
 11
875.0
 21
475.0
 31
0.0
  0
LINE
  8
L-ZISSEN
 10
875.0
 20
475.0
 30
0.0
 11
867.0
 21
475.0
 31
0.0
  0
LINE
  8
L-ZISSEN
 10
873.75
 20
481.3
 30
0.0
 11
867.0
 21
481.3
 31
0.0
  0
LINE
  8
L-ZISSEN
 10
873.75
 20
481.3
 30
0.0
 11
873.75
 21
475.0
 31
0.0
  0
LINE
  8
L-ZISSEN
 10
826.25
 20
481.3
 30
0.0
 11
833.0
 21
481.3
 31
0.0
  0
LINE
  8
L-ZISSEN
 10
826.25
 20
481.3
 30
0.0
 11
826.25
 21
475.0
 31
0.0
  0
LINE
  8
L-ZISSEN
 10
825.0
 20
475.0
 30
0.0
 11
833.0
 21
475.0
 31
0.0
  0
LINE
  8
L-ZISSEN
 10
825.0
 20
443.0
 30
0.0
 11
825.0
 21
475.0
 31
0.0
  0
LINE
  8
L-ZISSEN
 10
865.6
 20
170.0
 30
0.0
 11
865.6
 21
101.7
 31
0.0
  0
LINE
  8
L-ZISSEN
 10
834.4
 20
170.0
 30
0.0
 11
834.4
 21
101.7
 31
0.0
  0
LINE
  8
L-TYUSIN
 10
850.0
 20
343.3
 30
0.0
 11
850.0
 21
96.7
 31
0.0
  0
LINE
  8
L-ZISSEN
 10
834.4
 20
270.0
 30
0.0
 11
834.4
 21
338.3
 31
0.0
  0
LINE
  8
L-ZISSEN
 10
865.6
 20
270.0
 30
0.0
 11
865.6
 21
338.3
 31
0.0
  0
LINE
  8
L-ZISSEN
 10
834.4
 20
704.2
 30
0.0
 11
834.4
 21
631.7
 31
0.0
  0
LINE
  8
L-ZISSEN
 10
865.6
 20
704.2
 30
0.0
 11
865.6
 21
631.7
 31
0.0
  0
LINE
  8
L-ZISSEN
 10
867.0
 20
704.2
 30
0.0
 11
833.0
 21
704.2
 31
0.0
  0
LINE
  8
L-ZISSEN
 10
1533.3
 20
314.0
 30
0.0
 11
1533.3
 21
366.0
 31
0.0
  0
LINE
  8
L-ZISSEN
 10
865.6
 20
843.3
 30
0.0
 11
834.4
 21
843.3
 31
0.0
  0
LINE
  8
L-ZISSEN
 10
865.6
 20
656.7
 30
0.0
 11
834.4
 21
656.7
 31
0.0
  0
LINE
  8
L-ZISSEN
 10
1346.7
 20
314.0
 30
0.0
 11
1346.7
 21
366.0
 31
0.0
  0
LINE
  8
L-ZISSEN
 10
865.6
 20
126.7
 30
0.0
 11
834.4
 21
126.7
 31
0.0
  0
LINE
  8
L-ZISSEN
 10
865.6
 20
313.3
 30
0.0
 11
834.4
 21
313.3
 31
0.0
  0
LINE
  8
L-ZISSEN
 10
865.6
 20
868.3
 30
0.0
 11
834.4
 21
868.3
 31
0.0
  0
LINE
  8
L-ZISSEN
 10
1558.3
 20
314.0
 30
0.0
 11
1558.3
 21
366.0
 31
0.0
  0
LINE
  8
L-ZISSEN
 10
865.6
 20
101.7
 30
0.0
 11
834.4
 21
101.7
 31
0.0
  0
LINE
  8
L-ZISSEN
 10
865.6
 20
338.3
 30
0.0
 11
834.4
 21
338.3
 31
0.0
  0
LINE
  8
L-ZISSEN
 10
1321.7
 20
314.0
 30
0.0
 11
1321.7
 21
366.0
 31
0.0
  0
LINE
  8
L-ZISSEN
 10
865.6
 20
631.7
 30
0.0
 11
834.4
 21
631.7
 31
0.0
  0
CIRCLE
  8
L-ZISSEN
 10
850.0
 20
470.0
 30
0.0
 40
5.7225
  0
LINE
  8
L-TYUSIN
 10
1000.0
 20
438.0
 30
0.0
 11
1000.0
 21
458.0
 31
0.0
  0
LINE
  8
L-TYUSIN
 10
1000.0
 20
700.0
 30
0.0
 11
1000.0
 21
800.0
 31
0.0
  0
LINE
  8
L-TYUSIN
 10
969.0
 20
750.0
 30
0.0
 11
1031.0
 21
750.0
 31
0.0
  0
LINE
  8
L-ZISSEN
 10
974.0
 20
444.0
 30
0.0
 11
1026.0
 21
444.0
 31
0.0
  0
LINE
  8
L-ZISSEN
 10
974.0
 20
453.0
 30
0.0
 11
1026.0
 21
453.0
 31
0.0
  0
LINE
  8
L-ZISSEN
 10
974.0
 20
453.0
 30
0.0
 11
974.0
 21
443.0
 31
0.0
  0
LINE
  8
L-ZISSEN
 10
1026.0
 20
453.0
 30
0.0
 11
1026.0
 21
443.0
 31
0.0
  0
LINE
  8
L-ZISSEN
 10
1026.0
 20
705.0
 30
0.0
 11
1026.0
 21
795.0
 31
0.0
  0
LINE
  8
L-ZISSEN
 10
1026.0
 20
795.0
 30
0.0
 11
974.0
 21
795.0
 31
0.0
  0
LINE
  8
L-ZISSEN
 10
974.0
 20
795.0
 30
0.0
 11
974.0
 21
705.0
 31
0.0
  0
LINE
  8
L-ZISSEN
 10
974.0
 20
705.0
 30
0.0
 11
1026.0
 21
705.0
 31
0.0
  0
CIRCLE
  8
L-ZISSEN
 10
1019.5
 20
766.0
 30
0.0
 40
4.25
  0
CIRCLE
  8
L-ZISSEN
 10
1019.5
 20
734.0
 30
0.0
 40
4.25
  0
CIRCLE
  8
L-ZISSEN
 10
980.5
 20
720.0
 30
0.0
 40
4.25
  0
CIRCLE
  8
L-ZISSEN
 10
980.5
 20
780.0
 30
0.0
 40
4.25
  0
LINE
  8
L-ZISSEN
 10
976.25
 20
459.3
 30
0.0
 11
976.25
 21
453.0
 31
0.0
  0
LINE
  8
L-ZISSEN
 10
976.25
 20
459.3
 30
0.0
 11
984.75
 21
459.3
 31
0.0
  0
LINE
  8
L-ZISSEN
 10
984.75
 20
459.3
 30
0.0
 11
984.75
 21
453.0
 31
0.0
  0
LINE
  8
L-ZISSEN
 10
1023.75
 20
459.3
 30
0.0
 11
1015.25
 21
459.3
 31
0.0
  0
LINE
  8
L-ZISSEN
 10
1023.75
 20
459.3
 30
0.0
 11
1023.75
 21
453.0
 31
0.0
  0
LINE
  8
L-ZISSEN
 10
1015.25
 20
459.3
 30
0.0
 11
1015.25
 21
453.0
 31
0.0
  0
LINE
  8
L-ZISSEN
 10
1395.0
 20
444.0
 30
0.0
 11
1485.0
 21
444.0
 31
0.0
  0
LINE
  8
L-TYUSIN
 10
1440.0
 20
458.0
 30
0.0
 11
1440.0
 21
438.0
 31
0.0
  0
LINE
  8
L-ZISSEN
 10
1419.75
 20
459.3
 30
0.0
 11
1428.25
 21
459.3
 31
0.0
  0
LINE
  8
L-ZISSEN
 10
1428.25
 20
459.3
 30
0.0
 11
1428.25
 21
453.0
 31
0.0
  0
LINE
  8
L-ZISSEN
 10
1419.75
 20
459.3
 30
0.0
 11
1419.75
 21
453.0
 31
0.0
  0
LINE
  8
L-ZISSEN
 10
1460.25
 20
459.3
 30
0.0
 11
1460.25
 21
453.0
 31
0.0
  0
LINE
  8
L-ZISSEN
 10
1451.75
 20
459.3
 30
0.0
 11
1451.75
 21
453.0
 31
0.0
  0
LINE
  8
L-ZISSEN
 10
1460.25
 20
459.3
 30
0.0
 11
1451.75
 21
459.3
 31
0.0
  0
LINE
  8
L-ZISSEN
 10
1485.0
 20
453.0
 30
0.0
 11
1485.0
 21
443.0
 31
0.0
  0
LINE
  8
L-ZISSEN
 10
1395.0
 20
453.0
 30
0.0
 11
1395.0
 21
443.0
 31
0.0
  0
LINE
  8
L-ZISSEN
 10
1395.0
 20
453.0
 30
0.0
 11
1485.0
 21
453.0
 31
0.0
  0
LINE
  8
L-ZISSEN
 10
50.0
 20
1420.0
 30
0.0
 11
222.0
 21
1420.0
 31
0.0
  0
LINE
  8
L-ZISSEN
 10
222.0
 20
1420.0
 30
0.0
 11
222.0
 21
1320.0
 31
0.0
  0
LINE
  8
L-ZISSEN
 10
222.0
 20
1320.0
 30
0.0
 11
50.0
 21
1320.0
 31
0.0
  0
LINE
  8
L-ZISSEN
 10
50.0
 20
1320.0
 30
0.0
 11
50.0
 21
1420.0
 31
0.0
  0
LINE
  8
L-ZISSEN
 10
50.0
 20
1200.5
 30
0.0
 11
50.0
 21
1260.0
 31
0.0
  0
LINE
  8
L-ZISSEN
 10
50.0
 20
1260.0
 30
0.0
 11
222.0
 21
1260.0
 31
0.0
  0
LINE
  8
L-ZISSEN
 10
222.0
 20
1260.0
 30
0.0
 11
222.0
 21
1200.5
 31
0.0
  0
LINE
  8
L-ZISSEN
 10
50.0
 20
1200.5
 30
0.0
 11
222.0
 21
1200.5
 31
0.0
  0
LINE
  8
L-ZISSEN
 10
115.6
 20
170.0
 30
0.0
 11
115.6
 21
117.2
 31
0.0
  0
LINE
  8
L-ZISSEN
 10
84.4
 20
170.0
 30
0.0
 11
84.4
 21
117.2
 31
0.0
  0
LINE
  8
L-TYUSIN
 10
229.0
 20
750.0
 30
0.0
 11
271.0
 21
750.0
 31
0.0
  0
LINE
  8
L-TYUSIN
 10
379.0
 20
750.0
 30
0.0
 11
421.0
 21
750.0
 31
0.0
  0
LINE
  8
L-TYUSIN
 10
529.0
 20
750.0
 30
0.0
 11
571.0
 21
750.0
 31
0.0
  0
LINE
  8
L-TYUSIN
 10
829.0
 20
750.0
 30
0.0
 11
871.0
 21
750.0
 31
0.0
  0
LINE
  8
L-TYUSIN
 10
679.0
 20
750.0
 30
0.0
 11
721.0
 21
750.0
 31
0.0
  0
LINE
  8
L-ZISSEN
 10
750.0
 20
1200.5
 30
0.0
 11
750.0
 21
1260.0
 31
0.0
  0
LINE
  8
L-ZISSEN
 10
750.0
 20
1200.5
 30
0.0
 11
850.0
 21
1200.5
 31
0.0
  0
LINE
  8
L-ZISSEN
 10
750.0
 20
1260.0
 30
0.0
 11
850.0
 21
1260.0
 31
0.0
  0
LINE
  8
L-ZISSEN
 10
850.0
 20
1200.5
 30
0.0
 11
850.0
 21
1260.0
 31
0.0
  0
LINE
  8
L-TYUSIN
 10
278.0
 20
1375.0
 30
0.0
 11
278.0
 21
1365.0
 31
0.0
  0
LINE
  8
L-TYUSIN
 10
273.0
 20
1370.0
 30
0.0
 11
283.0
 21
1370.0
 31
0.0
  0
LINE
  8
L-TYUSIN
 10
273.0
 20
1230.25
 30
0.0
 11
283.0
 21
1230.25
 31
0.0
  0
LINE
  8
L-TYUSIN
 10
278.0
 20
1235.25
 30
0.0
 11
278.0
 21
1225.25
 31
0.0
  0
LINE
  8
L-TYUSIN
 10
334.0
 20
1235.25
 30
0.0
 11
334.0
 21
1225.25
 31
0.0
  0
LINE
  8
L-TYUSIN
 10
329.0
 20
1230.25
 30
0.0
 11
339.0
 21
1230.25
 31
0.0
  0
LINE
  8
L-TYUSIN
 10
329.0
 20
1370.0
 30
0.0
 11
339.0
 21
1370.0
 31
0.0
  0
LINE
  8
L-TYUSIN
 10
334.0
 20
1375.0
 30
0.0
 11
334.0
 21
1365.0
 31
0.0
  0
LINE
  8
L-TYUSIN
 10
446.0
 20
1375.0
 30
0.0
 11
446.0
 21
1365.0
 31
0.0
  0
LINE
  8
L-TYUSIN
 10
441.0
 20
1370.0
 30
0.0
 11
451.0
 21
1370.0
 31
0.0
  0
LINE
  8
L-TYUSIN
 10
441.0
 20
1230.25
 30
0.0
 11
451.0
 21
1230.25
 31
0.0
  0
LINE
  8
L-TYUSIN
 10
446.0
 20
1235.25
 30
0.0
 11
446.0
 21
1225.25
 31
0.0
  0
LINE
  8
L-TYUSIN
 10
390.0
 20
1235.25
 30
0.0
 11
390.0
 21
1225.25
 31
0.0
  0
LINE
  8
L-TYUSIN
 10
385.0
 20
1230.25
 30
0.0
 11
395.0
 21
1230.25
 31
0.0
  0
LINE
  8
L-TYUSIN
 10
385.0
 20
1370.0
 30
0.0
 11
395.0
 21
1370.0
 31
0.0
  0
LINE
  8
L-TYUSIN
 10
390.0
 20
1375.0
 30
0.0
 11
390.0
 21
1365.0
 31
0.0
  0
LINE
  8
L-TYUSIN
 10
614.0
 20
1375.0
 30
0.0
 11
614.0
 21
1365.0
 31
0.0
  0
LINE
  8
L-TYUSIN
 10
609.0
 20
1370.0
 30
0.0
 11
619.0
 21
1370.0
 31
0.0
  0
LINE
  8
L-TYUSIN
 10
609.0
 20
1230.25
 30
0.0
 11
619.0
 21
1230.25
 31
0.0
  0
LINE
  8
L-TYUSIN
 10
614.0
 20
1235.25
 30
0.0
 11
614.0
 21
1225.25
 31
0.0
  0
LINE
  8
L-TYUSIN
 10
670.0
 20
1235.25
 30
0.0
 11
670.0
 21
1225.25
 31
0.0
  0
LINE
  8
L-TYUSIN
 10
665.0
 20
1230.25
 30
0.0
 11
675.0
 21
1230.25
 31
0.0
  0
LINE
  8
L-TYUSIN
 10
665.0
 20
1370.0
 30
0.0
 11
675.0
 21
1370.0
 31
0.0
  0
LINE
  8
L-TYUSIN
 10
670.0
 20
1375.0
 30
0.0
 11
670.0
 21
1365.0
 31
0.0
  0
LINE
  8
L-TYUSIN
 10
558.0
 20
1375.0
 30
0.0
 11
558.0
 21
1365.0
 31
0.0
  0
LINE
  8
L-TYUSIN
 10
553.0
 20
1370.0
 30
0.0
 11
563.0
 21
1370.0
 31
0.0
  0
LINE
  8
L-TYUSIN
 10
553.0
 20
1230.25
 30
0.0
 11
563.0
 21
1230.25
 31
0.0
  0
LINE
  8
L-TYUSIN
 10
558.0
 20
1235.25
 30
0.0
 11
558.0
 21
1225.25
 31
0.0
  0
LINE
  8
L-TYUSIN
 10
502.0
 20
1235.25
 30
0.0
 11
502.0
 21
1225.25
 31
0.0
  0
LINE
  8
L-TYUSIN
 10
497.0
 20
1230.25
 30
0.0
 11
507.0
 21
1230.25
 31
0.0
  0
LINE
  8
L-TYUSIN
 10
497.0
 20
1370.0
 30
0.0
 11
507.0
 21
1370.0
 31
0.0
  0
LINE
  8
L-TYUSIN
 10
502.0
 20
1375.0
 30
0.0
 11
502.0
 21
1365.0
 31
0.0
  0
LINE
  8
L-TYUSIN
 10
800.0
 20
1259.0
 30
0.0
 11
800.0
 21
1229.0
 31
0.0
  0
LINE
  8
L-TYUSIN
 10
785.0
 20
1244.0
 30
0.0
 11
815.0
 21
1244.0
 31
0.0
  0
CIRCLE
  8
L-ZISSEN
 10
800.0
 20
1244.0
 30
0.0
 40
9.3155
  0
CIRCLE
  8
L-ZISSEN
 10
832.0
 20
1236.0
 30
0.0
 40
9.3155
  0
LINE
  8
L-TYUSIN
 10
817.0
 20
1236.0
 30
0.0
 11
847.0
 21
1236.0
 31
0.0
  0
LINE
  8
L-TYUSIN
 10
832.0
 20
1251.0
 30
0.0
 11
832.0
 21
1221.0
 31
0.0
  0
CIRCLE
  8
L-ZISSEN
 10
768.0
 20
1236.0
 30
0.0
 40
9.3155
  0
LINE
  8
L-TYUSIN
 10
768.0
 20
1251.0
 30
0.0
 11
768.0
 21
1221.0
 31
0.0
  0
LINE
  8
L-TYUSIN
 10
783.0
 20
1236.0
 30
0.0
 11
753.0
 21
1236.0
 31
0.0
  0
LINE
  8
L-TYUSIN
 10
755.0
 20
1219.0
 30
0.0
 11
745.0
 21
1219.0
 31
0.0
  0
SOLID
  8
L-ZISSEN
 10
801.38675
 20
1261.479201
 30
0.0
 11
800.83205
 21
1261.849001
 31
0.0
 12
800.0
 22
1260.0
 32
0.0
 13
800.0
 23
1260.0
 33
0.0
  0
LINE
  8
L-ZISSEN
 10
801.1094
 20
1261.664101
 30
0.0
 11
810.0
 21
1275.0
 31
0.0
  0
LINE
  8
L-ZISSEN
 10
810.0
 20
1275.0
 30
0.0
 11
812.0
 21
1275.0
 31
0.0
  0
TEXT
  8
L-ZISSEN
 10
814.0
 20
1272.75
 30
0.0
 40
4.5
  1
P.P
  0
LINE
  8
L-TYUSIN
 10
104.0
 20
1219.0
 30
0.0
 11
84.0
 21
1219.0
 31
0.0
  0
LINE
  8
L-TYUSIN
 10
94.0
 20
1229.0
 30
0.0
 11
94.0
 21
1209.0
 31
0.0
  0
CIRCLE
  8
L-ZISSEN
 10
94.0
 20
1219.0
 30
0.0
 40
5.7225
  0
CIRCLE
  8
L-ZISSEN
 10
122.0
 20
1219.0
 30
0.0
 40
5.7225
  0
LINE
  8
L-TYUSIN
 10
112.0
 20
1219.0
 30
0.0
 11
132.0
 21
1219.0
 31
0.0
  0
LINE
  8
L-TYUSIN
 10
122.0
 20
1229.0
 30
0.0
 11
122.0
 21
1209.0
 31
0.0
  0
LINE
  8
L-TYUSIN
 10
178.0
 20
1229.0
 30
0.0
 11
178.0
 21
1209.0
 31
0.0
  0
LINE
  8
L-TYUSIN
 10
168.0
 20
1219.0
 30
0.0
 11
188.0
 21
1219.0
 31
0.0
  0
CIRCLE
  8
L-ZISSEN
 10
178.0
 20
1219.0
 30
0.0
 40
5.7225
  0
CIRCLE
  8
L-ZISSEN
 10
150.0
 20
1219.0
 30
0.0
 40
5.7225
  0
LINE
  8
L-TYUSIN
 10
150.0
 20
1229.0
 30
0.0
 11
150.0
 21
1209.0
 31
0.0
  0
LINE
  8
L-TYUSIN
 10
160.0
 20
1219.0
 30
0.0
 11
140.0
 21
1219.0
 31
0.0
  0
LINE
  8
L-TYUSIN
 10
72.0
 20
1396.0
 30
0.0
 11
72.0
 21
1376.0
 31
0.0
  0
LINE
  8
L-TYUSIN
 10
62.0
 20
1386.0
 30
0.0
 11
82.0
 21
1386.0
 31
0.0
  0
CIRCLE
  8
L-ZISSEN
 10
72.0
 20
1386.0
 30
0.0
 40
5.0
  0
CIRCLE
  8
L-ZISSEN
 10
72.0
 20
1354.0
 30
0.0
 40
5.0
  0
LINE
  8
L-TYUSIN
 10
62.0
 20
1354.0
 30
0.0
 11
82.0
 21
1354.0
 31
0.0
  0
LINE
  8
L-TYUSIN
 10
72.0
 20
1344.0
 30
0.0
 11
72.0
 21
1364.0
 31
0.0
  0
LINE
  8
L-TYUSIN
 10
200.0
 20
1344.0
 30
0.0
 11
200.0
 21
1364.0
 31
0.0
  0
LINE
  8
L-TYUSIN
 10
210.0
 20
1354.0
 30
0.0
 11
190.0
 21
1354.0
 31
0.0
  0
CIRCLE
  8
L-ZISSEN
 10
200.0
 20
1354.0
 30
0.0
 40
5.0
  0
CIRCLE
  8
L-ZISSEN
 10
200.0
 20
1386.0
 30
0.0
 40
5.0
  0
LINE
  8
L-TYUSIN
 10
210.0
 20
1386.0
 30
0.0
 11
190.0
 21
1386.0
 31
0.0
  0
LINE
  8
L-TYUSIN
 10
200.0
 20
1396.0
 30
0.0
 11
200.0
 21
1376.0
 31
0.0
  0
LINE
  8
L-TYUSIN
 10
72.0
 20
1195.5
 30
0.0
 11
72.0
 21
1265.0
 31
0.0
  0
LINE
  8
L-TYUSIN
 10
200.0
 20
1195.5
 30
0.0
 11
200.0
 21
1265.0
 31
0.0
  0
SOLID
  8
L-ZISSEN
 10
107.250719
 20
1368.115938
 30
0.0
 11
107.902268
 21
1367.974769
 31
0.0
 12
108.0
 22
1370.0
 32
0.0
 13
108.0
 23
1370.0
 33
0.0
  0
LINE
  8
L-ZISSEN
 10
107.576493
 20
1368.045354
 30
0.0
 11
95.0
 21
1310.0
 31
0.0
  0
LINE
  8
L-ZISSEN
 10
95.0
 20
1310.0
 30
0.0
 11
93.0
 21
1310.0
 31
0.0
  0
TEXT
  8
L-ZISSEN
 10
82.0
 20
1307.75
 30
0.0
 40
4.5
  1
P.P
  0
SOLID
  8
L-ZISSEN
 10
163.220927
 20
1368.128061
 30
0.0
 11
163.870155
 21
1367.976574
 31
0.0
 12
164.0
 22
1370.0
 32
0.0
 13
164.0
 23
1370.0
 33
0.0
  0
LINE
  8
L-ZISSEN
 10
163.545541
 20
1368.052318
 30
0.0
 11
150.0
 21
1310.0
 31
0.0
  0
LINE
  8
L-ZISSEN
 10
150.0
 20
1310.0
 30
0.0
 11
148.0
 21
1310.0
 31
0.0
  0
TEXT
  8
L-ZISSEN
 10
137.0
 20
1307.75
 30
0.0
 40
4.5
  1
P.P
  0
SOLID
  8
L-ZISSEN
 10
107.352941
 20
1261.921569
 30
0.0
 11
106.764706
 21
1261.607843
 31
0.0
 12
108.0
 22
1260.0
 32
0.0
 13
108.0
 23
1260.0
 33
0.0
  0
LINE
  8
L-ZISSEN
 10
107.058824
 20
1261.764706
 30
0.0
 11
100.0
 21
1275.0
 31
0.0
  0
LINE
  8
L-ZISSEN
 10
100.0
 20
1275.0
 30
0.0
 11
98.0
 21
1275.0
 31
0.0
  0
TEXT
  8
L-ZISSEN
 10
87.0
 20
1272.75
 30
0.0
 40
4.5
  1
P.P
  0
SOLID
  8
L-ZISSEN
 10
163.256839
 20
1261.886484
 30
0.0
 11
162.685178
 21
1261.543487
 31
0.0
 12
164.0
 22
1260.0
 32
0.0
 13
164.0
 23
1260.0
 33
0.0
  0
LINE
  8
L-ZISSEN
 10
162.971008
 20
1261.714986
 30
0.0
 11
155.0
 21
1275.0
 31
0.0
  0
LINE
  8
L-ZISSEN
 10
155.0
 20
1275.0
 30
0.0
 11
153.0
 21
1275.0
 31
0.0
  0
TEXT
  8
L-ZISSEN
 10
142.0
 20
1272.75
 30
0.0
 40
4.5
  1
P.P
  0
LINE
  8
L-TYUSIN
 10
25.0
 20
950.0
 30
0.0
 11
1225.0
 21
950.0
 31
0.0
  0
LINE
  8
L-TYUSIN
 10
175.0
 20
20.0
 30
0.0
 11
175.0
 21
965.0
 31
0.0
  0
LINE
  8
L-TYUSIN
 10
1225.0
 20
550.0
 30
0.0
 11
1645.0
 21
550.0
 31
0.0
  0
SOLID
  8
L-ZISSEN
 10
98.51637
 20
441.617989
 30
0.0
 11
99.044786
 21
441.211515
 31
0.0
 12
100.0
 22
443.0
 32
0.0
 13
100.0
 23
443.0
 33
0.0
  0
LINE
  8
L-ZISSEN
 10
98.780578
 20
441.414752
 30
0.0
 11
90.0
 21
430.0
 31
0.0
  0
LINE
  8
L-ZISSEN
 10
90.0
 20
430.0
 30
0.0
 11
88.0
 21
430.0
 31
0.0
  0
TEXT
  8
L-ZISSEN
 10
77.0
 20
427.75
 30
0.0
 40
4.5
  1
P.P
  0
LINE
  8
L-TYUSIN
 10
1225.0
 20
420.0
 30
0.0
 11
1645.0
 21
420.0
 31
0.0
  0
LINE
  8
L-TYUSIN
 10
325.0
 20
20.0
 30
0.0
 11
325.0
 21
965.0
 31
0.0
  0
LINE
  8
L-TYUSIN
 10
475.0
 20
20.0
 30
0.0
 11
475.0
 21
980.0
 31
0.0
  0
LINE
  8
L-TYUSIN
 10
625.0
 20
20.0
 30
0.0
 11
625.0
 21
965.0
 31
0.0
  0
LINE
  8
L-TYUSIN
 10
925.0
 20
20.0
 30
0.0
 11
925.0
 21
1465.0
 31
0.0
  0
LINE
  8
L-TYUSIN
 10
775.0
 20
20.0
 30
0.0
 11
775.0
 21
965.0
 31
0.0
  0
LINE
  8
L-TYUSIN
 10
1225.0
 20
20.0
 30
0.0
 11
1225.0
 21
980.0
 31
0.0
  0
LINE
  8
L-TYUSIN
 10
25.0
 20
965.0
 30
0.0
 11
1225.0
 21
965.0
 31
0.0
  0
LINE
  8
L-TYUSIN
 10
25.0
 20
980.0
 30
0.0
 11
1225.0
 21
980.0
 31
0.0
  0
TEXT
  8
L-ZISSEN
 10
137.0
 20
1037.75
 30
0.0
 40
4.5
  1
P.P
  0
LINE
  8
L-ZISSEN
 10
150.0
 20
1040.0
 30
0.0
 11
148.0
 21
1040.0
 31
0.0
  0
LINE
  8
L-ZISSEN
 10
163.545541
 20
1098.052318
 30
0.0
 11
150.0
 21
1040.0
 31
0.0
  0
SOLID
  8
L-ZISSEN
 10
163.220927
 20
1098.128061
 30
0.0
 11
163.870155
 21
1097.976574
 31
0.0
 12
164.0
 22
1100.0
 32
0.0
 13
164.0
 23
1100.0
 33
0.0
  0
TEXT
  8
L-ZISSEN
 10
82.0
 20
1037.75
 30
0.0
 40
4.5
  1
P.P
  0
LINE
  8
L-ZISSEN
 10
95.0
 20
1040.0
 30
0.0
 11
93.0
 21
1040.0
 31
0.0
  0
LINE
  8
L-ZISSEN
 10
107.576493
 20
1098.045354
 30
0.0
 11
95.0
 21
1040.0
 31
0.0
  0
SOLID
  8
L-ZISSEN
 10
107.250719
 20
1098.115938
 30
0.0
 11
107.902268
 21
1097.974769
 31
0.0
 12
108.0
 22
1100.0
 32
0.0
 13
108.0
 23
1100.0
 33
0.0
  0
LINE
  8
L-TYUSIN
 10
200.0
 20
1126.0
 30
0.0
 11
200.0
 21
1106.0
 31
0.0
  0
LINE
  8
L-TYUSIN
 10
210.0
 20
1116.0
 30
0.0
 11
190.0
 21
1116.0
 31
0.0
  0
CIRCLE
  8
L-ZISSEN
 10
200.0
 20
1116.0
 30
0.0
 40
5.0
  0
CIRCLE
  8
L-ZISSEN
 10
200.0
 20
1084.0
 30
0.0
 40
5.0
  0
LINE
  8
L-TYUSIN
 10
210.0
 20
1084.0
 30
0.0
 11
190.0
 21
1084.0
 31
0.0
  0
LINE
  8
L-TYUSIN
 10
200.0
 20
1074.0
 30
0.0
 11
200.0
 21
1094.0
 31
0.0
  0
LINE
  8
L-TYUSIN
 10
72.0
 20
1074.0
 30
0.0
 11
72.0
 21
1094.0
 31
0.0
  0
LINE
  8
L-TYUSIN
 10
62.0
 20
1084.0
 30
0.0
 11
82.0
 21
1084.0
 31
0.0
  0
CIRCLE
  8
L-ZISSEN
 10
72.0
 20
1084.0
 30
0.0
 40
5.0
  0
CIRCLE
  8
L-ZISSEN
 10
72.0
 20
1116.0
 30
0.0
 40
5.0
  0
LINE
  8
L-TYUSIN
 10
62.0
 20
1116.0
 30
0.0
 11
82.0
 21
1116.0
 31
0.0
  0
LINE
  8
L-TYUSIN
 10
72.0
 20
1126.0
 30
0.0
 11
72.0
 21
1106.0
 31
0.0
  0
LINE
  8
L-TYUSIN
 10
502.0
 20
1105.0
 30
0.0
 11
502.0
 21
1095.0
 31
0.0
  0
LINE
  8
L-TYUSIN
 10
497.0
 20
1100.0
 30
0.0
 11
507.0
 21
1100.0
 31
0.0
  0
LINE
  8
L-TYUSIN
 10
553.0
 20
1100.0
 30
0.0
 11
563.0
 21
1100.0
 31
0.0
  0
LINE
  8
L-TYUSIN
 10
558.0
 20
1105.0
 30
0.0
 11
558.0
 21
1095.0
 31
0.0
  0
LINE
  8
L-TYUSIN
 10
670.0
 20
1105.0
 30
0.0
 11
670.0
 21
1095.0
 31
0.0
  0
LINE
  8
L-TYUSIN
 10
665.0
 20
1100.0
 30
0.0
 11
675.0
 21
1100.0
 31
0.0
  0
LINE
  8
L-TYUSIN
 10
609.0
 20
1100.0
 30
0.0
 11
619.0
 21
1100.0
 31
0.0
  0
LINE
  8
L-TYUSIN
 10
614.0
 20
1105.0
 30
0.0
 11
614.0
 21
1095.0
 31
0.0
  0
LINE
  8
L-TYUSIN
 10
390.0
 20
1105.0
 30
0.0
 11
390.0
 21
1095.0
 31
0.0
  0
LINE
  8
L-TYUSIN
 10
385.0
 20
1100.0
 30
0.0
 11
395.0
 21
1100.0
 31
0.0
  0
LINE
  8
L-TYUSIN
 10
441.0
 20
1100.0
 30
0.0
 11
451.0
 21
1100.0
 31
0.0
  0
LINE
  8
L-TYUSIN
 10
446.0
 20
1105.0
 30
0.0
 11
446.0
 21
1095.0
 31
0.0
  0
LINE
  8
L-TYUSIN
 10
334.0
 20
1105.0
 30
0.0
 11
334.0
 21
1095.0
 31
0.0
  0
LINE
  8
L-TYUSIN
 10
329.0
 20
1100.0
 30
0.0
 11
339.0
 21
1100.0
 31
0.0
  0
LINE
  8
L-TYUSIN
 10
273.0
 20
1100.0
 30
0.0
 11
283.0
 21
1100.0
 31
0.0
  0
LINE
  8
L-TYUSIN
 10
278.0
 20
1105.0
 30
0.0
 11
278.0
 21
1095.0
 31
0.0
  0
LINE
  8
L-ZISSEN
 10
50.0
 20
1050.0
 30
0.0
 11
50.0
 21
1150.0
 31
0.0
  0
LINE
  8
L-ZISSEN
 10
222.0
 20
1050.0
 30
0.0
 11
50.0
 21
1050.0
 31
0.0
  0
LINE
  8
L-ZISSEN
 10
222.0
 20
1150.0
 30
0.0
 11
222.0
 21
1050.0
 31
0.0
  0
LINE
  8
L-ZISSEN
 10
50.0
 20
1150.0
 30
0.0
 11
222.0
 21
1150.0
 31
0.0
  0
LINE
  8
L-TYUSIN
 10
94.0
 20
1155.0
 30
0.0
 11
94.0
 21
1145.0
 31
0.0
  0
LINE
  8
L-TYUSIN
 10
122.0
 20
1155.0
 30
0.0
 11
122.0
 21
1145.0
 31
0.0
  0
LINE
  8
L-TYUSIN
 10
150.0
 20
1155.0
 30
0.0
 11
150.0
 21
1145.0
 31
0.0
  0
LINE
  8
L-TYUSIN
 10
178.0
 20
1155.0
 30
0.0
 11
178.0
 21
1145.0
 31
0.0
  0
LINE
  8
L-TYUSIN
 10
178.0
 20
1325.0
 30
0.0
 11
178.0
 21
1315.0
 31
0.0
  0
LINE
  8
L-TYUSIN
 10
150.0
 20
1325.0
 30
0.0
 11
150.0
 21
1315.0
 31
0.0
  0
LINE
  8
L-TYUSIN
 10
122.0
 20
1325.0
 30
0.0
 11
122.0
 21
1315.0
 31
0.0
  0
LINE
  8
L-TYUSIN
 10
94.0
 20
1325.0
 30
0.0
 11
94.0
 21
1315.0
 31
0.0
  0
SOLID
  8
L-ZISSEN
 10
1440.777332
 20
831.127337
 30
0.0
 11
1441.342664
 21
831.48067
 31
0.0
 12
1440.0
 22
833.0
 32
0.0
 13
1440.0
 23
833.0
 33
0.0
  0
LINE
  8
L-ZISSEN
 10
1441.059998
 20
831.304003
 30
0.0
 11
1445.0
 21
825.0
 31
0.0
  0
LINE
  8
L-ZISSEN
 10
1445.0
 20
825.0
 30
0.0
 11
1447.0
 21
825.0
 31
0.0
  0
TEXT
  8
L-ZISSEN
 10
1449.0
 20
822.75
 30
0.0
 40
4.5
  1
P.P
  0
SOLID
  8
L-ZISSEN
 10
1440.777332
 20
701.127337
 30
0.0
 11
1441.342664
 21
701.48067
 31
0.0
 12
1440.0
 22
703.0
 32
0.0
 13
1440.0
 23
703.0
 33
0.0
  0
LINE
  8
L-ZISSEN
 10
1441.059998
 20
701.304003
 30
0.0
 11
1445.0
 21
695.0
 31
0.0
  0
LINE
  8
L-ZISSEN
 10
1445.0
 20
695.0
 30
0.0
 11
1447.0
 21
695.0
 31
0.0
  0
TEXT
  8
L-ZISSEN
 10
1449.0
 20
692.75
 30
0.0
 40
4.5
  1
P.P
  0
SOLID
  8
L-ZISSEN
 10
1440.777332
 20
571.127337
 30
0.0
 11
1441.342664
 21
571.48067
 31
0.0
 12
1440.0
 22
573.0
 32
0.0
 13
1440.0
 23
573.0
 33
0.0
  0
LINE
  8
L-ZISSEN
 10
1441.059998
 20
571.304003
 30
0.0
 11
1445.0
 21
565.0
 31
0.0
  0
LINE
  8
L-ZISSEN
 10
1445.0
 20
565.0
 30
0.0
 11
1447.0
 21
565.0
 31
0.0
  0
TEXT
  8
L-ZISSEN
 10
1449.0
 20
562.75
 30
0.0
 40
4.5
  1
P.P
  0
LINE
  8
L-TYUSIN
 10
1770.0
 20
940.0
 30
0.0
 11
1225.0
 21
940.0
 31
0.0
  0
LINE
  8
L-TYUSIN
 10
1645.0
 20
30.0
 30
0.0
 11
1645.0
 21
940.0
 31
0.0
  0
LINE
  8
L-TYUSIN
 10
1645.0
 20
810.0
 30
0.0
 11
1225.0
 21
810.0
 31
0.0
  0
LINE
  8
L-TYUSIN
 10
1645.0
 20
680.0
 30
0.0
 11
1225.0
 21
680.0
 31
0.0
  0
LINE
  8
L-TYUSIN
 10
1645.0
 20
290.0
 30
0.0
 11
1225.0
 21
290.0
 31
0.0
  0
LINE
  8
L-TYUSIN
 10
1645.0
 20
160.0
 30
0.0
 11
1225.0
 21
160.0
 31
0.0
  0
SOLID
  8
L-ZISSEN
 10
1440.777332
 20
311.127337
 30
0.0
 11
1441.342664
 21
311.48067
 31
0.0
 12
1440.0
 22
313.0
 32
0.0
 13
1440.0
 23
313.0
 33
0.0
  0
LINE
  8
L-ZISSEN
 10
1441.059998
 20
311.304003
 30
0.0
 11
1445.0
 21
305.0
 31
0.0
  0
LINE
  8
L-ZISSEN
 10
1445.0
 20
305.0
 30
0.0
 11
1447.0
 21
305.0
 31
0.0
  0
TEXT
  8
L-ZISSEN
 10
1449.0
 20
302.75
 30
0.0
 40
4.5
  1
P.P
  0
SOLID
  8
L-ZISSEN
 10
1440.777332
 20
181.127337
 30
0.0
 11
1441.342664
 21
181.48067
 31
0.0
 12
1440.0
 22
183.0
 32
0.0
 13
1440.0
 23
183.0
 33
0.0
  0
LINE
  8
L-ZISSEN
 10
1441.059998
 20
181.304003
 30
0.0
 11
1445.0
 21
175.0
 31
0.0
  0
LINE
  8
L-ZISSEN
 10
1445.0
 20
175.0
 30
0.0
 11
1447.0
 21
175.0
 31
0.0
  0
TEXT
  8
L-ZISSEN
 10
1449.0
 20
172.75
 30
0.0
 40
4.5
  1
P.P
  0
SOLID
  8
L-ZISSEN
 10
1440.777332
 20
51.127337
 30
0.0
 11
1441.342664
 21
51.48067
 31
0.0
 12
1440.0
 22
53.0
 32
0.0
 13
1440.0
 23
53.0
 33
0.0
  0
LINE
  8
L-ZISSEN
 10
1441.059998
 20
51.304003
 30
0.0
 11
1445.0
 21
45.0
 31
0.0
  0
LINE
  8
L-ZISSEN
 10
1445.0
 20
45.0
 30
0.0
 11
1447.0
 21
45.0
 31
0.0
  0
TEXT
  8
L-ZISSEN
 10
1449.0
 20
42.75
 30
0.0
 40
4.5
  1
P.P
  0
SOLID
  8
L-ZISSEN
 10
98.01925
 20
749.566711
 30
0.0
 11
98.266844
 21
748.947726
 31
0.0
 12
100.0
 22
750.0
 32
0.0
 13
100.0
 23
750.0
 33
0.0
  0
LINE
  8
L-ZISSEN
 10
98.143047
 20
749.257219
 30
0.0
 11
75.0
 21
740.0
 31
0.0
  0
LINE
  8
L-ZISSEN
 10
75.0
 20
740.0
 30
0.0
 11
73.0
 21
740.0
 31
0.0
  0
TEXT
  8
L-ZISSEN
 10
62.0
 20
737.75
 30
0.0
 40
4.5
  1
P.P
  0
TEXT
  8
L-ZISSEN
 10
212.0
 20
737.75
 30
0.0
 40
4.5
  1
P.P
  0
LINE
  8
L-ZISSEN
 10
225.0
 20
740.0
 30
0.0
 11
223.0
 21
740.0
 31
0.0
  0
LINE
  8
L-ZISSEN
 10
248.143047
 20
749.257219
 30
0.0
 11
225.0
 21
740.0
 31
0.0
  0
SOLID
  8
L-ZISSEN
 10
248.01925
 20
749.566711
 30
0.0
 11
248.266844
 21
748.947726
 31
0.0
 12
250.0
 22
750.0
 32
0.0
 13
250.0
 23
750.0
 33
0.0
  0
SOLID
  8
L-ZISSEN
 10
97.995727
 20
837.893405
 30
0.0
 11
98.203502
 21
837.259943
 31
0.0
 12
100.0
 22
838.2
 32
0.0
 13
100.0
 23
838.2
 33
0.0
  0
LINE
  8
L-ZISSEN
 10
98.099615
 20
837.576674
 30
0.0
 11
75.0
 21
830.0
 31
0.0
  0
LINE
  8
L-ZISSEN
 10
75.0
 20
830.0
 30
0.0
 11
73.0
 21
830.0
 31
0.0
  0
TEXT
  8
L-ZISSEN
 10
62.0
 20
827.75
 30
0.0
 40
4.5
  1
P.P
  0
SOLID
  8
L-ZISSEN
 10
97.978569
 20
871.042116
 30
0.0
 11
98.139041
 21
870.395051
 31
0.0
 12
100.0
 22
871.2
 32
0.0
 13
100.0
 23
871.2
 33
0.0
  0
LINE
  8
L-ZISSEN
 10
98.058805
 20
870.718584
 30
0.0
 11
75.0
 21
865.0
 31
0.0
  0
TEXT
  8
L-ZISSEN
 10
64.0
 20
862.75
 30
0.0
 40
4.5
  1
P.P
  0
SOLID
  8
L-ZISSEN
 10
247.978569
 20
871.042116
 30
0.0
 11
248.139041
 21
870.395051
 31
0.0
 12
250.0
 22
871.2
 32
0.0
 13
250.0
 23
871.2
 33
0.0
  0
LINE
  8
L-ZISSEN
 10
248.058805
 20
870.718584
 30
0.0
 11
225.0
 21
865.0
 31
0.0
  0
TEXT
  8
L-ZISSEN
 10
214.0
 20
862.75
 30
0.0
 40
4.5
  1
P.P
  0
SOLID
  8
L-ZISSEN
 10
247.995727
 20
837.893405
 30
0.0
 11
248.203502
 21
837.259943
 31
0.0
 12
250.0
 22
838.2
 32
0.0
 13
250.0
 23
838.2
 33
0.0
  0
LINE
  8
L-ZISSEN
 10
248.099615
 20
837.576674
 30
0.0
 11
225.0
 21
830.0
 31
0.0
  0
LINE
  8
L-ZISSEN
 10
225.0
 20
830.0
 30
0.0
 11
223.0
 21
830.0
 31
0.0
  0
TEXT
  8
L-ZISSEN
 10
212.0
 20
827.75
 30
0.0
 40
4.5
  1
P.P
  0
SOLID
  8
L-ZISSEN
 10
247.982628
 20
661.596719
 30
0.0
 11
248.157605
 21
660.953424
 31
0.0
 12
250.0
 22
661.8
 32
0.0
 13
250.0
 23
661.8
 33
0.0
  0
LINE
  8
L-ZISSEN
 10
248.070117
 20
661.275072
 30
0.0
 11
225.0
 21
655.0
 31
0.0
  0
LINE
  8
L-ZISSEN
 10
225.0
 20
655.0
 30
0.0
 11
225.0
 21
655.0
 31
0.0
  0
LINE
  8
L-ZISSEN
 10
225.0
 20
655.0
 30
0.0
 11
223.0
 21
655.0
 31
0.0
  0
TEXT
  8
L-ZISSEN
 10
212.0
 20
652.75
 30
0.0
 40
4.5
  1
P.P
  0
SOLID
  8
L-ZISSEN
 10
248.002786
 20
628.450362
 30
0.0
 11
248.22414
 21
627.821516
 31
0.0
 12
250.0
 22
628.8
 32
0.0
 13
250.0
 23
628.8
 33
0.0
  0
LINE
  8
L-ZISSEN
 10
248.113463
 20
628.135939
 30
0.0
 11
225.0
 21
620.0
 31
0.0
  0
LINE
  8
L-ZISSEN
 10
225.0
 20
620.0
 30
0.0
 11
223.0
 21
620.0
 31
0.0
  0
TEXT
  8
L-ZISSEN
 10
212.0
 20
617.75
 30
0.0
 40
4.5
  1
P.P
  0
SOLID
  8
L-ZISSEN
 10
398.01925
 20
749.566711
 30
0.0
 11
398.266844
 21
748.947726
 31
0.0
 12
400.0
 22
750.0
 32
0.0
 13
400.0
 23
750.0
 33
0.0
  0
LINE
  8
L-ZISSEN
 10
398.143047
 20
749.257219
 30
0.0
 11
375.0
 21
740.0
 31
0.0
  0
LINE
  8
L-ZISSEN
 10
375.0
 20
740.0
 30
0.0
 11
373.0
 21
740.0
 31
0.0
  0
TEXT
  8
L-ZISSEN
 10
362.0
 20
737.75
 30
0.0
 40
4.5
  1
P.P
  0
SOLID
  8
L-ZISSEN
 10
398.00928
 20
638.915103
 30
0.0
 11
398.241718
 21
638.290269
 31
0.0
 12
400.0
 22
639.3
 32
0.0
 13
400.0
 23
639.3
 33
0.0
  0
LINE
  8
L-ZISSEN
 10
398.125499
 20
638.602686
 30
0.0
 11
375.0
 21
630.0
 31
0.0
  0
LINE
  8
L-ZISSEN
 10
375.0
 20
630.0
 30
0.0
 11
373.0
 21
630.0
 31
0.0
  0
TEXT
  8
L-ZISSEN
 10
362.0
 20
627.75
 30
0.0
 40
4.5
  1
P.P
  0
SOLID
  8
L-ZISSEN
 10
397.979178
 20
606.134507
 30
0.0
 11
398.142085
 21
605.488051
 31
0.0
 12
400.0
 22
606.3
 32
0.0
 13
400.0
 23
606.3
 33
0.0
  0
LINE
  8
L-ZISSEN
 10
398.060631
 20
605.811279
 30
0.0
 11
375.0
 21
600.0
 31
0.0
  0
TEXT
  8
L-ZISSEN
 10
364.0
 20
597.75
 30
0.0
 40
4.5
  1
P.P
  0
SOLID
  8
L-ZISSEN
 10
398.001553
 20
893.357481
 30
0.0
 11
398.220664
 21
892.72785
 31
0.0
 12
400.0
 22
893.7
 32
0.0
 13
400.0
 23
893.7
 33
0.0
  0
LINE
  8
L-ZISSEN
 10
398.111108
 20
893.042666
 30
0.0
 11
375.0
 21
885.0
 31
0.0
  0
LINE
  8
L-ZISSEN
 10
375.0
 20
885.0
 30
0.0
 11
373.0
 21
885.0
 31
0.0
  0
TEXT
  8
L-ZISSEN
 10
362.0
 20
882.75
 30
0.0
 40
4.5
  1
P.P
  0
SOLID
  8
L-ZISSEN
 10
398.030171
 20
860.219494
 30
0.0
 11
398.292488
 21
859.606604
 31
0.0
 12
400.0
 22
860.7
 32
0.0
 13
400.0
 23
860.7
 33
0.0
  0
LINE
  8
L-ZISSEN
 10
398.16133
 20
859.913049
 30
0.0
 11
375.0
 21
850.0
 31
0.0
  0
LINE
  8
L-ZISSEN
 10
375.0
 20
850.0
 30
0.0
 11
373.0
 21
850.0
 31
0.0
  0
TEXT
  8
L-ZISSEN
 10
362.0
 20
847.75
 30
0.0
 40
4.5
  1
P.P
  0
TEXT
  8
L-ZISSEN
 10
512.0
 20
737.75
 30
0.0
 40
4.5
  1
P.P
  0
LINE
  8
L-ZISSEN
 10
525.0
 20
740.0
 30
0.0
 11
523.0
 21
740.0
 31
0.0
  0
LINE
  8
L-ZISSEN
 10
548.143047
 20
749.257219
 30
0.0
 11
525.0
 21
740.0
 31
0.0
  0
SOLID
  8
L-ZISSEN
 10
548.01925
 20
749.566711
 30
0.0
 11
548.266844
 21
748.947726
 31
0.0
 12
550.0
 22
750.0
 32
0.0
 13
550.0
 23
750.0
 33
0.0
  0
SOLID
  8
L-ZISSEN
 10
698.01925
 20
749.566711
 30
0.0
 11
698.266844
 21
748.947726
 31
0.0
 12
700.0
 22
750.0
 32
0.0
 13
700.0
 23
750.0
 33
0.0
  0
LINE
  8
L-ZISSEN
 10
698.143047
 20
749.257219
 30
0.0
 11
675.0
 21
740.0
 31
0.0
  0
LINE
  8
L-ZISSEN
 10
675.0
 20
740.0
 30
0.0
 11
673.0
 21
740.0
 31
0.0
  0
TEXT
  8
L-ZISSEN
 10
662.0
 20
737.75
 30
0.0
 40
4.5
  1
P.P
  0
TEXT
  8
L-ZISSEN
 10
812.0
 20
737.75
 30
0.0
 40
4.5
  1
P.P
  0
LINE
  8
L-ZISSEN
 10
825.0
 20
740.0
 30
0.0
 11
823.0
 21
740.0
 31
0.0
  0
LINE
  8
L-ZISSEN
 10
848.143047
 20
749.257219
 30
0.0
 11
825.0
 21
740.0
 31
0.0
  0
SOLID
  8
L-ZISSEN
 10
848.01925
 20
749.566711
 30
0.0
 11
848.266844
 21
748.947726
 31
0.0
 12
850.0
 22
750.0
 32
0.0
 13
850.0
 23
750.0
 33
0.0
  0
SOLID
  8
L-ZISSEN
 10
1440.777332
 20
441.127337
 30
0.0
 11
1441.342664
 21
441.48067
 31
0.0
 12
1440.0
 22
443.0
 32
0.0
 13
1440.0
 23
443.0
 33
0.0
  0
LINE
  8
L-ZISSEN
 10
1441.059998
 20
441.304003
 30
0.0
 11
1445.0
 21
435.0
 31
0.0
  0
LINE
  8
L-ZISSEN
 10
1445.0
 20
435.0
 30
0.0
 11
1447.0
 21
435.0
 31
0.0
  0
TEXT
  8
L-ZISSEN
 10
1449.0
 20
432.75
 30
0.0
 40
4.5
  1
P.P
  0
SOLID
  8
L-ZISSEN
 10
248.51637
 20
441.617989
 30
0.0
 11
249.044786
 21
441.211515
 31
0.0
 12
250.0
 22
443.0
 32
0.0
 13
250.0
 23
443.0
 33
0.0
  0
LINE
  8
L-ZISSEN
 10
248.780578
 20
441.414752
 30
0.0
 11
240.0
 21
430.0
 31
0.0
  0
LINE
  8
L-ZISSEN
 10
240.0
 20
430.0
 30
0.0
 11
238.0
 21
430.0
 31
0.0
  0
TEXT
  8
L-ZISSEN
 10
227.0
 20
427.75
 30
0.0
 40
4.5
  1
P.P
  0
TEXT
  8
L-ZISSEN
 10
377.0
 20
427.75
 30
0.0
 40
4.5
  1
P.P
  0
LINE
  8
L-ZISSEN
 10
390.0
 20
430.0
 30
0.0
 11
388.0
 21
430.0
 31
0.0
  0
LINE
  8
L-ZISSEN
 10
398.780578
 20
441.414752
 30
0.0
 11
390.0
 21
430.0
 31
0.0
  0
SOLID
  8
L-ZISSEN
 10
398.51637
 20
441.617989
 30
0.0
 11
399.044786
 21
441.211515
 31
0.0
 12
400.0
 22
443.0
 32
0.0
 13
400.0
 23
443.0
 33
0.0
  0
SOLID
  8
L-ZISSEN
 10
548.51637
 20
441.617989
 30
0.0
 11
549.044786
 21
441.211515
 31
0.0
 12
550.0
 22
443.0
 32
0.0
 13
550.0
 23
443.0
 33
0.0
  0
LINE
  8
L-ZISSEN
 10
548.780578
 20
441.414752
 30
0.0
 11
540.0
 21
430.0
 31
0.0
  0
LINE
  8
L-ZISSEN
 10
540.0
 20
430.0
 30
0.0
 11
538.0
 21
430.0
 31
0.0
  0
TEXT
  8
L-ZISSEN
 10
527.0
 20
427.75
 30
0.0
 40
4.5
  1
P.P
  0
TEXT
  8
L-ZISSEN
 10
677.0
 20
427.75
 30
0.0
 40
4.5
  1
P.P
  0
LINE
  8
L-ZISSEN
 10
690.0
 20
430.0
 30
0.0
 11
688.0
 21
430.0
 31
0.0
  0
LINE
  8
L-ZISSEN
 10
698.780578
 20
441.414752
 30
0.0
 11
690.0
 21
430.0
 31
0.0
  0
SOLID
  8
L-ZISSEN
 10
698.51637
 20
441.617989
 30
0.0
 11
699.044786
 21
441.211515
 31
0.0
 12
700.0
 22
443.0
 32
0.0
 13
700.0
 23
443.0
 33
0.0
  0
SOLID
  8
L-ZISSEN
 10
848.51637
 20
441.617989
 30
0.0
 11
849.044786
 21
441.211515
 31
0.0
 12
850.0
 22
443.0
 32
0.0
 13
850.0
 23
443.0
 33
0.0
  0
LINE
  8
L-ZISSEN
 10
848.780578
 20
441.414752
 30
0.0
 11
840.0
 21
430.0
 31
0.0
  0
LINE
  8
L-ZISSEN
 10
840.0
 20
430.0
 30
0.0
 11
838.0
 21
430.0
 31
0.0
  0
TEXT
  8
L-ZISSEN
 10
827.0
 20
427.75
 30
0.0
 40
4.5
  1
P.P
  0
SOLID
  8
L-ZISSEN
 10
998.51637
 20
441.617989
 30
0.0
 11
999.044786
 21
441.211515
 31
0.0
 12
1000.0
 22
443.0
 32
0.0
 13
1000.0
 23
443.0
 33
0.0
  0
LINE
  8
L-ZISSEN
 10
998.780578
 20
441.414752
 30
0.0
 11
990.0
 21
430.0
 31
0.0
  0
LINE
  8
L-ZISSEN
 10
990.0
 20
430.0
 30
0.0
 11
988.0
 21
430.0
 31
0.0
  0
TEXT
  8
L-ZISSEN
 10
977.0
 20
427.75
 30
0.0
 40
4.5
  1
P.P
  0
SOLID
  8
L-ZISSEN
 10
98.350084
 20
218.821489
 30
0.0
 11
98.821489
 21
218.350084
 31
0.0
 12
100.0
 22
220.0
 32
0.0
 13
100.0
 23
220.0
 33
0.0
  0
LINE
  8
L-ZISSEN
 10
98.585786
 20
218.585786
 30
0.0
 11
85.0
 21
205.0
 31
0.0
  0
LINE
  8
L-ZISSEN
 10
85.0
 20
205.0
 30
0.0
 11
83.0
 21
205.0
 31
0.0
  0
TEXT
  8
L-ZISSEN
 10
72.0
 20
202.75
 30
0.0
 40
4.5
  1
P.P
  0
TEXT
  8
L-ZISSEN
 10
222.0
 20
202.75
 30
0.0
 40
4.5
  1
P.P
  0
LINE
  8
L-ZISSEN
 10
235.0
 20
205.0
 30
0.0
 11
233.0
 21
205.0
 31
0.0
  0
LINE
  8
L-ZISSEN
 10
248.585786
 20
218.585786
 30
0.0
 11
235.0
 21
205.0
 31
0.0
  0
SOLID
  8
L-ZISSEN
 10
248.350084
 20
218.821489
 30
0.0
 11
248.821489
 21
218.350084
 31
0.0
 12
250.0
 22
220.0
 32
0.0
 13
250.0
 23
220.0
 33
0.0
  0
TEXT
  8
L-ZISSEN
 10
372.0
 20
202.75
 30
0.0
 40
4.5
  1
P.P
  0
LINE
  8
L-ZISSEN
 10
385.0
 20
205.0
 30
0.0
 11
383.0
 21
205.0
 31
0.0
  0
LINE
  8
L-ZISSEN
 10
398.585786
 20
218.585786
 30
0.0
 11
385.0
 21
205.0
 31
0.0
  0
SOLID
  8
L-ZISSEN
 10
398.350084
 20
218.821489
 30
0.0
 11
398.821489
 21
218.350084
 31
0.0
 12
400.0
 22
220.0
 32
0.0
 13
400.0
 23
220.0
 33
0.0
  0
SOLID
  8
L-ZISSEN
 10
548.350084
 20
218.821489
 30
0.0
 11
548.821489
 21
218.350084
 31
0.0
 12
550.0
 22
220.0
 32
0.0
 13
550.0
 23
220.0
 33
0.0
  0
LINE
  8
L-ZISSEN
 10
548.585786
 20
218.585786
 30
0.0
 11
535.0
 21
205.0
 31
0.0
  0
LINE
  8
L-ZISSEN
 10
535.0
 20
205.0
 30
0.0
 11
533.0
 21
205.0
 31
0.0
  0
TEXT
  8
L-ZISSEN
 10
522.0
 20
202.75
 30
0.0
 40
4.5
  1
P.P
  0
TEXT
  8
L-ZISSEN
 10
672.0
 20
202.75
 30
0.0
 40
4.5
  1
P.P
  0
LINE
  8
L-ZISSEN
 10
685.0
 20
205.0
 30
0.0
 11
683.0
 21
205.0
 31
0.0
  0
LINE
  8
L-ZISSEN
 10
698.585786
 20
218.585786
 30
0.0
 11
685.0
 21
205.0
 31
0.0
  0
SOLID
  8
L-ZISSEN
 10
698.350084
 20
218.821489
 30
0.0
 11
698.821489
 21
218.350084
 31
0.0
 12
700.0
 22
220.0
 32
0.0
 13
700.0
 23
220.0
 33
0.0
  0
SOLID
  8
L-ZISSEN
 10
848.350084
 20
218.821489
 30
0.0
 11
848.821489
 21
218.350084
 31
0.0
 12
850.0
 22
220.0
 32
0.0
 13
850.0
 23
220.0
 33
0.0
  0
LINE
  8
L-ZISSEN
 10
848.585786
 20
218.585786
 30
0.0
 11
835.0
 21
205.0
 31
0.0
  0
LINE
  8
L-ZISSEN
 10
835.0
 20
205.0
 30
0.0
 11
833.0
 21
205.0
 31
0.0
  0
TEXT
  8
L-ZISSEN
 10
822.0
 20
202.75
 30
0.0
 40
4.5
  1
P.P
  0
LINE
  8
L-TYUSIN
 10
829.75
 20
220.0
 30
0.0
 11
871.75
 21
220.0
 31
0.0
  0
SOLID
  8
L-ZISSEN
 10
98.079272
 20
140.05045
 30
0.0
 11
98.39376
 21
139.462622
 31
0.0
 12
100.0
 22
140.7
 32
0.0
 13
100.0
 23
140.7
 33
0.0
  0
LINE
  8
L-ZISSEN
 10
98.236516
 20
139.756536
 30
0.0
 11
80.0
 21
130.0
 31
0.0
  0
LINE
  8
L-ZISSEN
 10
80.0
 20
130.0
 30
0.0
 11
78.0
 21
130.0
 31
0.0
  0
TEXT
  8
L-ZISSEN
 10
67.0
 20
127.75
 30
0.0
 40
4.5
  1
P.P
  0
SOLID
  8
L-ZISSEN
 10
98.164531
 20
97.938509
 30
0.0
 11
98.543148
 21
97.389789
 31
0.0
 12
100.0
 22
98.8
 32
0.0
 13
100.0
 23
98.8
 33
0.0
  0
LINE
  8
L-ZISSEN
 10
98.35384
 20
97.664149
 30
0.0
 11
80.0
 21
85.0
 31
0.0
  0
LINE
  8
L-ZISSEN
 10
80.0
 20
85.0
 30
0.0
 11
78.0
 21
85.0
 31
0.0
  0
TEXT
  8
L-ZISSEN
 10
67.0
 20
82.75
 30
0.0
 40
4.5
  1
P.P
  0
SOLID
  8
L-ZISSEN
 10
248.164531
 20
97.938509
 30
0.0
 11
248.543148
 21
97.389789
 31
0.0
 12
250.0
 22
98.8
 32
0.0
 13
250.0
 23
98.8
 33
0.0
  0
LINE
  8
L-ZISSEN
 10
248.35384
 20
97.664149
 30
0.0
 11
230.0
 21
85.0
 31
0.0
  0
LINE
  8
L-ZISSEN
 10
230.0
 20
85.0
 30
0.0
 11
228.0
 21
85.0
 31
0.0
  0
TEXT
  8
L-ZISSEN
 10
217.0
 20
82.75
 30
0.0
 40
4.5
  1
P.P
  0
TEXT
  8
L-ZISSEN
 10
217.0
 20
127.75
 30
0.0
 40
4.5
  1
P.P
  0
LINE
  8
L-ZISSEN
 10
230.0
 20
130.0
 30
0.0
 11
228.0
 21
130.0
 31
0.0
  0
LINE
  8
L-ZISSEN
 10
248.236516
 20
139.756536
 30
0.0
 11
230.0
 21
130.0
 31
0.0
  0
SOLID
  8
L-ZISSEN
 10
248.079272
 20
140.05045
 30
0.0
 11
248.39376
 21
139.462622
 31
0.0
 12
250.0
 22
140.7
 32
0.0
 13
250.0
 23
140.7
 33
0.0
  0
SOLID
  8
L-ZISSEN
 10
398.079272
 20
115.05045
 30
0.0
 11
398.39376
 21
114.462622
 31
0.0
 12
400.0
 22
115.7
 32
0.0
 13
400.0
 23
115.7
 33
0.0
  0
LINE
  8
L-ZISSEN
 10
398.236516
 20
114.756536
 30
0.0
 11
380.0
 21
105.0
 31
0.0
  0
LINE
  8
L-ZISSEN
 10
380.0
 20
105.0
 30
0.0
 11
378.0
 21
105.0
 31
0.0
  0
TEXT
  8
L-ZISSEN
 10
367.0
 20
102.75
 30
0.0
 40
4.5
  1
P.P
  0
SOLID
  8
L-ZISSEN
 10
398.239084
 20
75.29487
 30
0.0
 11
398.660257
 21
74.778093
 31
0.0
 12
400.0
 22
76.3
 32
0.0
 13
400.0
 23
76.3
 33
0.0
  0
LINE
  8
L-ZISSEN
 10
398.449671
 20
75.036482
 30
0.0
 11
380.0
 21
60.0
 31
0.0
  0
LINE
  8
L-ZISSEN
 10
380.0
 20
60.0
 30
0.0
 11
378.0
 21
60.0
 31
0.0
  0
TEXT
  8
L-ZISSEN
 10
367.0
 20
57.75
 30
0.0
 40
4.5
  1
P.P
  0
SOLID
  8
L-ZISSEN
 10
398.660257
 20
365.221907
 30
0.0
 11
398.239084
 21
364.70513
 31
0.0
 12
400.0
 22
363.7
 32
0.0
 13
400.0
 23
363.7
 33
0.0
  0
LINE
  8
L-ZISSEN
 10
398.449671
 20
364.963518
 30
0.0
 11
380.0
 21
380.0
 31
0.0
  0
LINE
  8
L-ZISSEN
 10
380.0
 20
380.0
 30
0.0
 11
378.0
 21
380.0
 31
0.0
  0
TEXT
  8
L-ZISSEN
 10
367.0
 20
377.75
 30
0.0
 40
4.5
  1
P.P
  0
SOLID
  8
L-ZISSEN
 10
248.543148
 20
342.610211
 30
0.0
 11
248.164531
 21
342.061491
 31
0.0
 12
250.0
 22
341.2
 32
0.0
 13
250.0
 23
341.2
 33
0.0
  0
LINE
  8
L-ZISSEN
 10
248.35384
 20
342.335851
 30
0.0
 11
230.0
 21
355.0
 31
0.0
  0
LINE
  8
L-ZISSEN
 10
230.0
 20
355.0
 30
0.0
 11
228.0
 21
355.0
 31
0.0
  0
TEXT
  8
L-ZISSEN
 10
217.0
 20
352.75
 30
0.0
 40
4.5
  1
P.P
  0
TEXT
  8
L-ZISSEN
 10
35.0
 20
970.0
 30
0.0
 40
4.5
  1
SOLENOID VALVE
  0
TEXT
  8
L-ZISSEN
 10
35.0
 20
955.0
 30
0.0
 40
4.5
  1
SINGLE SOLENOID
  0
TEXT
  8
L-ZISSEN
 10
185.0
 20
955.0
 30
0.0
 40
4.5
  1
DOUBLE SOLENOID
  0
TEXT
  8
L-ZISSEN
 10
335.0
 20
955.0
 30
0.0
 40
4.5
  1
3 POSITION
  0
TEXT
  8
L-ZISSEN
 10
485.0
 20
970.0
 30
0.0
 40
4.5
  1
MASTER VALVE
  0
TEXT
  8
L-ZISSEN
 10
485.0
 20
955.0
 30
0.0
 40
4.5
  1
SINGLE PILOT
  0
TEXT
  8
L-ZISSEN
 10
635.0
 20
955.0
 30
0.0
 40
4.5
  1
DOUBLE PILOT
  0
TEXT
  8
L-ZISSEN
 10
785.0
 20
955.0
 30
0.0
 40
4.5
  1
3 POSITION
  0
TEXT
  8
L-ZISSEN
 10
935.0
 20
955.0
 30
0.0
 40
4.5
  1
PLUG PLATE
  0
TEXT
  8
L-ZISSEN
 10
1235.0
 20
930.0
 30
0.0
 40
4.5
  1
SOLENOID VALVE
  0
TEXT
  8
L-ZISSEN
 10
1235.0
 20
800.0
 30
0.0
 40
4.5
  1
SOLENOID VALVE
  0
TEXT
  8
L-ZISSEN
 10
1310.0
 20
800.0
 30
0.0
 40
4.5
  1
DOUBLE SOLENOID
  0
TEXT
  8
L-ZISSEN
 10
1310.0
 20
930.0
 30
0.0
 40
4.5
  1
SINGLE SOLENOID
  0
TEXT
  8
L-ZISSEN
 10
1310.0
 20
670.0
 30
0.0
 40
4.5
  1
3 POSITION
  0
TEXT
  8
L-ZISSEN
 10
1235.0
 20
670.0
 30
0.0
 40
4.5
  1
SOLENOID VALVE
  0
TEXT
  8
L-ZISSEN
 10
1235.0
 20
150.0
 30
0.0
 40
4.5
  1
MASTER VALVE
  0
TEXT
  8
L-ZISSEN
 10
1305.0
 20
150.0
 30
0.0
 40
4.5
  1
SINGLE PILOT
  0
TEXT
  8
L-ZISSEN
 10
1235.0
 20
280.0
 30
0.0
 40
4.5
  1
MASTER VALVE
  0
TEXT
  8
L-ZISSEN
 10
1305.0
 20
280.0
 30
0.0
 40
4.5
  1
DOUBLE PILOT
  0
TEXT
  8
L-ZISSEN
 10
1235.0
 20
410.0
 30
0.0
 40
4.5
  1
MASTER VALVE
  0
TEXT
  8
L-ZISSEN
 10
1305.0
 20
410.0
 30
0.0
 40
4.5
  1
3 POSITION
  0
TEXT
  8
L-ZISSEN
 10
1235.0
 20
540.0
 30
0.0
 40
4.5
  1
PLUG PLATE
  0
TEXT
  8
L-ZISSEN
 10
50.0
 20
1455.0
 30
0.0
 40
4.5
  1
MANIFOLD BLOCK
  0
TEXT
  8
L-ZISSEN
 10
50.0
 20
1435.0
 30
0.0
 40
4.5
  1
MODEL No. :
  0
TEXT
  8
L-ZISSEN
 10
95.0
 20
1435.0
 30
0.0
 40
4.5
  1
MVF-204
  0
LINE
  8
L-ZISSEN
 10
128.0
 20
1435.0
 30
0.0
 11
132.242641
 21
1439.242641
 31
0.0
  0
LINE
  8
L-ZISSEN
 10
132.242641
 20
1435.0
 30
0.0
 11
128.0
 21
1439.242641
 31
0.0
  0
TEXT
  8
L-ZISSEN
 10
135.0
 20
1435.0
 30
0.0
 40
4.5
  1
2
  0
TEXT
  8
L-ZISSEN
 10
255.0
 20
1435.0
 30
0.0
 40
4.5
  1
MVF-204
  0
TEXT
  8
L-ZISSEN
 10
295.0
 20
1435.0
 30
0.0
 40
4.5
  1
3
  0
LINE
  8
L-ZISSEN
 10
292.242641
 20
1435.0
 30
0.0
 11
288.0
 21
1439.242641
 31
0.0
  0
LINE
  8
L-ZISSEN
 10
288.0
 20
1435.0
 30
0.0
 11
292.242641
 21
1439.242641
 31
0.0
  0
LINE
  8
L-ZISSEN
 10
344.0
 20
1435.0
 30
0.0
 11
348.242641
 21
1439.242641
 31
0.0
  0
LINE
  8
L-ZISSEN
 10
348.242641
 20
1435.0
 30
0.0
 11
344.0
 21
1439.242641
 31
0.0
  0
TEXT
  8
L-ZISSEN
 10
351.0
 20
1435.0
 30
0.0
 40
4.5
  1
4
  0
TEXT
  8
L-ZISSEN
 10
311.0
 20
1435.0
 30
0.0
 40
4.5
  1
MVF-204
  0
TEXT
  8
L-ZISSEN
 10
423.0
 20
1435.0
 30
0.0
 40
4.5
  1
MVF-204
  0
TEXT
  8
L-ZISSEN
 10
463.0
 20
1435.0
 30
0.0
 40
4.5
  1
6
  0
LINE
  8
L-ZISSEN
 10
460.242641
 20
1435.0
 30
0.0
 11
456.0
 21
1439.242641
 31
0.0
  0
LINE
  8
L-ZISSEN
 10
456.0
 20
1435.0
 30
0.0
 11
460.242641
 21
1439.242641
 31
0.0
  0
LINE
  8
L-ZISSEN
 10
400.0
 20
1435.0
 30
0.0
 11
404.242641
 21
1439.242641
 31
0.0
  0
LINE
  8
L-ZISSEN
 10
404.242641
 20
1435.0
 30
0.0
 11
400.0
 21
1439.242641
 31
0.0
  0
TEXT
  8
L-ZISSEN
 10
407.0
 20
1435.0
 30
0.0
 40
4.5
  1
5
  0
TEXT
  8
L-ZISSEN
 10
367.0
 20
1435.0
 30
0.0
 40
4.5
  1
MVF-204
  0
TEXT
  8
L-ZISSEN
 10
591.0
 20
1435.0
 30
0.0
 40
4.5
  1
MVF-204
  0
TEXT
  8
L-ZISSEN
 10
631.0
 20
1435.0
 30
0.0
 40
4.5
  1
9
  0
LINE
  8
L-ZISSEN
 10
628.242641
 20
1435.0
 30
0.0
 11
624.0
 21
1439.242641
 31
0.0
  0
LINE
  8
L-ZISSEN
 10
624.0
 20
1435.0
 30
0.0
 11
628.242641
 21
1439.242641
 31
0.0
  0
LINE
  8
L-ZISSEN
 10
680.0
 20
1435.0
 30
0.0
 11
684.242641
 21
1439.242641
 31
0.0
  0
LINE
  8
L-ZISSEN
 10
684.242641
 20
1435.0
 30
0.0
 11
680.0
 21
1439.242641
 31
0.0
  0
TEXT
  8
L-ZISSEN
 10
687.0
 20
1435.0
 30
0.0
 40
4.5
  1
10
  0
TEXT
  8
L-ZISSEN
 10
647.0
 20
1435.0
 30
0.0
 40
4.5
  1
MVF-204
  0
TEXT
  8
L-ZISSEN
 10
535.0
 20
1435.0
 30
0.0
 40
4.5
  1
MVF-204
  0
TEXT
  8
L-ZISSEN
 10
575.0
 20
1435.0
 30
0.0
 40
4.5
  1
8
  0
LINE
  8
L-ZISSEN
 10
572.242641
 20
1435.0
 30
0.0
 11
568.0
 21
1439.242641
 31
0.0
  0
LINE
  8
L-ZISSEN
 10
568.0
 20
1435.0
 30
0.0
 11
572.242641
 21
1439.242641
 31
0.0
  0
LINE
  8
L-ZISSEN
 10
512.0
 20
1435.0
 30
0.0
 11
516.242641
 21
1439.242641
 31
0.0
  0
LINE
  8
L-ZISSEN
 10
516.242641
 20
1435.0
 30
0.0
 11
512.0
 21
1439.242641
 31
0.0
  0
TEXT
  8
L-ZISSEN
 10
519.0
 20
1435.0
 30
0.0
 40
4.5
  1
7
  0
TEXT
  8
L-ZISSEN
 10
479.0
 20
1435.0
 30
0.0
 40
4.5
  1
MVF-204
  0
TEXT
  8
L-ZISSEN
 10
1060.0
 20
1435.0
 30
0.0
 40
4.5
  1
2
  0
LINE
  8
L-ZISSEN
 10
1057.242641
 20
1435.0
 30
0.0
 11
1053.0
 21
1439.242641
 31
0.0
  0
LINE
  8
L-ZISSEN
 10
1053.0
 20
1435.0
 30
0.0
 11
1057.242641
 21
1439.242641
 31
0.0
  0
TEXT
  8
L-ZISSEN
 10
1015.0
 20
1435.0
 30
0.0
 40
4.5
  1
MVFB-204
  0
TEXT
  8
L-ZISSEN
 10
970.0
 20
1435.0
 30
0.0
 40
4.5
  1
MODEL No. :
  0
TEXT
  8
L-ZISSEN
 10
970.0
 20
1455.0
 30
0.0
 40
4.5
  1
MANIFOLD BLOCK
  0
LINE
  8
L-TYUSIN
 10
983.0
 20
1382.5
 30
0.0
 11
1003.0
 21
1382.5
 31
0.0
  0
LINE
  8
L-TYUSIN
 10
993.0
 20
1392.5
 30
0.0
 11
993.0
 21
1372.5
 31
0.0
  0
LINE
  8
L-ZISSEN
 10
970.0
 20
1310.0
 30
0.0
 11
970.0
 21
1420.0
 31
0.0
  0
LINE
  8
L-TYUSIN
 10
993.0
 20
1206.0
 30
0.0
 11
993.0
 21
1265.0
 31
0.0
  0
CIRCLE
  8
L-ZISSEN
 10
1022.0
 20
1111.0
 30
0.0
 40
5.7225
  0
LINE
  8
L-TYUSIN
 10
1022.0
 20
1121.0
 30
0.0
 11
1022.0
 21
1101.0
 31
0.0
  0
LINE
  8
L-TYUSIN
 10
1032.0
 20
1111.0
 30
0.0
 11
1012.0
 21
1111.0
 31
0.0
  0
LINE
  8
L-ZISSEN
 10
970.0
 20
1260.0
 30
0.0
 11
1135.0
 21
1260.0
 31
0.0
  0
LINE
  8
L-ZISSEN
 10
970.0
 20
1211.0
 30
0.0
 11
970.0
 21
1260.0
 31
0.0
  0
LINE
  8
L-ZISSEN
 10
1135.0
 20
1310.0
 30
0.0
 11
1135.0
 21
1420.0
 31
0.0
  0
LINE
  8
L-ZISSEN
 10
970.0
 20
1420.0
 30
0.0
 11
1135.0
 21
1420.0
 31
0.0
  0
LINE
  8
L-ZISSEN
 10
970.0
 20
1310.0
 30
0.0
 11
1135.0
 21
1310.0
 31
0.0
  0
CIRCLE
  8
L-ZISSEN
 10
993.0
 20
1382.5
 30
0.0
 40
6.5
  0
CIRCLE
  8
L-ZISSEN
 10
993.0
 20
1347.5
 30
0.0
 40
6.5
  0
LINE
  8
L-TYUSIN
 10
983.0
 20
1347.5
 30
0.0
 11
1003.0
 21
1347.5
 31
0.0
  0
LINE
  8
L-TYUSIN
 10
993.0
 20
1337.5
 30
0.0
 11
993.0
 21
1357.5
 31
0.0
  0
LINE
  8
L-TYUSIN
 10
1112.0
 20
1337.5
 30
0.0
 11
1112.0
 21
1357.5
 31
0.0
  0
LINE
  8
L-TYUSIN
 10
1122.0
 20
1347.5
 30
0.0
 11
1102.0
 21
1347.5
 31
0.0
  0
CIRCLE
  8
L-ZISSEN
 10
1112.0
 20
1347.5
 30
0.0
 40
6.5
  0
CIRCLE
  8
L-ZISSEN
 10
1112.0
 20
1382.5
 30
0.0
 40
6.5
  0
LINE
  8
L-TYUSIN
 10
1112.0
 20
1392.5
 30
0.0
 11
1112.0
 21
1372.5
 31
0.0
  0
LINE
  8
L-TYUSIN
 10
1122.0
 20
1382.5
 30
0.0
 11
1102.0
 21
1382.5
 31
0.0
  0
LINE
  8
L-ZISSEN
 10
1135.0
 20
1260.0
 30
0.0
 11
1135.0
 21
1211.0
 31
0.0
  0
LINE
  8
L-ZISSEN
 10
970.0
 20
1211.0
 30
0.0
 11
1135.0
 21
1211.0
 31
0.0
  0
LINE
  8
L-TYUSIN
 10
1112.0
 20
1206.0
 30
0.0
 11
1112.0
 21
1265.0
 31
0.0
  0
LINE
  8
L-TYUSIN
 10
1122.0
 20
1112.5
 30
0.0
 11
1102.0
 21
1112.5
 31
0.0
  0
LINE
  8
L-TYUSIN
 10
1112.0
 20
1122.5
 30
0.0
 11
1112.0
 21
1102.5
 31
0.0
  0
CIRCLE
  8
L-ZISSEN
 10
1112.0
 20
1112.5
 30
0.0
 40
6.5
  0
CIRCLE
  8
L-ZISSEN
 10
1112.0
 20
1077.5
 30
0.0
 40
6.5
  0
LINE
  8
L-TYUSIN
 10
1122.0
 20
1077.5
 30
0.0
 11
1102.0
 21
1077.5
 31
0.0
  0
LINE
  8
L-TYUSIN
 10
1112.0
 20
1067.5
 30
0.0
 11
1112.0
 21
1087.5
 31
0.0
  0
LINE
  8
L-TYUSIN
 10
993.0
 20
1067.5
 30
0.0
 11
993.0
 21
1087.5
 31
0.0
  0
LINE
  8
L-TYUSIN
 10
983.0
 20
1077.5
 30
0.0
 11
1003.0
 21
1077.5
 31
0.0
  0
CIRCLE
  8
L-ZISSEN
 10
993.0
 20
1077.5
 30
0.0
 40
6.5
  0
CIRCLE
  8
L-ZISSEN
 10
993.0
 20
1112.5
 30
0.0
 40
6.5
  0
LINE
  8
L-ZISSEN
 10
970.0
 20
1040.0
 30
0.0
 11
1135.0
 21
1040.0
 31
0.0
  0
LINE
  8
L-ZISSEN
 10
970.0
 20
1150.0
 30
0.0
 11
1135.0
 21
1150.0
 31
0.0
  0
LINE
  8
L-ZISSEN
 10
1135.0
 20
1040.0
 30
0.0
 11
1135.0
 21
1150.0
 31
0.0
  0
LINE
  8
L-ZISSEN
 10
970.0
 20
1040.0
 30
0.0
 11
970.0
 21
1150.0
 31
0.0
  0
LINE
  8
L-TYUSIN
 10
993.0
 20
1122.5
 30
0.0
 11
993.0
 21
1102.5
 31
0.0
  0
LINE
  8
L-TYUSIN
 10
983.0
 20
1112.5
 30
0.0
 11
1003.0
 21
1112.5
 31
0.0
  0
CIRCLE
  8
L-ZISSEN
 10
1038.0
 20
1079.0
 30
0.0
 40
5.7225
  0
LINE
  8
L-TYUSIN
 10
1028.0
 20
1079.0
 30
0.0
 11
1048.0
 21
1079.0
 31
0.0
  0
LINE
  8
L-TYUSIN
 10
1038.0
 20
1089.0
 30
0.0
 11
1038.0
 21
1069.0
 31
0.0
  0
LINE
  8
L-TYUSIN
 10
1083.0
 20
1089.0
 30
0.0
 11
1083.0
 21
1069.0
 31
0.0
  0
LINE
  8
L-TYUSIN
 10
1073.0
 20
1079.0
 30
0.0
 11
1093.0
 21
1079.0
 31
0.0
  0
CIRCLE
  8
L-ZISSEN
 10
1083.0
 20
1079.0
 30
0.0
 40
5.7225
  0
LINE
  8
L-TYUSIN
 10
1077.0
 20
1111.0
 30
0.0
 11
1057.0
 21
1111.0
 31
0.0
  0
LINE
  8
L-TYUSIN
 10
1067.0
 20
1121.0
 30
0.0
 11
1067.0
 21
1101.0
 31
0.0
  0
CIRCLE
  8
L-ZISSEN
 10
1067.0
 20
1111.0
 30
0.0
 40
5.7225
  0
LINE
  8
L-TYUSIN
 10
227.0
 20
1236.0
 30
0.0
 11
217.0
 21
1236.0
 31
0.0
  0
LINE
  8
L-TYUSIN
 10
217.0
 20
1244.0
 30
0.0
 11
227.0
 21
1244.0
 31
0.0
  0
LINE
  8
L-TYUSIN
 10
55.0
 20
1244.0
 30
0.0
 11
45.0
 21
1244.0
 31
0.0
  0
LINE
  8
L-TYUSIN
 10
45.0
 20
1236.0
 30
0.0
 11
55.0
 21
1236.0
 31
0.0
  0
LINE
  8
L-TYUSIN
 10
227.0
 20
1370.0
 30
0.0
 11
217.0
 21
1370.0
 31
0.0
  0
LINE
  8
L-TYUSIN
 10
227.0
 20
1402.0
 30
0.0
 11
217.0
 21
1402.0
 31
0.0
  0
LINE
  8
L-TYUSIN
 10
227.0
 20
1338.0
 30
0.0
 11
217.0
 21
1338.0
 31
0.0
  0
LINE
  8
L-TYUSIN
 10
45.0
 20
1338.0
 30
0.0
 11
55.0
 21
1338.0
 31
0.0
  0
LINE
  8
L-TYUSIN
 10
45.0
 20
1370.0
 30
0.0
 11
55.0
 21
1370.0
 31
0.0
  0
LINE
  8
L-TYUSIN
 10
45.0
 20
1402.0
 30
0.0
 11
55.0
 21
1402.0
 31
0.0
  0
LINE
  8
L-TYUSIN
 10
227.0
 20
1068.0
 30
0.0
 11
217.0
 21
1068.0
 31
0.0
  0
LINE
  8
L-TYUSIN
 10
227.0
 20
1100.0
 30
0.0
 11
217.0
 21
1100.0
 31
0.0
  0
LINE
  8
L-TYUSIN
 10
227.0
 20
1132.0
 30
0.0
 11
217.0
 21
1132.0
 31
0.0
  0
LINE
  8
L-TYUSIN
 10
45.0
 20
1132.0
 30
0.0
 11
55.0
 21
1132.0
 31
0.0
  0
LINE
  8
L-TYUSIN
 10
45.0
 20
1100.0
 30
0.0
 11
55.0
 21
1100.0
 31
0.0
  0
LINE
  8
L-TYUSIN
 10
45.0
 20
1068.0
 30
0.0
 11
55.0
 21
1068.0
 31
0.0
  0
LINE
  8
L-TYUSIN
 10
1140.0
 20
1365.0
 30
0.0
 11
1130.0
 21
1365.0
 31
0.0
  0
LINE
  8
L-TYUSIN
 10
1140.0
 20
1400.0
 30
0.0
 11
1130.0
 21
1400.0
 31
0.0
  0
LINE
  8
L-TYUSIN
 10
1140.0
 20
1330.0
 30
0.0
 11
1130.0
 21
1330.0
 31
0.0
  0
LINE
  8
L-TYUSIN
 10
965.0
 20
1400.0
 30
0.0
 11
975.0
 21
1400.0
 31
0.0
  0
LINE
  8
L-TYUSIN
 10
965.0
 20
1365.0
 30
0.0
 11
975.0
 21
1365.0
 31
0.0
  0
LINE
  8
L-TYUSIN
 10
965.0
 20
1330.0
 30
0.0
 11
975.0
 21
1330.0
 31
0.0
  0
LINE
  8
L-TYUSIN
 10
1140.0
 20
1130.0
 30
0.0
 11
1130.0
 21
1130.0
 31
0.0
  0
LINE
  8
L-TYUSIN
 10
1140.0
 20
1095.0
 30
0.0
 11
1130.0
 21
1095.0
 31
0.0
  0
LINE
  8
L-TYUSIN
 10
1140.0
 20
1060.0
 30
0.0
 11
1130.0
 21
1060.0
 31
0.0
  0
LINE
  8
L-TYUSIN
 10
965.0
 20
1130.0
 30
0.0
 11
975.0
 21
1130.0
 31
0.0
  0
LINE
  8
L-TYUSIN
 10
965.0
 20
1095.0
 30
0.0
 11
975.0
 21
1095.0
 31
0.0
  0
LINE
  8
L-TYUSIN
 10
965.0
 20
1060.0
 30
0.0
 11
975.0
 21
1060.0
 31
0.0
  0
LINE
  8
L-TYUSIN
 10
1022.0
 20
1216.0
 30
0.0
 11
1022.0
 21
1206.0
 31
0.0
  0
LINE
  8
L-TYUSIN
 10
1038.0
 20
1216.0
 30
0.0
 11
1038.0
 21
1206.0
 31
0.0
  0
LINE
  8
L-TYUSIN
 10
1067.0
 20
1216.0
 30
0.0
 11
1067.0
 21
1206.0
 31
0.0
  0
LINE
  8
L-TYUSIN
 10
1083.0
 20
1216.0
 30
0.0
 11
1083.0
 21
1206.0
 31
0.0
  0
LINE
  8
L-TYUSIN
 10
1180.0
 20
1370.0
 30
0.0
 11
1180.0
 21
1360.0
 31
0.0
  0
LINE
  8
L-TYUSIN
 10
1175.0
 20
1365.0
 30
0.0
 11
1185.0
 21
1365.0
 31
0.0
  0
LINE
  8
L-TYUSIN
 10
1220.0
 20
1365.0
 30
0.0
 11
1230.0
 21
1365.0
 31
0.0
  0
LINE
  8
L-TYUSIN
 10
1225.0
 20
1370.0
 30
0.0
 11
1225.0
 21
1360.0
 31
0.0
  0
LINE
  8
L-TYUSIN
 10
1315.0
 20
1370.0
 30
0.0
 11
1315.0
 21
1360.0
 31
0.0
  0
LINE
  8
L-TYUSIN
 10
1310.0
 20
1365.0
 30
0.0
 11
1320.0
 21
1365.0
 31
0.0
  0
LINE
  8
L-TYUSIN
 10
1265.0
 20
1365.0
 30
0.0
 11
1275.0
 21
1365.0
 31
0.0
  0
LINE
  8
L-TYUSIN
 10
1270.0
 20
1370.0
 30
0.0
 11
1270.0
 21
1360.0
 31
0.0
  0
LINE
  8
L-TYUSIN
 10
1450.0
 20
1370.0
 30
0.0
 11
1450.0
 21
1360.0
 31
0.0
  0
LINE
  8
L-TYUSIN
 10
1445.0
 20
1365.0
 30
0.0
 11
1455.0
 21
1365.0
 31
0.0
  0
LINE
  8
L-TYUSIN
 10
1490.0
 20
1365.0
 30
0.0
 11
1500.0
 21
1365.0
 31
0.0
  0
LINE
  8
L-TYUSIN
 10
1495.0
 20
1370.0
 30
0.0
 11
1495.0
 21
1360.0
 31
0.0
  0
LINE
  8
L-TYUSIN
 10
1405.0
 20
1370.0
 30
0.0
 11
1405.0
 21
1360.0
 31
0.0
  0
LINE
  8
L-TYUSIN
 10
1400.0
 20
1365.0
 30
0.0
 11
1410.0
 21
1365.0
 31
0.0
  0
LINE
  8
L-TYUSIN
 10
1355.0
 20
1365.0
 30
0.0
 11
1365.0
 21
1365.0
 31
0.0
  0
LINE
  8
L-TYUSIN
 10
1360.0
 20
1370.0
 30
0.0
 11
1360.0
 21
1360.0
 31
0.0
  0
LINE
  8
L-TYUSIN
 10
1360.0
 20
1240.5
 30
0.0
 11
1360.0
 21
1230.5
 31
0.0
  0
LINE
  8
L-TYUSIN
 10
1355.0
 20
1235.5
 30
0.0
 11
1365.0
 21
1235.5
 31
0.0
  0
LINE
  8
L-TYUSIN
 10
1400.0
 20
1235.5
 30
0.0
 11
1410.0
 21
1235.5
 31
0.0
  0
LINE
  8
L-TYUSIN
 10
1405.0
 20
1240.5
 30
0.0
 11
1405.0
 21
1230.5
 31
0.0
  0
LINE
  8
L-TYUSIN
 10
1495.0
 20
1240.5
 30
0.0
 11
1495.0
 21
1230.5
 31
0.0
  0
LINE
  8
L-TYUSIN
 10
1490.0
 20
1235.5
 30
0.0
 11
1500.0
 21
1235.5
 31
0.0
  0
LINE
  8
L-TYUSIN
 10
1445.0
 20
1235.5
 30
0.0
 11
1455.0
 21
1235.5
 31
0.0
  0
LINE
  8
L-TYUSIN
 10
1450.0
 20
1240.5
 30
0.0
 11
1450.0
 21
1230.5
 31
0.0
  0
LINE
  8
L-TYUSIN
 10
1270.0
 20
1240.5
 30
0.0
 11
1270.0
 21
1230.5
 31
0.0
  0
LINE
  8
L-TYUSIN
 10
1265.0
 20
1235.5
 30
0.0
 11
1275.0
 21
1235.5
 31
0.0
  0
LINE
  8
L-TYUSIN
 10
1310.0
 20
1235.5
 30
0.0
 11
1320.0
 21
1235.5
 31
0.0
  0
LINE
  8
L-TYUSIN
 10
1315.0
 20
1240.5
 30
0.0
 11
1315.0
 21
1230.5
 31
0.0
  0
LINE
  8
L-TYUSIN
 10
1225.0
 20
1240.5
 30
0.0
 11
1225.0
 21
1230.5
 31
0.0
  0
LINE
  8
L-TYUSIN
 10
1220.0
 20
1235.5
 30
0.0
 11
1230.0
 21
1235.5
 31
0.0
  0
LINE
  8
L-TYUSIN
 10
1175.0
 20
1235.5
 30
0.0
 11
1185.0
 21
1235.5
 31
0.0
  0
LINE
  8
L-TYUSIN
 10
1180.0
 20
1240.5
 30
0.0
 11
1180.0
 21
1230.5
 31
0.0
  0
LINE
  8
L-TYUSIN
 10
1180.0
 20
1100.0
 30
0.0
 11
1180.0
 21
1090.0
 31
0.0
  0
LINE
  8
L-TYUSIN
 10
1175.0
 20
1095.0
 30
0.0
 11
1185.0
 21
1095.0
 31
0.0
  0
LINE
  8
L-TYUSIN
 10
1220.0
 20
1095.0
 30
0.0
 11
1230.0
 21
1095.0
 31
0.0
  0
LINE
  8
L-TYUSIN
 10
1225.0
 20
1100.0
 30
0.0
 11
1225.0
 21
1090.0
 31
0.0
  0
LINE
  8
L-TYUSIN
 10
1315.0
 20
1100.0
 30
0.0
 11
1315.0
 21
1090.0
 31
0.0
  0
LINE
  8
L-TYUSIN
 10
1310.0
 20
1095.0
 30
0.0
 11
1320.0
 21
1095.0
 31
0.0
  0
LINE
  8
L-TYUSIN
 10
1265.0
 20
1095.0
 30
0.0
 11
1275.0
 21
1095.0
 31
0.0
  0
LINE
  8
L-TYUSIN
 10
1270.0
 20
1100.0
 30
0.0
 11
1270.0
 21
1090.0
 31
0.0
  0
LINE
  8
L-TYUSIN
 10
1450.0
 20
1100.0
 30
0.0
 11
1450.0
 21
1090.0
 31
0.0
  0
LINE
  8
L-TYUSIN
 10
1445.0
 20
1095.0
 30
0.0
 11
1455.0
 21
1095.0
 31
0.0
  0
LINE
  8
L-TYUSIN
 10
1490.0
 20
1095.0
 30
0.0
 11
1500.0
 21
1095.0
 31
0.0
  0
LINE
  8
L-TYUSIN
 10
1495.0
 20
1100.0
 30
0.0
 11
1495.0
 21
1090.0
 31
0.0
  0
LINE
  8
L-TYUSIN
 10
1405.0
 20
1100.0
 30
0.0
 11
1405.0
 21
1090.0
 31
0.0
  0
LINE
  8
L-TYUSIN
 10
1400.0
 20
1095.0
 30
0.0
 11
1410.0
 21
1095.0
 31
0.0
  0
LINE
  8
L-TYUSIN
 10
1355.0
 20
1095.0
 30
0.0
 11
1365.0
 21
1095.0
 31
0.0
  0
LINE
  8
L-TYUSIN
 10
1360.0
 20
1100.0
 30
0.0
 11
1360.0
 21
1090.0
 31
0.0
  0
LINE
  8
L-ZISSEN
 10
1183.0
 20
1425.0
 30
0.0
 11
1187.242641
 21
1429.242641
 31
0.0
  0
LINE
  8
L-ZISSEN
 10
1187.242641
 20
1425.0
 30
0.0
 11
1183.0
 21
1429.242641
 31
0.0
  0
TEXT
  8
L-ZISSEN
 10
1190.0
 20
1425.0
 30
0.0
 40
4.5
  1
3
  0
TEXT
  8
L-ZISSEN
 10
1170.0
 20
1435.0
 30
0.0
 40
4.5
  1
MVFB-
  0
TEXT
  8
L-ZISSEN
 10
1170.0
 20
1425.0
 30
0.0
 40
4.5
  1
204
  0
TEXT
  8
L-ZISSEN
 10
1215.0
 20
1425.0
 30
0.0
 40
4.5
  1
204
  0
TEXT
  8
L-ZISSEN
 10
1215.0
 20
1435.0
 30
0.0
 40
4.5
  1
MVFB-
  0
TEXT
  8
L-ZISSEN
 10
1235.0
 20
1425.0
 30
0.0
 40
4.5
  1
4
  0
LINE
  8
L-ZISSEN
 10
1232.242641
 20
1425.0
 30
0.0
 11
1228.0
 21
1429.242641
 31
0.0
  0
LINE
  8
L-ZISSEN
 10
1228.0
 20
1425.0
 30
0.0
 11
1232.242641
 21
1429.242641
 31
0.0
  0
LINE
  8
L-ZISSEN
 10
1318.0
 20
1425.0
 30
0.0
 11
1322.242641
 21
1429.242641
 31
0.0
  0
LINE
  8
L-ZISSEN
 10
1322.242641
 20
1425.0
 30
0.0
 11
1318.0
 21
1429.242641
 31
0.0
  0
TEXT
  8
L-ZISSEN
 10
1325.0
 20
1425.0
 30
0.0
 40
4.5
  1
6
  0
TEXT
  8
L-ZISSEN
 10
1305.0
 20
1435.0
 30
0.0
 40
4.5
  1
MVFB-
  0
TEXT
  8
L-ZISSEN
 10
1305.0
 20
1425.0
 30
0.0
 40
4.5
  1
204
  0
TEXT
  8
L-ZISSEN
 10
1260.0
 20
1425.0
 30
0.0
 40
4.5
  1
204
  0
TEXT
  8
L-ZISSEN
 10
1260.0
 20
1435.0
 30
0.0
 40
4.5
  1
MVFB-
  0
TEXT
  8
L-ZISSEN
 10
1280.0
 20
1425.0
 30
0.0
 40
4.5
  1
5
  0
LINE
  8
L-ZISSEN
 10
1277.242641
 20
1425.0
 30
0.0
 11
1273.0
 21
1429.242641
 31
0.0
  0
LINE
  8
L-ZISSEN
 10
1273.0
 20
1425.0
 30
0.0
 11
1277.242641
 21
1429.242641
 31
0.0
  0
LINE
  8
L-ZISSEN
 10
1453.0
 20
1425.0
 30
0.0
 11
1457.242641
 21
1429.242641
 31
0.0
  0
LINE
  8
L-ZISSEN
 10
1457.242641
 20
1425.0
 30
0.0
 11
1453.0
 21
1429.242641
 31
0.0
  0
TEXT
  8
L-ZISSEN
 10
1460.0
 20
1425.0
 30
0.0
 40
4.5
  1
9
  0
TEXT
  8
L-ZISSEN
 10
1440.0
 20
1435.0
 30
0.0
 40
4.5
  1
MVFB-
  0
TEXT
  8
L-ZISSEN
 10
1440.0
 20
1425.0
 30
0.0
 40
4.5
  1
204
  0
TEXT
  8
L-ZISSEN
 10
1485.0
 20
1425.0
 30
0.0
 40
4.5
  1
204
  0
TEXT
  8
L-ZISSEN
 10
1485.0
 20
1435.0
 30
0.0
 40
4.5
  1
MVFB-
  0
TEXT
  8
L-ZISSEN
 10
1505.0
 20
1425.0
 30
0.0
 40
4.5
  1
10
  0
LINE
  8
L-ZISSEN
 10
1502.242641
 20
1425.0
 30
0.0
 11
1498.0
 21
1429.242641
 31
0.0
  0
LINE
  8
L-ZISSEN
 10
1498.0
 20
1425.0
 30
0.0
 11
1502.242641
 21
1429.242641
 31
0.0
  0
LINE
  8
L-ZISSEN
 10
1408.0
 20
1425.0
 30
0.0
 11
1412.242641
 21
1429.242641
 31
0.0
  0
LINE
  8
L-ZISSEN
 10
1412.242641
 20
1425.0
 30
0.0
 11
1408.0
 21
1429.242641
 31
0.0
  0
TEXT
  8
L-ZISSEN
 10
1415.0
 20
1425.0
 30
0.0
 40
4.5
  1
8
  0
TEXT
  8
L-ZISSEN
 10
1395.0
 20
1435.0
 30
0.0
 40
4.5
  1
MVFB-
  0
TEXT
  8
L-ZISSEN
 10
1395.0
 20
1425.0
 30
0.0
 40
4.5
  1
204
  0
TEXT
  8
L-ZISSEN
 10
1350.0
 20
1425.0
 30
0.0
 40
4.5
  1
204
  0
TEXT
  8
L-ZISSEN
 10
1350.0
 20
1435.0
 30
0.0
 40
4.5
  1
MVFB-
  0
TEXT
  8
L-ZISSEN
 10
1370.0
 20
1425.0
 30
0.0
 40
4.5
  1
7
  0
LINE
  8
L-ZISSEN
 10
1367.242641
 20
1425.0
 30
0.0
 11
1363.0
 21
1429.242641
 31
0.0
  0
LINE
  8
L-ZISSEN
 10
1363.0
 20
1425.0
 30
0.0
 11
1367.242641
 21
1429.242641
 31
0.0
  0
TEXT
  8
L-ZISSEN
 10
50.0
 20
1445.0
 30
0.0
 40
4.5
  1
SIDE PORT CONNECTION
  0
TEXT
  8
L-ZISSEN
 10
970.0
 20
1445.0
 30
0.0
 40
4.5
  1
BOTTOM PORT CONNECTION
  0
LINE
  8
L-TYUSIN
 10
1589.0
 20
1216.0
 30
0.0
 11
1589.0
 21
1206.0
 31
0.0
  0
LINE
  8
L-ZISSEN
 10
1550.0
 20
1211.0
 30
0.0
 11
1660.0
 21
1211.0
 31
0.0
  0
LINE
  8
L-ZISSEN
 10
1550.0
 20
1211.0
 30
0.0
 11
1550.0
 21
1260.0
 31
0.0
  0
LINE
  8
L-ZISSEN
 10
1550.0
 20
1260.0
 30
0.0
 11
1660.0
 21
1260.0
 31
0.0
  0
LINE
  8
L-ZISSEN
 10
1660.0
 20
1211.0
 30
0.0
 11
1660.0
 21
1260.0
 31
0.0
  0
CIRCLE
  8
L-ZISSEN
 10
1605.0
 20
1235.0
 30
0.0
 40
9.3155
  0
LINE
  8
L-TYUSIN
 10
1620.0
 20
1235.0
 30
0.0
 11
1590.0
 21
1235.0
 31
0.0
  0
LINE
  8
L-TYUSIN
 10
1605.0
 20
1250.0
 30
0.0
 11
1605.0
 21
1220.0
 31
0.0
  0
CIRCLE
  8
L-ZISSEN
 10
1640.0
 20
1235.0
 30
0.0
 40
9.3155
  0
LINE
  8
L-TYUSIN
 10
1640.0
 20
1250.0
 30
0.0
 11
1640.0
 21
1220.0
 31
0.0
  0
LINE
  8
L-TYUSIN
 10
1655.0
 20
1235.0
 30
0.0
 11
1625.0
 21
1235.0
 31
0.0
  0
CIRCLE
  8
L-ZISSEN
 10
1570.0
 20
1235.0
 30
0.0
 40
9.3155
  0
LINE
  8
L-TYUSIN
 10
1570.0
 20
1250.0
 30
0.0
 11
1570.0
 21
1220.0
 31
0.0
  0
LINE
  8
L-TYUSIN
 10
1585.0
 20
1235.0
 30
0.0
 11
1555.0
 21
1235.0
 31
0.0
  0
LINE
  8
L-TYUSIN
 10
1621.0
 20
1216.0
 30
0.0
 11
1621.0
 21
1206.0
 31
0.0
  0
SOLID
  8
L-ZISSEN
 10
1606.649916
 20
1261.178511
 30
0.0
 11
1606.178511
 21
1261.649916
 31
0.0
 12
1605.0
 22
1260.0
 32
0.0
 13
1605.0
 23
1260.0
 33
0.0
  0
LINE
  8
L-ZISSEN
 10
1606.414214
 20
1261.414214
 30
0.0
 11
1615.0
 21
1270.0
 31
0.0
  0
LINE
  8
L-ZISSEN
 10
1615.0
 20
1270.0
 30
0.0
 11
1617.0
 21
1270.0
 31
0.0
  0
TEXT
  8
L-ZISSEN
 10
1619.0
 20
1267.75
 30
0.0
 40
4.5
  1
P.P
  0
SOLID
  8
L-ZISSEN
 10
1031.649916
 20
1366.178511
 30
0.0
 11
1031.178511
 21
1366.649916
 31
0.0
 12
1030.0
 22
1365.0
 32
0.0
 13
1030.0
 23
1365.0
 33
0.0
  0
LINE
  8
L-ZISSEN
 10
1031.414214
 20
1366.414214
 30
0.0
 11
1040.0
 21
1375.0
 31
0.0
  0
LINE
  8
L-ZISSEN
 10
1040.0
 20
1375.0
 30
0.0
 11
1042.0
 21
1375.0
 31
0.0
  0
TEXT
  8
L-ZISSEN
 10
1044.0
 20
1372.75
 30
0.0
 40
4.5
  1
P.P
  0
TEXT
  8
L-ZISSEN
 10
1089.0
 20
1372.75
 30
0.0
 40
4.5
  1
P.P
  0
LINE
  8
L-ZISSEN
 10
1085.0
 20
1375.0
 30
0.0
 11
1087.0
 21
1375.0
 31
0.0
  0
LINE
  8
L-ZISSEN
 10
1076.414214
 20
1366.414214
 30
0.0
 11
1085.0
 21
1375.0
 31
0.0
  0
SOLID
  8
L-ZISSEN
 10
1076.649916
 20
1366.178511
 30
0.0
 11
1076.178511
 21
1366.649916
 31
0.0
 12
1075.0
 22
1365.0
 32
0.0
 13
1075.0
 23
1365.0
 33
0.0
  0
SOLID
  8
L-ZISSEN
 10
1031.649916
 20
1261.178511
 30
0.0
 11
1031.178511
 21
1261.649916
 31
0.0
 12
1030.0
 22
1260.0
 32
0.0
 13
1030.0
 23
1260.0
 33
0.0
  0
LINE
  8
L-ZISSEN
 10
1031.414214
 20
1261.414214
 30
0.0
 11
1040.0
 21
1270.0
 31
0.0
  0
LINE
  8
L-ZISSEN
 10
1040.0
 20
1270.0
 30
0.0
 11
1042.0
 21
1270.0
 31
0.0
  0
TEXT
  8
L-ZISSEN
 10
1044.0
 20
1267.75
 30
0.0
 40
4.5
  1
P.P
  0
TEXT
  8
L-ZISSEN
 10
1089.0
 20
1267.75
 30
0.0
 40
4.5
  1
P.P
  0
LINE
  8
L-ZISSEN
 10
1085.0
 20
1270.0
 30
0.0
 11
1087.0
 21
1270.0
 31
0.0
  0
LINE
  8
L-ZISSEN
 10
1076.414214
 20
1261.414214
 30
0.0
 11
1085.0
 21
1270.0
 31
0.0
  0
SOLID
  8
L-ZISSEN
 10
1076.649916
 20
1261.178511
 30
0.0
 11
1076.178511
 21
1261.649916
 31
0.0
 12
1075.0
 22
1260.0
 32
0.0
 13
1075.0
 23
1260.0
 33
0.0
  0
SOLID
  8
L-ZISSEN
 10
1031.649916
 20
1096.178511
 30
0.0
 11
1031.178511
 21
1096.649916
 31
0.0
 12
1030.0
 22
1095.0
 32
0.0
 13
1030.0
 23
1095.0
 33
0.0
  0
LINE
  8
L-ZISSEN
 10
1031.414214
 20
1096.414214
 30
0.0
 11
1040.0
 21
1105.0
 31
0.0
  0
LINE
  8
L-ZISSEN
 10
1040.0
 20
1105.0
 30
0.0
 11
1042.0
 21
1105.0
 31
0.0
  0
TEXT
  8
L-ZISSEN
 10
1044.0
 20
1102.75
 30
0.0
 40
4.5
  1
P.P
  0
TEXT
  8
L-ZISSEN
 10
1089.0
 20
1102.75
 30
0.0
 40
4.5
  1
P.P
  0
LINE
  8
L-ZISSEN
 10
1085.0
 20
1105.0
 30
0.0
 11
1087.0
 21
1105.0
 31
0.0
  0
LINE
  8
L-ZISSEN
 10
1076.414214
 20
1096.414214
 30
0.0
 11
1085.0
 21
1105.0
 31
0.0
  0
SOLID
  8
L-ZISSEN
 10
1076.649916
 20
1096.178511
 30
0.0
 11
1076.178511
 21
1096.649916
 31
0.0
 12
1075.0
 22
1095.0
 32
0.0
 13
1075.0
 23
1095.0
 33
0.0
  0
SOLID
  8
L-ZISSEN
 10
1910.596285
 20
553.062074
 30
0.0
 11
1911.19257
 21
553.360217
 31
0.0
 12
1910.0
 22
555.0
 32
0.0
 13
1910.0
 23
555.0
 33
0.0
  0
LINE
  8
L-ZISSEN
 10
1910.894427
 20
553.211146
 30
0.0
 11
1915.0
 21
545.0
 31
0.0
  0
LINE
  8
L-ZISSEN
 10
1915.0
 20
545.0
 30
0.0
 11
1917.0
 21
545.0
 31
0.0
  0
TEXT
  8
L-ZISSEN
 10
1919.0
 20
542.75
 30
0.0
 40
4.5
  1
P.P
  0
SOLID
  8
L-ZISSEN
 10
1820.596285
 20
553.062074
 30
0.0
 11
1821.19257
 21
553.360217
 31
0.0
 12
1820.0
 22
555.0
 32
0.0
 13
1820.0
 23
555.0
 33
0.0
  0
LINE
  8
L-ZISSEN
 10
1820.894427
 20
553.211146
 30
0.0
 11
1825.0
 21
545.0
 31
0.0
  0
LINE
  8
L-ZISSEN
 10
1825.0
 20
545.0
 30
0.0
 11
1827.0
 21
545.0
 31
0.0
  0
TEXT
  8
L-ZISSEN
 10
1829.0
 20
542.75
 30
0.0
 40
4.5
  1
P.P
  0
SOLID
  8
L-ZISSEN
 10
1770.461538
 20
555.025641
 30
0.0
 11
1771.076923
 21
555.282051
 31
0.0
 12
1770.0
 22
557.0
 32
0.0
 13
1770.0
 23
557.0
 33
0.0
  0
LINE
  8
L-ZISSEN
 10
1770.769231
 20
555.153846
 30
0.0
 11
1775.0
 21
545.0
 31
0.0
  0
LINE
  8
L-ZISSEN
 10
1775.0
 20
545.0
 30
0.0
 11
1777.0
 21
545.0
 31
0.0
  0
TEXT
  8
L-ZISSEN
 10
1779.0
 20
542.75
 30
0.0
 40
4.5
  1
P.P
  0
TEXT
  8
L-ZISSEN
 10
1729.0
 20
542.75
 30
0.0
 40
4.5
  1
P.P
  0
LINE
  8
L-ZISSEN
 10
1725.0
 20
545.0
 30
0.0
 11
1727.0
 21
545.0
 31
0.0
  0
LINE
  8
L-ZISSEN
 10
1720.894427
 20
553.211146
 30
0.0
 11
1725.0
 21
545.0
 31
0.0
  0
SOLID
  8
L-ZISSEN
 10
1720.596285
 20
553.062074
 30
0.0
 11
1721.19257
 21
553.360217
 31
0.0
 12
1720.0
 22
555.0
 32
0.0
 13
1720.0
 23
555.0
 33
0.0
  0
LINE
  8
L-ZISSEN
 10
1734.5
 20
561.0
 30
0.0
 11
1705.5
 21
561.0
 31
0.0
  0
LINE
  8
L-ZISSEN
 10
1689.5
 20
558.5
 30
0.0
 11
1689.5
 21
555.0
 31
0.0
  0
LINE
  8
L-ZISSEN
 10
1705.5
 20
561.0
 30
0.0
 11
1705.5
 21
555.0
 31
0.0
  0
LINE
  8
L-ZISSEN
 10
1734.5
 20
561.0
 30
0.0
 11
1734.5
 21
555.0
 31
0.0
  0
LINE
  8
L-ZISSEN
 10
1705.5
 20
558.5
 30
0.0
 11
1689.5
 21
558.5
 31
0.0
  0
LINE
  8
L-ZISSEN
 10
1706.5
 20
583.0
 30
0.0
 11
1706.5
 21
561.0
 31
0.0
  0
LINE
  8
L-ZISSEN
 10
1733.5
 20
583.0
 30
0.0
 11
1733.5
 21
561.0
 31
0.0
  0
LINE
  8
L-ZISSEN
 10
1679.5
 20
555.0
 30
0.0
 11
1694.5
 21
555.0
 31
0.0
  0
LINE
  8
L-ZISSEN
 10
1733.5
 20
583.0
 30
0.0
 11
1706.5
 21
583.0
 31
0.0
  0
LINE
  8
L-ZISSEN
 10
1706.5
 20
581.0
 30
0.0
 11
1679.5
 21
581.0
 31
0.0
  0
LINE
  8
L-ZISSEN
 10
1679.5
 20
581.0
 30
0.0
 11
1679.5
 21
555.0
 31
0.0
  0
LINE
  8
L-ZISSEN
 10
1672.35
 20
577.2
 30
0.0
 11
1672.35
 21
558.8
 31
0.0
  0
LINE
  8
L-ZISSEN
 10
1672.35
 20
559.5
 30
0.0
 11
1670.0
 21
559.5
 31
0.0
  0
LINE
  8
L-ZISSEN
 10
1672.35
 20
576.5
 30
0.0
 11
1670.0
 21
576.5
 31
0.0
  0
LINE
  8
L-ZISSEN
 10
1679.5
 20
558.8
 30
0.0
 11
1672.35
 21
558.8
 31
0.0
  0
LINE
  8
L-ZISSEN
 10
1679.5
 20
577.2
 30
0.0
 11
1672.35
 21
577.2
 31
0.0
  0
LINE
  8
L-ZISSEN
 10
1670.0
 20
578.969655
 30
0.0
 11
1670.0
 21
557.030345
 31
0.0
  0
LINE
  8
L-ZISSEN
 10
1664.5
 20
557.030345
 30
0.0
 11
1670.0
 21
557.030345
 31
0.0
  0
LINE
  8
L-ZISSEN
 10
1664.5
 20
578.969655
 30
0.0
 11
1670.0
 21
578.969655
 31
0.0
  0
LINE
  8
L-ZISSEN
 10
1664.5
 20
578.969655
 30
0.0
 11
1664.5
 21
557.030345
 31
0.0
  0
SOLID
  8
L-ZISSEN
 10
1821.178511
 20
468.350084
 30
0.0
 11
1821.649916
 21
468.821489
 31
0.0
 12
1820.0
 22
470.0
 32
0.0
 13
1820.0
 23
470.0
 33
0.0
  0
LINE
  8
L-ZISSEN
 10
1821.414214
 20
468.585786
 30
0.0
 11
1830.0
 21
460.0
 31
0.0
  0
LINE
  8
L-ZISSEN
 10
1830.0
 20
460.0
 30
0.0
 11
1832.0
 21
460.0
 31
0.0
  0
TEXT
  8
L-ZISSEN
 10
1834.0
 20
457.75
 30
0.0
 40
4.5
  1
P.P
  0
SOLID
  8
L-ZISSEN
 10
1821.178511
 20
428.350084
 30
0.0
 11
1821.649916
 21
428.821489
 31
0.0
 12
1820.0
 22
430.0
 32
0.0
 13
1820.0
 23
430.0
 33
0.0
  0
LINE
  8
L-ZISSEN
 10
1821.414214
 20
428.585786
 30
0.0
 11
1830.0
 21
420.0
 31
0.0
  0
LINE
  8
L-ZISSEN
 10
1830.0
 20
420.0
 30
0.0
 11
1832.0
 21
420.0
 31
0.0
  0
TEXT
  8
L-ZISSEN
 10
1834.0
 20
417.75
 30
0.0
 40
4.5
  1
P.P
  0
SOLID
  8
L-ZISSEN
 10
1821.639783
 20
693.80743
 30
0.0
 11
1821.937926
 21
694.403715
 31
0.0
 12
1820.0
 22
695.0
 32
0.0
 13
1820.0
 23
695.0
 33
0.0
  0
LINE
  8
L-ZISSEN
 10
1821.788854
 20
694.105573
 30
0.0
 11
1840.0
 21
685.0
 31
0.0
  0
LINE
  8
L-ZISSEN
 10
1840.0
 20
685.0
 30
0.0
 11
1842.0
 21
685.0
 31
0.0
  0
TEXT
  8
L-ZISSEN
 10
1844.0
 20
682.75
 30
0.0
 40
4.5
  1
P.P
  0
SOLID
  8
L-ZISSEN
 10
1821.639783
 20
653.80743
 30
0.0
 11
1821.937926
 21
654.403715
 31
0.0
 12
1820.0
 22
655.0
 32
0.0
 13
1820.0
 23
655.0
 33
0.0
  0
LINE
  8
L-ZISSEN
 10
1821.788854
 20
654.105573
 30
0.0
 11
1840.0
 21
645.0
 31
0.0
  0
LINE
  8
L-ZISSEN
 10
1840.0
 20
645.0
 30
0.0
 11
1842.0
 21
645.0
 31
0.0
  0
TEXT
  8
L-ZISSEN
 10
1844.0
 20
642.75
 30
0.0
 40
4.5
  1
P.P
  0
SOLID
  8
L-ZISSEN
 10
1706.178511
 20
898.350084
 30
0.0
 11
1706.649916
 21
898.821489
 31
0.0
 12
1705.0
 22
900.0
 32
0.0
 13
1705.0
 23
900.0
 33
0.0
  0
LINE
  8
L-ZISSEN
 10
1706.414214
 20
898.585786
 30
0.0
 11
1715.0
 21
890.0
 31
0.0
  0
LINE
  8
L-ZISSEN
 10
1715.0
 20
890.0
 30
0.0
 11
1717.0
 21
890.0
 31
0.0
  0
TEXT
  8
L-ZISSEN
 10
1719.0
 20
887.75
 30
0.0
 40
4.5
  1
P.P
  0
LINE
  8
L-TYUSIN
 10
1075.0
 20
20.0
 30
0.0
 11
1075.0
 21
980.0
 31
0.0
  0
TEXT
  8
L-ZISSEN
 10
935.0
 20
970.0
 30
0.0
 40
4.5
  1
SIDE PORT CONNECTION
  0
TEXT
  8
L-ZISSEN
 10
1085.0
 20
955.0
 30
0.0
 40
4.5
  1
PLUG PLATE
  0
TEXT
  8
L-ZISSEN
 10
1085.0
 20
970.0
 30
0.0
 40
4.5
  1
BOTTOM PORT CONNECTION
  0
TEXT
  8
L-ZISSEN
 10
1112.0
 20
737.75
 30
0.0
 40
4.5
  1
P.P
  0
LINE
  8
L-ZISSEN
 10
1125.0
 20
740.0
 30
0.0
 11
1123.0
 21
740.0
 31
0.0
  0
LINE
  8
L-ZISSEN
 10
1148.143047
 20
749.257219
 30
0.0
 11
1125.0
 21
740.0
 31
0.0
  0
SOLID
  8
L-ZISSEN
 10
1148.01925
 20
749.566711
 30
0.0
 11
1148.266844
 21
748.947726
 31
0.0
 12
1150.0
 22
750.0
 32
0.0
 13
1150.0
 23
750.0
 33
0.0
  0
CIRCLE
  8
L-ZISSEN
 10
1130.5
 20
780.0
 30
0.0
 40
4.25
  0
CIRCLE
  8
L-ZISSEN
 10
1130.5
 20
720.0
 30
0.0
 40
4.25
  0
CIRCLE
  8
L-ZISSEN
 10
1169.5
 20
734.0
 30
0.0
 40
4.25
  0
CIRCLE
  8
L-ZISSEN
 10
1169.5
 20
766.0
 30
0.0
 40
4.25
  0
LINE
  8
L-ZISSEN
 10
1125.5
 20
705.0
 30
0.0
 11
1169.0
 21
705.0
 31
0.0
  0
LINE
  8
L-ZISSEN
 10
1125.5
 20
795.0
 30
0.0
 11
1125.5
 21
776.0
 31
0.0
  0
LINE
  8
L-ZISSEN
 10
1169.0
 20
795.0
 30
0.0
 11
1125.5
 21
795.0
 31
0.0
  0
LINE
  8
L-ZISSEN
 10
1174.5
 20
730.0
 30
0.0
 11
1174.5
 21
770.0
 31
0.0
  0
LINE
  8
L-TYUSIN
 10
1119.0
 20
750.0
 30
0.0
 11
1181.0
 21
750.0
 31
0.0
  0
LINE
  8
L-TYUSIN
 10
1150.0
 20
700.0
 30
0.0
 11
1150.0
 21
800.0
 31
0.0
  0
LINE
  8
L-ZISSEN
 10
1131.0
 20
773.0
 30
0.0
 11
1131.0
 21
727.0
 31
0.0
  0
SOLID
  8
L-ZISSEN
 10
997.997224
 20
749.683772
 30
0.0
 11
998.208043
 21
749.051317
 31
0.0
 12
1000.0
 22
750.0
 32
0.0
 13
1000.0
 23
750.0
 33
0.0
  0
LINE
  8
L-ZISSEN
 10
998.102633
 20
749.367544
 30
0.0
 11
970.0
 21
740.0
 31
0.0
  0
LINE
  8
L-ZISSEN
 10
970.0
 20
740.0
 30
0.0
 11
968.0
 21
740.0
 31
0.0
  0
TEXT
  8
L-ZISSEN
 10
957.0
 20
737.75
 30
0.0
 40
4.5
  1
P.P
  0
LINE
  8
L-ZISSEN
 10
1169.0
 20
705.0
 30
0.0
 11
1169.0
 21
727.0
 31
0.0
  0
LINE
  8
L-ZISSEN
 10
1174.5
 20
770.0
 30
0.0
 11
1169.0
 21
773.0
 31
0.0
  0
LINE
  8
L-ZISSEN
 10
1174.5
 20
730.0
 30
0.0
 11
1169.0
 21
727.0
 31
0.0
  0
LINE
  8
L-ZISSEN
 10
1131.0
 20
773.0
 30
0.0
 11
1125.5
 21
776.0
 31
0.0
  0
LINE
  8
L-ZISSEN
 10
1131.0
 20
727.0
 30
0.0
 11
1125.5
 21
724.0
 31
0.0
  0
LINE
  8
L-ZISSEN
 10
1125.5
 20
724.0
 30
0.0
 11
1125.5
 21
705.0
 31
0.0
  0
LINE
  8
L-ZISSEN
 10
1169.0
 20
773.0
 30
0.0
 11
1169.0
 21
795.0
 31
0.0
  0
TEXT
  8
L-ZISSEN
 10
1127.0
 20
427.75
 30
0.0
 40
4.5
  1
P.P
  0
LINE
  8
L-ZISSEN
 10
1140.0
 20
430.0
 30
0.0
 11
1138.0
 21
430.0
 31
0.0
  0
LINE
  8
L-ZISSEN
 10
1148.780578
 20
441.414752
 30
0.0
 11
1140.0
 21
430.0
 31
0.0
  0
SOLID
  8
L-ZISSEN
 10
1148.51637
 20
441.617989
 30
0.0
 11
1149.044786
 21
441.211515
 31
0.0
 12
1150.0
 22
443.0
 32
0.0
 13
1150.0
 23
443.0
 33
0.0
  0
LINE
  8
L-ZISSEN
 10
1165.25
 20
459.3
 30
0.0
 11
1165.25
 21
453.0
 31
0.0
  0
LINE
  8
L-ZISSEN
 10
1173.75
 20
459.3
 30
0.0
 11
1173.75
 21
453.0
 31
0.0
  0
LINE
  8
L-ZISSEN
 10
1173.75
 20
459.3
 30
0.0
 11
1165.25
 21
459.3
 31
0.0
  0
LINE
  8
L-ZISSEN
 10
1134.75
 20
459.3
 30
0.0
 11
1134.75
 21
453.0
 31
0.0
  0
LINE
  8
L-ZISSEN
 10
1126.25
 20
459.3
 30
0.0
 11
1134.75
 21
459.3
 31
0.0
  0
LINE
  8
L-ZISSEN
 10
1126.25
 20
459.3
 30
0.0
 11
1126.25
 21
453.0
 31
0.0
  0
LINE
  8
L-ZISSEN
 10
1125.5
 20
453.0
 30
0.0
 11
1174.5
 21
453.0
 31
0.0
  0
LINE
  8
L-ZISSEN
 10
1125.5
 20
444.0
 30
0.0
 11
1174.5
 21
444.0
 31
0.0
  0
LINE
  8
L-TYUSIN
 10
1150.0
 20
438.0
 30
0.0
 11
1150.0
 21
458.0
 31
0.0
  0
LINE
  8
L-ZISSEN
 10
1174.5
 20
453.0
 30
0.0
 11
1174.5
 21
443.0
 31
0.0
  0
LINE
  8
L-ZISSEN
 10
1169.0
 20
453.0
 30
0.0
 11
1169.0
 21
444.0
 31
0.0
  0
LINE
  8
L-ZISSEN
 10
1125.5
 20
453.0
 30
0.0
 11
1125.5
 21
443.0
 31
0.0
  0
LINE
  8
L-ZISSEN
 10
91.5
 20
70.3
 30
0.0
 11
108.5
 21
70.3
 31
0.0
  0
LINE
  8
L-ZISSEN
 10
91.5
 20
70.3
 30
0.0
 11
91.5
 21
73.3
 31
0.0
  0
LINE
  8
L-ZISSEN
 10
108.5
 20
70.3
 30
0.0
 11
108.5
 21
73.3
 31
0.0
  0
LINE
  8
L-ZISSEN
 10
258.5
 20
70.3
 30
0.0
 11
258.5
 21
73.3
 31
0.0
  0
LINE
  8
L-ZISSEN
 10
241.5
 20
70.3
 30
0.0
 11
241.5
 21
73.3
 31
0.0
  0
LINE
  8
L-ZISSEN
 10
241.5
 20
70.3
 30
0.0
 11
258.5
 21
70.3
 31
0.0
  0
LINE
  8
L-ZISSEN
 10
391.5
 20
47.8
 30
0.0
 11
391.5
 21
50.8
 31
0.0
  0
LINE
  8
L-ZISSEN
 10
391.5
 20
47.8
 30
0.0
 11
408.5
 21
47.8
 31
0.0
  0
LINE
  8
L-ZISSEN
 10
408.5
 20
47.8
 30
0.0
 11
408.5
 21
50.8
 31
0.0
  0
LINE
  8
L-ZISSEN
 10
408.5
 20
392.2
 30
0.0
 11
408.5
 21
389.2
 31
0.0
  0
LINE
  8
L-ZISSEN
 10
391.5
 20
392.2
 30
0.0
 11
408.5
 21
392.2
 31
0.0
  0
LINE
  8
L-ZISSEN
 10
391.5
 20
392.2
 30
0.0
 11
391.5
 21
389.2
 31
0.0
  0
LINE
  8
L-ZISSEN
 10
241.5
 20
369.7
 30
0.0
 11
258.5
 21
369.7
 31
0.0
  0
LINE
  8
L-ZISSEN
 10
241.5
 20
369.7
 30
0.0
 11
241.5
 21
366.7
 31
0.0
  0
LINE
  8
L-ZISSEN
 10
258.5
 20
369.7
 30
0.0
 11
258.5
 21
366.7
 31
0.0
  0
LINE
  8
L-TYUSIN
 10
1645.0
 20
870.0
 30
0.0
 11
1805.0
 21
870.0
 31
0.0
  0
LINE
  8
L-ZISSEN
 10
1828.5
 20
402.5
 30
0.0
 11
1830.0
 21
402.5
 31
0.0
  0
LINE
  8
L-ZISSEN
 10
1828.5
 20
497.5
 30
0.0
 11
1830.0
 21
497.5
 31
0.0
  0
SOLID
  8
L-ZISSEN
 10
799.14354
 20
1242.162179
 30
0.0
 11
799.785885
 21
1241.98375
 31
0.0
 12
800.0
 22
1244.0
 32
0.0
 13
800.0
 23
1244.0
 33
0.0
  0
LINE
  8
L-ZISSEN
 10
799.464712
 20
1242.072964
 30
0.0
 11
785.0
 21
1190.0
 31
0.0
  0
LINE
  8
L-ZISSEN
 10
785.0
 20
1190.0
 30
0.0
 11
783.0
 21
1190.0
 31
0.0
  0
TEXT
  8
L-ZISSEN
 10
751.0
 20
1187.75
 30
0.0
 40
4.5
  1
"1" PORT
  0
TEXT
  8
L-ZISSEN
 10
755.0
 20
1180.0
 30
0.0
 40
4.5
  1
Rc 1/2
  0
SOLID
  8
L-ZISSEN
 10
92.930274
 20
1217.27756
 30
0.0
 11
93.546726
 21
1217.023727
 31
0.0
 12
94.0
 22
1219.0
 32
0.0
 13
94.0
 23
1219.0
 33
0.0
  0
LINE
  8
L-ZISSEN
 10
93.2385
 20
1217.150644
 30
0.0
 11
80.0
 21
1185.0
 31
0.0
  0
LINE
  8
L-ZISSEN
 10
80.0
 20
1185.0
 30
0.0
 11
78.0
 21
1185.0
 31
0.0
  0
TEXT
  8
L-ZISSEN
 10
44.5
 20
1182.75
 30
0.0
 40
4.5
  1
"2" PORT
  0
SOLID
  8
L-ZISSEN
 10
122.402924
 20
1217.012851
 30
0.0
 11
123.025626
 21
1217.250942
 31
0.0
 12
122.0
 22
1219.0
 32
0.0
 13
122.0
 23
1219.0
 33
0.0
  0
LINE
  8
L-ZISSEN
 10
122.714275
 20
1217.131896
 30
0.0
 11
135.0
 21
1185.0
 31
0.0
  0
LINE
  8
L-ZISSEN
 10
135.0
 20
1185.0
 30
0.0
 11
137.0
 21
1185.0
 31
0.0
  0
TEXT
  8
L-ZISSEN
 10
139.0
 20
1182.75
 30
0.0
 40
4.5
  1
"4" PORT
  0
TEXT
  8
L-ZISSEN
 10
45.0
 20
1175.0
 30
0.0
 40
4.5
  1
Rc 1/4
  0
TEXT
  8
L-ZISSEN
 10
45.0
 20
1165.0
 30
0.0
 40
4.5
  1
Rc 3/8
  0
TEXT
  8
L-ZISSEN
 10
140.0
 20
1175.0
 30
0.0
 40
4.5
  1
Rc 1/4
  0
TEXT
  8
L-ZISSEN
 10
140.0
 20
1165.0
 30
0.0
 40
4.5
  1
Rc 3/8
  0
SOLID
  8
L-ZISSEN
 10
767.464537
 20
1237.955605
 30
0.0
 11
766.859231
 21
1237.676233
 31
0.0
 12
768.0
 22
1236.0
 32
0.0
 13
768.0
 23
1236.0
 33
0.0
  0
LINE
  8
L-ZISSEN
 10
767.161884
 20
1237.815919
 30
0.0
 11
750.0
 21
1275.0
 31
0.0
  0
LINE
  8
L-ZISSEN
 10
750.0
 20
1275.0
 30
0.0
 11
748.0
 21
1275.0
 31
0.0
  0
TEXT
  8
L-ZISSEN
 10
714.5
 20
1272.75
 30
0.0
 40
4.5
  1
"3" PORT
  0
SOLID
  8
L-ZISSEN
 10
833.140769
 20
1237.676233
 30
0.0
 11
832.535463
 21
1237.955605
 31
0.0
 12
832.0
 22
1236.0
 32
0.0
 13
832.0
 23
1236.0
 33
0.0
  0
LINE
  8
L-ZISSEN
 10
832.838116
 20
1237.815919
 30
0.0
 11
850.0
 21
1275.0
 31
0.0
  0
LINE
  8
L-ZISSEN
 10
850.0
 20
1275.0
 30
0.0
 11
852.0
 21
1275.0
 31
0.0
  0
TEXT
  8
L-ZISSEN
 10
854.0
 20
1272.75
 30
0.0
 40
4.5
  1
"5" PORT
  0
SOLID
  8
L-ZISSEN
 10
1603.985643
 20
1233.244383
 30
0.0
 11
1604.609863
 21
1233.0103
 31
0.0
 12
1605.0
 22
1235.0
 32
0.0
 13
1605.0
 23
1235.0
 33
0.0
  0
LINE
  8
L-ZISSEN
 10
1604.297753
 20
1233.127342
 30
0.0
 11
1590.0
 21
1195.0
 31
0.0
  0
LINE
  8
L-ZISSEN
 10
1590.0
 20
1195.0
 30
0.0
 11
1588.0
 21
1195.0
 31
0.0
  0
TEXT
  8
L-ZISSEN
 10
1556.0
 20
1192.75
 30
0.0
 40
4.5
  1
"1" PORT
  0
TEXT
  8
L-ZISSEN
 10
1560.0
 20
1185.0
 30
0.0
 40
4.5
  1
Rc 1/2
  0
SOLID
  8
L-ZISSEN
 10
1569.518543
 20
1236.969596
 30
0.0
 11
1568.90578
 21
1236.706984
 31
0.0
 12
1570.0
 22
1235.0
 32
0.0
 13
1570.0
 23
1235.0
 33
0.0
  0
LINE
  8
L-ZISSEN
 10
1569.212161
 20
1236.83829
 30
0.0
 11
1555.0
 21
1270.0
 31
0.0
  0
LINE
  8
L-ZISSEN
 10
1555.0
 20
1270.0
 30
0.0
 11
1553.0
 21
1270.0
 31
0.0
  0
TEXT
  8
L-ZISSEN
 10
1519.5
 20
1267.75
 30
0.0
 40
4.5
  1
"3" PORT
  0
SOLID
  8
L-ZISSEN
 10
1641.09422
 20
1236.706984
 30
0.0
 11
1640.481457
 21
1236.969596
 31
0.0
 12
1640.0
 22
1235.0
 32
0.0
 13
1640.0
 23
1235.0
 33
0.0
  0
LINE
  8
L-ZISSEN
 10
1640.787839
 20
1236.83829
 30
0.0
 11
1655.0
 21
1270.0
 31
0.0
  0
LINE
  8
L-ZISSEN
 10
1655.0
 20
1270.0
 30
0.0
 11
1657.0
 21
1270.0
 31
0.0
  0
TEXT
  8
L-ZISSEN
 10
1659.0
 20
1267.75
 30
0.0
 40
4.5
  1
"5" PORT
  0
SOLID
  8
L-ZISSEN
 10
1021.52972
 20
1112.972295
 30
0.0
 11
1020.915478
 21
1112.713161
 31
0.0
 12
1022.0
 22
1111.0
 32
0.0
 13
1022.0
 23
1111.0
 33
0.0
  0
LINE
  8
L-ZISSEN
 10
1021.222599
 20
1112.842728
 30
0.0
 11
995.0
 21
1175.0
 31
0.0
  0
LINE
  8
L-ZISSEN
 10
995.0
 20
1175.0
 30
0.0
 11
993.0
 21
1175.0
 31
0.0
  0
TEXT
  8
L-ZISSEN
 10
959.5
 20
1172.75
 30
0.0
 40
4.5
  1
"2" PORT
  0
SOLID
  8
L-ZISSEN
 10
1038.515091
 20
1077.038931
 30
0.0
 11
1039.123271
 21
1077.311991
 31
0.0
 12
1038.0
 22
1079.0
 32
0.0
 13
1038.0
 23
1079.0
 33
0.0
  0
LINE
  8
L-ZISSEN
 10
1038.819181
 20
1077.175461
 30
0.0
 11
1060.0
 21
1030.0
 31
0.0
  0
LINE
  8
L-ZISSEN
 10
1060.0
 20
1030.0
 30
0.0
 11
1062.0
 21
1030.0
 31
0.0
  0
TEXT
  8
L-ZISSEN
 10
1064.0
 20
1027.75
 30
0.0
 40
4.5
  1
"4" PORT
  0
TEXT
  8
L-ZISSEN
 10
960.0
 20
1165.0
 30
0.0
 40
4.5
  1
Rc 1/4
  0
TEXT
  8
L-ZISSEN
 10
960.0
 20
1155.0
 30
0.0
 40
4.5
  1
Rc 3/8
  0
TEXT
  8
L-ZISSEN
 10
1065.0
 20
1010.0
 30
0.0
 40
4.5
  1
Rc 3/8
  0
TEXT
  8
L-ZISSEN
 10
1065.0
 20
1020.0
 30
0.0
 40
4.5
  1
Rc 1/4
  0
ENDSEC
  0
EOF
