  0
SECTION
  2
HEADER
  9
$ACADVER
  1
AC1006
  9
$INSBASE
 10
0.0
 20
0.0
 30
0.0
  9
$EXTMIN
 10
45.0
 20
26.0
  9
$EXTMAX
 10
840.0
 20
548.5
  9
$LIMMIN
 10
0.0
 20
0.0
  9
$LIMMAX
 10
841.0
 20
594.0
  9
$ORTHOMODE
 70
     0
  9
$REGENMODE
 70
     1
  9
$FILLMODE
 70
     1
  9
$QTEXTMODE
 70
     0
  9
$MIRRTEXT
 70
     1
  9
$DRAGMODE
 70
     2
  9
$LTSCALE
 40
1.0
  9
$OSMODE
 70
     0
  9
$ATTMODE
 70
     1
  9
$TEXTSIZE
 40
4.5
  9
$TRACEWID
 40
0.05
  9
$TEXTSTYLE
  7
STANDARD
  9
$CLAYER
  8
L-ZISSEN
  9
$CELTYPE
  6
BYLAYER
  9
$CECOLOR
 62
   256
  9
$DIMSCALE
 40
1.0
  9
$DIMASZ
 40
2.0
  9
$DIMEXO
 40
2.0
  9
$DIMDLI
 40
0.38
  9
$DIMRND
 40
0.0
  9
$DIMDLE
 40
1.0
  9
$DIMEXE
 40
2.0
  9
$DIMTP
 40
0.0
  9
$DIMTM
 40
0.0
  9
$DIMTXT
 40
4.5
  9
$DIMCEN
 40
0.09
  9
$DIMTSZ
 40
0.0
  9
$DIMTOL
 70
     0
  9
$DIMLIM
 70
     0
  9
$DIMTIH
 70
     0
  9
$DIMTOH
 70
     0
  9
$DIMSE1
 70
     0
  9
$DIMSE2
 70
     0
  9
$DIMTAD
 70
     1
  9
$DIMZIN
 70
     0
  9
$DIMBLK
  1

  9
$DIMASO
 70
     0
  9
$DIMSHO
 70
     0
  9
$DIMPOST
  1

  9
$DIMAPOST
  1

  9
$DIMALT
 70
     0
  9
$DIMALTD
 70
     2
  9
$DIMALTF
 40
25.4
  9
$DIMLFAC
 40
1.0
  9
$DIMTOFL
 70
     1
  9
$DIMTVP
 40
0.0
  9
$DIMTIX
 70
     1
  9
$DIMSOXD
 70
     0
  9
$DIMSAH
 70
     0
  9
$DIMBLK1
  1

  9
$DIMBLK2
  1

  9
$LUNITS
 70
     2
  9
$LUPREC
 70
     4
  9
$AXISMODE
 70
     0
  9
$AXISUNIT
 10
0.0
 20
0.0
  9
$SKETCHINC
 40
0.1
  9
$FILLETRAD
 40
0.0
  9
$AUNITS
 70
     0
  9
$AUPREC
 70
     0
  9
$MENU
  1
acad
  9
$ELEVATION
 40
0.0
  9
$THICKNESS
 40
0.0
  9
$LIMCHECK
 70
     0
  9
$BLIPMODE
 70
     1
  9
$CHAMFERA
 40
0.0
  9
$CHAMFERB
 40
0.0
  9
$SKPOLY
 70
     0
  9
$TDCREATE
 40
2449002.6760908565
  9
$TDUPDATE
 40
2449002.6760908565
  9
$TDINDWG
 40
0.0000000000
  9
$TDUSRTIMER
 40
0.0000000000
  9
$USRTIMER
 70
     1
  9
$ANGBASE
 50
0.0
  9
$ANGDIR
 70
     0
  9
$PDMODE
 70
     0
  9
$PDSIZE
 40
0.0
  9
$PLINEWID
 40
0.0
  9
$COORDS
 70
     2
  9
$SPLFRAME
 70
     0
  9
$SPLINETYPE
 70
     6
  9
$SPLINESEGS
 70
     8
  9
$ATTDIA
 70
     0
  9
$ATTREQ
 70
     1
  9
$HANDLING
 70
     0
  9
$HANDSEED
  5
0
  9
$SURFTAB1
 70
     6
  9
$SURFTAB2
 70
     6
  9
$SURFTYPE
 70
     6
  9
$SURFU
 70
     6
  9
$SURFV
 70
     6
  9
$FLATLAND
 70
     0
  9
$UCSNAME
  2

  9
$UCSORG
 10
0.0
 20
0.0
 30
0.0
  9
$UCSXDIR
 10
1.0
 20
0.0
 30
0.0
  9
$UCSYDIR
 10
0.0
 20
1.0
 30
0.0
  9
$USERI1
 70
     0
  9
$USERI2
 70
     0
  9
$USERI3
 70
     0
  9
$USERI4
 70
     0
  9
$USERI5
 70
     0
  9
$USERR1
 40
0.0
  9
$USERR2
 40
0.0
  9
$USERR3
 40
0.0
  9
$USERR4
 40
0.0
  9
$USERR5
 40
0.0
  9
$WORLDVIEW
 70
     1
  0
ENDSEC
  0
SECTION
  2
TABLES
  0
TABLE
  2
VPORT
 70
     2
  0
VPORT
  2
*ACTIVE
 70
     0
 10
0.0
 20
0.0
 11
1.0
 21
1.0
 12
476.455978
 22
307.649038
 13
0.0
 23
0.0
 14
5.0
 24
5.0
 15
0.0
 25
0.0
 16
0.0
 26
0.0
 36
1.0
 17
0.0
 27
0.0
 37
0.0
 40
615.298075
 41
1.5487
 42
50.0
 43
0.0
 44
0.0
 50
0.0
 51
0.0
 71
     0
 72
   100
 73
     1
 74
     0
 75
     0
 76
     0
 77
     0
 78
     0
  0
ENDTAB
  0
TABLE
  2
LTYPE
 70
     2
  0
LTYPE
  2
CONTINUOUS
 70
    64
  3
Solid line
 72
    65
 73
     0
 40
0.0
  0
LTYPE
  2
CENTER
 70
    64
  3
____ _ ____ _ ____ _ ____ _ 
 72
    65
 73
     4
 40
60.0
 49
45.0
 49
-5.0
 49
5.0
 49
-5.0
  0
ENDTAB
  0
TABLE
  2
LAYER
 70
     3
  0
LAYER
  2
0
 70
     0
 62
     7
  6
CONTINUOUS
  0
LAYER
  2
L-ZISSEN
 70
    64
 62
     7
  6
CONTINUOUS
  0
LAYER
  2
L-TYUSIN
 70
    64
 62
     1
  6
CENTER
  0
ENDTAB
  0
TABLE
  2
STYLE
 70
     1
  0
STYLE
  2
STANDARD
 70
    64
 40
0.0
 41
1.0
 50
0.0
 71
     0
 42
4.5
  3
TXT
  4

  0
ENDTAB
  0
TABLE
  2
VIEW
 70
     0
  0
ENDTAB
  0
TABLE
  2
UCS
 70
     0
  0
ENDTAB
  0
TABLE
  2
DWGMGR
 70
     0
  0
ENDTAB
  0
ENDSEC
  0
SECTION
  2
BLOCKS
  0
ENDSEC
  0
SECTION
  2
ENTITIES
  0
LINE
  8
L-TYUSIN
 10
560.0
 20
240.0
 30
0.0
 11
810.0
 21
240.0
 31
0.0
  0
LINE
  8
L-ZISSEN
 10
745.5
 20
133.969655
 30
0.0
 11
745.5
 21
112.030345
 31
0.0
  0
LINE
  8
L-ZISSEN
 10
745.5
 20
133.969655
 30
0.0
 11
740.0
 21
133.969655
 31
0.0
  0
LINE
  8
L-ZISSEN
 10
745.5
 20
112.030345
 30
0.0
 11
740.0
 21
112.030345
 31
0.0
  0
LINE
  8
L-ZISSEN
 10
740.0
 20
133.969655
 30
0.0
 11
740.0
 21
112.030345
 31
0.0
  0
LINE
  8
L-ZISSEN
 10
730.5
 20
132.2
 30
0.0
 11
737.65
 21
132.2
 31
0.0
  0
LINE
  8
L-ZISSEN
 10
730.5
 20
113.8
 30
0.0
 11
737.65
 21
113.8
 31
0.0
  0
LINE
  8
L-ZISSEN
 10
737.65
 20
131.5
 30
0.0
 11
740.0
 21
131.5
 31
0.0
  0
LINE
  8
L-ZISSEN
 10
737.65
 20
114.5
 30
0.0
 11
740.0
 21
114.5
 31
0.0
  0
LINE
  8
L-ZISSEN
 10
737.65
 20
132.2
 30
0.0
 11
737.65
 21
113.8
 31
0.0
  0
CIRCLE
  8
L-ZISSEN
 10
780.0
 20
123.0
 30
0.0
 40
6.5
  0
CIRCLE
  8
L-ZISSEN
 10
780.0
 20
123.0
 30
0.0
 40
11.25
  0
LINE
  8
L-ZISSEN
 10
730.5
 20
136.0
 30
0.0
 11
730.5
 21
110.0
 31
0.0
  0
LINE
  8
L-ZISSEN
 10
703.5
 20
136.0
 30
0.0
 11
730.5
 21
136.0
 31
0.0
  0
LINE
  8
L-ZISSEN
 10
676.5
 20
138.0
 30
0.0
 11
703.5
 21
138.0
 31
0.0
  0
LINE
  8
L-ZISSEN
 10
730.5
 20
110.0
 30
0.0
 11
715.5
 21
110.0
 31
0.0
  0
LINE
  8
L-ZISSEN
 10
676.5
 20
138.0
 30
0.0
 11
676.5
 21
116.0
 31
0.0
  0
LINE
  8
L-ZISSEN
 10
703.5
 20
138.0
 30
0.0
 11
703.5
 21
116.0
 31
0.0
  0
LINE
  8
L-ZISSEN
 10
704.5
 20
113.5
 30
0.0
 11
720.5
 21
113.5
 31
0.0
  0
LINE
  8
L-ZISSEN
 10
675.5
 20
116.0
 30
0.0
 11
675.5
 21
110.0
 31
0.0
  0
LINE
  8
L-ZISSEN
 10
704.5
 20
116.0
 30
0.0
 11
704.5
 21
110.0
 31
0.0
  0
LINE
  8
L-ZISSEN
 10
720.5
 20
113.5
 30
0.0
 11
720.5
 21
110.0
 31
0.0
  0
LINE
  8
L-ZISSEN
 10
675.5
 20
116.0
 30
0.0
 11
704.5
 21
116.0
 31
0.0
  0
LINE
  8
L-ZISSEN
 10
703.5
 20
167.0
 30
0.0
 11
730.5
 21
167.0
 31
0.0
  0
LINE
  8
L-ZISSEN
 10
730.5
 20
193.0
 30
0.0
 11
703.5
 21
193.0
 31
0.0
  0
LINE
  8
L-ZISSEN
 10
730.5
 20
167.0
 30
0.0
 11
730.5
 21
193.0
 31
0.0
  0
LINE
  8
L-ZISSEN
 10
737.65
 20
170.8
 30
0.0
 11
737.65
 21
189.2
 31
0.0
  0
LINE
  8
L-ZISSEN
 10
737.65
 20
188.5
 30
0.0
 11
740.0
 21
188.5
 31
0.0
  0
LINE
  8
L-ZISSEN
 10
737.65
 20
171.5
 30
0.0
 11
740.0
 21
171.5
 31
0.0
  0
LINE
  8
L-ZISSEN
 10
730.5
 20
189.2
 30
0.0
 11
737.65
 21
189.2
 31
0.0
  0
LINE
  8
L-ZISSEN
 10
730.5
 20
170.8
 30
0.0
 11
737.65
 21
170.8
 31
0.0
  0
LINE
  8
L-ZISSEN
 10
740.0
 20
169.030345
 30
0.0
 11
740.0
 21
190.969655
 31
0.0
  0
LINE
  8
L-ZISSEN
 10
745.5
 20
190.969655
 30
0.0
 11
740.0
 21
190.969655
 31
0.0
  0
LINE
  8
L-ZISSEN
 10
745.5
 20
169.030345
 30
0.0
 11
740.0
 21
169.030345
 31
0.0
  0
LINE
  8
L-ZISSEN
 10
745.5
 20
169.030345
 30
0.0
 11
745.5
 21
190.969655
 31
0.0
  0
LINE
  8
L-ZISSEN
 10
703.5
 20
166.5
 30
0.0
 11
703.5
 21
193.5
 31
0.0
  0
LINE
  8
L-ZISSEN
 10
676.5
 20
166.5
 30
0.0
 11
676.5
 21
193.5
 31
0.0
  0
LINE
  8
L-ZISSEN
 10
676.5
 20
166.5
 30
0.0
 11
703.5
 21
166.5
 31
0.0
  0
LINE
  8
L-ZISSEN
 10
676.5
 20
193.5
 30
0.0
 11
703.5
 21
193.5
 31
0.0
  0
LINE
  8
L-ZISSEN
 10
675.5
 20
194.5
 30
0.0
 11
675.5
 21
165.5
 31
0.0
  0
LINE
  8
L-ZISSEN
 10
675.5
 20
165.5
 30
0.0
 11
704.5
 21
165.5
 31
0.0
  0
LINE
  8
L-ZISSEN
 10
704.5
 20
165.5
 30
0.0
 11
704.5
 21
167.0
 31
0.0
  0
LINE
  8
L-ZISSEN
 10
704.5
 20
194.5
 30
0.0
 11
675.5
 21
194.5
 31
0.0
  0
LINE
  8
L-ZISSEN
 10
704.5
 20
193.0
 30
0.0
 11
704.5
 21
194.5
 31
0.0
  0
LINE
  8
L-ZISSEN
 10
794.5
 20
116.0
 30
0.0
 11
793.0
 21
116.0
 31
0.0
  0
LINE
  8
L-ZISSEN
 10
765.5
 20
116.0
 30
0.0
 11
765.5
 21
110.0
 31
0.0
  0
LINE
  8
L-ZISSEN
 10
794.5
 20
116.0
 30
0.0
 11
794.5
 21
110.0
 31
0.0
  0
LINE
  8
L-ZISSEN
 10
766.5
 20
138.0
 30
0.0
 11
766.5
 21
116.0
 31
0.0
  0
LINE
  8
L-ZISSEN
 10
793.5
 20
138.0
 30
0.0
 11
793.5
 21
116.0
 31
0.0
  0
LINE
  8
L-ZISSEN
 10
793.5
 20
138.0
 30
0.0
 11
766.5
 21
138.0
 31
0.0
  0
LINE
  8
L-ZISSEN
 10
794.5
 20
113.5
 30
0.0
 11
788.87412
 21
113.5
 31
0.0
  0
LINE
  8
L-ZISSEN
 10
768.5
 20
113.5
 30
0.0
 11
768.5
 21
110.0
 31
0.0
  0
LINE
  8
L-ZISSEN
 10
791.5
 20
113.5
 30
0.0
 11
791.5
 21
110.0
 31
0.0
  0
LINE
  8
L-ZISSEN
 10
771.12588
 20
113.5
 30
0.0
 11
765.5
 21
113.5
 31
0.0
  0
CIRCLE
  8
L-ZISSEN
 10
780.0
 20
123.0
 30
0.0
 40
13.0
  0
LINE
  8
L-ZISSEN
 10
793.0
 20
123.0
 30
0.0
 11
793.0
 21
113.5
 31
0.0
  0
LINE
  8
L-ZISSEN
 10
767.0
 20
123.0
 30
0.0
 11
767.0
 21
113.5
 31
0.0
  0
LINE
  8
L-ZISSEN
 10
767.0
 20
116.0
 30
0.0
 11
765.5
 21
116.0
 31
0.0
  0
TEXT
  8
L-ZISSEN
 10
570.0
 20
225.0
 30
0.0
 40
4.5
  1
ELECTRICAL CONNECTION
  0
LINE
  8
L-TYUSIN
 10
90.3
 20
210.0
 30
0.0
 11
399.7
 21
210.0
 31
0.0
  0
LINE
  8
L-ZISSEN
 10
290.8
 20
184.0
 30
0.0
 11
290.8
 21
236.0
 31
0.0
  0
LINE
  8
L-ZISSEN
 10
347.8
 20
236.0
 30
0.0
 11
282.7
 21
236.0
 31
0.0
  0
LINE
  8
L-ZISSEN
 10
199.2
 20
236.0
 30
0.0
 11
199.2
 21
184.0
 31
0.0
  0
LINE
  8
L-ZISSEN
 10
142.2
 20
184.0
 30
0.0
 11
347.8
 21
184.0
 31
0.0
  0
LINE
  8
L-ZISSEN
 10
347.8
 20
184.0
 30
0.0
 11
347.8
 21
236.0
 31
0.0
  0
LINE
  8
L-ZISSEN
 10
347.8
 20
234.0
 30
0.0
 11
391.7
 21
234.0
 31
0.0
  0
LINE
  8
L-ZISSEN
 10
391.7
 20
191.2
 30
0.0
 11
347.8
 21
191.2
 31
0.0
  0
LINE
  8
L-ZISSEN
 10
391.7
 20
234.0
 30
0.0
 11
391.7
 21
191.2
 31
0.0
  0
LINE
  8
L-ZISSEN
 10
394.7
 20
219.814955
 30
0.0
 11
391.7
 21
219.814955
 31
0.0
  0
LINE
  8
L-ZISSEN
 10
394.7
 20
200.185045
 30
0.0
 11
391.7
 21
200.185045
 31
0.0
  0
LINE
  8
L-ZISSEN
 10
394.7
 20
219.814955
 30
0.0
 11
394.7
 21
200.185045
 31
0.0
  0
LINE
  8
L-ZISSEN
 10
352.45
 20
269.7
 30
0.0
 11
352.45
 21
238.5
 31
0.0
  0
LINE
  8
L-ZISSEN
 10
352.45
 20
269.7
 30
0.0
 11
395.45
 21
269.7
 31
0.0
  0
LINE
  8
L-ZISSEN
 10
379.95
 20
247.2
 30
0.0
 11
395.45
 21
247.2
 31
0.0
  0
LINE
  8
L-ZISSEN
 10
395.45
 20
269.7
 30
0.0
 11
395.45
 21
247.2
 31
0.0
  0
LINE
  8
L-ZISSEN
 10
379.95
 20
269.7
 30
0.0
 11
379.95
 21
238.5
 31
0.0
  0
LINE
  8
L-ZISSEN
 10
406.2
 20
269.419655
 30
0.0
 11
406.2
 21
247.480345
 31
0.0
  0
LINE
  8
L-ZISSEN
 10
406.2
 20
269.419655
 30
0.0
 11
400.7
 21
269.419655
 31
0.0
  0
LINE
  8
L-ZISSEN
 10
406.2
 20
247.480345
 30
0.0
 11
400.7
 21
247.480345
 31
0.0
  0
LINE
  8
L-ZISSEN
 10
400.7
 20
269.419655
 30
0.0
 11
400.7
 21
247.480345
 31
0.0
  0
LINE
  8
L-ZISSEN
 10
395.45
 20
267.65
 30
0.0
 11
398.35
 21
267.65
 31
0.0
  0
LINE
  8
L-ZISSEN
 10
395.45
 20
249.25
 30
0.0
 11
398.35
 21
249.25
 31
0.0
  0
LINE
  8
L-ZISSEN
 10
398.35
 20
266.95
 30
0.0
 11
400.7
 21
266.95
 31
0.0
  0
LINE
  8
L-ZISSEN
 10
398.35
 20
249.95
 30
0.0
 11
400.7
 21
249.95
 31
0.0
  0
LINE
  8
L-ZISSEN
 10
398.35
 20
267.65
 30
0.0
 11
398.35
 21
249.25
 31
0.0
  0
LINE
  8
L-ZISSEN
 10
350.95
 20
238.5
 30
0.0
 11
350.95
 21
234.0
 31
0.0
  0
LINE
  8
L-ZISSEN
 10
381.45
 20
238.5
 30
0.0
 11
381.45
 21
234.0
 31
0.0
  0
LINE
  8
L-ZISSEN
 10
350.95
 20
238.5
 30
0.0
 11
381.45
 21
238.5
 31
0.0
  0
LINE
  8
L-ZISSEN
 10
347.8
 20
319.4
 30
0.0
 11
347.8
 21
350.6
 31
0.0
  0
LINE
  8
L-ZISSEN
 10
290.8
 20
318.0
 30
0.0
 11
290.8
 21
352.0
 31
0.0
  0
LINE
  8
L-TYUSIN
 10
245.0
 20
366.0
 30
0.0
 11
245.0
 21
304.0
 31
0.0
  0
LINE
  8
L-TYUSIN
 10
78.8
 20
335.0
 30
0.0
 11
411.2
 21
335.0
 31
0.0
  0
LINE
  8
L-ZISSEN
 10
381.45
 20
323.75
 30
0.0
 11
381.45
 21
320.0
 31
0.0
  0
LINE
  8
L-ZISSEN
 10
351.45
 20
350.0
 30
0.0
 11
351.45
 21
320.0
 31
0.0
  0
LINE
  8
L-ZISSEN
 10
381.45
 20
350.0
 30
0.0
 11
381.45
 21
346.25
 31
0.0
  0
LINE
  8
L-ZISSEN
 10
352.45
 20
321.25
 30
0.0
 11
379.95
 21
321.25
 31
0.0
  0
LINE
  8
L-ZISSEN
 10
352.45
 20
348.75
 30
0.0
 11
379.95
 21
348.75
 31
0.0
  0
LINE
  8
L-ZISSEN
 10
379.95
 20
321.25
 30
0.0
 11
379.95
 21
348.75
 31
0.0
  0
LINE
  8
L-ZISSEN
 10
352.45
 20
321.25
 30
0.0
 11
352.45
 21
348.75
 31
0.0
  0
LINE
  8
L-ZISSEN
 10
391.7
 20
346.25
 30
0.0
 11
391.7
 21
350.0
 31
0.0
  0
LINE
  8
L-ZISSEN
 10
379.95
 20
346.25
 30
0.0
 11
395.45
 21
346.25
 31
0.0
  0
LINE
  8
L-ZISSEN
 10
395.45
 20
323.75
 30
0.0
 11
395.45
 21
346.25
 31
0.0
  0
LINE
  8
L-ZISSEN
 10
379.95
 20
323.75
 30
0.0
 11
395.45
 21
323.75
 31
0.0
  0
LINE
  8
L-ZISSEN
 10
398.35
 20
325.8
 30
0.0
 11
398.35
 21
344.2
 31
0.0
  0
LINE
  8
L-ZISSEN
 10
398.35
 20
343.5
 30
0.0
 11
400.7
 21
343.5
 31
0.0
  0
LINE
  8
L-ZISSEN
 10
398.35
 20
326.5
 30
0.0
 11
400.7
 21
326.5
 31
0.0
  0
LINE
  8
L-ZISSEN
 10
395.45
 20
344.2
 30
0.0
 11
398.35
 21
344.2
 31
0.0
  0
LINE
  8
L-ZISSEN
 10
395.45
 20
325.8
 30
0.0
 11
398.35
 21
325.8
 31
0.0
  0
LINE
  8
L-ZISSEN
 10
400.7
 20
324.030345
 30
0.0
 11
400.7
 21
345.969655
 31
0.0
  0
LINE
  8
L-ZISSEN
 10
406.2
 20
345.969655
 30
0.0
 11
400.7
 21
345.969655
 31
0.0
  0
LINE
  8
L-ZISSEN
 10
406.2
 20
324.030345
 30
0.0
 11
400.7
 21
324.030345
 31
0.0
  0
LINE
  8
L-ZISSEN
 10
406.2
 20
324.030345
 30
0.0
 11
406.2
 21
345.969655
 31
0.0
  0
LINE
  8
L-ZISSEN
 10
391.7
 20
320.0
 30
0.0
 11
347.8
 21
320.0
 31
0.0
  0
LINE
  8
L-ZISSEN
 10
391.7
 20
350.0
 30
0.0
 11
347.8
 21
350.0
 31
0.0
  0
LINE
  8
L-ZISSEN
 10
391.7
 20
320.0
 30
0.0
 11
391.7
 21
323.75
 31
0.0
  0
LINE
  8
L-ZISSEN
 10
471.5
 20
214.907477
 30
0.0
 11
471.5
 21
205.092523
 31
0.0
  0
LINE
  8
L-ZISSEN
 10
480.0
 20
219.814955
 30
0.0
 11
471.5
 21
214.907477
 31
0.0
  0
LINE
  8
L-ZISSEN
 10
488.5
 20
214.907477
 30
0.0
 11
480.0
 21
219.814955
 31
0.0
  0
LINE
  8
L-ZISSEN
 10
488.5
 20
205.092523
 30
0.0
 11
488.5
 21
214.907477
 31
0.0
  0
LINE
  8
L-ZISSEN
 10
480.0
 20
200.185045
 30
0.0
 11
488.5
 21
205.092523
 31
0.0
  0
LINE
  8
L-ZISSEN
 10
471.5
 20
205.092523
 30
0.0
 11
480.0
 21
200.185045
 31
0.0
  0
LINE
  8
L-ZISSEN
 10
464.75
 20
234.0
 30
0.0
 11
495.25
 21
234.0
 31
0.0
  0
LINE
  8
L-ZISSEN
 10
464.75
 20
238.5
 30
0.0
 11
495.25
 21
238.5
 31
0.0
  0
LINE
  8
L-ZISSEN
 10
495.25
 20
238.5
 30
0.0
 11
495.25
 21
234.0
 31
0.0
  0
LINE
  8
L-ZISSEN
 10
464.75
 20
238.5
 30
0.0
 11
464.75
 21
234.0
 31
0.0
  0
CIRCLE
  8
L-ZISSEN
 10
480.0
 20
258.45
 30
0.0
 40
6.5
  0
LINE
  8
L-ZISSEN
 10
466.25
 20
269.7
 30
0.0
 11
466.25
 21
238.5
 31
0.0
  0
LINE
  8
L-ZISSEN
 10
493.75
 20
269.7
 30
0.0
 11
493.75
 21
238.5
 31
0.0
  0
CIRCLE
  8
L-ZISSEN
 10
480.0
 20
258.45
 30
0.0
 40
11.25
  0
LINE
  8
L-ZISSEN
 10
466.25
 20
269.7
 30
0.0
 11
493.75
 21
269.7
 31
0.0
  0
LINE
  8
L-ZISSEN
 10
465.0
 20
191.2
 30
0.0
 11
495.0
 21
191.2
 31
0.0
  0
LINE
  8
L-TYUSIN
 10
480.0
 20
151.5
 30
0.0
 11
480.0
 21
274.7
 31
0.0
  0
LINE
  8
L-TYUSIN
 10
459.0
 20
210.0
 30
0.0
 11
501.0
 21
210.0
 31
0.0
  0
LINE
  8
L-ZISSEN
 10
455.0
 20
184.0
 30
0.0
 11
505.0
 21
184.0
 31
0.0
  0
LINE
  8
L-ZISSEN
 10
340.128203
 20
242.9
 30
0.0
 11
326.271797
 21
242.9
 31
0.0
  0
LINE
  8
L-ZISSEN
 10
326.271797
 20
242.9
 30
0.0
 11
326.271797
 21
236.0
 31
0.0
  0
LINE
  8
L-ZISSEN
 10
340.128203
 20
242.9
 30
0.0
 11
340.128203
 21
236.0
 31
0.0
  0
LINE
  8
L-ZISSEN
 10
329.735898
 20
341.0
 30
0.0
 11
326.271797
 21
335.0
 31
0.0
  0
LINE
  8
L-ZISSEN
 10
326.271797
 20
335.0
 30
0.0
 11
329.735898
 21
329.0
 31
0.0
  0
LINE
  8
L-ZISSEN
 10
329.735898
 20
329.0
 30
0.0
 11
336.664102
 21
329.0
 31
0.0
  0
LINE
  8
L-ZISSEN
 10
336.664102
 20
329.0
 30
0.0
 11
340.128203
 21
335.0
 31
0.0
  0
LINE
  8
L-ZISSEN
 10
340.128203
 20
335.0
 30
0.0
 11
336.664102
 21
341.0
 31
0.0
  0
LINE
  8
L-ZISSEN
 10
336.664102
 20
341.0
 30
0.0
 11
329.735898
 21
341.0
 31
0.0
  0
TEXT
  8
L-ZISSEN
 10
45.0
 20
540.0
 30
0.0
 40
4.5
  1
MODEL No. :
  0
TEXT
  8
L-ZISSEN
 10
90.0
 20
540.0
 30
0.0
 40
4.5
  1
MVD-492-
  0
TEXT
  8
L-ZISSEN
 10
570.0
 20
215.0
 30
0.0
 40
4.5
  1
MODEL No. :
  0
TEXT
  8
L-ZISSEN
 10
615.0
 20
215.0
 30
0.0
 40
4.5
  1
MVD-492-0*M1
  0
LINE
  8
L-TYUSIN
 10
560.0
 20
410.0
 30
0.0
 11
560.0
 21
30.0
 31
0.0
  0
SOLID
  8
L-ZISSEN
 10
690.83205
 20
108.150999
 30
0.0
 11
691.38675
 21
108.520799
 31
0.0
 12
690.0
 22
110.0
 32
0.0
 13
690.0
 23
110.0
 33
0.0
  0
LINE
  8
L-ZISSEN
 10
691.1094
 20
108.335899
 30
0.0
 11
700.0
 21
95.0
 31
0.0
  0
LINE
  8
L-ZISSEN
 10
700.0
 20
95.0
 30
0.0
 11
702.0
 21
95.0
 31
0.0
  0
TEXT
  8
L-ZISSEN
 10
704.0
 20
92.75
 30
0.0
 40
4.5
  1
P.P
  0
SOLID
  8
L-ZISSEN
 10
780.83205
 20
108.150999
 30
0.0
 11
781.38675
 21
108.520799
 31
0.0
 12
780.0
 22
110.0
 32
0.0
 13
780.0
 23
110.0
 33
0.0
  0
LINE
  8
L-ZISSEN
 10
781.1094
 20
108.335899
 30
0.0
 11
790.0
 21
95.0
 31
0.0
  0
LINE
  8
L-ZISSEN
 10
790.0
 20
95.0
 30
0.0
 11
792.0
 21
95.0
 31
0.0
  0
TEXT
  8
L-ZISSEN
 10
794.0
 20
92.75
 30
0.0
 40
4.5
  1
P.P
  0
SOLID
  8
L-ZISSEN
 10
690.433289
 20
178.01925
 30
0.0
 11
691.052274
 21
178.266844
 31
0.0
 12
690.0
 22
180.0
 32
0.0
 13
690.0
 23
180.0
 33
0.0
  0
LINE
  8
L-ZISSEN
 10
690.742781
 20
178.143047
 30
0.0
 11
700.0
 21
155.0
 31
0.0
  0
LINE
  8
L-ZISSEN
 10
700.0
 20
155.0
 30
0.0
 11
702.0
 21
155.0
 31
0.0
  0
TEXT
  8
L-ZISSEN
 10
704.0
 20
152.75
 30
0.0
 40
4.5
  1
P.P
  0
LINE
  8
L-ZISSEN
 10
715.5
 20
165.0
 30
0.0
 11
715.5
 21
167.0
 31
0.0
  0
LINE
  8
L-ZISSEN
 10
715.5
 20
193.0
 30
0.0
 11
715.5
 21
195.0
 31
0.0
  0
LINE
  8
L-TYUSIN
 10
560.0
 20
345.0
 30
0.0
 11
720.0
 21
345.0
 31
0.0
  0
TEXT
  8
L-ZISSEN
 10
570.0
 20
395.0
 30
0.0
 40
4.5
  1
EXTERNAL PILOT AIR SUPPLY
  0
TEXT
  8
L-ZISSEN
 10
570.0
 20
385.0
 30
0.0
 40
4.5
  1
MODEL No. :
  0
TEXT
  8
L-ZISSEN
 10
615.0
 20
385.0
 30
0.0
 40
4.5
  1
MVD-492-0*P
  0
LINE
  8
L-TYUSIN
 10
635.0
 20
373.0
 30
0.0
 11
635.0
 21
357.0
 31
0.0
  0
CIRCLE
  8
L-ZISSEN
 10
635.0
 20
365.0
 30
0.0
 40
4.283
  0
SOLID
  8
L-ZISSEN
 10
636.479201
 20
363.61325
 30
0.0
 11
636.849001
 21
364.16795
 31
0.0
 12
635.0
 22
365.0
 32
0.0
 13
635.0
 23
365.0
 33
0.0
  0
LINE
  8
L-ZISSEN
 10
636.664101
 20
363.8906
 30
0.0
 11
650.0
 21
355.0
 31
0.0
  0
LINE
  8
L-ZISSEN
 10
650.0
 20
355.0
 30
0.0
 11
652.0
 21
355.0
 31
0.0
  0
TEXT
  8
L-ZISSEN
 10
654.0
 20
352.75
 30
0.0
 40
4.5
  1
P.P
  0
TEXT
  8
L-ZISSEN
 10
570.0
 20
330.0
 30
0.0
 40
4.5
  1
LOCK TYPE MANUAL OPERATION BUTTON
  0
TEXT
  8
L-ZISSEN
 10
570.0
 20
320.0
 30
0.0
 40
4.5
  1
MODEL No. :
  0
TEXT
  8
L-ZISSEN
 10
615.0
 20
320.0
 30
0.0
 40
4.5
  1
MVD-492-0*R
  0
LINE
  8
L-ZISSEN
 10
632.113249
 20
295.0
 30
0.0
 11
629.226497
 21
290.0
 31
0.0
  0
LINE
  8
L-ZISSEN
 10
629.226497
 20
290.0
 30
0.0
 11
632.113249
 21
285.0
 31
0.0
  0
LINE
  8
L-ZISSEN
 10
632.113249
 20
285.0
 30
0.0
 11
637.886751
 21
285.0
 31
0.0
  0
LINE
  8
L-ZISSEN
 10
637.886751
 20
285.0
 30
0.0
 11
640.773503
 21
290.0
 31
0.0
  0
LINE
  8
L-ZISSEN
 10
640.773503
 20
290.0
 30
0.0
 11
637.886751
 21
295.0
 31
0.0
  0
LINE
  8
L-ZISSEN
 10
637.886751
 20
295.0
 30
0.0
 11
632.113249
 21
295.0
 31
0.0
  0
LINE
  8
L-ZISSEN
 10
629.226497
 20
276.4
 30
0.0
 11
629.226497
 21
265.0
 31
0.0
  0
SOLID
  8
L-ZISSEN
 10
633.520799
 20
291.38675
 30
0.0
 11
633.150999
 21
290.83205
 31
0.0
 12
635.0
 22
290.0
 32
0.0
 13
635.0
 23
290.0
 33
0.0
  0
LINE
  8
L-ZISSEN
 10
633.335899
 20
291.1094
 30
0.0
 11
620.0
 21
300.0
 31
0.0
  0
LINE
  8
L-ZISSEN
 10
620.0
 20
300.0
 30
0.0
 11
618.0
 21
300.0
 31
0.0
  0
TEXT
  8
L-ZISSEN
 10
607.0
 20
297.75
 30
0.0
 40
4.5
  1
P.P
  0
LINE
  8
L-ZISSEN
 10
640.773503
 20
276.4
 30
0.0
 11
640.773503
 21
265.0
 31
0.0
  0
LINE
  8
L-ZISSEN
 10
629.226497
 20
276.4
 30
0.0
 11
640.773503
 21
276.4
 31
0.0
  0
SOLID
  8
L-ZISSEN
 10
633.150999
 20
264.16795
 30
0.0
 11
633.520799
 21
263.61325
 31
0.0
 12
635.0
 22
265.0
 32
0.0
 13
635.0
 23
265.0
 33
0.0
  0
LINE
  8
L-ZISSEN
 10
633.335899
 20
263.8906
 30
0.0
 11
620.0
 21
255.0
 31
0.0
  0
LINE
  8
L-ZISSEN
 10
620.0
 20
255.0
 30
0.0
 11
618.0
 21
255.0
 31
0.0
  0
TEXT
  8
L-ZISSEN
 10
607.0
 20
252.75
 30
0.0
 40
4.5
  1
P.P
  0
LINE
  8
L-ZISSEN
 10
765.5
 20
112.0
 30
0.0
 11
764.0
 21
112.0
 31
0.0
  0
LINE
  8
L-ZISSEN
 10
796.0
 20
112.0
 30
0.0
 11
794.5
 21
112.0
 31
0.0
  0
CIRCLE
  8
L-ZISSEN
 10
480.0
 20
210.0
 30
0.0
 40
2.067
  0
LINE
  8
L-ZISSEN
 10
207.3
 20
236.0
 30
0.0
 11
207.3
 21
192.0
 31
0.0
  0
LINE
  8
L-ZISSEN
 10
282.7
 20
192.0
 30
0.0
 11
282.7
 21
236.0
 31
0.0
  0
LINE
  8
L-ZISSEN
 10
282.7
 20
224.0
 30
0.0
 11
207.3
 21
224.0
 31
0.0
  0
LINE
  8
L-ZISSEN
 10
207.3
 20
236.0
 30
0.0
 11
142.2
 21
236.0
 31
0.0
  0
LINE
  8
L-ZISSEN
 10
290.8
 20
192.0
 30
0.0
 11
266.5
 21
192.0
 31
0.0
  0
LINE
  8
L-TYUSIN
 10
245.0
 20
229.0
 30
0.0
 11
245.0
 21
151.5
 31
0.0
  0
LINE
  8
L-ZISSEN
 10
207.3
 20
352.0
 30
0.0
 11
207.3
 21
318.0
 31
0.0
  0
LINE
  8
L-ZISSEN
 10
282.7
 20
318.0
 30
0.0
 11
282.7
 21
352.0
 31
0.0
  0
LINE
  8
L-ZISSEN
 10
199.2
 20
318.0
 30
0.0
 11
207.3
 21
318.0
 31
0.0
  0
LINE
  8
L-ZISSEN
 10
199.2
 20
352.0
 30
0.0
 11
207.3
 21
352.0
 31
0.0
  0
LINE
  8
L-ZISSEN
 10
282.7
 20
351.0
 30
0.0
 11
280.5
 21
351.0
 31
0.0
  0
LINE
  8
L-ZISSEN
 10
282.7
 20
318.0
 30
0.0
 11
290.8
 21
318.0
 31
0.0
  0
LINE
  8
L-ZISSEN
 10
282.7
 20
352.0
 30
0.0
 11
290.8
 21
352.0
 31
0.0
  0
LINE
  8
L-ZISSEN
 10
266.5
 20
310.0
 30
0.0
 11
266.5
 21
319.0
 31
0.0
  0
LINE
  8
L-ZISSEN
 10
255.5
 20
310.0
 30
0.0
 11
266.5
 21
310.0
 31
0.0
  0
LINE
  8
L-ZISSEN
 10
255.5
 20
310.0
 30
0.0
 11
255.5
 21
319.0
 31
0.0
  0
LINE
  8
L-ZISSEN
 10
282.7
 20
319.0
 30
0.0
 11
266.5
 21
319.0
 31
0.0
  0
LINE
  8
L-ZISSEN
 10
234.5
 20
310.0
 30
0.0
 11
234.5
 21
319.0
 31
0.0
  0
LINE
  8
L-ZISSEN
 10
234.5
 20
310.0
 30
0.0
 11
223.5
 21
310.0
 31
0.0
  0
LINE
  8
L-ZISSEN
 10
223.5
 20
310.0
 30
0.0
 11
223.5
 21
319.0
 31
0.0
  0
LINE
  8
L-ZISSEN
 10
280.5
 20
360.0
 30
0.0
 11
280.5
 21
351.0
 31
0.0
  0
LINE
  8
L-ZISSEN
 10
269.5
 20
360.0
 30
0.0
 11
280.5
 21
360.0
 31
0.0
  0
LINE
  8
L-ZISSEN
 10
269.5
 20
360.0
 30
0.0
 11
269.5
 21
351.0
 31
0.0
  0
LINE
  8
L-ZISSEN
 10
220.5
 20
360.0
 30
0.0
 11
220.5
 21
351.0
 31
0.0
  0
LINE
  8
L-ZISSEN
 10
209.5
 20
360.0
 30
0.0
 11
220.5
 21
360.0
 31
0.0
  0
LINE
  8
L-ZISSEN
 10
209.5
 20
360.0
 30
0.0
 11
209.5
 21
351.0
 31
0.0
  0
LINE
  8
L-ZISSEN
 10
290.8
 20
319.4
 30
0.0
 11
347.8
 21
319.4
 31
0.0
  0
LINE
  8
L-ZISSEN
 10
290.8
 20
350.6
 30
0.0
 11
347.8
 21
350.6
 31
0.0
  0
LINE
  8
L-ZISSEN
 10
255.5
 20
183.0
 30
0.0
 11
255.5
 21
215.0
 31
0.0
  0
LINE
  8
L-ZISSEN
 10
266.5
 20
183.0
 30
0.0
 11
266.5
 21
215.0
 31
0.0
  0
LINE
  8
L-ZISSEN
 10
266.5
 20
215.0
 30
0.0
 11
255.5
 21
215.0
 31
0.0
  0
LINE
  8
L-ZISSEN
 10
255.5
 20
192.0
 30
0.0
 11
234.5
 21
192.0
 31
0.0
  0
LINE
  8
L-ZISSEN
 10
265.25
 20
221.3
 30
0.0
 11
256.75
 21
221.3
 31
0.0
  0
LINE
  8
L-ZISSEN
 10
256.75
 20
221.3
 30
0.0
 11
256.75
 21
215.0
 31
0.0
  0
LINE
  8
L-ZISSEN
 10
265.25
 20
221.3
 30
0.0
 11
265.25
 21
215.0
 31
0.0
  0
LINE
  8
L-ZISSEN
 10
224.75
 20
221.3
 30
0.0
 11
224.75
 21
215.0
 31
0.0
  0
LINE
  8
L-ZISSEN
 10
233.25
 20
221.3
 30
0.0
 11
233.25
 21
215.0
 31
0.0
  0
LINE
  8
L-ZISSEN
 10
224.75
 20
221.3
 30
0.0
 11
233.25
 21
221.3
 31
0.0
  0
LINE
  8
L-ZISSEN
 10
223.5
 20
215.0
 30
0.0
 11
234.5
 21
215.0
 31
0.0
  0
LINE
  8
L-ZISSEN
 10
223.5
 20
183.0
 30
0.0
 11
223.5
 21
215.0
 31
0.0
  0
LINE
  8
L-ZISSEN
 10
234.5
 20
183.0
 30
0.0
 11
234.5
 21
215.0
 31
0.0
  0
LINE
  8
L-ZISSEN
 10
223.5
 20
192.0
 30
0.0
 11
199.2
 21
192.0
 31
0.0
  0
CIRCLE
  8
L-ZISSEN
 10
215.0
 20
354.5
 30
0.0
 40
4.25
  0
LINE
  8
L-ZISSEN
 10
209.5
 20
351.0
 30
0.0
 11
207.3
 21
351.0
 31
0.0
  0
LINE
  8
L-ZISSEN
 10
269.5
 20
351.0
 30
0.0
 11
220.5
 21
351.0
 31
0.0
  0
LINE
  8
L-ZISSEN
 10
255.5
 20
319.0
 30
0.0
 11
234.5
 21
319.0
 31
0.0
  0
LINE
  8
L-ZISSEN
 10
223.5
 20
319.0
 30
0.0
 11
207.3
 21
319.0
 31
0.0
  0
CIRCLE
  8
L-ZISSEN
 10
275.0
 20
354.5
 30
0.0
 40
4.25
  0
CIRCLE
  8
L-ZISSEN
 10
261.0
 20
315.5
 30
0.0
 40
4.25
  0
CIRCLE
  8
L-ZISSEN
 10
229.0
 20
315.5
 30
0.0
 40
4.25
  0
LINE
  8
L-ZISSEN
 10
199.0
 20
183.0
 30
0.0
 11
291.0
 21
183.0
 31
0.0
  0
LINE
  8
L-ZISSEN
 10
182.5
 20
147.5
 30
0.0
 11
207.803848
 21
147.5
 31
0.0
  0
LINE
  8
L-ZISSEN
 10
199.0
 20
184.0
 30
0.0
 11
199.0
 21
156.5
 31
0.0
  0
LINE
  8
L-ZISSEN
 10
291.0
 20
184.0
 30
0.0
 11
291.0
 21
156.5
 31
0.0
  0
LINE
  8
L-ZISSEN
 10
182.5
 20
156.5
 30
0.0
 11
307.5
 21
156.5
 31
0.0
  0
LINE
  8
L-ZISSEN
 10
307.5
 20
147.5
 30
0.0
 11
307.5
 21
156.5
 31
0.0
  0
LINE
  8
L-ZISSEN
 10
182.5
 20
147.5
 30
0.0
 11
182.5
 21
156.5
 31
0.0
  0
LINE
  8
L-ZISSEN
 10
277.0
 20
156.5
 30
0.0
 11
282.196152
 21
147.5
 31
0.0
  0
LINE
  8
L-ZISSEN
 10
282.196152
 20
147.5
 30
0.0
 11
282.196152
 21
156.5
 31
0.0
  0
LINE
  8
L-ZISSEN
 10
207.803848
 20
147.5
 30
0.0
 11
207.803848
 21
156.5
 31
0.0
  0
LINE
  8
L-ZISSEN
 10
213.0
 20
156.5
 30
0.0
 11
207.803848
 21
147.5
 31
0.0
  0
LINE
  8
L-ZISSEN
 10
282.196152
 20
147.5
 30
0.0
 11
307.5
 21
147.5
 31
0.0
  0
LINE
  8
L-TYUSIN
 10
255.0
 20
169.5
 30
0.0
 11
235.0
 21
169.5
 31
0.0
  0
CIRCLE
  8
L-ZISSEN
 10
245.0
 20
169.5
 30
0.0
 40
5.7225
  0
LINE
  8
L-TYUSIN
 10
287.0
 20
169.5
 30
0.0
 11
267.0
 21
169.5
 31
0.0
  0
LINE
  8
L-TYUSIN
 10
277.0
 20
179.5
 30
0.0
 11
277.0
 21
159.5
 31
0.0
  0
CIRCLE
  8
L-ZISSEN
 10
277.0
 20
169.5
 30
0.0
 40
5.7225
  0
CIRCLE
  8
L-ZISSEN
 10
213.0
 20
169.5
 30
0.0
 40
5.7225
  0
LINE
  8
L-TYUSIN
 10
203.0
 20
169.5
 30
0.0
 11
223.0
 21
169.5
 31
0.0
  0
LINE
  8
L-TYUSIN
 10
213.0
 20
179.5
 30
0.0
 11
213.0
 21
159.5
 31
0.0
  0
LINE
  8
L-ZISSEN
 10
199.0
 20
309.0
 30
0.0
 11
291.0
 21
309.0
 31
0.0
  0
LINE
  8
L-ZISSEN
 10
199.0
 20
361.0
 30
0.0
 11
291.0
 21
361.0
 31
0.0
  0
LINE
  8
L-ZISSEN
 10
199.0
 20
361.0
 30
0.0
 11
199.0
 21
350.6
 31
0.0
  0
LINE
  8
L-ZISSEN
 10
291.0
 20
361.0
 30
0.0
 11
291.0
 21
350.6
 31
0.0
  0
LINE
  8
L-ZISSEN
 10
291.0
 20
319.4
 30
0.0
 11
291.0
 21
309.0
 31
0.0
  0
LINE
  8
L-ZISSEN
 10
199.0
 20
319.4
 30
0.0
 11
199.0
 21
309.0
 31
0.0
  0
LINE
  8
L-TYUSIN
 10
277.0
 20
304.0
 30
0.0
 11
277.0
 21
314.0
 31
0.0
  0
LINE
  8
L-TYUSIN
 10
213.0
 20
304.0
 30
0.0
 11
213.0
 21
314.0
 31
0.0
  0
LINE
  8
L-TYUSIN
 10
261.0
 20
356.0
 30
0.0
 11
261.0
 21
366.0
 31
0.0
  0
LINE
  8
L-TYUSIN
 10
229.0
 20
356.0
 30
0.0
 11
229.0
 21
366.0
 31
0.0
  0
LINE
  8
L-TYUSIN
 10
300.0
 20
369.0
 30
0.0
 11
300.0
 21
349.0
 31
0.0
  0
LINE
  8
L-TYUSIN
 10
290.0
 20
359.0
 30
0.0
 11
310.0
 21
359.0
 31
0.0
  0
CIRCLE
  8
L-ZISSEN
 10
300.0
 20
359.0
 30
0.0
 40
3.5
  0
LINE
  8
L-TYUSIN
 10
290.0
 20
311.0
 30
0.0
 11
310.0
 21
311.0
 31
0.0
  0
CIRCLE
  8
L-ZISSEN
 10
300.0
 20
311.0
 30
0.0
 40
3.5
  0
LINE
  8
L-TYUSIN
 10
300.0
 20
301.0
 30
0.0
 11
300.0
 21
321.0
 31
0.0
  0
CIRCLE
  8
L-ZISSEN
 10
190.0
 20
311.0
 30
0.0
 40
3.5
  0
LINE
  8
L-TYUSIN
 10
200.0
 20
311.0
 30
0.0
 11
180.0
 21
311.0
 31
0.0
  0
LINE
  8
L-TYUSIN
 10
190.0
 20
301.0
 30
0.0
 11
190.0
 21
321.0
 31
0.0
  0
LINE
  8
L-TYUSIN
 10
200.0
 20
359.0
 30
0.0
 11
180.0
 21
359.0
 31
0.0
  0
LINE
  8
L-TYUSIN
 10
190.0
 20
369.0
 30
0.0
 11
190.0
 21
349.0
 31
0.0
  0
CIRCLE
  8
L-ZISSEN
 10
190.0
 20
359.0
 30
0.0
 40
3.5
  0
LINE
  8
L-ZISSEN
 10
465.0
 20
191.2
 30
0.0
 11
465.0
 21
234.0
 31
0.0
  0
LINE
  8
L-ZISSEN
 10
495.0
 20
191.2
 30
0.0
 11
495.0
 21
234.0
 31
0.0
  0
LINE
  8
L-ZISSEN
 10
464.4
 20
184.0
 30
0.0
 11
464.4
 21
236.0
 31
0.0
  0
LINE
  8
L-ZISSEN
 10
495.6
 20
184.0
 30
0.0
 11
495.6
 21
236.0
 31
0.0
  0
LINE
  8
L-ZISSEN
 10
497.0
 20
236.0
 30
0.0
 11
495.25
 21
236.0
 31
0.0
  0
LINE
  8
L-ZISSEN
 10
464.75
 20
236.0
 30
0.0
 11
463.0
 21
236.0
 31
0.0
  0
LINE
  8
L-ZISSEN
 10
497.0
 20
236.0
 30
0.0
 11
497.0
 21
183.0
 31
0.0
  0
LINE
  8
L-ZISSEN
 10
463.0
 20
236.0
 30
0.0
 11
463.0
 21
183.0
 31
0.0
  0
LINE
  8
L-ZISSEN
 10
454.0
 20
183.0
 30
0.0
 11
506.0
 21
183.0
 31
0.0
  0
LINE
  8
L-ZISSEN
 10
505.0
 20
183.0
 30
0.0
 11
505.0
 21
215.0
 31
0.0
  0
LINE
  8
L-ZISSEN
 10
505.0
 20
215.0
 30
0.0
 11
497.0
 21
215.0
 31
0.0
  0
LINE
  8
L-ZISSEN
 10
503.75
 20
221.3
 30
0.0
 11
497.0
 21
221.3
 31
0.0
  0
LINE
  8
L-ZISSEN
 10
503.75
 20
221.3
 30
0.0
 11
503.75
 21
215.0
 31
0.0
  0
LINE
  8
L-ZISSEN
 10
456.25
 20
221.3
 30
0.0
 11
463.0
 21
221.3
 31
0.0
  0
LINE
  8
L-ZISSEN
 10
456.25
 20
221.3
 30
0.0
 11
456.25
 21
215.0
 31
0.0
  0
LINE
  8
L-ZISSEN
 10
455.0
 20
215.0
 30
0.0
 11
463.0
 21
215.0
 31
0.0
  0
LINE
  8
L-ZISSEN
 10
455.0
 20
183.0
 30
0.0
 11
455.0
 21
215.0
 31
0.0
  0
LINE
  8
L-ZISSEN
 10
454.0
 20
183.0
 30
0.0
 11
454.0
 21
156.5
 31
0.0
  0
LINE
  8
L-ZISSEN
 10
506.0
 20
156.5
 30
0.0
 11
506.0
 21
183.0
 31
0.0
  0
LINE
  8
L-ZISSEN
 10
448.5
 20
156.5
 30
0.0
 11
511.5
 21
156.5
 31
0.0
  0
LINE
  8
L-ZISSEN
 10
448.5
 20
147.5
 30
0.0
 11
469.969882
 21
147.5
 31
0.0
  0
LINE
  8
L-ZISSEN
 10
448.5
 20
156.5
 30
0.0
 11
448.5
 21
147.5
 31
0.0
  0
LINE
  8
L-ZISSEN
 10
511.5
 20
156.5
 30
0.0
 11
511.5
 21
147.5
 31
0.0
  0
LINE
  8
L-ZISSEN
 10
490.030118
 20
156.5
 30
0.0
 11
490.030118
 21
147.5
 31
0.0
  0
LINE
  8
L-ZISSEN
 10
469.969882
 20
156.5
 30
0.0
 11
469.969882
 21
147.5
 31
0.0
  0
LINE
  8
L-ZISSEN
 10
490.030118
 20
147.5
 30
0.0
 11
511.5
 21
147.5
 31
0.0
  0
LINE
  8
L-TYUSIN
 10
300.0
 20
142.5
 30
0.0
 11
300.0
 21
161.5
 31
0.0
  0
LINE
  8
L-TYUSIN
 10
190.0
 20
142.5
 30
0.0
 11
190.0
 21
161.5
 31
0.0
  0
LINE
  8
L-TYUSIN
 10
456.0
 20
142.5
 30
0.0
 11
456.0
 21
161.5
 31
0.0
  0
LINE
  8
L-TYUSIN
 10
504.0
 20
142.5
 30
0.0
 11
504.0
 21
161.5
 31
0.0
  0
LINE
  8
L-TYUSIN
 10
459.0
 20
169.5
 30
0.0
 11
449.0
 21
169.5
 31
0.0
  0
LINE
  8
L-TYUSIN
 10
501.0
 20
169.5
 30
0.0
 11
511.0
 21
169.5
 31
0.0
  0
LINE
  8
L-TYUSIN
 10
190.0
 20
527.5
 30
0.0
 11
190.0
 21
508.5
 31
0.0
  0
LINE
  8
L-TYUSIN
 10
300.0
 20
527.5
 30
0.0
 11
300.0
 21
508.5
 31
0.0
  0
LINE
  8
L-TYUSIN
 10
229.0
 20
490.5
 30
0.0
 11
229.0
 21
510.5
 31
0.0
  0
LINE
  8
L-TYUSIN
 10
219.0
 20
500.5
 30
0.0
 11
239.0
 21
500.5
 31
0.0
  0
CIRCLE
  8
L-ZISSEN
 10
229.0
 20
500.5
 30
0.0
 40
5.7225
  0
CIRCLE
  8
L-ZISSEN
 10
261.0
 20
500.5
 30
0.0
 40
5.7225
  0
LINE
  8
L-TYUSIN
 10
261.0
 20
490.5
 30
0.0
 11
261.0
 21
510.5
 31
0.0
  0
LINE
  8
L-TYUSIN
 10
271.0
 20
500.5
 30
0.0
 11
251.0
 21
500.5
 31
0.0
  0
LINE
  8
L-ZISSEN
 10
282.196152
 20
522.5
 30
0.0
 11
307.5
 21
522.5
 31
0.0
  0
LINE
  8
L-ZISSEN
 10
213.0
 20
513.5
 30
0.0
 11
207.803848
 21
522.5
 31
0.0
  0
LINE
  8
L-ZISSEN
 10
207.803848
 20
522.5
 30
0.0
 11
207.803848
 21
513.5
 31
0.0
  0
LINE
  8
L-ZISSEN
 10
282.196152
 20
522.5
 30
0.0
 11
282.196152
 21
513.5
 31
0.0
  0
LINE
  8
L-ZISSEN
 10
277.0
 20
513.5
 30
0.0
 11
282.196152
 21
522.5
 31
0.0
  0
LINE
  8
L-ZISSEN
 10
182.5
 20
522.5
 30
0.0
 11
182.5
 21
513.5
 31
0.0
  0
LINE
  8
L-ZISSEN
 10
307.5
 20
522.5
 30
0.0
 11
307.5
 21
513.5
 31
0.0
  0
LINE
  8
L-ZISSEN
 10
182.5
 20
513.5
 30
0.0
 11
307.5
 21
513.5
 31
0.0
  0
LINE
  8
L-ZISSEN
 10
291.0
 20
486.0
 30
0.0
 11
291.0
 21
513.5
 31
0.0
  0
LINE
  8
L-ZISSEN
 10
199.0
 20
486.0
 30
0.0
 11
199.0
 21
513.5
 31
0.0
  0
LINE
  8
L-ZISSEN
 10
182.5
 20
522.5
 30
0.0
 11
207.803848
 21
522.5
 31
0.0
  0
LINE
  8
L-ZISSEN
 10
199.0
 20
487.0
 30
0.0
 11
291.0
 21
487.0
 31
0.0
  0
LINE
  8
L-ZISSEN
 10
269.5
 20
478.0
 30
0.0
 11
220.5
 21
478.0
 31
0.0
  0
LINE
  8
L-ZISSEN
 10
220.5
 20
487.0
 30
0.0
 11
220.5
 21
455.0
 31
0.0
  0
LINE
  8
L-ZISSEN
 10
209.5
 20
487.0
 30
0.0
 11
209.5
 21
455.0
 31
0.0
  0
LINE
  8
L-ZISSEN
 10
209.5
 20
455.0
 30
0.0
 11
220.5
 21
455.0
 31
0.0
  0
LINE
  8
L-ZISSEN
 10
210.75
 20
448.7
 30
0.0
 11
219.25
 21
448.7
 31
0.0
  0
LINE
  8
L-ZISSEN
 10
219.25
 20
448.7
 30
0.0
 11
219.25
 21
455.0
 31
0.0
  0
LINE
  8
L-ZISSEN
 10
210.75
 20
448.7
 30
0.0
 11
210.75
 21
455.0
 31
0.0
  0
LINE
  8
L-TYUSIN
 10
245.0
 20
441.0
 30
0.0
 11
245.0
 21
518.5
 31
0.0
  0
LINE
  8
L-ZISSEN
 10
290.8
 20
478.0
 30
0.0
 11
280.5
 21
478.0
 31
0.0
  0
LINE
  8
L-ZISSEN
 10
207.3
 20
434.0
 30
0.0
 11
142.2
 21
434.0
 31
0.0
  0
LINE
  8
L-ZISSEN
 10
282.7
 20
446.0
 30
0.0
 11
207.3
 21
446.0
 31
0.0
  0
LINE
  8
L-ZISSEN
 10
282.7
 20
478.0
 30
0.0
 11
282.7
 21
434.0
 31
0.0
  0
LINE
  8
L-ZISSEN
 10
207.3
 20
434.0
 30
0.0
 11
207.3
 21
478.0
 31
0.0
  0
LINE
  8
L-ZISSEN
 10
340.128203
 20
427.1
 30
0.0
 11
340.128203
 21
434.0
 31
0.0
  0
LINE
  8
L-ZISSEN
 10
326.271797
 20
427.1
 30
0.0
 11
326.271797
 21
434.0
 31
0.0
  0
LINE
  8
L-ZISSEN
 10
340.128203
 20
427.1
 30
0.0
 11
326.271797
 21
427.1
 31
0.0
  0
LINE
  8
L-ZISSEN
 10
350.95
 20
431.5
 30
0.0
 11
381.45
 21
431.5
 31
0.0
  0
LINE
  8
L-ZISSEN
 10
381.45
 20
431.5
 30
0.0
 11
381.45
 21
436.0
 31
0.0
  0
LINE
  8
L-ZISSEN
 10
350.95
 20
431.5
 30
0.0
 11
350.95
 21
436.0
 31
0.0
  0
LINE
  8
L-ZISSEN
 10
398.35
 20
402.35
 30
0.0
 11
398.35
 21
420.75
 31
0.0
  0
LINE
  8
L-ZISSEN
 10
398.35
 20
420.05
 30
0.0
 11
400.7
 21
420.05
 31
0.0
  0
LINE
  8
L-ZISSEN
 10
398.35
 20
403.05
 30
0.0
 11
400.7
 21
403.05
 31
0.0
  0
LINE
  8
L-ZISSEN
 10
395.45
 20
420.75
 30
0.0
 11
398.35
 21
420.75
 31
0.0
  0
LINE
  8
L-ZISSEN
 10
395.45
 20
402.35
 30
0.0
 11
398.35
 21
402.35
 31
0.0
  0
LINE
  8
L-ZISSEN
 10
400.7
 20
400.580345
 30
0.0
 11
400.7
 21
422.519655
 31
0.0
  0
LINE
  8
L-ZISSEN
 10
406.2
 20
422.519655
 30
0.0
 11
400.7
 21
422.519655
 31
0.0
  0
LINE
  8
L-ZISSEN
 10
406.2
 20
400.580345
 30
0.0
 11
400.7
 21
400.580345
 31
0.0
  0
LINE
  8
L-ZISSEN
 10
406.2
 20
400.580345
 30
0.0
 11
406.2
 21
422.519655
 31
0.0
  0
LINE
  8
L-ZISSEN
 10
379.95
 20
400.3
 30
0.0
 11
379.95
 21
431.5
 31
0.0
  0
LINE
  8
L-ZISSEN
 10
395.45
 20
400.3
 30
0.0
 11
395.45
 21
422.8
 31
0.0
  0
LINE
  8
L-ZISSEN
 10
379.95
 20
422.8
 30
0.0
 11
395.45
 21
422.8
 31
0.0
  0
LINE
  8
L-ZISSEN
 10
352.45
 20
400.3
 30
0.0
 11
395.45
 21
400.3
 31
0.0
  0
LINE
  8
L-ZISSEN
 10
352.45
 20
400.3
 30
0.0
 11
352.45
 21
431.5
 31
0.0
  0
LINE
  8
L-ZISSEN
 10
394.7
 20
450.185045
 30
0.0
 11
394.7
 21
469.814955
 31
0.0
  0
LINE
  8
L-ZISSEN
 10
394.7
 20
469.814955
 30
0.0
 11
391.7
 21
469.814955
 31
0.0
  0
LINE
  8
L-ZISSEN
 10
394.7
 20
450.185045
 30
0.0
 11
391.7
 21
450.185045
 31
0.0
  0
LINE
  8
L-ZISSEN
 10
391.7
 20
436.0
 30
0.0
 11
391.7
 21
478.8
 31
0.0
  0
LINE
  8
L-ZISSEN
 10
391.7
 20
478.8
 30
0.0
 11
347.8
 21
478.8
 31
0.0
  0
LINE
  8
L-ZISSEN
 10
347.8
 20
436.0
 30
0.0
 11
391.7
 21
436.0
 31
0.0
  0
LINE
  8
L-ZISSEN
 10
347.8
 20
486.0
 30
0.0
 11
347.8
 21
434.0
 31
0.0
  0
LINE
  8
L-ZISSEN
 10
142.2
 20
486.0
 30
0.0
 11
347.8
 21
486.0
 31
0.0
  0
LINE
  8
L-ZISSEN
 10
347.8
 20
434.0
 30
0.0
 11
282.7
 21
434.0
 31
0.0
  0
LINE
  8
L-ZISSEN
 10
290.8
 20
486.0
 30
0.0
 11
290.8
 21
434.0
 31
0.0
  0
LINE
  8
L-TYUSIN
 10
90.3
 20
460.0
 30
0.0
 11
399.7
 21
460.0
 31
0.0
  0
LINE
  8
L-ZISSEN
 10
209.5
 20
478.0
 30
0.0
 11
199.2
 21
478.0
 31
0.0
  0
LINE
  8
L-ZISSEN
 10
269.5
 20
487.0
 30
0.0
 11
269.5
 21
455.0
 31
0.0
  0
LINE
  8
L-ZISSEN
 10
280.5
 20
487.0
 30
0.0
 11
280.5
 21
455.0
 31
0.0
  0
LINE
  8
L-ZISSEN
 10
280.5
 20
455.0
 30
0.0
 11
269.5
 21
455.0
 31
0.0
  0
LINE
  8
L-ZISSEN
 10
270.75
 20
448.7
 30
0.0
 11
270.75
 21
455.0
 31
0.0
  0
LINE
  8
L-ZISSEN
 10
279.25
 20
448.7
 30
0.0
 11
279.25
 21
455.0
 31
0.0
  0
LINE
  8
L-ZISSEN
 10
279.25
 20
448.7
 30
0.0
 11
270.75
 21
448.7
 31
0.0
  0
SOLID
  8
L-ZISSEN
 10
368.046891
 20
233.163277
 30
0.0
 11
368.218428
 21
233.807496
 31
0.0
 12
366.2
 22
234.0
 32
0.0
 13
366.2
 23
234.0
 33
0.0
  0
LINE
  8
L-ZISSEN
 10
368.13266
 20
233.485387
 30
0.0
 11
400.0
 21
225.0
 31
0.0
  0
LINE
  8
L-ZISSEN
 10
400.0
 20
225.0
 30
0.0
 11
402.0
 21
225.0
 31
0.0
  0
TEXT
  8
L-ZISSEN
 10
404.0
 20
222.75
 30
0.0
 40
4.5
  1
P.P
  0
SOLID
  8
L-ZISSEN
 10
481.768868
 20
233.008932
 30
0.0
 11
481.994681
 21
233.63619
 31
0.0
 12
480.0
 22
234.0
 32
0.0
 13
480.0
 23
234.0
 33
0.0
  0
LINE
  8
L-ZISSEN
 10
481.881775
 20
233.322561
 30
0.0
 11
505.0
 21
225.0
 31
0.0
  0
LINE
  8
L-ZISSEN
 10
505.0
 20
225.0
 30
0.0
 11
507.0
 21
225.0
 31
0.0
  0
TEXT
  8
L-ZISSEN
 10
509.0
 20
222.75
 30
0.0
 40
4.5
  1
P.P
  0
SOLID
  8
L-ZISSEN
 10
367.135634
 20
333.201195
 30
0.0
 11
367.668456
 21
333.601877
 31
0.0
 12
366.2
 22
335.0
 32
0.0
 13
366.2
 23
335.0
 33
0.0
  0
LINE
  8
L-ZISSEN
 10
367.402045
 20
333.401536
 30
0.0
 11
385.0
 21
310.0
 31
0.0
  0
LINE
  8
L-ZISSEN
 10
385.0
 20
310.0
 30
0.0
 11
387.0
 21
310.0
 31
0.0
  0
TEXT
  8
L-ZISSEN
 10
389.0
 20
307.75
 30
0.0
 40
4.5
  1
P.P
  0
SOLID
  8
L-ZISSEN
 10
334.355126
 20
336.666372
 30
0.0
 11
333.752242
 21
336.950933
 31
0.0
 12
333.2
 22
335.0
 32
0.0
 13
333.2
 23
335.0
 33
0.0
  0
LINE
  8
L-ZISSEN
 10
334.053684
 20
336.808652
 30
0.0
 11
345.0
 21
360.0
 31
0.0
  0
LINE
  8
L-ZISSEN
 10
345.0
 20
360.0
 30
0.0
 11
347.0
 21
360.0
 31
0.0
  0
TEXT
  8
L-ZISSEN
 10
349.0
 20
357.75
 30
0.0
 40
4.5
  1
P.P
  0
SOLID
  8
L-ZISSEN
 10
332.070504
 20
237.68385
 30
0.0
 11
331.585444
 21
237.226508
 31
0.0
 12
333.2
 22
236.0
 32
0.0
 13
333.2
 23
236.0
 33
0.0
  0
LINE
  8
L-ZISSEN
 10
331.827974
 20
237.455179
 30
0.0
 11
320.0
 21
250.0
 31
0.0
  0
LINE
  8
L-ZISSEN
 10
320.0
 20
250.0
 30
0.0
 11
318.0
 21
250.0
 31
0.0
  0
TEXT
  8
L-ZISSEN
 10
307.0
 20
247.75
 30
0.0
 40
4.5
  1
P.P
  0
TEXT
  8
L-ZISSEN
 10
389.0
 20
32.75
 30
0.0
 40
4.5
  1
P.P
  0
LINE
  8
L-ZISSEN
 10
385.0
 20
35.0
 30
0.0
 11
387.0
 21
35.0
 31
0.0
  0
LINE
  8
L-ZISSEN
 10
367.402045
 20
58.401536
 30
0.0
 11
385.0
 21
35.0
 31
0.0
  0
SOLID
  8
L-ZISSEN
 10
367.135634
 20
58.201195
 30
0.0
 11
367.668456
 21
58.601877
 31
0.0
 12
366.2
 22
60.0
 32
0.0
 13
366.2
 23
60.0
 33
0.0
  0
CIRCLE
  8
L-ZISSEN
 10
190.0
 20
84.0
 30
0.0
 40
3.5
  0
LINE
  8
L-TYUSIN
 10
190.0
 20
94.0
 30
0.0
 11
190.0
 21
74.0
 31
0.0
  0
LINE
  8
L-TYUSIN
 10
200.0
 20
84.0
 30
0.0
 11
180.0
 21
84.0
 31
0.0
  0
LINE
  8
L-TYUSIN
 10
190.0
 20
26.0
 30
0.0
 11
190.0
 21
46.0
 31
0.0
  0
LINE
  8
L-TYUSIN
 10
200.0
 20
36.0
 30
0.0
 11
180.0
 21
36.0
 31
0.0
  0
CIRCLE
  8
L-ZISSEN
 10
190.0
 20
36.0
 30
0.0
 40
3.5
  0
LINE
  8
L-TYUSIN
 10
300.0
 20
26.0
 30
0.0
 11
300.0
 21
46.0
 31
0.0
  0
LINE
  8
L-ZISSEN
 10
291.0
 20
49.856406
 30
0.0
 11
303.75
 21
42.495191
 31
0.0
  0
ARC
  8
L-ZISSEN
 10
300.0
 20
36.0
 30
0.0
 40
7.5
 50
270.0
 51
60.0
  0
CIRCLE
  8
L-ZISSEN
 10
300.0
 20
36.0
 30
0.0
 40
3.5
  0
LINE
  8
L-TYUSIN
 10
290.0
 20
36.0
 30
0.0
 11
310.0
 21
36.0
 31
0.0
  0
CIRCLE
  8
L-ZISSEN
 10
300.0
 20
84.0
 30
0.0
 40
3.5
  0
LINE
  8
L-ZISSEN
 10
291.0
 20
70.143594
 30
0.0
 11
303.75
 21
77.504809
 31
0.0
  0
ARC
  8
L-ZISSEN
 10
300.0
 20
84.0
 30
0.0
 40
7.5
 50
300.0
 51
90.0
  0
LINE
  8
L-TYUSIN
 10
290.0
 20
84.0
 30
0.0
 11
310.0
 21
84.0
 31
0.0
  0
LINE
  8
L-TYUSIN
 10
300.0
 20
94.0
 30
0.0
 11
300.0
 21
74.0
 31
0.0
  0
LINE
  8
L-TYUSIN
 10
229.0
 20
39.0
 30
0.0
 11
229.0
 21
29.0
 31
0.0
  0
LINE
  8
L-TYUSIN
 10
261.0
 20
39.0
 30
0.0
 11
261.0
 21
29.0
 31
0.0
  0
LINE
  8
L-TYUSIN
 10
213.0
 20
91.0
 30
0.0
 11
213.0
 21
81.0
 31
0.0
  0
LINE
  8
L-TYUSIN
 10
277.0
 20
91.0
 30
0.0
 11
277.0
 21
81.0
 31
0.0
  0
LINE
  8
L-ZISSEN
 10
291.0
 20
70.143594
 30
0.0
 11
291.0
 21
49.856406
 31
0.0
  0
LINE
  8
L-ZISSEN
 10
207.803848
 20
86.0
 30
0.0
 11
282.196152
 21
86.0
 31
0.0
  0
LINE
  8
L-ZISSEN
 10
207.803848
 20
34.0
 30
0.0
 11
282.196152
 21
34.0
 31
0.0
  0
LINE
  8
L-ZISSEN
 10
300.450773
 20
75.6
 30
0.0
 11
347.8
 21
75.6
 31
0.0
  0
LINE
  8
L-ZISSEN
 10
300.450773
 20
44.4
 30
0.0
 11
347.8
 21
44.4
 31
0.0
  0
LINE
  8
L-ZISSEN
 10
391.7
 20
45.0
 30
0.0
 11
391.7
 21
75.0
 31
0.0
  0
LINE
  8
L-ZISSEN
 10
391.7
 20
75.0
 30
0.0
 11
347.8
 21
75.0
 31
0.0
  0
LINE
  8
L-ZISSEN
 10
391.7
 20
45.0
 30
0.0
 11
347.8
 21
45.0
 31
0.0
  0
LINE
  8
L-ZISSEN
 10
406.2
 20
49.030345
 30
0.0
 11
406.2
 21
70.969655
 31
0.0
  0
LINE
  8
L-ZISSEN
 10
406.2
 20
49.030345
 30
0.0
 11
400.7
 21
49.030345
 31
0.0
  0
LINE
  8
L-ZISSEN
 10
406.2
 20
70.969655
 30
0.0
 11
400.7
 21
70.969655
 31
0.0
  0
LINE
  8
L-ZISSEN
 10
400.7
 20
49.030345
 30
0.0
 11
400.7
 21
70.969655
 31
0.0
  0
LINE
  8
L-ZISSEN
 10
395.45
 20
50.8
 30
0.0
 11
398.35
 21
50.8
 31
0.0
  0
LINE
  8
L-ZISSEN
 10
395.45
 20
69.2
 30
0.0
 11
398.35
 21
69.2
 31
0.0
  0
LINE
  8
L-ZISSEN
 10
398.35
 20
51.5
 30
0.0
 11
400.7
 21
51.5
 31
0.0
  0
LINE
  8
L-ZISSEN
 10
398.35
 20
68.5
 30
0.0
 11
400.7
 21
68.5
 31
0.0
  0
LINE
  8
L-ZISSEN
 10
398.35
 20
50.8
 30
0.0
 11
398.35
 21
69.2
 31
0.0
  0
LINE
  8
L-ZISSEN
 10
391.7
 20
48.75
 30
0.0
 11
395.45
 21
48.75
 31
0.0
  0
LINE
  8
L-ZISSEN
 10
395.45
 20
48.75
 30
0.0
 11
395.45
 21
71.25
 31
0.0
  0
LINE
  8
L-ZISSEN
 10
391.7
 20
71.25
 30
0.0
 11
395.45
 21
71.25
 31
0.0
  0
LINE
  8
L-TYUSIN
 10
78.8
 20
60.0
 30
0.0
 11
411.2
 21
60.0
 31
0.0
  0
LINE
  8
L-TYUSIN
 10
245.0
 20
30.5
 30
0.0
 11
245.0
 21
91.0
 31
0.0
  0
LINE
  8
L-ZISSEN
 10
347.8
 20
44.4
 30
0.0
 11
347.8
 21
75.6
 31
0.0
  0
LINE
  8
L-ZISSEN
 10
277.0
 20
86.0
 30
0.0
 11
277.0
 21
34.0
 31
0.0
  0
LINE
  8
L-ZISSEN
 10
282.196152
 20
86.0
 30
0.0
 11
282.196152
 21
34.0
 31
0.0
  0
LINE
  8
L-ZISSEN
 10
282.196152
 20
86.0
 30
0.0
 11
300.0
 21
91.5
 31
0.0
  0
LINE
  8
L-ZISSEN
 10
282.196152
 20
34.0
 30
0.0
 11
300.0
 21
28.5
 31
0.0
  0
LINE
  8
L-ZISSEN
 10
199.0
 20
70.143594
 30
0.0
 11
186.25
 21
77.504809
 31
0.0
  0
LINE
  8
L-ZISSEN
 10
199.0
 20
70.143594
 30
0.0
 11
199.0
 21
49.856406
 31
0.0
  0
LINE
  8
L-ZISSEN
 10
199.0
 20
49.856406
 30
0.0
 11
186.25
 21
42.495191
 31
0.0
  0
LINE
  8
L-ZISSEN
 10
213.0
 20
86.0
 30
0.0
 11
213.0
 21
34.0
 31
0.0
  0
LINE
  8
L-ZISSEN
 10
207.803848
 20
86.0
 30
0.0
 11
190.0
 21
91.5
 31
0.0
  0
LINE
  8
L-ZISSEN
 10
207.803848
 20
86.0
 30
0.0
 11
207.803848
 21
34.0
 31
0.0
  0
ARC
  8
L-ZISSEN
 10
190.0
 20
84.0
 30
0.0
 40
7.5
 50
90.0
 51
240.0
  0
ARC
  8
L-ZISSEN
 10
190.0
 20
36.0
 30
0.0
 40
7.5
 50
120.0
 51
270.0
  0
LINE
  8
L-ZISSEN
 10
207.803848
 20
34.0
 30
0.0
 11
190.0
 21
28.5
 31
0.0
  0
LINE
  8
L-ZISSEN
 10
745.5
 20
49.030345
 30
0.0
 11
745.5
 21
70.969655
 31
0.0
  0
LINE
  8
L-ZISSEN
 10
745.5
 20
49.030345
 30
0.0
 11
740.0
 21
49.030345
 31
0.0
  0
LINE
  8
L-ZISSEN
 10
745.5
 20
70.969655
 30
0.0
 11
740.0
 21
70.969655
 31
0.0
  0
LINE
  8
L-ZISSEN
 10
740.0
 20
49.030345
 30
0.0
 11
740.0
 21
70.969655
 31
0.0
  0
LINE
  8
L-ZISSEN
 10
730.5
 20
50.8
 30
0.0
 11
737.65
 21
50.8
 31
0.0
  0
LINE
  8
L-ZISSEN
 10
730.5
 20
69.2
 30
0.0
 11
737.65
 21
69.2
 31
0.0
  0
LINE
  8
L-ZISSEN
 10
737.65
 20
51.5
 30
0.0
 11
740.0
 21
51.5
 31
0.0
  0
LINE
  8
L-ZISSEN
 10
737.65
 20
68.5
 30
0.0
 11
740.0
 21
68.5
 31
0.0
  0
LINE
  8
L-ZISSEN
 10
737.65
 20
50.8
 30
0.0
 11
737.65
 21
69.2
 31
0.0
  0
LINE
  8
L-ZISSEN
 10
730.5
 20
47.0
 30
0.0
 11
730.5
 21
73.0
 31
0.0
  0
LINE
  8
L-ZISSEN
 10
730.5
 20
73.0
 30
0.0
 11
715.5
 21
73.0
 31
0.0
  0
LINE
  8
L-ZISSEN
 10
715.5
 20
47.0
 30
0.0
 11
730.5
 21
47.0
 31
0.0
  0
LINE
  8
L-ZISSEN
 10
720.5
 20
73.0
 30
0.0
 11
720.5
 21
70.0
 31
0.0
  0
LINE
  8
L-ZISSEN
 10
720.5
 20
70.0
 30
0.0
 11
717.5
 21
70.0
 31
0.0
  0
LINE
  8
L-ZISSEN
 10
717.5
 20
50.0
 30
0.0
 11
717.5
 21
51.5
 31
0.0
  0
LINE
  8
L-ZISSEN
 10
720.5
 20
50.0
 30
0.0
 11
717.5
 21
50.0
 31
0.0
  0
LINE
  8
L-ZISSEN
 10
720.5
 20
47.0
 30
0.0
 11
720.5
 21
50.0
 31
0.0
  0
SOLID
  8
L-ZISSEN
 10
690.596285
 20
58.062074
 30
0.0
 11
691.19257
 21
58.360217
 31
0.0
 12
690.0
 22
60.0
 32
0.0
 13
690.0
 23
60.0
 33
0.0
  0
LINE
  8
L-ZISSEN
 10
690.894427
 20
58.211146
 30
0.0
 11
700.0
 21
40.0
 31
0.0
  0
LINE
  8
L-ZISSEN
 10
700.0
 20
40.0
 30
0.0
 11
702.0
 21
40.0
 31
0.0
  0
TEXT
  8
L-ZISSEN
 10
704.0
 20
37.75
 30
0.0
 40
4.5
  1
P.P
  0
SOLID
  8
L-ZISSEN
 10
324.780506
 20
58.030171
 30
0.0
 11
325.393396
 21
58.292488
 31
0.0
 12
324.3
 22
60.0
 32
0.0
 13
324.3
 23
60.0
 33
0.0
  0
LINE
  8
L-ZISSEN
 10
325.086951
 20
58.16133
 30
0.0
 11
335.0
 21
35.0
 31
0.0
  0
LINE
  8
L-ZISSEN
 10
335.0
 20
35.0
 30
0.0
 11
337.0
 21
35.0
 31
0.0
  0
TEXT
  8
L-ZISSEN
 10
339.0
 20
32.75
 30
0.0
 40
4.5
  1
P.P
  0
ARC
  8
L-ZISSEN
 10
190.0
 20
311.0
 30
0.0
 40
7.5
 50
120.0
 51
270.0
  0
LINE
  8
L-ZISSEN
 10
207.803848
 20
309.0
 30
0.0
 11
190.0
 21
303.5
 31
0.0
  0
ARC
  8
L-ZISSEN
 10
190.0
 20
359.0
 30
0.0
 40
7.5
 50
90.0
 51
240.0
  0
LINE
  8
L-ZISSEN
 10
207.803848
 20
361.0
 30
0.0
 11
190.0
 21
366.5
 31
0.0
  0
ARC
  8
L-ZISSEN
 10
300.0
 20
359.0
 30
0.0
 40
7.5
 50
300.0
 51
90.0
  0
LINE
  8
L-ZISSEN
 10
282.196152
 20
361.0
 30
0.0
 11
300.0
 21
366.5
 31
0.0
  0
LINE
  8
L-ZISSEN
 10
300.450773
 20
350.6
 30
0.0
 11
303.75
 21
352.504809
 31
0.0
  0
LINE
  8
L-ZISSEN
 10
300.450773
 20
319.4
 30
0.0
 11
303.75
 21
317.495191
 31
0.0
  0
ARC
  8
L-ZISSEN
 10
300.0
 20
311.0
 30
0.0
 40
7.5
 50
270.0
 51
60.0
  0
LINE
  8
L-ZISSEN
 10
282.196152
 20
309.0
 30
0.0
 11
300.0
 21
303.5
 31
0.0
  0
LINE
  8
L-ZISSEN
 10
189.549227
 20
44.4
 30
0.0
 11
142.2
 21
44.4
 31
0.0
  0
LINE
  8
L-ZISSEN
 10
189.549227
 20
75.6
 30
0.0
 11
142.2
 21
75.6
 31
0.0
  0
LINE
  8
L-ZISSEN
 10
142.2
 20
44.4
 30
0.0
 11
142.2
 21
75.6
 31
0.0
  0
LINE
  8
L-ZISSEN
 10
98.3
 20
75.0
 30
0.0
 11
142.2
 21
75.0
 31
0.0
  0
LINE
  8
L-ZISSEN
 10
98.3
 20
45.0
 30
0.0
 11
142.2
 21
45.0
 31
0.0
  0
LINE
  8
L-ZISSEN
 10
98.3
 20
71.25
 30
0.0
 11
94.55
 21
71.25
 31
0.0
  0
LINE
  8
L-ZISSEN
 10
94.55
 20
48.75
 30
0.0
 11
94.55
 21
71.25
 31
0.0
  0
LINE
  8
L-ZISSEN
 10
98.3
 20
48.75
 30
0.0
 11
94.55
 21
48.75
 31
0.0
  0
LINE
  8
L-ZISSEN
 10
91.65
 20
50.8
 30
0.0
 11
91.65
 21
69.2
 31
0.0
  0
LINE
  8
L-ZISSEN
 10
91.65
 20
68.5
 30
0.0
 11
89.3
 21
68.5
 31
0.0
  0
LINE
  8
L-ZISSEN
 10
91.65
 20
51.5
 30
0.0
 11
89.3
 21
51.5
 31
0.0
  0
LINE
  8
L-ZISSEN
 10
94.55
 20
69.2
 30
0.0
 11
91.65
 21
69.2
 31
0.0
  0
LINE
  8
L-ZISSEN
 10
94.55
 20
50.8
 30
0.0
 11
91.65
 21
50.8
 31
0.0
  0
LINE
  8
L-ZISSEN
 10
89.3
 20
49.030345
 30
0.0
 11
89.3
 21
70.969655
 31
0.0
  0
LINE
  8
L-ZISSEN
 10
83.8
 20
70.969655
 30
0.0
 11
89.3
 21
70.969655
 31
0.0
  0
LINE
  8
L-ZISSEN
 10
83.8
 20
49.030345
 30
0.0
 11
89.3
 21
49.030345
 31
0.0
  0
LINE
  8
L-ZISSEN
 10
83.8
 20
49.030345
 30
0.0
 11
83.8
 21
70.969655
 31
0.0
  0
LINE
  8
L-ZISSEN
 10
98.3
 20
45.0
 30
0.0
 11
98.3
 21
75.0
 31
0.0
  0
LINE
  8
L-ZISSEN
 10
149.871797
 20
242.9
 30
0.0
 11
149.871797
 21
236.0
 31
0.0
  0
LINE
  8
L-ZISSEN
 10
163.728203
 20
242.9
 30
0.0
 11
163.728203
 21
236.0
 31
0.0
  0
LINE
  8
L-ZISSEN
 10
149.871797
 20
242.9
 30
0.0
 11
163.728203
 21
242.9
 31
0.0
  0
LINE
  8
L-ZISSEN
 10
139.05
 20
238.5
 30
0.0
 11
108.55
 21
238.5
 31
0.0
  0
LINE
  8
L-ZISSEN
 10
108.55
 20
238.5
 30
0.0
 11
108.55
 21
234.0
 31
0.0
  0
LINE
  8
L-ZISSEN
 10
139.05
 20
238.5
 30
0.0
 11
139.05
 21
234.0
 31
0.0
  0
LINE
  8
L-ZISSEN
 10
91.65
 20
267.65
 30
0.0
 11
91.65
 21
249.25
 31
0.0
  0
LINE
  8
L-ZISSEN
 10
91.65
 20
249.95
 30
0.0
 11
89.3
 21
249.95
 31
0.0
  0
LINE
  8
L-ZISSEN
 10
91.65
 20
266.95
 30
0.0
 11
89.3
 21
266.95
 31
0.0
  0
LINE
  8
L-ZISSEN
 10
94.55
 20
249.25
 30
0.0
 11
91.65
 21
249.25
 31
0.0
  0
LINE
  8
L-ZISSEN
 10
94.55
 20
267.65
 30
0.0
 11
91.65
 21
267.65
 31
0.0
  0
LINE
  8
L-ZISSEN
 10
89.3
 20
269.419655
 30
0.0
 11
89.3
 21
247.480345
 31
0.0
  0
LINE
  8
L-ZISSEN
 10
83.8
 20
247.480345
 30
0.0
 11
89.3
 21
247.480345
 31
0.0
  0
LINE
  8
L-ZISSEN
 10
83.8
 20
269.419655
 30
0.0
 11
89.3
 21
269.419655
 31
0.0
  0
LINE
  8
L-ZISSEN
 10
83.8
 20
269.419655
 30
0.0
 11
83.8
 21
247.480345
 31
0.0
  0
LINE
  8
L-ZISSEN
 10
110.05
 20
269.7
 30
0.0
 11
110.05
 21
238.5
 31
0.0
  0
LINE
  8
L-ZISSEN
 10
94.55
 20
269.7
 30
0.0
 11
94.55
 21
247.2
 31
0.0
  0
LINE
  8
L-ZISSEN
 10
110.05
 20
247.2
 30
0.0
 11
94.55
 21
247.2
 31
0.0
  0
LINE
  8
L-ZISSEN
 10
137.55
 20
269.7
 30
0.0
 11
94.55
 21
269.7
 31
0.0
  0
LINE
  8
L-ZISSEN
 10
137.55
 20
269.7
 30
0.0
 11
137.55
 21
238.5
 31
0.0
  0
LINE
  8
L-ZISSEN
 10
95.3
 20
219.814955
 30
0.0
 11
95.3
 21
200.185045
 31
0.0
  0
LINE
  8
L-ZISSEN
 10
95.3
 20
200.185045
 30
0.0
 11
98.3
 21
200.185045
 31
0.0
  0
LINE
  8
L-ZISSEN
 10
95.3
 20
219.814955
 30
0.0
 11
98.3
 21
219.814955
 31
0.0
  0
LINE
  8
L-ZISSEN
 10
98.3
 20
234.0
 30
0.0
 11
98.3
 21
191.2
 31
0.0
  0
LINE
  8
L-ZISSEN
 10
98.3
 20
191.2
 30
0.0
 11
142.2
 21
191.2
 31
0.0
  0
LINE
  8
L-ZISSEN
 10
142.2
 20
234.0
 30
0.0
 11
98.3
 21
234.0
 31
0.0
  0
LINE
  8
L-ZISSEN
 10
142.2
 20
184.0
 30
0.0
 11
142.2
 21
236.0
 31
0.0
  0
SOLID
  8
L-ZISSEN
 10
158.640234
 20
236.851265
 30
0.0
 11
158.264676
 21
237.402083
 31
0.0
 12
156.8
 22
236.0
 32
0.0
 13
156.8
 23
236.0
 33
0.0
  0
LINE
  8
L-ZISSEN
 10
158.452455
 20
237.126674
 30
0.0
 11
170.0
 21
245.0
 31
0.0
  0
LINE
  8
L-ZISSEN
 10
170.0
 20
245.0
 30
0.0
 11
172.0
 21
245.0
 31
0.0
  0
TEXT
  8
L-ZISSEN
 10
174.0
 20
242.75
 30
0.0
 40
4.5
  1
P.P
  0
SOLID
  8
L-ZISSEN
 10
121.781572
 20
233.807496
 30
0.0
 11
121.953109
 21
233.163277
 31
0.0
 12
123.8
 22
234.0
 32
0.0
 13
123.8
 23
234.0
 33
0.0
  0
LINE
  8
L-ZISSEN
 10
121.86734
 20
233.485387
 30
0.0
 11
90.0
 21
225.0
 31
0.0
  0
LINE
  8
L-ZISSEN
 10
90.0
 20
225.0
 30
0.0
 11
88.0
 21
225.0
 31
0.0
  0
TEXT
  8
L-ZISSEN
 10
77.0
 20
222.75
 30
0.0
 40
4.5
  1
P.P
  0
LINE
  8
L-ZISSEN
 10
189.549227
 20
319.4
 30
0.0
 11
186.25
 21
317.495191
 31
0.0
  0
LINE
  8
L-ZISSEN
 10
189.549227
 20
350.6
 30
0.0
 11
186.25
 21
352.504809
 31
0.0
  0
LINE
  8
L-ZISSEN
 10
199.2
 20
350.6
 30
0.0
 11
142.2
 21
350.6
 31
0.0
  0
LINE
  8
L-ZISSEN
 10
199.2
 20
319.4
 30
0.0
 11
142.2
 21
319.4
 31
0.0
  0
LINE
  8
L-ZISSEN
 10
153.335898
 20
341.0
 30
0.0
 11
160.264102
 21
341.0
 31
0.0
  0
LINE
  8
L-ZISSEN
 10
149.871797
 20
335.0
 30
0.0
 11
153.335898
 21
341.0
 31
0.0
  0
LINE
  8
L-ZISSEN
 10
153.335898
 20
329.0
 30
0.0
 11
149.871797
 21
335.0
 31
0.0
  0
LINE
  8
L-ZISSEN
 10
160.264102
 20
329.0
 30
0.0
 11
153.335898
 21
329.0
 31
0.0
  0
LINE
  8
L-ZISSEN
 10
163.728203
 20
335.0
 30
0.0
 11
160.264102
 21
329.0
 31
0.0
  0
LINE
  8
L-ZISSEN
 10
160.264102
 20
341.0
 30
0.0
 11
163.728203
 21
335.0
 31
0.0
  0
LINE
  8
L-ZISSEN
 10
98.3
 20
320.0
 30
0.0
 11
98.3
 21
323.75
 31
0.0
  0
LINE
  8
L-ZISSEN
 10
98.3
 20
350.0
 30
0.0
 11
142.2
 21
350.0
 31
0.0
  0
LINE
  8
L-ZISSEN
 10
98.3
 20
320.0
 30
0.0
 11
142.2
 21
320.0
 31
0.0
  0
LINE
  8
L-ZISSEN
 10
83.8
 20
324.030345
 30
0.0
 11
83.8
 21
345.969655
 31
0.0
  0
LINE
  8
L-ZISSEN
 10
83.8
 20
324.030345
 30
0.0
 11
89.3
 21
324.030345
 31
0.0
  0
LINE
  8
L-ZISSEN
 10
83.8
 20
345.969655
 30
0.0
 11
89.3
 21
345.969655
 31
0.0
  0
LINE
  8
L-ZISSEN
 10
89.3
 20
324.030345
 30
0.0
 11
89.3
 21
345.969655
 31
0.0
  0
LINE
  8
L-ZISSEN
 10
94.55
 20
325.8
 30
0.0
 11
91.65
 21
325.8
 31
0.0
  0
LINE
  8
L-ZISSEN
 10
94.55
 20
344.2
 30
0.0
 11
91.65
 21
344.2
 31
0.0
  0
LINE
  8
L-ZISSEN
 10
91.65
 20
326.5
 30
0.0
 11
89.3
 21
326.5
 31
0.0
  0
LINE
  8
L-ZISSEN
 10
91.65
 20
343.5
 30
0.0
 11
89.3
 21
343.5
 31
0.0
  0
LINE
  8
L-ZISSEN
 10
91.65
 20
325.8
 30
0.0
 11
91.65
 21
344.2
 31
0.0
  0
LINE
  8
L-ZISSEN
 10
110.05
 20
323.75
 30
0.0
 11
94.55
 21
323.75
 31
0.0
  0
LINE
  8
L-ZISSEN
 10
94.55
 20
323.75
 30
0.0
 11
94.55
 21
346.25
 31
0.0
  0
LINE
  8
L-ZISSEN
 10
110.05
 20
346.25
 30
0.0
 11
94.55
 21
346.25
 31
0.0
  0
LINE
  8
L-ZISSEN
 10
98.3
 20
346.25
 30
0.0
 11
98.3
 21
350.0
 31
0.0
  0
LINE
  8
L-ZISSEN
 10
137.55
 20
321.25
 30
0.0
 11
137.55
 21
348.75
 31
0.0
  0
LINE
  8
L-ZISSEN
 10
110.05
 20
321.25
 30
0.0
 11
110.05
 21
348.75
 31
0.0
  0
LINE
  8
L-ZISSEN
 10
137.55
 20
348.75
 30
0.0
 11
110.05
 21
348.75
 31
0.0
  0
LINE
  8
L-ZISSEN
 10
137.55
 20
321.25
 30
0.0
 11
110.05
 21
321.25
 31
0.0
  0
LINE
  8
L-ZISSEN
 10
108.55
 20
350.0
 30
0.0
 11
108.55
 21
346.25
 31
0.0
  0
LINE
  8
L-ZISSEN
 10
138.55
 20
350.0
 30
0.0
 11
138.55
 21
320.0
 31
0.0
  0
LINE
  8
L-ZISSEN
 10
108.55
 20
323.75
 30
0.0
 11
108.55
 21
320.0
 31
0.0
  0
LINE
  8
L-ZISSEN
 10
199.2
 20
318.0
 30
0.0
 11
199.2
 21
352.0
 31
0.0
  0
LINE
  8
L-ZISSEN
 10
142.2
 20
319.4
 30
0.0
 11
142.2
 21
350.6
 31
0.0
  0
LINE
  8
L-ZISSEN
 10
199.2
 20
486.0
 30
0.0
 11
199.2
 21
434.0
 31
0.0
  0
LINE
  8
L-ZISSEN
 10
142.2
 20
486.0
 30
0.0
 11
142.2
 21
434.0
 31
0.0
  0
LINE
  8
L-ZISSEN
 10
142.2
 20
436.0
 30
0.0
 11
98.3
 21
436.0
 31
0.0
  0
LINE
  8
L-ZISSEN
 10
98.3
 20
478.8
 30
0.0
 11
142.2
 21
478.8
 31
0.0
  0
LINE
  8
L-ZISSEN
 10
98.3
 20
436.0
 30
0.0
 11
98.3
 21
478.8
 31
0.0
  0
LINE
  8
L-ZISSEN
 10
95.3
 20
450.185045
 30
0.0
 11
98.3
 21
450.185045
 31
0.0
  0
LINE
  8
L-ZISSEN
 10
95.3
 20
469.814955
 30
0.0
 11
98.3
 21
469.814955
 31
0.0
  0
LINE
  8
L-ZISSEN
 10
95.3
 20
450.185045
 30
0.0
 11
95.3
 21
469.814955
 31
0.0
  0
LINE
  8
L-ZISSEN
 10
137.55
 20
400.3
 30
0.0
 11
137.55
 21
431.5
 31
0.0
  0
LINE
  8
L-ZISSEN
 10
137.55
 20
400.3
 30
0.0
 11
94.55
 21
400.3
 31
0.0
  0
LINE
  8
L-ZISSEN
 10
110.05
 20
422.8
 30
0.0
 11
94.55
 21
422.8
 31
0.0
  0
LINE
  8
L-ZISSEN
 10
94.55
 20
400.3
 30
0.0
 11
94.55
 21
422.8
 31
0.0
  0
LINE
  8
L-ZISSEN
 10
110.05
 20
400.3
 30
0.0
 11
110.05
 21
431.5
 31
0.0
  0
LINE
  8
L-ZISSEN
 10
83.8
 20
400.580345
 30
0.0
 11
83.8
 21
422.519655
 31
0.0
  0
LINE
  8
L-ZISSEN
 10
83.8
 20
400.580345
 30
0.0
 11
89.3
 21
400.580345
 31
0.0
  0
LINE
  8
L-ZISSEN
 10
83.8
 20
422.519655
 30
0.0
 11
89.3
 21
422.519655
 31
0.0
  0
LINE
  8
L-ZISSEN
 10
89.3
 20
400.580345
 30
0.0
 11
89.3
 21
422.519655
 31
0.0
  0
LINE
  8
L-ZISSEN
 10
94.55
 20
402.35
 30
0.0
 11
91.65
 21
402.35
 31
0.0
  0
LINE
  8
L-ZISSEN
 10
94.55
 20
420.75
 30
0.0
 11
91.65
 21
420.75
 31
0.0
  0
LINE
  8
L-ZISSEN
 10
91.65
 20
403.05
 30
0.0
 11
89.3
 21
403.05
 31
0.0
  0
LINE
  8
L-ZISSEN
 10
91.65
 20
420.05
 30
0.0
 11
89.3
 21
420.05
 31
0.0
  0
LINE
  8
L-ZISSEN
 10
91.65
 20
402.35
 30
0.0
 11
91.65
 21
420.75
 31
0.0
  0
LINE
  8
L-ZISSEN
 10
139.05
 20
431.5
 30
0.0
 11
139.05
 21
436.0
 31
0.0
  0
LINE
  8
L-ZISSEN
 10
108.55
 20
431.5
 30
0.0
 11
108.55
 21
436.0
 31
0.0
  0
LINE
  8
L-ZISSEN
 10
139.05
 20
431.5
 30
0.0
 11
108.55
 21
431.5
 31
0.0
  0
LINE
  8
L-ZISSEN
 10
149.871797
 20
427.1
 30
0.0
 11
163.728203
 21
427.1
 31
0.0
  0
LINE
  8
L-ZISSEN
 10
163.728203
 20
427.1
 30
0.0
 11
163.728203
 21
434.0
 31
0.0
  0
LINE
  8
L-ZISSEN
 10
149.871797
 20
427.1
 30
0.0
 11
149.871797
 21
434.0
 31
0.0
  0
SOLID
  8
L-ZISSEN
 10
156.247758
 20
336.950933
 30
0.0
 11
155.644874
 21
336.666372
 31
0.0
 12
156.8
 22
335.0
 32
0.0
 13
156.8
 23
335.0
 33
0.0
  0
LINE
  8
L-ZISSEN
 10
155.946316
 20
336.808652
 30
0.0
 11
145.0
 21
360.0
 31
0.0
  0
LINE
  8
L-ZISSEN
 10
145.0
 20
360.0
 30
0.0
 11
143.0
 21
360.0
 31
0.0
  0
TEXT
  8
L-ZISSEN
 10
132.0
 20
357.75
 30
0.0
 40
4.5
  1
P.P
  0
SOLID
  8
L-ZISSEN
 10
122.331544
 20
333.601877
 30
0.0
 11
122.864366
 21
333.201195
 31
0.0
 12
123.8
 22
335.0
 32
0.0
 13
123.8
 23
335.0
 33
0.0
  0
LINE
  8
L-ZISSEN
 10
122.597955
 20
333.401536
 30
0.0
 11
105.0
 21
310.0
 31
0.0
  0
LINE
  8
L-ZISSEN
 10
105.0
 20
310.0
 30
0.0
 11
103.0
 21
310.0
 31
0.0
  0
TEXT
  8
L-ZISSEN
 10
92.0
 20
307.75
 30
0.0
 40
4.5
  1
P.P
  0
SOLID
  8
L-ZISSEN
 10
122.331544
 20
58.601877
 30
0.0
 11
122.864366
 21
58.201195
 31
0.0
 12
123.8
 22
60.0
 32
0.0
 13
123.8
 23
60.0
 33
0.0
  0
LINE
  8
L-ZISSEN
 10
122.597955
 20
58.401536
 30
0.0
 11
105.0
 21
35.0
 31
0.0
  0
LINE
  8
L-ZISSEN
 10
105.0
 20
35.0
 30
0.0
 11
103.0
 21
35.0
 31
0.0
  0
TEXT
  8
L-ZISSEN
 10
92.0
 20
32.75
 30
0.0
 40
4.5
  1
P.P
  0
LINE
  8
L-ZISSEN
 10
599.5
 20
47.0
 30
0.0
 11
599.5
 21
50.0
 31
0.0
  0
LINE
  8
L-ZISSEN
 10
599.5
 20
50.0
 30
0.0
 11
602.5
 21
50.0
 31
0.0
  0
LINE
  8
L-ZISSEN
 10
602.5
 20
50.0
 30
0.0
 11
602.5
 21
51.5
 31
0.0
  0
LINE
  8
L-ZISSEN
 10
599.5
 20
70.0
 30
0.0
 11
602.5
 21
70.0
 31
0.0
  0
LINE
  8
L-ZISSEN
 10
599.5
 20
73.0
 30
0.0
 11
599.5
 21
70.0
 31
0.0
  0
LINE
  8
L-ZISSEN
 10
604.5
 20
47.0
 30
0.0
 11
589.5
 21
47.0
 31
0.0
  0
LINE
  8
L-ZISSEN
 10
589.5
 20
73.0
 30
0.0
 11
604.5
 21
73.0
 31
0.0
  0
LINE
  8
L-ZISSEN
 10
589.5
 20
47.0
 30
0.0
 11
589.5
 21
73.0
 31
0.0
  0
LINE
  8
L-ZISSEN
 10
582.35
 20
50.8
 30
0.0
 11
582.35
 21
69.2
 31
0.0
  0
LINE
  8
L-ZISSEN
 10
582.35
 20
68.5
 30
0.0
 11
580.0
 21
68.5
 31
0.0
  0
LINE
  8
L-ZISSEN
 10
582.35
 20
51.5
 30
0.0
 11
580.0
 21
51.5
 31
0.0
  0
LINE
  8
L-ZISSEN
 10
589.5
 20
69.2
 30
0.0
 11
582.35
 21
69.2
 31
0.0
  0
LINE
  8
L-ZISSEN
 10
589.5
 20
50.8
 30
0.0
 11
582.35
 21
50.8
 31
0.0
  0
LINE
  8
L-ZISSEN
 10
580.0
 20
49.030345
 30
0.0
 11
580.0
 21
70.969655
 31
0.0
  0
LINE
  8
L-ZISSEN
 10
574.5
 20
70.969655
 30
0.0
 11
580.0
 21
70.969655
 31
0.0
  0
LINE
  8
L-ZISSEN
 10
574.5
 20
49.030345
 30
0.0
 11
580.0
 21
49.030345
 31
0.0
  0
LINE
  8
L-ZISSEN
 10
574.5
 20
49.030345
 30
0.0
 11
574.5
 21
70.969655
 31
0.0
  0
LINE
  8
L-ZISSEN
 10
604.5
 20
193.0
 30
0.0
 11
604.5
 21
195.0
 31
0.0
  0
LINE
  8
L-ZISSEN
 10
604.5
 20
165.0
 30
0.0
 11
604.5
 21
167.0
 31
0.0
  0
LINE
  8
L-ZISSEN
 10
615.5
 20
193.0
 30
0.0
 11
615.5
 21
194.5
 31
0.0
  0
LINE
  8
L-ZISSEN
 10
615.5
 20
194.5
 30
0.0
 11
644.5
 21
194.5
 31
0.0
  0
LINE
  8
L-ZISSEN
 10
615.5
 20
165.5
 30
0.0
 11
615.5
 21
167.0
 31
0.0
  0
LINE
  8
L-ZISSEN
 10
644.5
 20
165.5
 30
0.0
 11
615.5
 21
165.5
 31
0.0
  0
LINE
  8
L-ZISSEN
 10
644.5
 20
194.5
 30
0.0
 11
644.5
 21
165.5
 31
0.0
  0
LINE
  8
L-ZISSEN
 10
643.5
 20
193.5
 30
0.0
 11
616.5
 21
193.5
 31
0.0
  0
LINE
  8
L-ZISSEN
 10
643.5
 20
166.5
 30
0.0
 11
616.5
 21
166.5
 31
0.0
  0
LINE
  8
L-ZISSEN
 10
643.5
 20
166.5
 30
0.0
 11
643.5
 21
193.5
 31
0.0
  0
LINE
  8
L-ZISSEN
 10
616.5
 20
166.5
 30
0.0
 11
616.5
 21
193.5
 31
0.0
  0
LINE
  8
L-ZISSEN
 10
574.5
 20
169.030345
 30
0.0
 11
574.5
 21
190.969655
 31
0.0
  0
LINE
  8
L-ZISSEN
 10
574.5
 20
169.030345
 30
0.0
 11
580.0
 21
169.030345
 31
0.0
  0
LINE
  8
L-ZISSEN
 10
574.5
 20
190.969655
 30
0.0
 11
580.0
 21
190.969655
 31
0.0
  0
LINE
  8
L-ZISSEN
 10
580.0
 20
169.030345
 30
0.0
 11
580.0
 21
190.969655
 31
0.0
  0
LINE
  8
L-ZISSEN
 10
589.5
 20
170.8
 30
0.0
 11
582.35
 21
170.8
 31
0.0
  0
LINE
  8
L-ZISSEN
 10
589.5
 20
189.2
 30
0.0
 11
582.35
 21
189.2
 31
0.0
  0
LINE
  8
L-ZISSEN
 10
582.35
 20
171.5
 30
0.0
 11
580.0
 21
171.5
 31
0.0
  0
LINE
  8
L-ZISSEN
 10
582.35
 20
188.5
 30
0.0
 11
580.0
 21
188.5
 31
0.0
  0
LINE
  8
L-ZISSEN
 10
582.35
 20
170.8
 30
0.0
 11
582.35
 21
189.2
 31
0.0
  0
LINE
  8
L-ZISSEN
 10
589.5
 20
167.0
 30
0.0
 11
589.5
 21
193.0
 31
0.0
  0
LINE
  8
L-ZISSEN
 10
589.5
 20
193.0
 30
0.0
 11
616.5
 21
193.0
 31
0.0
  0
LINE
  8
L-ZISSEN
 10
616.5
 20
167.0
 30
0.0
 11
589.5
 21
167.0
 31
0.0
  0
LINE
  8
L-ZISSEN
 10
644.5
 20
116.0
 30
0.0
 11
615.5
 21
116.0
 31
0.0
  0
LINE
  8
L-ZISSEN
 10
599.5
 20
113.5
 30
0.0
 11
599.5
 21
110.0
 31
0.0
  0
LINE
  8
L-ZISSEN
 10
615.5
 20
116.0
 30
0.0
 11
615.5
 21
110.0
 31
0.0
  0
LINE
  8
L-ZISSEN
 10
644.5
 20
116.0
 30
0.0
 11
644.5
 21
110.0
 31
0.0
  0
LINE
  8
L-ZISSEN
 10
615.5
 20
113.5
 30
0.0
 11
599.5
 21
113.5
 31
0.0
  0
LINE
  8
L-ZISSEN
 10
616.5
 20
138.0
 30
0.0
 11
616.5
 21
116.0
 31
0.0
  0
LINE
  8
L-ZISSEN
 10
643.5
 20
138.0
 30
0.0
 11
643.5
 21
116.0
 31
0.0
  0
LINE
  8
L-ZISSEN
 10
589.5
 20
110.0
 30
0.0
 11
604.5
 21
110.0
 31
0.0
  0
LINE
  8
L-ZISSEN
 10
643.5
 20
138.0
 30
0.0
 11
616.5
 21
138.0
 31
0.0
  0
LINE
  8
L-ZISSEN
 10
616.5
 20
136.0
 30
0.0
 11
589.5
 21
136.0
 31
0.0
  0
LINE
  8
L-ZISSEN
 10
589.5
 20
136.0
 30
0.0
 11
589.5
 21
110.0
 31
0.0
  0
LINE
  8
L-ZISSEN
 10
582.35
 20
132.2
 30
0.0
 11
582.35
 21
113.8
 31
0.0
  0
LINE
  8
L-ZISSEN
 10
582.35
 20
114.5
 30
0.0
 11
580.0
 21
114.5
 31
0.0
  0
LINE
  8
L-ZISSEN
 10
582.35
 20
131.5
 30
0.0
 11
580.0
 21
131.5
 31
0.0
  0
LINE
  8
L-ZISSEN
 10
589.5
 20
113.8
 30
0.0
 11
582.35
 21
113.8
 31
0.0
  0
LINE
  8
L-ZISSEN
 10
589.5
 20
132.2
 30
0.0
 11
582.35
 21
132.2
 31
0.0
  0
LINE
  8
L-ZISSEN
 10
580.0
 20
133.969655
 30
0.0
 11
580.0
 21
112.030345
 31
0.0
  0
LINE
  8
L-ZISSEN
 10
574.5
 20
112.030345
 30
0.0
 11
580.0
 21
112.030345
 31
0.0
  0
LINE
  8
L-ZISSEN
 10
574.5
 20
133.969655
 30
0.0
 11
580.0
 21
133.969655
 31
0.0
  0
LINE
  8
L-ZISSEN
 10
574.5
 20
133.969655
 30
0.0
 11
574.5
 21
112.030345
 31
0.0
  0
SOLID
  8
L-ZISSEN
 10
628.947726
 20
178.266844
 30
0.0
 11
629.566711
 21
178.01925
 31
0.0
 12
630.0
 22
180.0
 32
0.0
 13
630.0
 23
180.0
 33
0.0
  0
LINE
  8
L-ZISSEN
 10
629.257219
 20
178.143047
 30
0.0
 11
620.0
 21
155.0
 31
0.0
  0
LINE
  8
L-ZISSEN
 10
620.0
 20
155.0
 30
0.0
 11
618.0
 21
155.0
 31
0.0
  0
TEXT
  8
L-ZISSEN
 10
607.0
 20
152.75
 30
0.0
 40
4.5
  1
P.P
  0
SOLID
  8
L-ZISSEN
 10
628.61325
 20
108.520799
 30
0.0
 11
629.16795
 21
108.150999
 31
0.0
 12
630.0
 22
110.0
 32
0.0
 13
630.0
 23
110.0
 33
0.0
  0
LINE
  8
L-ZISSEN
 10
628.8906
 20
108.335899
 30
0.0
 11
620.0
 21
95.0
 31
0.0
  0
LINE
  8
L-ZISSEN
 10
620.0
 20
95.0
 30
0.0
 11
618.0
 21
95.0
 31
0.0
  0
TEXT
  8
L-ZISSEN
 10
607.0
 20
92.75
 30
0.0
 40
4.5
  1
P.P
  0
SOLID
  8
L-ZISSEN
 10
628.80743
 20
58.360217
 30
0.0
 11
629.403715
 21
58.062074
 31
0.0
 12
630.0
 22
60.0
 32
0.0
 13
630.0
 23
60.0
 33
0.0
  0
LINE
  8
L-ZISSEN
 10
629.105573
 20
58.211146
 30
0.0
 11
620.0
 21
40.0
 31
0.0
  0
LINE
  8
L-ZISSEN
 10
620.0
 20
40.0
 30
0.0
 11
618.0
 21
40.0
 31
0.0
  0
TEXT
  8
L-ZISSEN
 10
607.0
 20
37.75
 30
0.0
 40
4.5
  1
P.P
  0
LINE
  8
L-ZISSEN
 10
717.5
 20
68.5
 30
0.0
 11
717.5
 21
70.0
 31
0.0
  0
LINE
  8
L-ZISSEN
 10
602.5
 20
68.5
 30
0.0
 11
602.5
 21
70.0
 31
0.0
  0
LINE
  8
L-ZISSEN
 10
394.7
 20
51.5
 30
0.0
 11
394.7
 21
68.5
 31
0.0
  0
LINE
  8
L-ZISSEN
 10
394.7
 20
51.5
 30
0.0
 11
391.7
 21
51.5
 31
0.0
  0
LINE
  8
L-ZISSEN
 10
394.7
 20
68.5
 30
0.0
 11
391.7
 21
68.5
 31
0.0
  0
LINE
  8
L-ZISSEN
 10
95.3
 20
68.5
 30
0.0
 11
98.3
 21
68.5
 31
0.0
  0
LINE
  8
L-ZISSEN
 10
95.3
 20
51.5
 30
0.0
 11
95.3
 21
68.5
 31
0.0
  0
LINE
  8
L-ZISSEN
 10
95.3
 20
51.5
 30
0.0
 11
98.3
 21
51.5
 31
0.0
  0
TEXT
  8
L-ZISSEN
 10
127.0
 20
544.0
 30
0.0
 40
4.5
  1
02
  0
TEXT
  8
L-ZISSEN
 10
127.0
 20
537.0
 30
0.0
 40
4.5
  1
03J
  0
SOLID
  8
L-ZISSEN
 10
244.042233
 20
167.712881
 30
0.0
 11
244.67361
 21
167.498855
 31
0.0
 12
245.0
 22
169.5
 32
0.0
 13
245.0
 23
169.5
 33
0.0
  0
LINE
  8
L-ZISSEN
 10
244.357921
 20
167.605868
 30
0.0
 11
235.0
 21
140.0
 31
0.0
  0
LINE
  8
L-ZISSEN
 10
235.0
 20
140.0
 30
0.0
 11
233.0
 21
140.0
 31
0.0
  0
TEXT
  8
L-ZISSEN
 10
201.0
 20
137.75
 30
0.0
 40
4.5
  1
"1" PORT
  0
TEXT
  8
L-ZISSEN
 10
205.0
 20
130.0
 30
0.0
 40
4.5
  1
Rc 1/4
  0
TEXT
  8
L-ZISSEN
 10
205.0
 20
120.0
 30
0.0
 40
4.5
  1
Rc 3/8
  0
ENDSEC
  0
EOF
