  0
SECTION
  2
HEADER
  9
$ACADVER
  1
AC1006
  9
$INSBASE
 10
0.0
 20
0.0
 30
0.0
  9
$EXTMIN
 10
35.0
 20
26.0
  9
$EXTMAX
 10
790.0
 20
584.5
  9
$LIMMIN
 10
0.0
 20
0.0
  9
$LIMMAX
 10
841.0
 20
594.0
  9
$ORTHOMODE
 70
     0
  9
$REGENMODE
 70
     1
  9
$FILLMODE
 70
     1
  9
$QTEXTMODE
 70
     0
  9
$MIRRTEXT
 70
     1
  9
$DRAGMODE
 70
     2
  9
$LTSCALE
 40
1.0
  9
$OSMODE
 70
     0
  9
$ATTMODE
 70
     1
  9
$TEXTSIZE
 40
4.5
  9
$TRACEWID
 40
0.05
  9
$TEXTSTYLE
  7
STANDARD
  9
$CLAYER
  8
L-ZISSEN
  9
$CELTYPE
  6
BYLAYER
  9
$CECOLOR
 62
   256
  9
$DIMSCALE
 40
1.0
  9
$DIMASZ
 40
2.0
  9
$DIMEXO
 40
2.0
  9
$DIMDLI
 40
0.38
  9
$DIMRND
 40
0.0
  9
$DIMDLE
 40
1.0
  9
$DIMEXE
 40
2.0
  9
$DIMTP
 40
0.0
  9
$DIMTM
 40
0.0
  9
$DIMTXT
 40
4.5
  9
$DIMCEN
 40
0.09
  9
$DIMTSZ
 40
0.0
  9
$DIMTOL
 70
     0
  9
$DIMLIM
 70
     0
  9
$DIMTIH
 70
     0
  9
$DIMTOH
 70
     0
  9
$DIMSE1
 70
     0
  9
$DIMSE2
 70
     0
  9
$DIMTAD
 70
     1
  9
$DIMZIN
 70
     0
  9
$DIMBLK
  1

  9
$DIMASO
 70
     0
  9
$DIMSHO
 70
     0
  9
$DIMPOST
  1

  9
$DIMAPOST
  1

  9
$DIMALT
 70
     0
  9
$DIMALTD
 70
     2
  9
$DIMALTF
 40
25.4
  9
$DIMLFAC
 40
1.0
  9
$DIMTOFL
 70
     1
  9
$DIMTVP
 40
0.0
  9
$DIMTIX
 70
     1
  9
$DIMSOXD
 70
     0
  9
$DIMSAH
 70
     0
  9
$DIMBLK1
  1

  9
$DIMBLK2
  1

  9
$LUNITS
 70
     2
  9
$LUPREC
 70
     4
  9
$AXISMODE
 70
     0
  9
$AXISUNIT
 10
0.0
 20
0.0
  9
$SKETCHINC
 40
0.1
  9
$FILLETRAD
 40
0.0
  9
$AUNITS
 70
     0
  9
$AUPREC
 70
     0
  9
$MENU
  1
acad
  9
$ELEVATION
 40
0.0
  9
$THICKNESS
 40
0.0
  9
$LIMCHECK
 70
     0
  9
$BLIPMODE
 70
     1
  9
$CHAMFERA
 40
0.0
  9
$CHAMFERB
 40
0.0
  9
$SKPOLY
 70
     0
  9
$TDCREATE
 40
2449002.6613143519
  9
$TDUPDATE
 40
2449002.6613143519
  9
$TDINDWG
 40
0.0000000000
  9
$TDUSRTIMER
 40
0.0000000000
  9
$USRTIMER
 70
     1
  9
$ANGBASE
 50
0.0
  9
$ANGDIR
 70
     0
  9
$PDMODE
 70
     0
  9
$PDSIZE
 40
0.0
  9
$PLINEWID
 40
0.0
  9
$COORDS
 70
     2
  9
$SPLFRAME
 70
     0
  9
$SPLINETYPE
 70
     6
  9
$SPLINESEGS
 70
     8
  9
$ATTDIA
 70
     0
  9
$ATTREQ
 70
     1
  9
$HANDLING
 70
     0
  9
$HANDSEED
  5
0
  9
$SURFTAB1
 70
     6
  9
$SURFTAB2
 70
     6
  9
$SURFTYPE
 70
     6
  9
$SURFU
 70
     6
  9
$SURFV
 70
     6
  9
$FLATLAND
 70
     0
  9
$UCSNAME
  2

  9
$UCSORG
 10
0.0
 20
0.0
 30
0.0
  9
$UCSXDIR
 10
1.0
 20
0.0
 30
0.0
  9
$UCSYDIR
 10
0.0
 20
1.0
 30
0.0
  9
$USERI1
 70
     0
  9
$USERI2
 70
     0
  9
$USERI3
 70
     0
  9
$USERI4
 70
     0
  9
$USERI5
 70
     0
  9
$USERR1
 40
0.0
  9
$USERR2
 40
0.0
  9
$USERR3
 40
0.0
  9
$USERR4
 40
0.0
  9
$USERR5
 40
0.0
  9
$WORLDVIEW
 70
     1
  0
ENDSEC
  0
SECTION
  2
TABLES
  0
TABLE
  2
VPORT
 70
     2
  0
VPORT
  2
*ACTIVE
 70
     0
 10
0.0
 20
0.0
 11
1.0
 21
1.0
 12
476.455978
 22
307.649038
 13
0.0
 23
0.0
 14
5.0
 24
5.0
 15
0.0
 25
0.0
 16
0.0
 26
0.0
 36
1.0
 17
0.0
 27
0.0
 37
0.0
 40
615.298075
 41
1.5487
 42
50.0
 43
0.0
 44
0.0
 50
0.0
 51
0.0
 71
     0
 72
   100
 73
     1
 74
     0
 75
     0
 76
     0
 77
     0
 78
     0
  0
ENDTAB
  0
TABLE
  2
LTYPE
 70
     2
  0
LTYPE
  2
CONTINUOUS
 70
    64
  3
Solid line
 72
    65
 73
     0
 40
0.0
  0
LTYPE
  2
CENTER
 70
    64
  3
____ _ ____ _ ____ _ ____ _ 
 72
    65
 73
     4
 40
60.0
 49
45.0
 49
-5.0
 49
5.0
 49
-5.0
  0
ENDTAB
  0
TABLE
  2
LAYER
 70
     3
  0
LAYER
  2
0
 70
     0
 62
     7
  6
CONTINUOUS
  0
LAYER
  2
L-ZISSEN
 70
    64
 62
     7
  6
CONTINUOUS
  0
LAYER
  2
L-TYUSIN
 70
    64
 62
     1
  6
CENTER
  0
ENDTAB
  0
TABLE
  2
STYLE
 70
     1
  0
STYLE
  2
STANDARD
 70
    64
 40
0.0
 41
1.0
 50
0.0
 71
     0
 42
4.5
  3
TXT
  4

  0
ENDTAB
  0
TABLE
  2
VIEW
 70
     0
  0
ENDTAB
  0
TABLE
  2
UCS
 70
     0
  0
ENDTAB
  0
TABLE
  2
DWGMGR
 70
     0
  0
ENDTAB
  0
ENDSEC
  0
SECTION
  2
BLOCKS
  0
ENDSEC
  0
SECTION
  2
ENTITIES
  0
LINE
  8
L-TYUSIN
 10
530.0
 20
240.0
 30
0.0
 11
730.0
 21
240.0
 31
0.0
  0
LINE
  8
L-ZISSEN
 10
665.5
 20
138.969655
 30
0.0
 11
665.5
 21
117.030345
 31
0.0
  0
LINE
  8
L-ZISSEN
 10
665.5
 20
138.969655
 30
0.0
 11
660.0
 21
138.969655
 31
0.0
  0
LINE
  8
L-ZISSEN
 10
665.5
 20
117.030345
 30
0.0
 11
660.0
 21
117.030345
 31
0.0
  0
LINE
  8
L-ZISSEN
 10
660.0
 20
138.969655
 30
0.0
 11
660.0
 21
117.030345
 31
0.0
  0
LINE
  8
L-ZISSEN
 10
650.5
 20
137.2
 30
0.0
 11
657.65
 21
137.2
 31
0.0
  0
LINE
  8
L-ZISSEN
 10
650.5
 20
118.8
 30
0.0
 11
657.65
 21
118.8
 31
0.0
  0
LINE
  8
L-ZISSEN
 10
657.65
 20
136.5
 30
0.0
 11
660.0
 21
136.5
 31
0.0
  0
LINE
  8
L-ZISSEN
 10
657.65
 20
119.5
 30
0.0
 11
660.0
 21
119.5
 31
0.0
  0
LINE
  8
L-ZISSEN
 10
657.65
 20
137.2
 30
0.0
 11
657.65
 21
118.8
 31
0.0
  0
CIRCLE
  8
L-ZISSEN
 10
700.0
 20
128.0
 30
0.0
 40
6.5
  0
CIRCLE
  8
L-ZISSEN
 10
700.0
 20
128.0
 30
0.0
 40
11.25
  0
LINE
  8
L-ZISSEN
 10
650.5
 20
141.0
 30
0.0
 11
650.5
 21
115.0
 31
0.0
  0
LINE
  8
L-ZISSEN
 10
623.5
 20
141.0
 30
0.0
 11
650.5
 21
141.0
 31
0.0
  0
LINE
  8
L-ZISSEN
 10
596.5
 20
143.0
 30
0.0
 11
623.5
 21
143.0
 31
0.0
  0
LINE
  8
L-ZISSEN
 10
650.5
 20
115.0
 30
0.0
 11
635.5
 21
115.0
 31
0.0
  0
LINE
  8
L-ZISSEN
 10
596.5
 20
143.0
 30
0.0
 11
596.5
 21
121.0
 31
0.0
  0
LINE
  8
L-ZISSEN
 10
623.5
 20
143.0
 30
0.0
 11
623.5
 21
121.0
 31
0.0
  0
LINE
  8
L-ZISSEN
 10
624.5
 20
118.5
 30
0.0
 11
640.5
 21
118.5
 31
0.0
  0
LINE
  8
L-ZISSEN
 10
595.5
 20
121.0
 30
0.0
 11
595.5
 21
115.0
 31
0.0
  0
LINE
  8
L-ZISSEN
 10
624.5
 20
121.0
 30
0.0
 11
624.5
 21
115.0
 31
0.0
  0
LINE
  8
L-ZISSEN
 10
640.5
 20
118.5
 30
0.0
 11
640.5
 21
115.0
 31
0.0
  0
LINE
  8
L-ZISSEN
 10
595.5
 20
121.0
 30
0.0
 11
624.5
 21
121.0
 31
0.0
  0
LINE
  8
L-ZISSEN
 10
623.5
 20
172.0
 30
0.0
 11
650.5
 21
172.0
 31
0.0
  0
LINE
  8
L-ZISSEN
 10
650.5
 20
198.0
 30
0.0
 11
623.5
 21
198.0
 31
0.0
  0
LINE
  8
L-ZISSEN
 10
650.5
 20
172.0
 30
0.0
 11
650.5
 21
198.0
 31
0.0
  0
LINE
  8
L-ZISSEN
 10
657.65
 20
175.8
 30
0.0
 11
657.65
 21
194.2
 31
0.0
  0
LINE
  8
L-ZISSEN
 10
657.65
 20
193.5
 30
0.0
 11
660.0
 21
193.5
 31
0.0
  0
LINE
  8
L-ZISSEN
 10
657.65
 20
176.5
 30
0.0
 11
660.0
 21
176.5
 31
0.0
  0
LINE
  8
L-ZISSEN
 10
650.5
 20
194.2
 30
0.0
 11
657.65
 21
194.2
 31
0.0
  0
LINE
  8
L-ZISSEN
 10
650.5
 20
175.8
 30
0.0
 11
657.65
 21
175.8
 31
0.0
  0
LINE
  8
L-ZISSEN
 10
660.0
 20
174.030345
 30
0.0
 11
660.0
 21
195.969655
 31
0.0
  0
LINE
  8
L-ZISSEN
 10
665.5
 20
195.969655
 30
0.0
 11
660.0
 21
195.969655
 31
0.0
  0
LINE
  8
L-ZISSEN
 10
665.5
 20
174.030345
 30
0.0
 11
660.0
 21
174.030345
 31
0.0
  0
LINE
  8
L-ZISSEN
 10
665.5
 20
174.030345
 30
0.0
 11
665.5
 21
195.969655
 31
0.0
  0
LINE
  8
L-ZISSEN
 10
623.5
 20
171.5
 30
0.0
 11
623.5
 21
198.5
 31
0.0
  0
LINE
  8
L-ZISSEN
 10
596.5
 20
171.5
 30
0.0
 11
596.5
 21
198.5
 31
0.0
  0
LINE
  8
L-ZISSEN
 10
596.5
 20
171.5
 30
0.0
 11
623.5
 21
171.5
 31
0.0
  0
LINE
  8
L-ZISSEN
 10
596.5
 20
198.5
 30
0.0
 11
623.5
 21
198.5
 31
0.0
  0
LINE
  8
L-ZISSEN
 10
595.5
 20
199.5
 30
0.0
 11
595.5
 21
170.5
 31
0.0
  0
LINE
  8
L-ZISSEN
 10
595.5
 20
170.5
 30
0.0
 11
624.5
 21
170.5
 31
0.0
  0
LINE
  8
L-ZISSEN
 10
624.5
 20
170.5
 30
0.0
 11
624.5
 21
172.0
 31
0.0
  0
LINE
  8
L-ZISSEN
 10
624.5
 20
199.5
 30
0.0
 11
595.5
 21
199.5
 31
0.0
  0
LINE
  8
L-ZISSEN
 10
624.5
 20
198.0
 30
0.0
 11
624.5
 21
199.5
 31
0.0
  0
LINE
  8
L-ZISSEN
 10
714.5
 20
121.0
 30
0.0
 11
713.0
 21
121.0
 31
0.0
  0
LINE
  8
L-ZISSEN
 10
685.5
 20
121.0
 30
0.0
 11
685.5
 21
115.0
 31
0.0
  0
LINE
  8
L-ZISSEN
 10
714.5
 20
121.0
 30
0.0
 11
714.5
 21
115.0
 31
0.0
  0
LINE
  8
L-ZISSEN
 10
686.5
 20
143.0
 30
0.0
 11
686.5
 21
121.0
 31
0.0
  0
LINE
  8
L-ZISSEN
 10
713.5
 20
143.0
 30
0.0
 11
713.5
 21
121.0
 31
0.0
  0
LINE
  8
L-ZISSEN
 10
713.5
 20
143.0
 30
0.0
 11
686.5
 21
143.0
 31
0.0
  0
LINE
  8
L-ZISSEN
 10
714.5
 20
118.5
 30
0.0
 11
708.87412
 21
118.5
 31
0.0
  0
LINE
  8
L-ZISSEN
 10
688.5
 20
118.5
 30
0.0
 11
688.5
 21
115.0
 31
0.0
  0
LINE
  8
L-ZISSEN
 10
711.5
 20
118.5
 30
0.0
 11
711.5
 21
115.0
 31
0.0
  0
LINE
  8
L-ZISSEN
 10
691.12588
 20
118.5
 30
0.0
 11
685.5
 21
118.5
 31
0.0
  0
CIRCLE
  8
L-ZISSEN
 10
700.0
 20
128.0
 30
0.0
 40
13.0
  0
LINE
  8
L-ZISSEN
 10
713.0
 20
128.0
 30
0.0
 11
713.0
 21
118.5
 31
0.0
  0
LINE
  8
L-ZISSEN
 10
687.0
 20
128.0
 30
0.0
 11
687.0
 21
118.5
 31
0.0
  0
LINE
  8
L-ZISSEN
 10
687.0
 20
121.0
 30
0.0
 11
685.5
 21
121.0
 31
0.0
  0
TEXT
  8
L-ZISSEN
 10
540.0
 20
225.0
 30
0.0
 40
4.5
  1
ELECTRICAL CONNECTION
  0
LINE
  8
L-TYUSIN
 10
149.2
 20
210.0
 30
0.0
 11
379.7
 21
210.0
 31
0.0
  0
LINE
  8
L-ZISSEN
 10
270.8
 20
184.0
 30
0.0
 11
270.8
 21
236.0
 31
0.0
  0
LINE
  8
L-ZISSEN
 10
327.8
 20
236.0
 30
0.0
 11
262.7
 21
236.0
 31
0.0
  0
LINE
  8
L-ZISSEN
 10
179.2
 20
236.0
 30
0.0
 11
179.2
 21
184.0
 31
0.0
  0
LINE
  8
L-ZISSEN
 10
171.2
 20
184.0
 30
0.0
 11
327.8
 21
184.0
 31
0.0
  0
LINE
  8
L-ZISSEN
 10
327.8
 20
184.0
 30
0.0
 11
327.8
 21
236.0
 31
0.0
  0
LINE
  8
L-ZISSEN
 10
154.2
 20
221.0
 30
0.0
 11
154.2
 21
199.0
 31
0.0
  0
LINE
  8
L-ZISSEN
 10
171.2
 20
236.0
 30
0.0
 11
171.2
 21
184.0
 31
0.0
  0
LINE
  8
L-ZISSEN
 10
161.2
 20
225.465838
 30
0.0
 11
161.2
 21
196.0
 31
0.0
  0
LINE
  8
L-ZISSEN
 10
161.2
 20
196.0
 30
0.0
 11
171.2
 21
196.0
 31
0.0
  0
LINE
  8
L-ZISSEN
 10
154.2
 20
199.0
 30
0.0
 11
161.2
 21
199.0
 31
0.0
  0
LINE
  8
L-ZISSEN
 10
154.2
 20
221.0
 30
0.0
 11
161.2
 21
221.0
 31
0.0
  0
LINE
  8
L-ZISSEN
 10
327.8
 20
234.0
 30
0.0
 11
371.7
 21
234.0
 31
0.0
  0
LINE
  8
L-ZISSEN
 10
371.7
 20
191.2
 30
0.0
 11
327.8
 21
191.2
 31
0.0
  0
LINE
  8
L-ZISSEN
 10
371.7
 20
234.0
 30
0.0
 11
371.7
 21
191.2
 31
0.0
  0
LINE
  8
L-ZISSEN
 10
374.7
 20
219.814955
 30
0.0
 11
371.7
 21
219.814955
 31
0.0
  0
LINE
  8
L-ZISSEN
 10
374.7
 20
200.185045
 30
0.0
 11
371.7
 21
200.185045
 31
0.0
  0
LINE
  8
L-ZISSEN
 10
374.7
 20
219.814955
 30
0.0
 11
374.7
 21
200.185045
 31
0.0
  0
LINE
  8
L-ZISSEN
 10
332.45
 20
269.7
 30
0.0
 11
332.45
 21
238.5
 31
0.0
  0
LINE
  8
L-ZISSEN
 10
332.45
 20
269.7
 30
0.0
 11
375.45
 21
269.7
 31
0.0
  0
LINE
  8
L-ZISSEN
 10
359.95
 20
247.2
 30
0.0
 11
375.45
 21
247.2
 31
0.0
  0
LINE
  8
L-ZISSEN
 10
375.45
 20
269.7
 30
0.0
 11
375.45
 21
247.2
 31
0.0
  0
LINE
  8
L-ZISSEN
 10
359.95
 20
269.7
 30
0.0
 11
359.95
 21
238.5
 31
0.0
  0
LINE
  8
L-ZISSEN
 10
386.2
 20
269.419655
 30
0.0
 11
386.2
 21
247.480345
 31
0.0
  0
LINE
  8
L-ZISSEN
 10
386.2
 20
269.419655
 30
0.0
 11
380.7
 21
269.419655
 31
0.0
  0
LINE
  8
L-ZISSEN
 10
386.2
 20
247.480345
 30
0.0
 11
380.7
 21
247.480345
 31
0.0
  0
LINE
  8
L-ZISSEN
 10
380.7
 20
269.419655
 30
0.0
 11
380.7
 21
247.480345
 31
0.0
  0
LINE
  8
L-ZISSEN
 10
375.45
 20
267.65
 30
0.0
 11
378.35
 21
267.65
 31
0.0
  0
LINE
  8
L-ZISSEN
 10
375.45
 20
249.25
 30
0.0
 11
378.35
 21
249.25
 31
0.0
  0
LINE
  8
L-ZISSEN
 10
378.35
 20
266.95
 30
0.0
 11
380.7
 21
266.95
 31
0.0
  0
LINE
  8
L-ZISSEN
 10
378.35
 20
249.95
 30
0.0
 11
380.7
 21
249.95
 31
0.0
  0
LINE
  8
L-ZISSEN
 10
378.35
 20
267.65
 30
0.0
 11
378.35
 21
249.25
 31
0.0
  0
LINE
  8
L-ZISSEN
 10
330.95
 20
238.5
 30
0.0
 11
330.95
 21
234.0
 31
0.0
  0
LINE
  8
L-ZISSEN
 10
361.45
 20
238.5
 30
0.0
 11
361.45
 21
234.0
 31
0.0
  0
LINE
  8
L-ZISSEN
 10
330.95
 20
238.5
 30
0.0
 11
361.45
 21
238.5
 31
0.0
  0
LINE
  8
L-ZISSEN
 10
154.2
 20
341.0
 30
0.0
 11
161.2
 21
341.0
 31
0.0
  0
LINE
  8
L-ZISSEN
 10
161.2
 20
344.0
 30
0.0
 11
167.6
 21
344.0
 31
0.0
  0
LINE
  8
L-ZISSEN
 10
154.2
 20
319.0
 30
0.0
 11
161.2
 21
319.0
 31
0.0
  0
LINE
  8
L-ZISSEN
 10
161.2
 20
316.0
 30
0.0
 11
167.6
 21
316.0
 31
0.0
  0
LINE
  8
L-ZISSEN
 10
161.2
 20
344.0
 30
0.0
 11
161.2
 21
316.0
 31
0.0
  0
LINE
  8
L-ZISSEN
 10
171.2
 20
345.6
 30
0.0
 11
171.2
 21
314.4
 31
0.0
  0
LINE
  8
L-ZISSEN
 10
154.2
 20
341.0
 30
0.0
 11
154.2
 21
319.0
 31
0.0
  0
LINE
  8
L-ZISSEN
 10
327.8
 20
314.4
 30
0.0
 11
327.8
 21
345.6
 31
0.0
  0
LINE
  8
L-ZISSEN
 10
179.2
 20
347.0
 30
0.0
 11
179.2
 21
313.0
 31
0.0
  0
LINE
  8
L-ZISSEN
 10
270.8
 20
313.0
 30
0.0
 11
270.8
 21
347.0
 31
0.0
  0
LINE
  8
L-TYUSIN
 10
225.0
 20
361.0
 30
0.0
 11
225.0
 21
299.0
 31
0.0
  0
LINE
  8
L-TYUSIN
 10
149.2
 20
330.0
 30
0.0
 11
391.2
 21
330.0
 31
0.0
  0
LINE
  8
L-ZISSEN
 10
361.45
 20
318.75
 30
0.0
 11
361.45
 21
315.0
 31
0.0
  0
LINE
  8
L-ZISSEN
 10
331.45
 20
345.0
 30
0.0
 11
331.45
 21
315.0
 31
0.0
  0
LINE
  8
L-ZISSEN
 10
361.45
 20
345.0
 30
0.0
 11
361.45
 21
341.25
 31
0.0
  0
LINE
  8
L-ZISSEN
 10
332.45
 20
316.25
 30
0.0
 11
359.95
 21
316.25
 31
0.0
  0
LINE
  8
L-ZISSEN
 10
332.45
 20
343.75
 30
0.0
 11
359.95
 21
343.75
 31
0.0
  0
LINE
  8
L-ZISSEN
 10
359.95
 20
316.25
 30
0.0
 11
359.95
 21
343.75
 31
0.0
  0
LINE
  8
L-ZISSEN
 10
332.45
 20
316.25
 30
0.0
 11
332.45
 21
343.75
 31
0.0
  0
LINE
  8
L-ZISSEN
 10
371.7
 20
341.25
 30
0.0
 11
371.7
 21
345.0
 31
0.0
  0
LINE
  8
L-ZISSEN
 10
359.95
 20
341.25
 30
0.0
 11
375.45
 21
341.25
 31
0.0
  0
LINE
  8
L-ZISSEN
 10
375.45
 20
318.75
 30
0.0
 11
375.45
 21
341.25
 31
0.0
  0
LINE
  8
L-ZISSEN
 10
359.95
 20
318.75
 30
0.0
 11
375.45
 21
318.75
 31
0.0
  0
LINE
  8
L-ZISSEN
 10
378.35
 20
320.8
 30
0.0
 11
378.35
 21
339.2
 31
0.0
  0
LINE
  8
L-ZISSEN
 10
378.35
 20
338.5
 30
0.0
 11
380.7
 21
338.5
 31
0.0
  0
LINE
  8
L-ZISSEN
 10
378.35
 20
321.5
 30
0.0
 11
380.7
 21
321.5
 31
0.0
  0
LINE
  8
L-ZISSEN
 10
375.45
 20
339.2
 30
0.0
 11
378.35
 21
339.2
 31
0.0
  0
LINE
  8
L-ZISSEN
 10
375.45
 20
320.8
 30
0.0
 11
378.35
 21
320.8
 31
0.0
  0
LINE
  8
L-ZISSEN
 10
380.7
 20
319.030345
 30
0.0
 11
380.7
 21
340.969655
 31
0.0
  0
LINE
  8
L-ZISSEN
 10
386.2
 20
340.969655
 30
0.0
 11
380.7
 21
340.969655
 31
0.0
  0
LINE
  8
L-ZISSEN
 10
386.2
 20
319.030345
 30
0.0
 11
380.7
 21
319.030345
 31
0.0
  0
LINE
  8
L-ZISSEN
 10
386.2
 20
319.030345
 30
0.0
 11
386.2
 21
340.969655
 31
0.0
  0
LINE
  8
L-ZISSEN
 10
371.7
 20
315.0
 30
0.0
 11
327.8
 21
315.0
 31
0.0
  0
LINE
  8
L-ZISSEN
 10
371.7
 20
345.0
 30
0.0
 11
327.8
 21
345.0
 31
0.0
  0
LINE
  8
L-ZISSEN
 10
371.7
 20
315.0
 30
0.0
 11
371.7
 21
318.75
 31
0.0
  0
LINE
  8
L-ZISSEN
 10
441.5
 20
214.907477
 30
0.0
 11
441.5
 21
205.092523
 31
0.0
  0
LINE
  8
L-ZISSEN
 10
450.0
 20
219.814955
 30
0.0
 11
441.5
 21
214.907477
 31
0.0
  0
LINE
  8
L-ZISSEN
 10
458.5
 20
214.907477
 30
0.0
 11
450.0
 21
219.814955
 31
0.0
  0
LINE
  8
L-ZISSEN
 10
458.5
 20
205.092523
 30
0.0
 11
458.5
 21
214.907477
 31
0.0
  0
LINE
  8
L-ZISSEN
 10
450.0
 20
200.185045
 30
0.0
 11
458.5
 21
205.092523
 31
0.0
  0
LINE
  8
L-ZISSEN
 10
441.5
 20
205.092523
 30
0.0
 11
450.0
 21
200.185045
 31
0.0
  0
LINE
  8
L-ZISSEN
 10
434.75
 20
234.0
 30
0.0
 11
465.25
 21
234.0
 31
0.0
  0
LINE
  8
L-ZISSEN
 10
434.75
 20
238.5
 30
0.0
 11
465.25
 21
238.5
 31
0.0
  0
LINE
  8
L-ZISSEN
 10
465.25
 20
238.5
 30
0.0
 11
465.25
 21
234.0
 31
0.0
  0
LINE
  8
L-ZISSEN
 10
434.75
 20
238.5
 30
0.0
 11
434.75
 21
234.0
 31
0.0
  0
CIRCLE
  8
L-ZISSEN
 10
450.0
 20
258.45
 30
0.0
 40
6.5
  0
LINE
  8
L-ZISSEN
 10
436.25
 20
269.7
 30
0.0
 11
436.25
 21
238.5
 31
0.0
  0
LINE
  8
L-ZISSEN
 10
463.75
 20
269.7
 30
0.0
 11
463.75
 21
238.5
 31
0.0
  0
CIRCLE
  8
L-ZISSEN
 10
450.0
 20
258.45
 30
0.0
 40
11.25
  0
LINE
  8
L-ZISSEN
 10
436.25
 20
269.7
 30
0.0
 11
463.75
 21
269.7
 31
0.0
  0
LINE
  8
L-ZISSEN
 10
435.0
 20
191.2
 30
0.0
 11
465.0
 21
191.2
 31
0.0
  0
LINE
  8
L-TYUSIN
 10
450.0
 20
151.5
 30
0.0
 11
450.0
 21
274.7
 31
0.0
  0
LINE
  8
L-TYUSIN
 10
429.0
 20
210.0
 30
0.0
 11
471.0
 21
210.0
 31
0.0
  0
LINE
  8
L-ZISSEN
 10
425.0
 20
184.0
 30
0.0
 11
475.0
 21
184.0
 31
0.0
  0
LINE
  8
L-ZISSEN
 10
320.128203
 20
242.9
 30
0.0
 11
306.271797
 21
242.9
 31
0.0
  0
LINE
  8
L-ZISSEN
 10
306.271797
 20
242.9
 30
0.0
 11
306.271797
 21
236.0
 31
0.0
  0
LINE
  8
L-ZISSEN
 10
320.128203
 20
242.9
 30
0.0
 11
320.128203
 21
236.0
 31
0.0
  0
CIRCLE
  8
L-ZISSEN
 10
80.0
 20
210.0
 30
0.0
 40
11.0
  0
CIRCLE
  8
L-ZISSEN
 10
80.0
 20
210.0
 30
0.0
 40
14.0
  0
ARC
  8
L-ZISSEN
 10
88.42541
 20
221.180897
 30
0.0
 40
4.284941
 50
323.0
 51
143.0
  0
LINE
  8
L-ZISSEN
 10
85.003305
 20
223.759639
 30
0.0
 11
84.598968
 21
223.223067
 31
0.0
  0
LINE
  8
L-ZISSEN
 10
91.847516
 20
218.602156
 30
0.0
 11
91.44318
 21
218.065583
 31
0.0
  0
LINE
  8
L-ZISSEN
 10
161.2
 20
317.289649
 30
0.0
 11
167.6
 21
317.289649
 31
0.0
  0
LINE
  8
L-ZISSEN
 10
161.2
 20
325.401032
 30
0.0
 11
171.2
 21
325.401032
 31
0.0
  0
LINE
  8
L-ZISSEN
 10
161.2
 20
225.465838
 30
0.0
 11
171.2
 21
225.465838
 31
0.0
  0
LINE
  8
L-ZISSEN
 10
161.2
 20
218.065583
 30
0.0
 11
171.2
 21
218.065583
 31
0.0
  0
LINE
  8
L-ZISSEN
 10
86.0
 20
242.9
 30
0.0
 11
74.0
 21
242.9
 31
0.0
  0
LINE
  8
L-ZISSEN
 10
86.0
 20
236.0
 30
0.0
 11
86.0
 21
242.9
 31
0.0
  0
LINE
  8
L-ZISSEN
 10
74.0
 20
242.9
 30
0.0
 11
74.0
 21
236.0
 31
0.0
  0
LINE
  8
L-ZISSEN
 10
309.735898
 20
336.0
 30
0.0
 11
306.271797
 21
330.0
 31
0.0
  0
LINE
  8
L-ZISSEN
 10
306.271797
 20
330.0
 30
0.0
 11
309.735898
 21
324.0
 31
0.0
  0
LINE
  8
L-ZISSEN
 10
309.735898
 20
324.0
 30
0.0
 11
316.664102
 21
324.0
 31
0.0
  0
LINE
  8
L-ZISSEN
 10
316.664102
 20
324.0
 30
0.0
 11
320.128203
 21
330.0
 31
0.0
  0
LINE
  8
L-ZISSEN
 10
320.128203
 20
330.0
 30
0.0
 11
316.664102
 21
336.0
 31
0.0
  0
LINE
  8
L-ZISSEN
 10
316.664102
 20
336.0
 30
0.0
 11
309.735898
 21
336.0
 31
0.0
  0
TEXT
  8
L-ZISSEN
 10
45.0
 20
540.0
 30
0.0
 40
4.5
  1
MODEL No. :
  0
TEXT
  8
L-ZISSEN
 10
90.0
 20
540.0
 30
0.0
 40
4.5
  1
MVS-492-
  0
TEXT
  8
L-ZISSEN
 10
540.0
 20
215.0
 30
0.0
 40
4.5
  1
MODEL No. :
  0
TEXT
  8
L-ZISSEN
 10
585.0
 20
215.0
 30
0.0
 40
4.5
  1
MVS-492-0*M1
  0
LINE
  8
L-TYUSIN
 10
530.0
 20
400.0
 30
0.0
 11
530.0
 21
35.0
 31
0.0
  0
SOLID
  8
L-ZISSEN
 10
610.83205
 20
113.150999
 30
0.0
 11
611.38675
 21
113.520799
 31
0.0
 12
610.0
 22
115.0
 32
0.0
 13
610.0
 23
115.0
 33
0.0
  0
LINE
  8
L-ZISSEN
 10
611.1094
 20
113.335899
 30
0.0
 11
620.0
 21
100.0
 31
0.0
  0
LINE
  8
L-ZISSEN
 10
620.0
 20
100.0
 30
0.0
 11
622.0
 21
100.0
 31
0.0
  0
TEXT
  8
L-ZISSEN
 10
624.0
 20
97.75
 30
0.0
 40
4.5
  1
P.P
  0
SOLID
  8
L-ZISSEN
 10
700.83205
 20
113.150999
 30
0.0
 11
701.38675
 21
113.520799
 31
0.0
 12
700.0
 22
115.0
 32
0.0
 13
700.0
 23
115.0
 33
0.0
  0
LINE
  8
L-ZISSEN
 10
701.1094
 20
113.335899
 30
0.0
 11
710.0
 21
100.0
 31
0.0
  0
LINE
  8
L-ZISSEN
 10
710.0
 20
100.0
 30
0.0
 11
712.0
 21
100.0
 31
0.0
  0
TEXT
  8
L-ZISSEN
 10
714.0
 20
97.75
 30
0.0
 40
4.5
  1
P.P
  0
SOLID
  8
L-ZISSEN
 10
610.433289
 20
183.01925
 30
0.0
 11
611.052274
 21
183.266844
 31
0.0
 12
610.0
 22
185.0
 32
0.0
 13
610.0
 23
185.0
 33
0.0
  0
LINE
  8
L-ZISSEN
 10
610.742781
 20
183.143047
 30
0.0
 11
620.0
 21
160.0
 31
0.0
  0
LINE
  8
L-ZISSEN
 10
620.0
 20
160.0
 30
0.0
 11
622.0
 21
160.0
 31
0.0
  0
TEXT
  8
L-ZISSEN
 10
624.0
 20
157.75
 30
0.0
 40
4.5
  1
P.P
  0
LINE
  8
L-ZISSEN
 10
635.5
 20
170.0
 30
0.0
 11
635.5
 21
172.0
 31
0.0
  0
LINE
  8
L-ZISSEN
 10
635.5
 20
198.0
 30
0.0
 11
635.5
 21
200.0
 31
0.0
  0
LINE
  8
L-TYUSIN
 10
530.0
 20
335.0
 30
0.0
 11
730.0
 21
335.0
 31
0.0
  0
TEXT
  8
L-ZISSEN
 10
540.0
 20
385.0
 30
0.0
 40
4.5
  1
EXTERNAL PILOT AIR SUPPLY
  0
TEXT
  8
L-ZISSEN
 10
540.0
 20
375.0
 30
0.0
 40
4.5
  1
MODEL No. :
  0
TEXT
  8
L-ZISSEN
 10
585.0
 20
375.0
 30
0.0
 40
4.5
  1
MVS-492-0*P
  0
LINE
  8
L-TYUSIN
 10
630.0
 20
363.0
 30
0.0
 11
630.0
 21
347.0
 31
0.0
  0
CIRCLE
  8
L-ZISSEN
 10
630.0
 20
355.0
 30
0.0
 40
4.283
  0
SOLID
  8
L-ZISSEN
 10
631.479201
 20
353.61325
 30
0.0
 11
631.849001
 21
354.16795
 31
0.0
 12
630.0
 22
355.0
 32
0.0
 13
630.0
 23
355.0
 33
0.0
  0
LINE
  8
L-ZISSEN
 10
631.664101
 20
353.8906
 30
0.0
 11
645.0
 21
345.0
 31
0.0
  0
LINE
  8
L-ZISSEN
 10
645.0
 20
345.0
 30
0.0
 11
647.0
 21
345.0
 31
0.0
  0
TEXT
  8
L-ZISSEN
 10
649.0
 20
342.75
 30
0.0
 40
4.5
  1
P.P
  0
TEXT
  8
L-ZISSEN
 10
540.0
 20
320.0
 30
0.0
 40
4.5
  1
LOCK TYPE MANUAL OPERATION BUTTON
  0
TEXT
  8
L-ZISSEN
 10
540.0
 20
310.0
 30
0.0
 40
4.5
  1
MODEL No. :
  0
TEXT
  8
L-ZISSEN
 10
585.0
 20
310.0
 30
0.0
 40
4.5
  1
MVS-492-0*R
  0
LINE
  8
L-ZISSEN
 10
652.113249
 20
290.0
 30
0.0
 11
649.226497
 21
285.0
 31
0.0
  0
LINE
  8
L-ZISSEN
 10
649.226497
 20
285.0
 30
0.0
 11
652.113249
 21
280.0
 31
0.0
  0
LINE
  8
L-ZISSEN
 10
652.113249
 20
280.0
 30
0.0
 11
657.886751
 21
280.0
 31
0.0
  0
LINE
  8
L-ZISSEN
 10
657.886751
 20
280.0
 30
0.0
 11
660.773503
 21
285.0
 31
0.0
  0
LINE
  8
L-ZISSEN
 10
660.773503
 20
285.0
 30
0.0
 11
657.886751
 21
290.0
 31
0.0
  0
LINE
  8
L-ZISSEN
 10
657.886751
 20
290.0
 30
0.0
 11
652.113249
 21
290.0
 31
0.0
  0
LINE
  8
L-ZISSEN
 10
649.226497
 20
271.4
 30
0.0
 11
649.226497
 21
260.0
 31
0.0
  0
SOLID
  8
L-ZISSEN
 10
653.520799
 20
286.38675
 30
0.0
 11
653.150999
 21
285.83205
 31
0.0
 12
655.0
 22
285.0
 32
0.0
 13
655.0
 23
285.0
 33
0.0
  0
LINE
  8
L-ZISSEN
 10
653.335899
 20
286.1094
 30
0.0
 11
640.0
 21
295.0
 31
0.0
  0
LINE
  8
L-ZISSEN
 10
640.0
 20
295.0
 30
0.0
 11
638.0
 21
295.0
 31
0.0
  0
TEXT
  8
L-ZISSEN
 10
627.0
 20
292.75
 30
0.0
 40
4.5
  1
P.P
  0
LINE
  8
L-ZISSEN
 10
660.773503
 20
271.4
 30
0.0
 11
660.773503
 21
260.0
 31
0.0
  0
LINE
  8
L-ZISSEN
 10
649.226497
 20
271.4
 30
0.0
 11
660.773503
 21
271.4
 31
0.0
  0
SOLID
  8
L-ZISSEN
 10
653.150999
 20
259.16795
 30
0.0
 11
653.520799
 21
258.61325
 31
0.0
 12
655.0
 22
260.0
 32
0.0
 13
655.0
 23
260.0
 33
0.0
  0
LINE
  8
L-ZISSEN
 10
653.335899
 20
258.8906
 30
0.0
 11
640.0
 21
250.0
 31
0.0
  0
LINE
  8
L-ZISSEN
 10
640.0
 20
250.0
 30
0.0
 11
638.0
 21
250.0
 31
0.0
  0
TEXT
  8
L-ZISSEN
 10
627.0
 20
247.75
 30
0.0
 40
4.5
  1
P.P
  0
LINE
  8
L-ZISSEN
 10
595.0
 20
271.4
 30
0.0
 11
605.0
 21
271.4
 31
0.0
  0
LINE
  8
L-ZISSEN
 10
595.0
 20
271.4
 30
0.0
 11
595.0
 21
260.0
 31
0.0
  0
LINE
  8
L-ZISSEN
 10
605.0
 20
271.4
 30
0.0
 11
605.0
 21
260.0
 31
0.0
  0
SOLID
  8
L-ZISSEN
 10
598.350084
 20
258.821489
 30
0.0
 11
598.821489
 21
258.350084
 31
0.0
 12
600.0
 22
260.0
 32
0.0
 13
600.0
 23
260.0
 33
0.0
  0
LINE
  8
L-ZISSEN
 10
598.585786
 20
258.585786
 30
0.0
 11
590.0
 21
250.0
 31
0.0
  0
LINE
  8
L-ZISSEN
 10
590.0
 20
250.0
 30
0.0
 11
588.0
 21
250.0
 31
0.0
  0
TEXT
  8
L-ZISSEN
 10
577.0
 20
247.75
 30
0.0
 40
4.5
  1
P.P
  0
CIRCLE
  8
L-ZISSEN
 10
91.0
 20
231.0
 30
0.0
 40
3.5
  0
CIRCLE
  8
L-ZISSEN
 10
69.0
 20
231.0
 30
0.0
 40
3.5
  0
CIRCLE
  8
L-ZISSEN
 10
69.0
 20
189.0
 30
0.0
 40
3.5
  0
CIRCLE
  8
L-ZISSEN
 10
91.0
 20
189.0
 30
0.0
 40
3.5
  0
LINE
  8
L-ZISSEN
 10
167.6
 20
234.5
 30
0.0
 11
167.6
 21
227.5
 31
0.0
  0
LINE
  8
L-ZISSEN
 10
167.6
 20
234.5
 30
0.0
 11
171.2
 21
234.5
 31
0.0
  0
LINE
  8
L-ZISSEN
 10
167.6
 20
227.5
 30
0.0
 11
171.2
 21
227.5
 31
0.0
  0
LINE
  8
L-ZISSEN
 10
167.6
 20
192.5
 30
0.0
 11
171.2
 21
192.5
 31
0.0
  0
LINE
  8
L-ZISSEN
 10
167.6
 20
185.5
 30
0.0
 11
167.6
 21
192.5
 31
0.0
  0
LINE
  8
L-ZISSEN
 10
167.6
 20
185.5
 30
0.0
 11
171.2
 21
185.5
 31
0.0
  0
LINE
  8
L-ZISSEN
 10
167.6
 20
315.5
 30
0.0
 11
171.2
 21
315.5
 31
0.0
  0
LINE
  8
L-ZISSEN
 10
167.6
 20
322.5
 30
0.0
 11
171.2
 21
322.5
 31
0.0
  0
LINE
  8
L-ZISSEN
 10
167.6
 20
322.5
 30
0.0
 11
167.6
 21
315.5
 31
0.0
  0
LINE
  8
L-ZISSEN
 10
167.6
 20
337.5
 30
0.0
 11
167.6
 21
344.5
 31
0.0
  0
LINE
  8
L-ZISSEN
 10
167.6
 20
337.5
 30
0.0
 11
171.2
 21
337.5
 31
0.0
  0
LINE
  8
L-ZISSEN
 10
167.6
 20
344.5
 30
0.0
 11
171.2
 21
344.5
 31
0.0
  0
LINE
  8
L-ZISSEN
 10
685.5
 20
117.0
 30
0.0
 11
684.0
 21
117.0
 31
0.0
  0
LINE
  8
L-ZISSEN
 10
716.0
 20
117.0
 30
0.0
 11
714.5
 21
117.0
 31
0.0
  0
LINE
  8
L-ZISSEN
 10
573.5
 20
143.0
 30
0.0
 11
546.5
 21
143.0
 31
0.0
  0
LINE
  8
L-ZISSEN
 10
573.5
 20
143.0
 30
0.0
 11
573.5
 21
121.0
 31
0.0
  0
LINE
  8
L-ZISSEN
 10
546.5
 20
143.0
 30
0.0
 11
546.5
 21
121.0
 31
0.0
  0
LINE
  8
L-ZISSEN
 10
574.5
 20
121.0
 30
0.0
 11
574.5
 21
117.0
 31
0.0
  0
LINE
  8
L-ZISSEN
 10
545.5
 20
121.0
 30
0.0
 11
545.5
 21
117.0
 31
0.0
  0
LINE
  8
L-ZISSEN
 10
574.5
 20
121.0
 30
0.0
 11
566.0
 21
121.0
 31
0.0
  0
SOLID
  8
L-ZISSEN
 10
560.726729
 20
115.107125
 30
0.0
 11
561.301352
 21
115.445138
 31
0.0
 12
560.0
 22
117.0
 32
0.0
 13
560.0
 23
117.0
 33
0.0
  0
LINE
  8
L-ZISSEN
 10
561.01404
 20
115.276132
 30
0.0
 11
570.0
 21
100.0
 31
0.0
  0
LINE
  8
L-ZISSEN
 10
570.0
 20
100.0
 30
0.0
 11
572.0
 21
100.0
 31
0.0
  0
TEXT
  8
L-ZISSEN
 10
574.0
 20
97.75
 30
0.0
 40
4.5
  1
P.P
  0
LINE
  8
L-ZISSEN
 10
554.0
 20
121.0
 30
0.0
 11
545.5
 21
121.0
 31
0.0
  0
CIRCLE
  8
L-ZISSEN
 10
450.0
 20
210.0
 30
0.0
 40
2.067
  0
LINE
  8
L-ZISSEN
 10
187.3
 20
236.0
 30
0.0
 11
187.3
 21
192.0
 31
0.0
  0
LINE
  8
L-ZISSEN
 10
262.7
 20
192.0
 30
0.0
 11
262.7
 21
236.0
 31
0.0
  0
LINE
  8
L-ZISSEN
 10
262.7
 20
224.0
 30
0.0
 11
187.3
 21
224.0
 31
0.0
  0
LINE
  8
L-ZISSEN
 10
187.3
 20
236.0
 30
0.0
 11
171.2
 21
236.0
 31
0.0
  0
LINE
  8
L-ZISSEN
 10
270.8
 20
192.0
 30
0.0
 11
246.5
 21
192.0
 31
0.0
  0
LINE
  8
L-TYUSIN
 10
225.0
 20
229.0
 30
0.0
 11
225.0
 21
151.5
 31
0.0
  0
LINE
  8
L-ZISSEN
 10
187.3
 20
347.0
 30
0.0
 11
187.3
 21
313.0
 31
0.0
  0
LINE
  8
L-ZISSEN
 10
262.7
 20
313.0
 30
0.0
 11
262.7
 21
347.0
 31
0.0
  0
LINE
  8
L-ZISSEN
 10
179.2
 20
313.0
 30
0.0
 11
187.3
 21
313.0
 31
0.0
  0
LINE
  8
L-ZISSEN
 10
179.2
 20
347.0
 30
0.0
 11
187.3
 21
347.0
 31
0.0
  0
LINE
  8
L-ZISSEN
 10
262.7
 20
346.0
 30
0.0
 11
260.5
 21
346.0
 31
0.0
  0
LINE
  8
L-ZISSEN
 10
262.7
 20
313.0
 30
0.0
 11
270.8
 21
313.0
 31
0.0
  0
LINE
  8
L-ZISSEN
 10
262.7
 20
347.0
 30
0.0
 11
270.8
 21
347.0
 31
0.0
  0
LINE
  8
L-ZISSEN
 10
246.5
 20
305.0
 30
0.0
 11
246.5
 21
314.0
 31
0.0
  0
LINE
  8
L-ZISSEN
 10
235.5
 20
305.0
 30
0.0
 11
246.5
 21
305.0
 31
0.0
  0
LINE
  8
L-ZISSEN
 10
235.5
 20
305.0
 30
0.0
 11
235.5
 21
314.0
 31
0.0
  0
LINE
  8
L-ZISSEN
 10
262.7
 20
314.0
 30
0.0
 11
246.5
 21
314.0
 31
0.0
  0
LINE
  8
L-ZISSEN
 10
214.5
 20
305.0
 30
0.0
 11
214.5
 21
314.0
 31
0.0
  0
LINE
  8
L-ZISSEN
 10
214.5
 20
305.0
 30
0.0
 11
203.5
 21
305.0
 31
0.0
  0
LINE
  8
L-ZISSEN
 10
203.5
 20
305.0
 30
0.0
 11
203.5
 21
314.0
 31
0.0
  0
LINE
  8
L-ZISSEN
 10
260.5
 20
355.0
 30
0.0
 11
260.5
 21
346.0
 31
0.0
  0
LINE
  8
L-ZISSEN
 10
249.5
 20
355.0
 30
0.0
 11
260.5
 21
355.0
 31
0.0
  0
LINE
  8
L-ZISSEN
 10
249.5
 20
355.0
 30
0.0
 11
249.5
 21
346.0
 31
0.0
  0
LINE
  8
L-ZISSEN
 10
200.5
 20
355.0
 30
0.0
 11
200.5
 21
346.0
 31
0.0
  0
LINE
  8
L-ZISSEN
 10
189.5
 20
355.0
 30
0.0
 11
200.5
 21
355.0
 31
0.0
  0
LINE
  8
L-ZISSEN
 10
189.5
 20
355.0
 30
0.0
 11
189.5
 21
346.0
 31
0.0
  0
LINE
  8
L-ZISSEN
 10
179.2
 20
345.6
 30
0.0
 11
171.2
 21
345.6
 31
0.0
  0
LINE
  8
L-ZISSEN
 10
179.2
 20
314.4
 30
0.0
 11
171.2
 21
314.4
 31
0.0
  0
LINE
  8
L-ZISSEN
 10
270.8
 20
314.4
 30
0.0
 11
327.8
 21
314.4
 31
0.0
  0
LINE
  8
L-ZISSEN
 10
270.8
 20
345.6
 30
0.0
 11
327.8
 21
345.6
 31
0.0
  0
LINE
  8
L-ZISSEN
 10
235.5
 20
183.0
 30
0.0
 11
235.5
 21
215.0
 31
0.0
  0
LINE
  8
L-ZISSEN
 10
246.5
 20
183.0
 30
0.0
 11
246.5
 21
215.0
 31
0.0
  0
LINE
  8
L-ZISSEN
 10
246.5
 20
215.0
 30
0.0
 11
235.5
 21
215.0
 31
0.0
  0
LINE
  8
L-ZISSEN
 10
235.5
 20
192.0
 30
0.0
 11
214.5
 21
192.0
 31
0.0
  0
LINE
  8
L-ZISSEN
 10
245.25
 20
221.3
 30
0.0
 11
236.75
 21
221.3
 31
0.0
  0
LINE
  8
L-ZISSEN
 10
236.75
 20
221.3
 30
0.0
 11
236.75
 21
215.0
 31
0.0
  0
LINE
  8
L-ZISSEN
 10
245.25
 20
221.3
 30
0.0
 11
245.25
 21
215.0
 31
0.0
  0
LINE
  8
L-ZISSEN
 10
204.75
 20
221.3
 30
0.0
 11
204.75
 21
215.0
 31
0.0
  0
LINE
  8
L-ZISSEN
 10
213.25
 20
221.3
 30
0.0
 11
213.25
 21
215.0
 31
0.0
  0
LINE
  8
L-ZISSEN
 10
204.75
 20
221.3
 30
0.0
 11
213.25
 21
221.3
 31
0.0
  0
LINE
  8
L-ZISSEN
 10
203.5
 20
215.0
 30
0.0
 11
214.5
 21
215.0
 31
0.0
  0
LINE
  8
L-ZISSEN
 10
203.5
 20
183.0
 30
0.0
 11
203.5
 21
215.0
 31
0.0
  0
LINE
  8
L-ZISSEN
 10
214.5
 20
183.0
 30
0.0
 11
214.5
 21
215.0
 31
0.0
  0
LINE
  8
L-ZISSEN
 10
203.5
 20
192.0
 30
0.0
 11
179.2
 21
192.0
 31
0.0
  0
CIRCLE
  8
L-ZISSEN
 10
195.0
 20
349.5
 30
0.0
 40
4.25
  0
LINE
  8
L-ZISSEN
 10
189.5
 20
346.0
 30
0.0
 11
187.3
 21
346.0
 31
0.0
  0
LINE
  8
L-ZISSEN
 10
249.5
 20
346.0
 30
0.0
 11
200.5
 21
346.0
 31
0.0
  0
LINE
  8
L-ZISSEN
 10
235.5
 20
314.0
 30
0.0
 11
214.5
 21
314.0
 31
0.0
  0
LINE
  8
L-ZISSEN
 10
203.5
 20
314.0
 30
0.0
 11
187.3
 21
314.0
 31
0.0
  0
CIRCLE
  8
L-ZISSEN
 10
255.0
 20
349.5
 30
0.0
 40
4.25
  0
CIRCLE
  8
L-ZISSEN
 10
241.0
 20
310.5
 30
0.0
 40
4.25
  0
CIRCLE
  8
L-ZISSEN
 10
209.0
 20
310.5
 30
0.0
 40
4.25
  0
LINE
  8
L-ZISSEN
 10
179.0
 20
183.0
 30
0.0
 11
271.0
 21
183.0
 31
0.0
  0
LINE
  8
L-ZISSEN
 10
162.5
 20
147.5
 30
0.0
 11
187.803848
 21
147.5
 31
0.0
  0
LINE
  8
L-ZISSEN
 10
179.0
 20
184.0
 30
0.0
 11
179.0
 21
156.5
 31
0.0
  0
LINE
  8
L-ZISSEN
 10
271.0
 20
184.0
 30
0.0
 11
271.0
 21
156.5
 31
0.0
  0
LINE
  8
L-ZISSEN
 10
162.5
 20
156.5
 30
0.0
 11
287.5
 21
156.5
 31
0.0
  0
LINE
  8
L-ZISSEN
 10
287.5
 20
147.5
 30
0.0
 11
287.5
 21
156.5
 31
0.0
  0
LINE
  8
L-ZISSEN
 10
162.5
 20
147.5
 30
0.0
 11
162.5
 21
156.5
 31
0.0
  0
LINE
  8
L-ZISSEN
 10
257.0
 20
156.5
 30
0.0
 11
262.196152
 21
147.5
 31
0.0
  0
LINE
  8
L-ZISSEN
 10
262.196152
 20
147.5
 30
0.0
 11
262.196152
 21
156.5
 31
0.0
  0
LINE
  8
L-ZISSEN
 10
187.803848
 20
147.5
 30
0.0
 11
187.803848
 21
156.5
 31
0.0
  0
LINE
  8
L-ZISSEN
 10
193.0
 20
156.5
 30
0.0
 11
187.803848
 21
147.5
 31
0.0
  0
LINE
  8
L-ZISSEN
 10
262.196152
 20
147.5
 30
0.0
 11
287.5
 21
147.5
 31
0.0
  0
LINE
  8
L-TYUSIN
 10
235.0
 20
169.5
 30
0.0
 11
215.0
 21
169.5
 31
0.0
  0
CIRCLE
  8
L-ZISSEN
 10
225.0
 20
169.5
 30
0.0
 40
5.7225
  0
LINE
  8
L-TYUSIN
 10
267.0
 20
169.5
 30
0.0
 11
247.0
 21
169.5
 31
0.0
  0
LINE
  8
L-TYUSIN
 10
257.0
 20
179.5
 30
0.0
 11
257.0
 21
159.5
 31
0.0
  0
CIRCLE
  8
L-ZISSEN
 10
257.0
 20
169.5
 30
0.0
 40
5.7225
  0
CIRCLE
  8
L-ZISSEN
 10
193.0
 20
169.5
 30
0.0
 40
5.7225
  0
LINE
  8
L-TYUSIN
 10
183.0
 20
169.5
 30
0.0
 11
203.0
 21
169.5
 31
0.0
  0
LINE
  8
L-TYUSIN
 10
193.0
 20
179.5
 30
0.0
 11
193.0
 21
159.5
 31
0.0
  0
LINE
  8
L-ZISSEN
 10
179.0
 20
304.0
 30
0.0
 11
271.0
 21
304.0
 31
0.0
  0
LINE
  8
L-ZISSEN
 10
179.0
 20
356.0
 30
0.0
 11
271.0
 21
356.0
 31
0.0
  0
LINE
  8
L-ZISSEN
 10
179.0
 20
356.0
 30
0.0
 11
179.0
 21
345.6
 31
0.0
  0
LINE
  8
L-ZISSEN
 10
271.0
 20
356.0
 30
0.0
 11
271.0
 21
345.6
 31
0.0
  0
LINE
  8
L-ZISSEN
 10
271.0
 20
314.4
 30
0.0
 11
271.0
 21
304.0
 31
0.0
  0
LINE
  8
L-ZISSEN
 10
179.0
 20
314.4
 30
0.0
 11
179.0
 21
304.0
 31
0.0
  0
LINE
  8
L-TYUSIN
 10
257.0
 20
299.0
 30
0.0
 11
257.0
 21
309.0
 31
0.0
  0
LINE
  8
L-TYUSIN
 10
193.0
 20
299.0
 30
0.0
 11
193.0
 21
309.0
 31
0.0
  0
LINE
  8
L-TYUSIN
 10
241.0
 20
351.0
 30
0.0
 11
241.0
 21
361.0
 31
0.0
  0
LINE
  8
L-TYUSIN
 10
209.0
 20
351.0
 30
0.0
 11
209.0
 21
361.0
 31
0.0
  0
LINE
  8
L-TYUSIN
 10
280.0
 20
364.0
 30
0.0
 11
280.0
 21
344.0
 31
0.0
  0
LINE
  8
L-TYUSIN
 10
270.0
 20
354.0
 30
0.0
 11
290.0
 21
354.0
 31
0.0
  0
CIRCLE
  8
L-ZISSEN
 10
280.0
 20
354.0
 30
0.0
 40
3.5
  0
LINE
  8
L-TYUSIN
 10
270.0
 20
306.0
 30
0.0
 11
290.0
 21
306.0
 31
0.0
  0
CIRCLE
  8
L-ZISSEN
 10
280.0
 20
306.0
 30
0.0
 40
3.5
  0
LINE
  8
L-TYUSIN
 10
280.0
 20
296.0
 30
0.0
 11
280.0
 21
316.0
 31
0.0
  0
CIRCLE
  8
L-ZISSEN
 10
170.0
 20
306.0
 30
0.0
 40
3.5
  0
LINE
  8
L-TYUSIN
 10
180.0
 20
306.0
 30
0.0
 11
160.0
 21
306.0
 31
0.0
  0
LINE
  8
L-TYUSIN
 10
170.0
 20
296.0
 30
0.0
 11
170.0
 21
316.0
 31
0.0
  0
LINE
  8
L-TYUSIN
 10
180.0
 20
354.0
 30
0.0
 11
160.0
 21
354.0
 31
0.0
  0
LINE
  8
L-TYUSIN
 10
170.0
 20
364.0
 30
0.0
 11
170.0
 21
344.0
 31
0.0
  0
CIRCLE
  8
L-ZISSEN
 10
170.0
 20
354.0
 30
0.0
 40
3.5
  0
LINE
  8
L-ZISSEN
 10
435.0
 20
191.2
 30
0.0
 11
435.0
 21
234.0
 31
0.0
  0
LINE
  8
L-ZISSEN
 10
465.0
 20
191.2
 30
0.0
 11
465.0
 21
234.0
 31
0.0
  0
LINE
  8
L-ZISSEN
 10
434.4
 20
184.0
 30
0.0
 11
434.4
 21
236.0
 31
0.0
  0
LINE
  8
L-ZISSEN
 10
465.6
 20
184.0
 30
0.0
 11
465.6
 21
236.0
 31
0.0
  0
LINE
  8
L-ZISSEN
 10
467.0
 20
236.0
 30
0.0
 11
465.25
 21
236.0
 31
0.0
  0
LINE
  8
L-ZISSEN
 10
434.75
 20
236.0
 30
0.0
 11
433.0
 21
236.0
 31
0.0
  0
LINE
  8
L-ZISSEN
 10
467.0
 20
236.0
 30
0.0
 11
467.0
 21
183.0
 31
0.0
  0
LINE
  8
L-ZISSEN
 10
433.0
 20
236.0
 30
0.0
 11
433.0
 21
183.0
 31
0.0
  0
LINE
  8
L-ZISSEN
 10
424.0
 20
183.0
 30
0.0
 11
476.0
 21
183.0
 31
0.0
  0
LINE
  8
L-ZISSEN
 10
475.0
 20
183.0
 30
0.0
 11
475.0
 21
215.0
 31
0.0
  0
LINE
  8
L-ZISSEN
 10
475.0
 20
215.0
 30
0.0
 11
467.0
 21
215.0
 31
0.0
  0
LINE
  8
L-ZISSEN
 10
473.75
 20
221.3
 30
0.0
 11
467.0
 21
221.3
 31
0.0
  0
LINE
  8
L-ZISSEN
 10
473.75
 20
221.3
 30
0.0
 11
473.75
 21
215.0
 31
0.0
  0
LINE
  8
L-ZISSEN
 10
426.25
 20
221.3
 30
0.0
 11
433.0
 21
221.3
 31
0.0
  0
LINE
  8
L-ZISSEN
 10
426.25
 20
221.3
 30
0.0
 11
426.25
 21
215.0
 31
0.0
  0
LINE
  8
L-ZISSEN
 10
425.0
 20
215.0
 30
0.0
 11
433.0
 21
215.0
 31
0.0
  0
LINE
  8
L-ZISSEN
 10
425.0
 20
183.0
 30
0.0
 11
425.0
 21
215.0
 31
0.0
  0
LINE
  8
L-ZISSEN
 10
424.0
 20
183.0
 30
0.0
 11
424.0
 21
156.5
 31
0.0
  0
LINE
  8
L-ZISSEN
 10
476.0
 20
156.5
 30
0.0
 11
476.0
 21
183.0
 31
0.0
  0
LINE
  8
L-ZISSEN
 10
418.5
 20
156.5
 30
0.0
 11
481.5
 21
156.5
 31
0.0
  0
LINE
  8
L-ZISSEN
 10
418.5
 20
147.5
 30
0.0
 11
439.969882
 21
147.5
 31
0.0
  0
LINE
  8
L-ZISSEN
 10
418.5
 20
156.5
 30
0.0
 11
418.5
 21
147.5
 31
0.0
  0
LINE
  8
L-ZISSEN
 10
481.5
 20
156.5
 30
0.0
 11
481.5
 21
147.5
 31
0.0
  0
LINE
  8
L-ZISSEN
 10
460.030118
 20
156.5
 30
0.0
 11
460.030118
 21
147.5
 31
0.0
  0
LINE
  8
L-ZISSEN
 10
439.969882
 20
156.5
 30
0.0
 11
439.969882
 21
147.5
 31
0.0
  0
LINE
  8
L-ZISSEN
 10
460.030118
 20
147.5
 30
0.0
 11
481.5
 21
147.5
 31
0.0
  0
LINE
  8
L-TYUSIN
 10
280.0
 20
142.5
 30
0.0
 11
280.0
 21
161.5
 31
0.0
  0
LINE
  8
L-TYUSIN
 10
170.0
 20
142.5
 30
0.0
 11
170.0
 21
161.5
 31
0.0
  0
LINE
  8
L-TYUSIN
 10
426.0
 20
142.5
 30
0.0
 11
426.0
 21
161.5
 31
0.0
  0
LINE
  8
L-TYUSIN
 10
474.0
 20
142.5
 30
0.0
 11
474.0
 21
161.5
 31
0.0
  0
LINE
  8
L-TYUSIN
 10
429.0
 20
169.5
 30
0.0
 11
419.0
 21
169.5
 31
0.0
  0
LINE
  8
L-TYUSIN
 10
471.0
 20
169.5
 30
0.0
 11
481.0
 21
169.5
 31
0.0
  0
LINE
  8
L-TYUSIN
 10
101.0
 20
169.5
 30
0.0
 11
111.0
 21
169.5
 31
0.0
  0
LINE
  8
L-TYUSIN
 10
59.0
 20
169.5
 30
0.0
 11
49.0
 21
169.5
 31
0.0
  0
LINE
  8
L-TYUSIN
 10
104.0
 20
142.5
 30
0.0
 11
104.0
 21
161.5
 31
0.0
  0
LINE
  8
L-TYUSIN
 10
56.0
 20
142.5
 30
0.0
 11
56.0
 21
161.5
 31
0.0
  0
LINE
  8
L-ZISSEN
 10
90.030118
 20
147.5
 30
0.0
 11
111.5
 21
147.5
 31
0.0
  0
LINE
  8
L-ZISSEN
 10
69.969882
 20
156.5
 30
0.0
 11
69.969882
 21
147.5
 31
0.0
  0
LINE
  8
L-ZISSEN
 10
90.030118
 20
156.5
 30
0.0
 11
90.030118
 21
147.5
 31
0.0
  0
LINE
  8
L-ZISSEN
 10
111.5
 20
156.5
 30
0.0
 11
111.5
 21
147.5
 31
0.0
  0
LINE
  8
L-ZISSEN
 10
48.5
 20
156.5
 30
0.0
 11
48.5
 21
147.5
 31
0.0
  0
LINE
  8
L-ZISSEN
 10
48.5
 20
147.5
 30
0.0
 11
69.969882
 21
147.5
 31
0.0
  0
LINE
  8
L-ZISSEN
 10
48.5
 20
156.5
 30
0.0
 11
111.5
 21
156.5
 31
0.0
  0
LINE
  8
L-ZISSEN
 10
106.0
 20
156.5
 30
0.0
 11
106.0
 21
183.0
 31
0.0
  0
LINE
  8
L-ZISSEN
 10
54.0
 20
183.0
 30
0.0
 11
54.0
 21
156.5
 31
0.0
  0
LINE
  8
L-ZISSEN
 10
55.0
 20
183.0
 30
0.0
 11
55.0
 21
215.0
 31
0.0
  0
LINE
  8
L-ZISSEN
 10
55.0
 20
215.0
 30
0.0
 11
63.0
 21
215.0
 31
0.0
  0
LINE
  8
L-ZISSEN
 10
56.25
 20
221.3
 30
0.0
 11
56.25
 21
215.0
 31
0.0
  0
LINE
  8
L-ZISSEN
 10
56.25
 20
221.3
 30
0.0
 11
63.0
 21
221.3
 31
0.0
  0
LINE
  8
L-ZISSEN
 10
103.75
 20
221.3
 30
0.0
 11
103.75
 21
215.0
 31
0.0
  0
LINE
  8
L-ZISSEN
 10
103.75
 20
221.3
 30
0.0
 11
97.0
 21
221.3
 31
0.0
  0
LINE
  8
L-ZISSEN
 10
105.0
 20
215.0
 30
0.0
 11
97.0
 21
215.0
 31
0.0
  0
LINE
  8
L-ZISSEN
 10
105.0
 20
183.0
 30
0.0
 11
105.0
 21
215.0
 31
0.0
  0
LINE
  8
L-ZISSEN
 10
54.0
 20
183.0
 30
0.0
 11
106.0
 21
183.0
 31
0.0
  0
LINE
  8
L-ZISSEN
 10
63.0
 20
236.0
 30
0.0
 11
63.0
 21
183.0
 31
0.0
  0
LINE
  8
L-ZISSEN
 10
97.0
 20
236.0
 30
0.0
 11
97.0
 21
183.0
 31
0.0
  0
LINE
  8
L-ZISSEN
 10
97.0
 20
236.0
 30
0.0
 11
63.0
 21
236.0
 31
0.0
  0
LINE
  8
L-ZISSEN
 10
95.6
 20
184.0
 30
0.0
 11
95.6
 21
236.0
 31
0.0
  0
LINE
  8
L-ZISSEN
 10
64.4
 20
184.0
 30
0.0
 11
64.4
 21
236.0
 31
0.0
  0
LINE
  8
L-ZISSEN
 10
55.0
 20
184.0
 30
0.0
 11
105.0
 21
184.0
 31
0.0
  0
LINE
  8
L-TYUSIN
 10
59.0
 20
210.0
 30
0.0
 11
101.0
 21
210.0
 31
0.0
  0
LINE
  8
L-TYUSIN
 10
80.0
 20
151.5
 30
0.0
 11
80.0
 21
274.7
 31
0.0
  0
LINE
  8
L-ZISSEN
 10
66.25
 20
269.7
 30
0.0
 11
93.75
 21
269.7
 31
0.0
  0
LINE
  8
L-ZISSEN
 10
93.75
 20
269.7
 30
0.0
 11
93.75
 21
238.5
 31
0.0
  0
LINE
  8
L-ZISSEN
 10
66.25
 20
269.7
 30
0.0
 11
66.25
 21
238.5
 31
0.0
  0
LINE
  8
L-ZISSEN
 10
64.75
 20
238.5
 30
0.0
 11
64.75
 21
236.0
 31
0.0
  0
LINE
  8
L-ZISSEN
 10
95.25
 20
238.5
 30
0.0
 11
95.25
 21
236.0
 31
0.0
  0
LINE
  8
L-ZISSEN
 10
64.75
 20
238.5
 30
0.0
 11
74.0
 21
238.5
 31
0.0
  0
LINE
  8
L-ZISSEN
 10
86.0
 20
238.5
 30
0.0
 11
95.25
 21
238.5
 31
0.0
  0
LINE
  8
L-TYUSIN
 10
170.0
 20
527.5
 30
0.0
 11
170.0
 21
508.5
 31
0.0
  0
LINE
  8
L-TYUSIN
 10
280.0
 20
527.5
 30
0.0
 11
280.0
 21
508.5
 31
0.0
  0
LINE
  8
L-TYUSIN
 10
209.0
 20
490.5
 30
0.0
 11
209.0
 21
510.5
 31
0.0
  0
LINE
  8
L-TYUSIN
 10
199.0
 20
500.5
 30
0.0
 11
219.0
 21
500.5
 31
0.0
  0
CIRCLE
  8
L-ZISSEN
 10
209.0
 20
500.5
 30
0.0
 40
5.7225
  0
CIRCLE
  8
L-ZISSEN
 10
241.0
 20
500.5
 30
0.0
 40
5.7225
  0
LINE
  8
L-TYUSIN
 10
241.0
 20
490.5
 30
0.0
 11
241.0
 21
510.5
 31
0.0
  0
LINE
  8
L-TYUSIN
 10
251.0
 20
500.5
 30
0.0
 11
231.0
 21
500.5
 31
0.0
  0
LINE
  8
L-ZISSEN
 10
262.196152
 20
522.5
 30
0.0
 11
287.5
 21
522.5
 31
0.0
  0
LINE
  8
L-ZISSEN
 10
193.0
 20
513.5
 30
0.0
 11
187.803848
 21
522.5
 31
0.0
  0
LINE
  8
L-ZISSEN
 10
187.803848
 20
522.5
 30
0.0
 11
187.803848
 21
513.5
 31
0.0
  0
LINE
  8
L-ZISSEN
 10
262.196152
 20
522.5
 30
0.0
 11
262.196152
 21
513.5
 31
0.0
  0
LINE
  8
L-ZISSEN
 10
257.0
 20
513.5
 30
0.0
 11
262.196152
 21
522.5
 31
0.0
  0
LINE
  8
L-ZISSEN
 10
162.5
 20
522.5
 30
0.0
 11
162.5
 21
513.5
 31
0.0
  0
LINE
  8
L-ZISSEN
 10
287.5
 20
522.5
 30
0.0
 11
287.5
 21
513.5
 31
0.0
  0
LINE
  8
L-ZISSEN
 10
162.5
 20
513.5
 30
0.0
 11
287.5
 21
513.5
 31
0.0
  0
LINE
  8
L-ZISSEN
 10
271.0
 20
486.0
 30
0.0
 11
271.0
 21
513.5
 31
0.0
  0
LINE
  8
L-ZISSEN
 10
179.0
 20
486.0
 30
0.0
 11
179.0
 21
513.5
 31
0.0
  0
LINE
  8
L-ZISSEN
 10
162.5
 20
522.5
 30
0.0
 11
187.803848
 21
522.5
 31
0.0
  0
LINE
  8
L-ZISSEN
 10
179.0
 20
487.0
 30
0.0
 11
271.0
 21
487.0
 31
0.0
  0
LINE
  8
L-ZISSEN
 10
249.5
 20
478.0
 30
0.0
 11
200.5
 21
478.0
 31
0.0
  0
LINE
  8
L-ZISSEN
 10
200.5
 20
487.0
 30
0.0
 11
200.5
 21
455.0
 31
0.0
  0
LINE
  8
L-ZISSEN
 10
189.5
 20
487.0
 30
0.0
 11
189.5
 21
455.0
 31
0.0
  0
LINE
  8
L-ZISSEN
 10
189.5
 20
455.0
 30
0.0
 11
200.5
 21
455.0
 31
0.0
  0
LINE
  8
L-ZISSEN
 10
190.75
 20
448.7
 30
0.0
 11
199.25
 21
448.7
 31
0.0
  0
LINE
  8
L-ZISSEN
 10
199.25
 20
448.7
 30
0.0
 11
199.25
 21
455.0
 31
0.0
  0
LINE
  8
L-ZISSEN
 10
190.75
 20
448.7
 30
0.0
 11
190.75
 21
455.0
 31
0.0
  0
LINE
  8
L-TYUSIN
 10
225.0
 20
443.7
 30
0.0
 11
225.0
 21
491.0
 31
0.0
  0
LINE
  8
L-TYUSIN
 10
225.0
 20
441.0
 30
0.0
 11
225.0
 21
518.5
 31
0.0
  0
LINE
  8
L-ZISSEN
 10
270.8
 20
478.0
 30
0.0
 11
260.5
 21
478.0
 31
0.0
  0
LINE
  8
L-ZISSEN
 10
187.3
 20
434.0
 30
0.0
 11
171.2
 21
434.0
 31
0.0
  0
LINE
  8
L-ZISSEN
 10
262.7
 20
446.0
 30
0.0
 11
187.3
 21
446.0
 31
0.0
  0
LINE
  8
L-ZISSEN
 10
262.7
 20
478.0
 30
0.0
 11
262.7
 21
434.0
 31
0.0
  0
LINE
  8
L-ZISSEN
 10
187.3
 20
434.0
 30
0.0
 11
187.3
 21
478.0
 31
0.0
  0
LINE
  8
L-ZISSEN
 10
167.6
 20
484.5
 30
0.0
 11
171.2
 21
484.5
 31
0.0
  0
LINE
  8
L-ZISSEN
 10
167.6
 20
484.5
 30
0.0
 11
167.6
 21
477.5
 31
0.0
  0
LINE
  8
L-ZISSEN
 10
167.6
 20
477.5
 30
0.0
 11
171.2
 21
477.5
 31
0.0
  0
LINE
  8
L-ZISSEN
 10
167.6
 20
442.5
 30
0.0
 11
171.2
 21
442.5
 31
0.0
  0
LINE
  8
L-ZISSEN
 10
167.6
 20
435.5
 30
0.0
 11
171.2
 21
435.5
 31
0.0
  0
LINE
  8
L-ZISSEN
 10
167.6
 20
435.5
 30
0.0
 11
167.6
 21
442.5
 31
0.0
  0
LINE
  8
L-ZISSEN
 10
161.2
 20
444.534162
 30
0.0
 11
171.2
 21
444.534162
 31
0.0
  0
LINE
  8
L-ZISSEN
 10
320.128203
 20
427.1
 30
0.0
 11
320.128203
 21
434.0
 31
0.0
  0
LINE
  8
L-ZISSEN
 10
306.271797
 20
427.1
 30
0.0
 11
306.271797
 21
434.0
 31
0.0
  0
LINE
  8
L-ZISSEN
 10
320.128203
 20
427.1
 30
0.0
 11
306.271797
 21
427.1
 31
0.0
  0
LINE
  8
L-ZISSEN
 10
330.95
 20
431.5
 30
0.0
 11
361.45
 21
431.5
 31
0.0
  0
LINE
  8
L-ZISSEN
 10
361.45
 20
431.5
 30
0.0
 11
361.45
 21
436.0
 31
0.0
  0
LINE
  8
L-ZISSEN
 10
330.95
 20
431.5
 30
0.0
 11
330.95
 21
436.0
 31
0.0
  0
LINE
  8
L-ZISSEN
 10
378.35
 20
402.35
 30
0.0
 11
378.35
 21
420.75
 31
0.0
  0
LINE
  8
L-ZISSEN
 10
378.35
 20
420.05
 30
0.0
 11
380.7
 21
420.05
 31
0.0
  0
LINE
  8
L-ZISSEN
 10
378.35
 20
403.05
 30
0.0
 11
380.7
 21
403.05
 31
0.0
  0
LINE
  8
L-ZISSEN
 10
375.45
 20
420.75
 30
0.0
 11
378.35
 21
420.75
 31
0.0
  0
LINE
  8
L-ZISSEN
 10
375.45
 20
402.35
 30
0.0
 11
378.35
 21
402.35
 31
0.0
  0
LINE
  8
L-ZISSEN
 10
380.7
 20
400.580345
 30
0.0
 11
380.7
 21
422.519655
 31
0.0
  0
LINE
  8
L-ZISSEN
 10
386.2
 20
422.519655
 30
0.0
 11
380.7
 21
422.519655
 31
0.0
  0
LINE
  8
L-ZISSEN
 10
386.2
 20
400.580345
 30
0.0
 11
380.7
 21
400.580345
 31
0.0
  0
LINE
  8
L-ZISSEN
 10
386.2
 20
400.580345
 30
0.0
 11
386.2
 21
422.519655
 31
0.0
  0
LINE
  8
L-ZISSEN
 10
359.95
 20
400.3
 30
0.0
 11
359.95
 21
431.5
 31
0.0
  0
LINE
  8
L-ZISSEN
 10
375.45
 20
400.3
 30
0.0
 11
375.45
 21
422.8
 31
0.0
  0
LINE
  8
L-ZISSEN
 10
359.95
 20
422.8
 30
0.0
 11
375.45
 21
422.8
 31
0.0
  0
LINE
  8
L-ZISSEN
 10
332.45
 20
400.3
 30
0.0
 11
375.45
 21
400.3
 31
0.0
  0
LINE
  8
L-ZISSEN
 10
332.45
 20
400.3
 30
0.0
 11
332.45
 21
431.5
 31
0.0
  0
LINE
  8
L-ZISSEN
 10
374.7
 20
450.185045
 30
0.0
 11
374.7
 21
469.814955
 31
0.0
  0
LINE
  8
L-ZISSEN
 10
374.7
 20
469.814955
 30
0.0
 11
371.7
 21
469.814955
 31
0.0
  0
LINE
  8
L-ZISSEN
 10
374.7
 20
450.185045
 30
0.0
 11
371.7
 21
450.185045
 31
0.0
  0
LINE
  8
L-ZISSEN
 10
371.7
 20
436.0
 30
0.0
 11
371.7
 21
478.8
 31
0.0
  0
LINE
  8
L-ZISSEN
 10
371.7
 20
478.8
 30
0.0
 11
327.8
 21
478.8
 31
0.0
  0
LINE
  8
L-ZISSEN
 10
327.8
 20
436.0
 30
0.0
 11
371.7
 21
436.0
 31
0.0
  0
LINE
  8
L-ZISSEN
 10
154.2
 20
449.0
 30
0.0
 11
161.2
 21
449.0
 31
0.0
  0
LINE
  8
L-ZISSEN
 10
154.2
 20
471.0
 30
0.0
 11
161.2
 21
471.0
 31
0.0
  0
LINE
  8
L-ZISSEN
 10
161.2
 20
474.0
 30
0.0
 11
171.2
 21
474.0
 31
0.0
  0
LINE
  8
L-ZISSEN
 10
161.2
 20
444.534162
 30
0.0
 11
161.2
 21
474.0
 31
0.0
  0
LINE
  8
L-ZISSEN
 10
171.2
 20
434.0
 30
0.0
 11
171.2
 21
486.0
 31
0.0
  0
LINE
  8
L-ZISSEN
 10
154.2
 20
449.0
 30
0.0
 11
154.2
 21
471.0
 31
0.0
  0
LINE
  8
L-ZISSEN
 10
327.8
 20
486.0
 30
0.0
 11
327.8
 21
434.0
 31
0.0
  0
LINE
  8
L-ZISSEN
 10
171.2
 20
486.0
 30
0.0
 11
327.8
 21
486.0
 31
0.0
  0
LINE
  8
L-ZISSEN
 10
179.2
 20
434.0
 30
0.0
 11
179.2
 21
486.0
 31
0.0
  0
LINE
  8
L-ZISSEN
 10
327.8
 20
434.0
 30
0.0
 11
262.7
 21
434.0
 31
0.0
  0
LINE
  8
L-ZISSEN
 10
270.8
 20
486.0
 30
0.0
 11
270.8
 21
434.0
 31
0.0
  0
LINE
  8
L-TYUSIN
 10
149.2
 20
460.0
 30
0.0
 11
379.7
 21
460.0
 31
0.0
  0
LINE
  8
L-ZISSEN
 10
161.2
 20
446.0
 30
0.0
 11
171.2
 21
446.0
 31
0.0
  0
LINE
  8
L-ZISSEN
 10
189.5
 20
478.0
 30
0.0
 11
179.2
 21
478.0
 31
0.0
  0
LINE
  8
L-ZISSEN
 10
249.5
 20
487.0
 30
0.0
 11
249.5
 21
455.0
 31
0.0
  0
LINE
  8
L-ZISSEN
 10
260.5
 20
487.0
 30
0.0
 11
260.5
 21
455.0
 31
0.0
  0
LINE
  8
L-ZISSEN
 10
260.5
 20
455.0
 30
0.0
 11
249.5
 21
455.0
 31
0.0
  0
LINE
  8
L-ZISSEN
 10
250.75
 20
448.7
 30
0.0
 11
250.75
 21
455.0
 31
0.0
  0
LINE
  8
L-ZISSEN
 10
259.25
 20
448.7
 30
0.0
 11
259.25
 21
455.0
 31
0.0
  0
LINE
  8
L-ZISSEN
 10
259.25
 20
448.7
 30
0.0
 11
250.75
 21
448.7
 31
0.0
  0
SOLID
  8
L-ZISSEN
 10
348.046891
 20
233.163277
 30
0.0
 11
348.218428
 21
233.807496
 31
0.0
 12
346.2
 22
234.0
 32
0.0
 13
346.2
 23
234.0
 33
0.0
  0
LINE
  8
L-ZISSEN
 10
348.13266
 20
233.485387
 30
0.0
 11
380.0
 21
225.0
 31
0.0
  0
LINE
  8
L-ZISSEN
 10
380.0
 20
225.0
 30
0.0
 11
382.0
 21
225.0
 31
0.0
  0
TEXT
  8
L-ZISSEN
 10
384.0
 20
222.75
 30
0.0
 40
4.5
  1
P.P
  0
SOLID
  8
L-ZISSEN
 10
451.768868
 20
233.008932
 30
0.0
 11
451.994681
 21
233.63619
 31
0.0
 12
450.0
 22
234.0
 32
0.0
 13
450.0
 23
234.0
 33
0.0
  0
LINE
  8
L-ZISSEN
 10
451.881775
 20
233.322561
 30
0.0
 11
475.0
 21
225.0
 31
0.0
  0
LINE
  8
L-ZISSEN
 10
475.0
 20
225.0
 30
0.0
 11
477.0
 21
225.0
 31
0.0
  0
TEXT
  8
L-ZISSEN
 10
479.0
 20
222.75
 30
0.0
 40
4.5
  1
P.P
  0
SOLID
  8
L-ZISSEN
 10
347.135634
 20
328.201195
 30
0.0
 11
347.668456
 21
328.601877
 31
0.0
 12
346.2
 22
330.0
 32
0.0
 13
346.2
 23
330.0
 33
0.0
  0
LINE
  8
L-ZISSEN
 10
347.402045
 20
328.401536
 30
0.0
 11
365.0
 21
305.0
 31
0.0
  0
LINE
  8
L-ZISSEN
 10
365.0
 20
305.0
 30
0.0
 11
367.0
 21
305.0
 31
0.0
  0
TEXT
  8
L-ZISSEN
 10
369.0
 20
302.75
 30
0.0
 40
4.5
  1
P.P
  0
SOLID
  8
L-ZISSEN
 10
314.355126
 20
331.666372
 30
0.0
 11
313.752242
 21
331.950933
 31
0.0
 12
313.2
 22
330.0
 32
0.0
 13
313.2
 23
330.0
 33
0.0
  0
LINE
  8
L-ZISSEN
 10
314.053684
 20
331.808652
 30
0.0
 11
325.0
 21
355.0
 31
0.0
  0
LINE
  8
L-ZISSEN
 10
325.0
 20
355.0
 30
0.0
 11
327.0
 21
355.0
 31
0.0
  0
TEXT
  8
L-ZISSEN
 10
329.0
 20
352.75
 30
0.0
 40
4.5
  1
P.P
  0
SOLID
  8
L-ZISSEN
 10
312.070504
 20
237.68385
 30
0.0
 11
311.585444
 21
237.226508
 31
0.0
 12
313.2
 22
236.0
 32
0.0
 13
313.2
 23
236.0
 33
0.0
  0
LINE
  8
L-ZISSEN
 10
311.827974
 20
237.455179
 30
0.0
 11
300.0
 21
250.0
 31
0.0
  0
LINE
  8
L-ZISSEN
 10
300.0
 20
250.0
 30
0.0
 11
298.0
 21
250.0
 31
0.0
  0
TEXT
  8
L-ZISSEN
 10
287.0
 20
247.75
 30
0.0
 40
4.5
  1
P.P
  0
SOLID
  8
L-ZISSEN
 10
78.779584
 20
237.619165
 30
0.0
 11
78.320418
 21
237.135832
 31
0.0
 12
80.0
 22
236.0
 32
0.0
 13
80.0
 23
236.0
 33
0.0
  0
LINE
  8
L-ZISSEN
 10
78.550001
 20
237.377499
 30
0.0
 11
60.0
 21
255.0
 31
0.0
  0
LINE
  8
L-ZISSEN
 10
60.0
 20
255.0
 30
0.0
 11
58.0
 21
255.0
 31
0.0
  0
TEXT
  8
L-ZISSEN
 10
47.0
 20
252.75
 30
0.0
 40
4.5
  1
P.P
  0
TEXT
  8
L-ZISSEN
 10
369.0
 20
32.75
 30
0.0
 40
4.5
  1
P.P
  0
LINE
  8
L-ZISSEN
 10
365.0
 20
35.0
 30
0.0
 11
367.0
 21
35.0
 31
0.0
  0
LINE
  8
L-ZISSEN
 10
347.402045
 20
58.401536
 30
0.0
 11
365.0
 21
35.0
 31
0.0
  0
SOLID
  8
L-ZISSEN
 10
347.135634
 20
58.201195
 30
0.0
 11
347.668456
 21
58.601877
 31
0.0
 12
346.2
 22
60.0
 32
0.0
 13
346.2
 23
60.0
 33
0.0
  0
CIRCLE
  8
L-ZISSEN
 10
170.0
 20
84.0
 30
0.0
 40
3.5
  0
LINE
  8
L-TYUSIN
 10
170.0
 20
94.0
 30
0.0
 11
170.0
 21
74.0
 31
0.0
  0
LINE
  8
L-TYUSIN
 10
180.0
 20
84.0
 30
0.0
 11
160.0
 21
84.0
 31
0.0
  0
LINE
  8
L-TYUSIN
 10
170.0
 20
26.0
 30
0.0
 11
170.0
 21
46.0
 31
0.0
  0
LINE
  8
L-TYUSIN
 10
180.0
 20
36.0
 30
0.0
 11
160.0
 21
36.0
 31
0.0
  0
CIRCLE
  8
L-ZISSEN
 10
170.0
 20
36.0
 30
0.0
 40
3.5
  0
LINE
  8
L-TYUSIN
 10
280.0
 20
26.0
 30
0.0
 11
280.0
 21
46.0
 31
0.0
  0
LINE
  8
L-ZISSEN
 10
271.0
 20
49.856406
 30
0.0
 11
283.75
 21
42.495191
 31
0.0
  0
ARC
  8
L-ZISSEN
 10
280.0
 20
36.0
 30
0.0
 40
7.5
 50
270.0
 51
60.0
  0
CIRCLE
  8
L-ZISSEN
 10
280.0
 20
36.0
 30
0.0
 40
3.5
  0
LINE
  8
L-TYUSIN
 10
270.0
 20
36.0
 30
0.0
 11
290.0
 21
36.0
 31
0.0
  0
CIRCLE
  8
L-ZISSEN
 10
280.0
 20
84.0
 30
0.0
 40
3.5
  0
LINE
  8
L-ZISSEN
 10
271.0
 20
70.143594
 30
0.0
 11
283.75
 21
77.504809
 31
0.0
  0
ARC
  8
L-ZISSEN
 10
280.0
 20
84.0
 30
0.0
 40
7.5
 50
300.0
 51
90.0
  0
LINE
  8
L-TYUSIN
 10
270.0
 20
84.0
 30
0.0
 11
290.0
 21
84.0
 31
0.0
  0
LINE
  8
L-TYUSIN
 10
280.0
 20
94.0
 30
0.0
 11
280.0
 21
74.0
 31
0.0
  0
LINE
  8
L-TYUSIN
 10
209.0
 20
39.0
 30
0.0
 11
209.0
 21
29.0
 31
0.0
  0
LINE
  8
L-TYUSIN
 10
241.0
 20
39.0
 30
0.0
 11
241.0
 21
29.0
 31
0.0
  0
LINE
  8
L-TYUSIN
 10
193.0
 20
91.0
 30
0.0
 11
193.0
 21
81.0
 31
0.0
  0
LINE
  8
L-TYUSIN
 10
257.0
 20
91.0
 30
0.0
 11
257.0
 21
81.0
 31
0.0
  0
LINE
  8
L-ZISSEN
 10
271.0
 20
70.143594
 30
0.0
 11
271.0
 21
49.856406
 31
0.0
  0
LINE
  8
L-ZISSEN
 10
187.803848
 20
86.0
 30
0.0
 11
262.196152
 21
86.0
 31
0.0
  0
LINE
  8
L-ZISSEN
 10
187.803848
 20
34.0
 30
0.0
 11
262.196152
 21
34.0
 31
0.0
  0
LINE
  8
L-ZISSEN
 10
280.450773
 20
75.6
 30
0.0
 11
327.8
 21
75.6
 31
0.0
  0
LINE
  8
L-ZISSEN
 10
280.450773
 20
44.4
 30
0.0
 11
327.8
 21
44.4
 31
0.0
  0
LINE
  8
L-ZISSEN
 10
167.6
 20
74.5
 30
0.0
 11
171.2
 21
74.5
 31
0.0
  0
LINE
  8
L-ZISSEN
 10
167.6
 20
67.5
 30
0.0
 11
171.2
 21
67.5
 31
0.0
  0
LINE
  8
L-ZISSEN
 10
167.6
 20
67.5
 30
0.0
 11
167.6
 21
74.5
 31
0.0
  0
LINE
  8
L-ZISSEN
 10
167.6
 20
52.5
 30
0.0
 11
167.6
 21
45.5
 31
0.0
  0
LINE
  8
L-ZISSEN
 10
167.6
 20
52.5
 30
0.0
 11
171.2
 21
52.5
 31
0.0
  0
LINE
  8
L-ZISSEN
 10
167.6
 20
45.5
 30
0.0
 11
171.2
 21
45.5
 31
0.0
  0
LINE
  8
L-ZISSEN
 10
371.7
 20
45.0
 30
0.0
 11
371.7
 21
75.0
 31
0.0
  0
LINE
  8
L-ZISSEN
 10
371.7
 20
75.0
 30
0.0
 11
327.8
 21
75.0
 31
0.0
  0
LINE
  8
L-ZISSEN
 10
371.7
 20
45.0
 30
0.0
 11
327.8
 21
45.0
 31
0.0
  0
LINE
  8
L-ZISSEN
 10
386.2
 20
49.030345
 30
0.0
 11
386.2
 21
70.969655
 31
0.0
  0
LINE
  8
L-ZISSEN
 10
386.2
 20
49.030345
 30
0.0
 11
380.7
 21
49.030345
 31
0.0
  0
LINE
  8
L-ZISSEN
 10
386.2
 20
70.969655
 30
0.0
 11
380.7
 21
70.969655
 31
0.0
  0
LINE
  8
L-ZISSEN
 10
380.7
 20
49.030345
 30
0.0
 11
380.7
 21
70.969655
 31
0.0
  0
LINE
  8
L-ZISSEN
 10
375.45
 20
50.8
 30
0.0
 11
378.35
 21
50.8
 31
0.0
  0
LINE
  8
L-ZISSEN
 10
375.45
 20
69.2
 30
0.0
 11
378.35
 21
69.2
 31
0.0
  0
LINE
  8
L-ZISSEN
 10
378.35
 20
51.5
 30
0.0
 11
380.7
 21
51.5
 31
0.0
  0
LINE
  8
L-ZISSEN
 10
378.35
 20
68.5
 30
0.0
 11
380.7
 21
68.5
 31
0.0
  0
LINE
  8
L-ZISSEN
 10
378.35
 20
50.8
 30
0.0
 11
378.35
 21
69.2
 31
0.0
  0
LINE
  8
L-ZISSEN
 10
371.7
 20
48.75
 30
0.0
 11
375.45
 21
48.75
 31
0.0
  0
LINE
  8
L-ZISSEN
 10
375.45
 20
48.75
 30
0.0
 11
375.45
 21
71.25
 31
0.0
  0
LINE
  8
L-ZISSEN
 10
371.7
 20
71.25
 30
0.0
 11
375.45
 21
71.25
 31
0.0
  0
LINE
  8
L-TYUSIN
 10
149.2
 20
60.0
 30
0.0
 11
391.2
 21
60.0
 31
0.0
  0
LINE
  8
L-TYUSIN
 10
225.0
 20
30.5
 30
0.0
 11
225.0
 21
91.0
 31
0.0
  0
LINE
  8
L-ZISSEN
 10
327.8
 20
44.4
 30
0.0
 11
327.8
 21
75.6
 31
0.0
  0
LINE
  8
L-ZISSEN
 10
154.2
 20
71.0
 30
0.0
 11
154.2
 21
49.0
 31
0.0
  0
LINE
  8
L-ZISSEN
 10
171.2
 20
74.646926
 30
0.0
 11
171.2
 21
45.353074
 31
0.0
  0
LINE
  8
L-ZISSEN
 10
161.2
 20
74.0
 30
0.0
 11
161.2
 21
46.0
 31
0.0
  0
LINE
  8
L-ZISSEN
 10
161.2
 20
46.0
 30
0.0
 11
167.6
 21
46.0
 31
0.0
  0
LINE
  8
L-ZISSEN
 10
154.2
 20
49.0
 30
0.0
 11
161.2
 21
49.0
 31
0.0
  0
LINE
  8
L-ZISSEN
 10
161.2
 20
74.0
 30
0.0
 11
167.6
 21
74.0
 31
0.0
  0
LINE
  8
L-ZISSEN
 10
154.2
 20
71.0
 30
0.0
 11
161.2
 21
71.0
 31
0.0
  0
LINE
  8
L-ZISSEN
 10
257.0
 20
86.0
 30
0.0
 11
257.0
 21
34.0
 31
0.0
  0
LINE
  8
L-ZISSEN
 10
262.196152
 20
86.0
 30
0.0
 11
262.196152
 21
34.0
 31
0.0
  0
LINE
  8
L-ZISSEN
 10
262.196152
 20
86.0
 30
0.0
 11
280.0
 21
91.5
 31
0.0
  0
LINE
  8
L-ZISSEN
 10
262.196152
 20
34.0
 30
0.0
 11
280.0
 21
28.5
 31
0.0
  0
LINE
  8
L-ZISSEN
 10
179.0
 20
70.143594
 30
0.0
 11
166.25
 21
77.504809
 31
0.0
  0
LINE
  8
L-ZISSEN
 10
179.0
 20
70.143594
 30
0.0
 11
179.0
 21
49.856406
 31
0.0
  0
LINE
  8
L-ZISSEN
 10
179.0
 20
49.856406
 30
0.0
 11
166.25
 21
42.495191
 31
0.0
  0
LINE
  8
L-ZISSEN
 10
193.0
 20
86.0
 30
0.0
 11
193.0
 21
34.0
 31
0.0
  0
LINE
  8
L-ZISSEN
 10
187.803848
 20
86.0
 30
0.0
 11
170.0
 21
91.5
 31
0.0
  0
LINE
  8
L-ZISSEN
 10
187.803848
 20
86.0
 30
0.0
 11
187.803848
 21
34.0
 31
0.0
  0
ARC
  8
L-ZISSEN
 10
170.0
 20
84.0
 30
0.0
 40
7.5
 50
90.0
 51
240.0
  0
ARC
  8
L-ZISSEN
 10
170.0
 20
36.0
 30
0.0
 40
7.5
 50
120.0
 51
270.0
  0
LINE
  8
L-ZISSEN
 10
187.803848
 20
34.0
 30
0.0
 11
170.0
 21
28.5
 31
0.0
  0
LINE
  8
L-ZISSEN
 10
665.5
 20
54.030345
 30
0.0
 11
665.5
 21
75.969655
 31
0.0
  0
LINE
  8
L-ZISSEN
 10
665.5
 20
54.030345
 30
0.0
 11
660.0
 21
54.030345
 31
0.0
  0
LINE
  8
L-ZISSEN
 10
665.5
 20
75.969655
 30
0.0
 11
660.0
 21
75.969655
 31
0.0
  0
LINE
  8
L-ZISSEN
 10
660.0
 20
54.030345
 30
0.0
 11
660.0
 21
75.969655
 31
0.0
  0
LINE
  8
L-ZISSEN
 10
650.5
 20
55.8
 30
0.0
 11
657.65
 21
55.8
 31
0.0
  0
LINE
  8
L-ZISSEN
 10
650.5
 20
74.2
 30
0.0
 11
657.65
 21
74.2
 31
0.0
  0
LINE
  8
L-ZISSEN
 10
657.65
 20
56.5
 30
0.0
 11
660.0
 21
56.5
 31
0.0
  0
LINE
  8
L-ZISSEN
 10
657.65
 20
73.5
 30
0.0
 11
660.0
 21
73.5
 31
0.0
  0
LINE
  8
L-ZISSEN
 10
657.65
 20
55.8
 30
0.0
 11
657.65
 21
74.2
 31
0.0
  0
LINE
  8
L-ZISSEN
 10
650.5
 20
52.0
 30
0.0
 11
650.5
 21
78.0
 31
0.0
  0
LINE
  8
L-ZISSEN
 10
650.5
 20
78.0
 30
0.0
 11
635.5
 21
78.0
 31
0.0
  0
LINE
  8
L-ZISSEN
 10
635.5
 20
52.0
 30
0.0
 11
650.5
 21
52.0
 31
0.0
  0
LINE
  8
L-ZISSEN
 10
640.5
 20
78.0
 30
0.0
 11
640.5
 21
75.0
 31
0.0
  0
LINE
  8
L-ZISSEN
 10
640.5
 20
75.0
 30
0.0
 11
637.5
 21
75.0
 31
0.0
  0
LINE
  8
L-ZISSEN
 10
637.5
 20
55.0
 30
0.0
 11
637.5
 21
56.5
 31
0.0
  0
LINE
  8
L-ZISSEN
 10
640.5
 20
55.0
 30
0.0
 11
637.5
 21
55.0
 31
0.0
  0
LINE
  8
L-ZISSEN
 10
640.5
 20
52.0
 30
0.0
 11
640.5
 21
55.0
 31
0.0
  0
SOLID
  8
L-ZISSEN
 10
610.596285
 20
63.062074
 30
0.0
 11
611.19257
 21
63.360217
 31
0.0
 12
610.0
 22
65.0
 32
0.0
 13
610.0
 23
65.0
 33
0.0
  0
LINE
  8
L-ZISSEN
 10
610.894427
 20
63.211146
 30
0.0
 11
620.0
 21
45.0
 31
0.0
  0
LINE
  8
L-ZISSEN
 10
620.0
 20
45.0
 30
0.0
 11
622.0
 21
45.0
 31
0.0
  0
TEXT
  8
L-ZISSEN
 10
624.0
 20
42.75
 30
0.0
 40
4.5
  1
P.P
  0
SOLID
  8
L-ZISSEN
 10
304.780506
 20
58.030171
 30
0.0
 11
305.393396
 21
58.292488
 31
0.0
 12
304.3
 22
60.0
 32
0.0
 13
304.3
 23
60.0
 33
0.0
  0
LINE
  8
L-ZISSEN
 10
305.086951
 20
58.16133
 30
0.0
 11
315.0
 21
35.0
 31
0.0
  0
LINE
  8
L-ZISSEN
 10
315.0
 20
35.0
 30
0.0
 11
317.0
 21
35.0
 31
0.0
  0
TEXT
  8
L-ZISSEN
 10
319.0
 20
32.75
 30
0.0
 40
4.5
  1
P.P
  0
LINE
  8
L-ZISSEN
 10
171.2
 20
315.353074
 30
0.0
 11
166.25
 21
312.495191
 31
0.0
  0
ARC
  8
L-ZISSEN
 10
170.0
 20
306.0
 30
0.0
 40
7.5
 50
120.0
 51
270.0
  0
LINE
  8
L-ZISSEN
 10
187.803848
 20
304.0
 30
0.0
 11
170.0
 21
298.5
 31
0.0
  0
ARC
  8
L-ZISSEN
 10
170.0
 20
354.0
 30
0.0
 40
7.5
 50
90.0
 51
240.0
  0
LINE
  8
L-ZISSEN
 10
187.803848
 20
356.0
 30
0.0
 11
170.0
 21
361.5
 31
0.0
  0
LINE
  8
L-ZISSEN
 10
171.2
 20
344.646926
 30
0.0
 11
166.25
 21
347.504809
 31
0.0
  0
ARC
  8
L-ZISSEN
 10
280.0
 20
354.0
 30
0.0
 40
7.5
 50
300.0
 51
90.0
  0
LINE
  8
L-ZISSEN
 10
262.196152
 20
356.0
 30
0.0
 11
280.0
 21
361.5
 31
0.0
  0
LINE
  8
L-ZISSEN
 10
280.450773
 20
345.6
 30
0.0
 11
283.75
 21
347.504809
 31
0.0
  0
LINE
  8
L-ZISSEN
 10
280.450773
 20
314.4
 30
0.0
 11
283.75
 21
312.495191
 31
0.0
  0
ARC
  8
L-ZISSEN
 10
280.0
 20
306.0
 30
0.0
 40
7.5
 50
270.0
 51
60.0
  0
LINE
  8
L-ZISSEN
 10
262.196152
 20
304.0
 30
0.0
 11
280.0
 21
298.5
 31
0.0
  0
LINE
  8
L-ZISSEN
 10
374.7
 20
51.5
 30
0.0
 11
374.7
 21
68.5
 31
0.0
  0
LINE
  8
L-ZISSEN
 10
374.7
 20
51.5
 30
0.0
 11
371.7
 21
51.5
 31
0.0
  0
LINE
  8
L-ZISSEN
 10
374.7
 20
68.5
 30
0.0
 11
371.7
 21
68.5
 31
0.0
  0
LINE
  8
L-ZISSEN
 10
637.5
 20
73.5
 30
0.0
 11
637.5
 21
75.0
 31
0.0
  0
SOLID
  8
L-ZISSEN
 10
224.042233
 20
167.712881
 30
0.0
 11
224.67361
 21
167.498855
 31
0.0
 12
225.0
 22
169.5
 32
0.0
 13
225.0
 23
169.5
 33
0.0
  0
LINE
  8
L-ZISSEN
 10
224.357921
 20
167.605868
 30
0.0
 11
215.0
 21
140.0
 31
0.0
  0
LINE
  8
L-ZISSEN
 10
215.0
 20
140.0
 30
0.0
 11
213.0
 21
140.0
 31
0.0
  0
TEXT
  8
L-ZISSEN
 10
181.0
 20
137.75
 30
0.0
 40
4.5
  1
"1" PORT
  0
TEXT
  8
L-ZISSEN
 10
185.0
 20
130.0
 30
0.0
 40
4.5
  1
Rc 1/4
  0
TEXT
  8
L-ZISSEN
 10
185.0
 20
120.0
 30
0.0
 40
4.5
  1
Rc 3/8
  0
TEXT
  8
L-ZISSEN
 10
128.0
 20
544.0
 30
0.0
 40
4.5
  1
02
  0
TEXT
  8
L-ZISSEN
 10
128.0
 20
537.0
 30
0.0
 40
4.5
  1
03J
  0
ENDSEC
  0
EOF
