  0
SECTION
  2
HEADER
  9
$ACADVER
  1
AC1012
  9
$DWGCODEPAGE
  3
dos932
  9
$INSBASE
 10
0.0
 20
0.0
 30
0.0
  9
$EXTMIN
 10
-8.999989397317788
 20
-33.99995488793681
 30
0.0
  9
$EXTMAX
 10
687.7682404693594
 20
488.5000451120631
 30
0.0
  9
$LIMMIN
 10
0.0
 20
0.0
  9
$LIMMAX
 10
841.0
 20
594.0
  9
$ORTHOMODE
 70
     0
  9
$REGENMODE
 70
     1
  9
$FILLMODE
 70
     1
  9
$QTEXTMODE
 70
     0
  9
$MIRRTEXT
 70
     0
  9
$DRAGMODE
 70
     2
  9
$LTSCALE
 40
0.8
  9
$OSMODE
 70
    37
  9
$ATTMODE
 70
     1
  9
$TEXTSIZE
 40
4.5
  9
$TRACEWID
 40
0.05
  9
$TEXTSTYLE
  7
STANDARD
  9
$CLAYER
  8
L-ZISSEN
  9
$CELTYPE
  6
CONTINUOUS
  9
$CECOLOR
 62
   256
  9
$CELTSCALE
 40
1.0
  9
$DELOBJ
 70
     1
  9
$DISPSILH
 70
     0
  9
$DIMSCALE
 40
2.0
  9
$DIMASZ
 40
2.0
  9
$DIMEXO
 40
2.0
  9
$DIMDLI
 40
0.38
  9
$DIMRND
 40
0.0
  9
$DIMDLE
 40
1.0
  9
$DIMEXE
 40
2.0
  9
$DIMTP
 40
0.0
  9
$DIMTM
 40
0.0
  9
$DIMTXT
 40
2.799999999999998
  9
$DIMCEN
 40
0.09
  9
$DIMTSZ
 40
0.0
  9
$DIMTOL
 70
     0
  9
$DIMLIM
 70
     0
  9
$DIMTIH
 70
     0
  9
$DIMTOH
 70
     0
  9
$DIMSE1
 70
     0
  9
$DIMSE2
 70
     0
  9
$DIMTAD
 70
     1
  9
$DIMZIN
 70
     0
  9
$DIMBLK
  1

  9
$DIMASO
 70
     1
  9
$DIMSHO
 70
     0
  9
$DIMPOST
  1

  9
$DIMAPOST
  1

  9
$DIMALT
 70
     0
  9
$DIMALTD
 70
     2
  9
$DIMALTF
 40
25.4
  9
$DIMLFAC
 40
1.0
  9
$DIMTOFL
 70
     1
  9
$DIMTVP
 40
0.0
  9
$DIMTIX
 70
     1
  9
$DIMSOXD
 70
     0
  9
$DIMSAH
 70
     0
  9
$DIMBLK1
  1

  9
$DIMBLK2
  1

  9
$DIMSTYLE
  2
STANDARD
  9
$DIMCLRD
 70
     0
  9
$DIMCLRE
 70
     0
  9
$DIMCLRT
 70
     0
  9
$DIMTFAC
 40
1.0
  9
$DIMGAP
 40
1.0
  9
$DIMJUST
 70
     0
  9
$DIMSD1
 70
     0
  9
$DIMSD2
 70
     0
  9
$DIMTOLJ
 70
     1
  9
$DIMTZIN
 70
     0
  9
$DIMALTZ
 70
     0
  9
$DIMALTTZ
 70
     0
  9
$DIMFIT
 70
     3
  9
$DIMUPT
 70
     0
  9
$DIMUNIT
 70
     2
  9
$DIMDEC
 70
     1
  9
$DIMTDEC
 70
     4
  9
$DIMALTU
 70
     2
  9
$DIMALTTD
 70
     2
  9
$DIMTXSTY
  7
STANDARD
  9
$DIMAUNIT
 70
     0
  9
$LUNITS
 70
     2
  9
$LUPREC
 70
     4
  9
$SKETCHINC
 40
0.1
  9
$FILLETRAD
 40
0.0
  9
$AUNITS
 70
     0
  9
$AUPREC
 70
     0
  9
$MENU
  1
acad
  9
$ELEVATION
 40
0.0
  9
$PELEVATION
 40
0.0
  9
$THICKNESS
 40
0.0
  9
$LIMCHECK
 70
     0
  9
$BLIPMODE
 70
     0
  9
$CHAMFERA
 40
0.0
  9
$CHAMFERB
 40
0.0
  9
$CHAMFERC
 40
0.0
  9
$CHAMFERD
 40
0.0
  9
$SKPOLY
 70
     0
  9
$TDCREATE
 40
2449002.661314352
  9
$TDUPDATE
 40
2453237.347338194
  9
$TDINDWG
 40
0.3787339120
  9
$TDUSRTIMER
 40
0.3787339120
  9
$USRTIMER
 70
     1
  9
$ANGBASE
 50
0.0
  9
$ANGDIR
 70
     0
  9
$PDMODE
 70
     0
  9
$PDSIZE
 40
0.0
  9
$PLINEWID
 40
0.0
  9
$COORDS
 70
     0
  9
$SPLFRAME
 70
     0
  9
$SPLINETYPE
 70
     6
  9
$SPLINESEGS
 70
     8
  9
$ATTDIA
 70
     0
  9
$ATTREQ
 70
     1
  9
$HANDLING
 70
-16383
  9
$HANDSEED
  5
25B
  9
$SURFTAB1
 70
     6
  9
$SURFTAB2
 70
     6
  9
$SURFTYPE
 70
     6
  9
$SURFU
 70
     6
  9
$SURFV
 70
     6
  9
$UCSNAME
  2

  9
$UCSORG
 10
0.0
 20
0.0
 30
0.0
  9
$UCSXDIR
 10
1.0
 20
0.0
 30
0.0
  9
$UCSYDIR
 10
0.0
 20
1.0
 30
0.0
  9
$PUCSNAME
  2

  9
$PUCSORG
 10
0.0
 20
0.0
 30
0.0
  9
$PUCSXDIR
 10
1.0
 20
0.0
 30
0.0
  9
$PUCSYDIR
 10
0.0
 20
1.0
 30
0.0
  9
$USERI1
 70
     0
  9
$USERI2
 70
     0
  9
$USERI3
 70
     0
  9
$USERI4
 70
     0
  9
$USERI5
 70
     0
  9
$USERR1
 40
0.0
  9
$USERR2
 40
0.0
  9
$USERR3
 40
0.0
  9
$USERR4
 40
0.0
  9
$USERR5
 40
0.0
  9
$WORLDVIEW
 70
     1
  9
$SHADEDGE
 70
     3
  9
$SHADEDIF
 70
    70
  9
$TILEMODE
 70
     1
  9
$MAXACTVP
 70
    48
  9
$PINSBASE
 10
0.0
 20
0.0
 30
0.0
  9
$PLIMCHECK
 70
     0
  9
$PEXTMIN
 10
1.000000000000000E+20
 20
1.000000000000000E+20
 30
1.000000000000000E+20
  9
$PEXTMAX
 10
-1.000000000000000E+20
 20
-1.000000000000000E+20
 30
-1.000000000000000E+20
  9
$PLIMMIN
 10
0.0
 20
0.0
  9
$PLIMMAX
 10
12.0
 20
9.0
  9
$UNITMODE
 70
     0
  9
$VISRETAIN
 70
     0
  9
$PLINEGEN
 70
     0
  9
$PSLTSCALE
 70
     0
  9
$TREEDEPTH
 70
  3020
  9
$PICKSTYLE
 70
     1
  9
$CMLSTYLE
  2
STANDARD
  9
$CMLJUST
 70
     0
  9
$CMLSCALE
 40
1.0
  9
$SAVEIMAGES
 70
     1
  0
ENDSEC
  0
SECTION
  2
CLASSES
  0
CLASS
  1
DICTIONARYVAR
  2
AcDbDictionaryVar
  3
AutoCAD 2000
 90
    32768
280
     0
281
     0
  0
CLASS
  1
HATCH
  2
AcDbHatch
  3
AutoCAD 2000
 90
    32768
280
     0
281
     1
  0
CLASS
  1
LWPOLYLINE
  2
AcDbPolyline
  3
AutoCAD 2000
 90
    32768
280
     0
281
     1
  0
CLASS
  1
ACDBDICTIONARYWDFLT
  2
AcDbDictionaryWithDefault
  3
AutoCAD 2000
 90
    32768
280
     0
281
     0
  0
CLASS
  1
ACDBPLACEHOLDER
  2
AcDbPlaceHolder
  3
AutoCAD 2000
 90
    32768
280
     0
281
     0
  0
CLASS
  1
LAYOUT
  2
AcDbLayout
  3
AutoCAD 2000
 90
    32768
280
     0
281
     0
  0
CLASS
  1
LONG_TRANSACTION
  2
AcDbLongTransaction
  3
AutoCAD 2000
 90
    32768
280
     0
281
     0
  0
CLASS
  1
LWPOLYLINE
  2
AcDbPolyline
  3
AutoCAD 2000
 90
    32768
280
     0
281
     1
  0
CLASS
  1
HATCH
  2
AcDbHatch
  3
AutoCAD 2000
 90
    32768
280
     0
281
     1
  0
CLASS
  1
XRECORD
  2
AcDbXrecord
  3
AutoCAD 2000
 90
    32768
280
     0
281
     0
  0
CLASS
  1
LONG_TRANSACTION
  2
AcDbLongTransaction
  3
AutoCAD 2000
 90
    32768
280
     0
281
     0
  0
CLASS
  1
LWPOLYLINE
  2
AcDbPolyline
  3
AutoCAD 2000
 90
    32768
280
     0
281
     1
  0
CLASS
  1
HATCH
  2
AcDbHatch
  3
AutoCAD 2000
 90
    32768
280
     0
281
     1
  0
CLASS
  1
XRECORD
  2
AcDbXrecord
  3
AutoCAD 2000
 90
    32768
280
     0
281
     0
  0
ENDSEC
  0
SECTION
  2
TABLES
  0
TABLE
  2
VPORT
  5
19
330
0
100
AcDbSymbolTable
 70
     2
  0
VPORT
  5
258
330
19
100
AcDbSymbolTableRecord
100
AcDbViewportTableRecord
  2
*ACTIVE
 70
     0
 10
0.0
 20
0.0
 11
1.0
 21
1.0
 12
354.0770612610072
 22
216.3176345909768
 13
0.0
 23
0.0
 14
5.0
 24
5.0
 15
0.0
 25
0.0
 16
0.0
 26
0.0
 36
1.0
 17
0.0
 27
0.0
 37
0.0
 40
592.7467786921035
 41
1.84990253411306
 42
50.0
 43
0.0
 44
0.0
 50
0.0
 51
0.0
 71
     0
 72
   100
 73
     1
 74
     0
 75
     0
 76
     0
 77
     0
 78
     0
  0
ENDTAB
  0
TABLE
  2
LTYPE
  5
14
330
0
100
AcDbSymbolTable
 70
     2
  0
LTYPE
  5
15
330
14
100
AcDbSymbolTableRecord
100
AcDbLinetypeTableRecord
  2
BYBLOCK
 70
     0
  3

 72
    65
 73
     0
 40
0.0
  0
LTYPE
  5
16
330
14
100
AcDbSymbolTableRecord
100
AcDbLinetypeTableRecord
  2
BYLAYER
 70
     0
  3

 72
    65
 73
     0
 40
0.0
  0
LTYPE
  5
8
330
14
100
AcDbSymbolTableRecord
100
AcDbLinetypeTableRecord
  2
CONTINUOUS
 70
     0
  3
Solid line
 72
    65
 73
     0
 40
0.0
  0
LTYPE
  5
2B
330
14
100
AcDbSymbolTableRecord
100
AcDbLinetypeTableRecord
  2
CENTER
 70
     0
  3
____ _ ____ _ ____ _ ____ _ 
 72
    65
 73
     4
 40
60.0
 49
45.0
 74
     0
 49
-5.0
 74
     0
 49
5.0
 74
     0
 49
-5.0
 74
     0
  0
ENDTAB
  0
TABLE
  2
LAYER
  5
10
330
0
100
AcDbSymbolTable
 70
     3
  0
LAYER
  5
4
330
10
100
AcDbSymbolTableRecord
100
AcDbLayerTableRecord
  2
0
 70
     0
 62
     7
  6
CONTINUOUS
  0
LAYER
  5
22
330
10
100
AcDbSymbolTableRecord
100
AcDbLayerTableRecord
  2
L-ZISSEN
 70
     0
 62
     7
  6
CONTINUOUS
  0
LAYER
  5
2A
330
10
100
AcDbSymbolTableRecord
100
AcDbLayerTableRecord
  2
L-TYUSIN
 70
     0
 62
     1
  6
CENTER
  0
ENDTAB
  0
TABLE
  2
STYLE
  5
11
330
0
100
AcDbSymbolTable
 70
     1
  0
STYLE
  5
12
330
11
100
AcDbSymbolTableRecord
100
AcDbTextStyleTableRecord
  2
STANDARD
 70
     0
 40
0.0
 41
1.0
 50
0.0
 71
     0
 42
4.5
  3
txt.shx
  4
bigfont.shx
  0
ENDTAB
  0
TABLE
  2
VIEW
  5
17
330
0
100
AcDbSymbolTable
 70
     0
  0
ENDTAB
  0
TABLE
  2
UCS
  5
18
330
0
100
AcDbSymbolTable
 70
     0
  0
ENDTAB
  0
TABLE
  2
APPID
  5
1B
330
0
100
AcDbSymbolTable
 70
     1
  0
APPID
  5
1C
330
1B
100
AcDbSymbolTableRecord
100
AcDbRegAppTableRecord
  2
ACAD
 70
     0
  0
ENDTAB
  0
TABLE
  2
DIMSTYLE
  5
1D
330
0
100
AcDbSymbolTable
 70
     1
  0
DIMSTYLE
105
24
330
1D
100
AcDbSymbolTableRecord
100
AcDbDimStyleTableRecord
  2
STANDARD
 70
     0
  3

  4

  5

  6

  7

 40
1.0
 41
0.18
 42
0.0625
 43
0.38
 44
0.18
 45
0.0
 46
0.0
 47
0.0
 48
0.0
140
0.18
141
0.09
142
0.0
143
25.4
144
1.0
145
0.0
146
1.0
147
0.09
 71
     0
 72
     0
 73
     1
 74
     1
 75
     0
 76
     0
 77
     0
 78
     0
170
     0
171
     2
172
     0
173
     0
174
     0
175
     0
176
     0
177
     0
178
     0
270
     2
271
     4
272
     4
273
     2
274
     2
340
12
275
     0
280
     0
281
     0
282
     0
283
     1
284
     0
285
     0
286
     0
287
     3
288
     0
  0
ENDTAB
  0
TABLE
  2
BLOCK_RECORD
  5
1
330
0
100
AcDbSymbolTable
 70
     0
  0
BLOCK_RECORD
  5
2
102
{ACAD_XDICTIONARY
360
24B
102
}
330
1
100
AcDbSymbolTableRecord
100
AcDbBlockTableRecord
  2
*MODEL_SPACE
  0
BLOCK_RECORD
  5
C
102
{ACAD_XDICTIONARY
360
24D
102
}
330
1
100
AcDbSymbolTableRecord
100
AcDbBlockTableRecord
  2
*PAPER_SPACE
  0
ENDTAB
  0
ENDSEC
  0
SECTION
  2
BLOCKS
  0
BLOCK
  5
3
330
2
100
AcDbEntity
  8
0
100
AcDbBlockBegin
  2
*MODEL_SPACE
 70
     0
 10
0.0
 20
0.0
 30
0.0
  3
*MODEL_SPACE
  1

  0
ENDBLK
  5
9
330
2
100
AcDbEntity
  8
0
100
AcDbBlockEnd
  0
BLOCK
  5
D
330
C
100
AcDbEntity
 67
     1
  8
0
100
AcDbBlockBegin
  2
*PAPER_SPACE
 70
     0
 10
0.0
 20
0.0
 30
0.0
  3
*PAPER_SPACE
  1

  0
ENDBLK
  5
E
330
C
100
AcDbEntity
 67
     1
  8
0
100
AcDbBlockEnd
  0
ENDSEC
  0
SECTION
  2
ENTITIES
  0
LINE
  5
25
330
2
100
AcDbEntity
  8
L-ZISSEN
100
AcDbLine
 10
370.000010602682
 20
123.0000451120631
 30
0.0
 11
422.000010602682
 21
123.0000451120631
 31
0.0
  0
LINE
  5
26
330
2
100
AcDbEntity
  8
L-ZISSEN
100
AcDbLine
 10
371.0000106026821
 20
124.0000451120631
 30
0.0
 11
421.0000106026821
 21
124.0000451120631
 31
0.0
  0
LINE
  5
27
330
2
100
AcDbEntity
  8
L-ZISSEN
100
AcDbLine
 10
364.5000106026821
 20
96.50004511206311
 30
0.0
 11
427.5000106026821
 21
96.50004511206311
 31
0.0
  0
LINE
  5
28
330
2
100
AcDbEntity
  8
L-ZISSEN
100
AcDbLine
 10
421.0000106026821
 20
155.0000451120631
 30
0.0
 11
411.600010602682
 21
155.0000451120631
 31
0.0
  0
LINE
  5
29
330
2
100
AcDbEntity
  8
L-TYUSIN
100
AcDbLine
 10
417.0000106026821
 20
109.5000451120631
 30
0.0
 11
427.000010602682
 21
109.5000451120631
 31
0.0
  0
LINE
  5
2C
330
2
100
AcDbEntity
  8
L-ZISSEN
100
AcDbLine
 10
406.0301282810824
 20
87.50004511206311
 30
0.0
 11
427.5000106026821
 21
87.50004511206311
 31
0.0
  0
LEADER
  5
2D
330
2
100
AcDbEntity
  8
L-ZISSEN
100
AcDbLeader
  3
STANDARD
 73
     0
 74
     0
 40
5.599999999999998
 41
9.599999999999996
 76
     3
 10
264.0000106026842
 20
270.0000451120627
 30
0.0
 10
272.200679040961
 20
297.1144382985451
 30
0.0
 10
274.5277243791865
 20
297.1144382985451
 30
0.0
210
0.0
220
0.0
230
-1.0
1001
ACAD
1000
DSTYLE
1002
{
1070
     5
1000

1070
    40
1040
2.0
1070
    41
1040
2.0
1070
    42
1040
2.0
1070
    44
1040
2.0
1070
    46
1040
1.0
1070
    73
1070
     0
1070
    74
1070
     0
1070
    77
1070
     1
1070
   140
1040
2.799999999999998
1070
   147
1040
1.0
1070
   172
1070
     1
1070
   174
1070
     1
1070
   271
1070
     1
1070
   287
1070
     5
1070
   342
1005
0
1002
}
1000
LEANOF
1010
0.0
1020
0.0
1030
0.0
1000
LEANOF
1010
0.0
1020
0.0
1030
0.0
  0
LINE
  5
2E
330
2
100
AcDbEntity
  8
L-TYUSIN
100
AcDbLine
 10
171.0000106026821
 20
301.0000451120631
 30
0.0
 11
171.0000106026821
 21
239.0000451120631
 31
0.0
  0
ARC
  5
2F
330
2
100
AcDbEntity
  8
L-ZISSEN
100
AcDbCircle
 10
226.0000106026821
 20
294.0000451120631
 30
0.0
 40
7.5
100
AcDbArc
 50
299.9999999999999
 51
90.0
  0
LINE
  5
30
330
2
100
AcDbEntity
  8
L-TYUSIN
100
AcDbLine
 10
226.0000106026821
 20
304.0000451120631
 30
0.0
 11
226.0000106026821
 21
284.0000451120634
 31
0.0
  0
LINE
  5
31
330
2
100
AcDbEntity
  8
L-TYUSIN
100
AcDbLine
 10
187.0000106026821
 20
291.0000451120631
 30
0.0
 11
187.0000106026821
 21
301.0000451120631
 31
0.0
  0
CIRCLE
  5
32
330
2
100
AcDbEntity
  8
L-ZISSEN
100
AcDbCircle
 10
226.0000106026821
 20
294.0000451120631
 30
0.0
 40
3.5
  0
LINE
  5
33
330
2
100
AcDbEntity
  8
L-ZISSEN
100
AcDbLine
 10
208.1961630253891
 20
296.0000451120631
 30
0.0
 11
226.0000106026821
 21
301.5000451120631
 31
0.0
  0
CIRCLE
  5
34
330
2
100
AcDbEntity
  8
L-ZISSEN
100
AcDbCircle
 10
116.0000106026822
 20
294.0000451120631
 30
0.0
 40
3.5
  0
LINE
  5
35
330
2
100
AcDbEntity
  8
L-TYUSIN
100
AcDbLine
 10
116.0000106026822
 20
304.0000451120631
 30
0.0
 11
116.0000106026822
 21
284.0000451120634
 31
0.0
  0
ARC
  5
36
330
2
100
AcDbEntity
  8
L-ZISSEN
100
AcDbCircle
 10
116.0000106026821
 20
294.0000451120631
 30
0.0
 40
7.5
100
AcDbArc
 50
90.0
 51
240.0
  0
LINE
  5
37
330
2
100
AcDbEntity
  8
L-ZISSEN
100
AcDbLine
 10
133.8038581799752
 20
296.0000451120631
 30
0.0
 11
116.0000106026821
 21
301.5000451120631
 31
0.0
  0
LINE
  5
38
330
2
100
AcDbEntity
  8
L-TYUSIN
100
AcDbLine
 10
155.000010602682
 20
291.0000451120631
 30
0.0
 11
155.000010602682
 21
301.0000451120631
 31
0.0
  0
LINE
  5
39
330
2
100
AcDbEntity
  8
L-TYUSIN
100
AcDbLine
 10
95.20001060268212
 20
0.000045112063134
 30
0.0
 11
337.2000106026821
 21
0.000045112063134
 31
0.0
  0
LINE
  5
3A
330
2
100
AcDbEntity
  8
L-ZISSEN
100
AcDbLine
 10
133.803858179975
 20
26.00004511206313
 30
0.0
 11
208.1961630253889
 21
26.00004511206313
 31
0.0
  0
LINE
  5
3B
330
2
100
AcDbEntity
  8
L-ZISSEN
100
AcDbLine
 10
133.803858179975
 20
-25.99995488793686
 30
0.0
 11
208.1961630253889
 21
-25.99995488793686
 31
0.0
  0
LINE
  5
3C
330
2
100
AcDbEntity
  8
L-ZISSEN
100
AcDbLine
 10
160.5000106026821
 20
245.0000451120631
 30
0.0
 11
149.5000106026821
 21
245.0000451120631
 31
0.0
  0
LINE
  5
3D
330
2
100
AcDbEntity
  8
L-ZISSEN
100
AcDbLine
 10
125.0000106026823
 20
244.0000451120631
 30
0.0
 11
217.0000106026821
 21
244.0000451120631
 31
0.0
  0
LINE
  5
3E
330
2
100
AcDbEntity
  8
L-ZISSEN
100
AcDbLine
 10
150.7500106026829
 20
161.3000451120631
 30
0.0
 11
159.2500106026813
 21
161.3000451120631
 31
0.0
  0
LINE
  5
3F
330
2
100
AcDbEntity
  8
L-ZISSEN
100
AcDbLine
 10
149.5000106026821
 20
155.0000451120631
 30
0.0
 11
160.5000106026821
 21
155.0000451120631
 31
0.0
  0
LINE
  5
40
330
2
100
AcDbEntity
  8
L-ZISSEN
100
AcDbLine
 10
208.7000106026819
 20
164.0000451120631
 30
0.0
 11
133.3000106026822
 21
164.0000451120631
 31
0.0
  0
LINE
  5
41
330
2
100
AcDbEntity
  8
L-ZISSEN
100
AcDbLine
 10
117.2000106026821
 20
124.0000451120631
 30
0.0
 11
216.8000106026822
 21
124.0000451120631
 31
0.0
  0
LINE
  5
42
330
2
100
AcDbEntity
  8
L-ZISSEN
100
AcDbLine
 10
125.0000106026822
 20
123.0000451120631
 30
0.0
 11
217.000010602682
 21
123.0000451120631
 31
0.0
  0
LINE
  5
43
330
2
100
AcDbEntity
  8
L-ZISSEN
100
AcDbLine
 10
108.5000106026821
 20
96.50004511206311
 30
0.0
 11
233.5000106026822
 21
96.50004511206311
 31
0.0
  0
LINE
  5
44
330
2
100
AcDbEntity
  8
L-TYUSIN
100
AcDbLine
 10
95.20001060268221
 20
150.0000451120631
 30
0.0
 11
325.7000106026822
 21
150.0000451120631
 31
0.0
  0
CIRCLE
  5
45
330
2
100
AcDbEntity
  8
L-ZISSEN
100
AcDbCircle
 10
155.0000106026821
 20
250.500045112063
 30
0.0
 40
4.25
  0
LEADER
  5
46
330
2
100
AcDbEntity
  8
L-ZISSEN
100
AcDbLeader
  3
STANDARD
 76
     3
 10
171.0000106026821
 20
103.7775451120631
 30
0.0
 10
146.8132452287175
 20
66.9035445541665
 30
0.0
 10
142.3171076870674
 20
66.9035445541665
 30
0.0
1001
ACAD
1000
DSTYLE
1002
{
1070
     5
1000

1070
    40
1040
2.0
1070
    41
1040
2.0
1070
    42
1040
2.0
1070
    44
1040
2.0
1070
    46
1040
1.0
1070
    73
1070
     0
1070
    74
1070
     0
1070
    77
1070
     1
1070
   140
1040
2.799999999999998
1070
   147
1040
1.0
1070
   172
1070
     1
1070
   174
1070
     1
1070
   271
1070
     1
1070
   287
1070
     5
1070
   342
1005
0
1002
}
1000
LEANOF
1010
0.0
1020
0.0
1030
0.0
1000
LEANOF
1010
0.0
1020
0.0
1030
0.0
  0
LINE
  5
47
330
2
100
AcDbEntity
  8
L-ZISSEN
100
AcDbLine
 10
125.0000106026823
 20
296.0000451120631
 30
0.0
 11
217.0000106026821
 21
296.0000451120631
 31
0.0
  0
LINE
  5
48
330
2
100
AcDbEntity
  8
L-ZISSEN
100
AcDbLine
 10
195.5000106026821
 20
286.0000451120632
 30
0.0
 11
146.5000106026821
 21
286.0000451120636
 31
0.0
  0
LINE
  5
49
330
2
100
AcDbEntity
  8
L-TYUSIN
100
AcDbLine
 10
95.20001060268221
 20
270.0000451120631
 30
0.0
 11
323.8000106026848
 21
270.0000451120631
 31
0.0
  0
LINE
  5
4A
330
2
100
AcDbEntity
  8
L-TYUSIN
100
AcDbLine
 10
25.80001060268216
 20
91.50004511206311
 30
0.0
 11
25.80001060268216
 21
214.7000451120629
 31
0.0
  0
LINE
  5
4B
330
2
100
AcDbEntity
  8
L-ZISSEN
100
AcDbLine
 10
51.80001060268215
 20
96.50004511206311
 30
0.0
 11
51.80001060268215
 21
123.0000451120631
 31
0.0
  0
LINE
  5
4C
330
2
100
AcDbEntity
  8
L-ZISSEN
100
AcDbLine
 10
-0.1999893973178359
 20
123.0000451120631
 30
0.0
 11
-0.1999893973178359
 21
96.50004511206311
 31
0.0
  0
LINE
  5
4D
330
2
100
AcDbEntity
  8
L-ZISSEN
100
AcDbLine
 10
125.000010602682
 20
124.000045112063
 30
0.0
 11
125.000010602682
 21
96.50004511206311
 31
0.0
  0
LINE
  5
4E
330
2
100
AcDbEntity
  8
L-TYUSIN
100
AcDbLine
 10
139.000010602682
 20
119.5000451120631
 30
0.0
 11
139.000010602682
 21
99.50004511206314
 31
0.0
  0
CIRCLE
  5
4F
330
2
100
AcDbEntity
  8
L-ZISSEN
100
AcDbCircle
 10
139.000010602682
 20
109.5000451120631
 30
0.0
 40
5.7225
  0
LINE
  5
50
330
2
100
AcDbEntity
  8
L-ZISSEN
100
AcDbLine
 10
-5.699989397317835
 20
96.50004511206311
 30
0.0
 11
57.30001060268214
 21
96.50004511206311
 31
0.0
  0
LINE
  5
51
330
2
100
AcDbEntity
  8
L-TYUSIN
100
AcDbLine
 10
1.800010602682164
 20
82.50004511206311
 30
0.0
 11
1.800010602682164
 21
101.500045112063
 31
0.0
  0
LINE
  5
52
330
2
100
AcDbEntity
  8
L-ZISSEN
100
AcDbLine
 10
15.76989292428197
 20
96.50004511206311
 30
0.0
 11
15.76989292428197
 21
87.50004511206311
 31
0.0
  0
LINE
  5
53
330
2
100
AcDbEntity
  8
L-ZISSEN
100
AcDbLine
 10
-5.699989397317835
 20
96.50004511206311
 30
0.0
 11
-5.699989397317835
 21
87.50004511206311
 31
0.0
  0
LINE
  5
54
330
2
100
AcDbEntity
  8
L-ZISSEN
100
AcDbLine
 10
-5.699989397317835
 20
87.50004511206311
 30
0.0
 11
15.76989292428197
 21
87.50004511206311
 31
0.0
  0
LINE
  5
55
330
2
100
AcDbEntity
  8
L-TYUSIN
100
AcDbLine
 10
4.800010602682164
 20
109.5000451120631
 30
0.0
 11
-5.199989397317835
 21
109.5000451120631
 31
0.0
  0
LINE
  5
56
330
2
100
AcDbEntity
  8
L-ZISSEN
100
AcDbLine
 10
139.0000106026817
 20
26.00004511206313
 30
0.0
 11
139.0000106026817
 21
-25.99995488793686
 31
0.0
  0
LINE
  5
57
330
2
100
AcDbEntity
  8
L-TYUSIN
100
AcDbLine
 10
116.0000106026821
 20
34.00004511206307
 30
0.0
 11
116.0000106026821
 21
14.0000451120633
 31
0.0
  0
ARC
  5
58
330
2
100
AcDbEntity
  8
L-ZISSEN
100
AcDbCircle
 10
116.0000106026821
 20
24.00004511206319
 30
0.0
 40
7.5
100
AcDbArc
 50
90.0
 51
239.9999999999998
  0
LINE
  5
59
330
2
100
AcDbEntity
  8
L-ZISSEN
100
AcDbLine
 10
133.803858179975
 20
26.00004511206313
 30
0.0
 11
133.803858179975
 21
-25.99995488793686
 31
0.0
  0
LINE
  5
5A
330
2
100
AcDbEntity
  8
L-TYUSIN
100
AcDbLine
 10
155.000010602682
 20
-20.99995488793685
 30
0.0
 11
155.000010602682
 21
-30.99995488793686
 31
0.0
  0
LINE
  5
5B
330
2
100
AcDbEntity
  8
L-TYUSIN
100
AcDbLine
 10
116.0000106026821
 20
-33.99995488793681
 30
0.0
 11
116.0000106026821
 21
-13.99995488793702
 31
0.0
  0
ARC
  5
5C
330
2
100
AcDbEntity
  8
L-ZISSEN
100
AcDbCircle
 10
116.0000106026821
 20
-23.99995488793692
 30
0.0
 40
7.5
100
AcDbArc
 50
120.0000000000001
 51
270.0
  0
LINE
  5
5D
330
2
100
AcDbEntity
  8
L-ZISSEN
100
AcDbLine
 10
133.803858179975
 20
-25.99995488793686
 30
0.0
 11
116.0000106026821
 21
-31.49995488793726
 31
0.0
  0
LINE
  5
5E
330
2
100
AcDbEntity
  8
L-TYUSIN
100
AcDbLine
 10
126.0000106026827
 20
-23.99995488793692
 30
0.0
 11
106.0000106026827
 21
-23.99995488793686
 31
0.0
  0
LINE
  5
5F
330
2
100
AcDbEntity
  8
L-ZISSEN
100
AcDbLine
 10
125.0000106026819
 20
-10.14354842738159
 30
0.0
 11
112.2500106026802
 21
-17.50476435955059
 31
0.0
  0
LINE
  5
60
330
2
100
AcDbEntity
  8
L-ZISSEN
100
AcDbLine
 10
125.0000106026819
 20
10.14363865150825
 30
0.0
 11
112.2500106026802
 21
17.50485458367686
 31
0.0
  0
LINE
  5
61
330
2
100
AcDbEntity
  8
L-ZISSEN
100
AcDbLine
 10
100.2000106026821
 20
11.00004511206313
 30
0.0
 11
100.2000106026821
 21
-10.99995488793662
 31
0.0
  0
LINE
  5
62
330
2
100
AcDbEntity
  8
L-ZISSEN
100
AcDbLine
 10
117.2000106026821
 20
14.64697075118724
 30
0.0
 11
117.2000106026821
 21
-14.64688052706082
 31
0.0
  0
LINE
  5
63
330
2
100
AcDbEntity
  8
L-ZISSEN
100
AcDbLine
 10
107.200010602682
 20
14.00004511206302
 30
0.0
 11
107.200010602682
 21
-13.99995488793674
 31
0.0
  0
LINE
  5
64
330
2
100
AcDbEntity
  8
L-ZISSEN
100
AcDbLine
 10
107.200010602682
 20
-13.99995488793674
 30
0.0
 11
113.6000106026822
 21
-13.99995488793674
 31
0.0
  0
LINE
  5
65
330
2
100
AcDbEntity
  8
L-ZISSEN
100
AcDbLine
 10
100.2000106026821
 20
-10.99995488793662
 30
0.0
 11
107.200010602682
 21
-10.99995488793662
 31
0.0
  0
CIRCLE
  5
66
330
2
100
AcDbEntity
  8
L-ZISSEN
100
AcDbCircle
 10
116.0000106026821
 20
-23.99995488793692
 30
0.0
 40
3.5
  0
LINE
  5
67
330
2
100
AcDbEntity
  8
L-ZISSEN
100
AcDbLine
 10
113.6000106026822
 20
-7.499954887936866
 30
0.0
 11
117.2000106026821
 21
-7.499954887936866
 31
0.0
  0
LINE
  5
68
330
2
100
AcDbEntity
  8
L-ZISSEN
100
AcDbLine
 10
113.6000106026822
 20
-14.49995488793685
 30
0.0
 11
117.2000106026821
 21
-14.49995488793685
 31
0.0
  0
LINE
  5
69
330
2
100
AcDbEntity
  8
L-ZISSEN
100
AcDbLine
 10
113.6000106026822
 20
-7.499954887936866
 30
0.0
 11
113.6000106026822
 21
-14.49995488793685
 31
0.0
  0
LINE
  5
6A
330
2
100
AcDbEntity
  8
L-ZISSEN
100
AcDbLine
 10
107.200010602682
 20
14.00004511206302
 30
0.0
 11
113.6000106026822
 21
14.00004511206302
 31
0.0
  0
LINE
  5
6B
330
2
100
AcDbEntity
  8
L-ZISSEN
100
AcDbLine
 10
100.2000106026821
 20
11.00004511206289
 30
0.0
 11
107.200010602682
 21
11.00004511206289
 31
0.0
  0
LINE
  5
6C
330
2
100
AcDbEntity
  8
L-ZISSEN
100
AcDbLine
 10
113.6000106026822
 20
14.50004511206313
 30
0.0
 11
117.2000106026821
 21
14.50004511206313
 31
0.0
  0
LINE
  5
6D
330
2
100
AcDbEntity
  8
L-ZISSEN
100
AcDbLine
 10
113.6000106026822
 20
7.500045112063132
 30
0.0
 11
117.2000106026821
 21
7.500045112063132
 31
0.0
  0
LINE
  5
6E
330
2
100
AcDbEntity
  8
L-ZISSEN
100
AcDbLine
 10
113.6000106026822
 20
7.500045112063132
 30
0.0
 11
113.6000106026822
 21
14.50004511206313
 31
0.0
  0
LINE
  5
6F
330
2
100
AcDbEntity
  8
L-ZISSEN
100
AcDbLine
 10
125.0000106026819
 20
10.14363865150825
 30
0.0
 11
125.0000106026819
 21
-10.14354842738159
 31
0.0
  0
LINE
  5
70
330
2
100
AcDbEntity
  8
L-ZISSEN
100
AcDbLine
 10
57.30001060268214
 20
96.50004511206311
 30
0.0
 11
57.30001060268214
 21
87.50004511206311
 31
0.0
  0
LINE
  5
71
330
2
100
AcDbEntity
  8
L-ZISSEN
100
AcDbLine
 10
35.83012828108246
 20
96.50004511206311
 30
0.0
 11
35.83012828108246
 21
87.50004511206311
 31
0.0
  0
LINE
  5
72
330
2
100
AcDbEntity
  8
L-TYUSIN
100
AcDbLine
 10
49.80001060268214
 20
82.50004511206311
 30
0.0
 11
49.80001060268214
 21
101.500045112063
 31
0.0
  0
LINE
  5
73
330
2
100
AcDbEntity
  8
L-ZISSEN
100
AcDbLine
 10
35.83012828108246
 20
87.50004511206311
 30
0.0
 11
57.30001060268214
 21
87.50004511206311
 31
0.0
  0
LINE
  5
74
330
2
100
AcDbEntity
  8
L-TYUSIN
100
AcDbLine
 10
46.80001060268215
 20
109.5000451120631
 30
0.0
 11
56.80001060268215
 21
109.5000451120631
 31
0.0
  0
TEXT
  5
75
330
2
100
AcDbEntity
  8
L-ZISSEN
100
AcDbText
 10
112.474043072383
 20
63.67280069082446
 30
0.0
 40
4.5
  1
"1"PORT
100
AcDbText
  0
LINE
  5
76
330
2
100
AcDbEntity
  8
L-ZISSEN
100
AcDbLine
 10
133.803858179975
 20
26.00004511206313
 30
0.0
 11
116.0000106026821
 21
31.50004511206323
 31
0.0
  0
LINE
  5
77
330
2
100
AcDbEntity
  8
L-TYUSIN
100
AcDbLine
 10
126.0000106026827
 20
24.00004511206319
 30
0.0
 11
106.0000106026827
 21
24.00004511206312
 31
0.0
  0
TEXT
  5
78
330
2
100
AcDbEntity
  8
L-ZISSEN
100
AcDbText
 10
112.474043072383
 20
49.3809820968594
 30
0.0
 40
4.5
  1
Rc3/8
100
AcDbText
  0
TEXT
  5
79
330
2
100
AcDbEntity
  8
L-ZISSEN
100
AcDbText
 10
112.474043072383
 20
56.81787685292811
 30
0.0
 40
4.5
  1
Rc1/4
100
AcDbText
  0
CIRCLE
  5
7A
330
2
100
AcDbEntity
  8
L-ZISSEN
100
AcDbCircle
 10
116.0000106026821
 20
24.00004511206319
 30
0.0
 40
3.5
  0
LINE
  5
7B
330
2
100
AcDbEntity
  8
L-TYUSIN
100
AcDbLine
 10
139.000010602682
 20
31.00004511206313
 30
0.0
 11
139.000010602682
 21
21.00004511206313
 31
0.0
  0
LINE
  5
7C
330
2
100
AcDbEntity
  8
L-ZISSEN
100
AcDbLine
 10
108.5000106026821
 20
87.50004511206311
 30
0.0
 11
133.8038581799753
 21
87.50004511206311
 31
0.0
  0
LINE
  5
7D
330
2
100
AcDbEntity
  8
L-ZISSEN
100
AcDbLine
 10
108.5000106026821
 20
87.50004511206311
 30
0.0
 11
108.5000106026821
 21
96.50004511206311
 31
0.0
  0
LINE
  5
7E
330
2
100
AcDbEntity
  8
L-TYUSIN
100
AcDbLine
 10
116.0000106026821
 20
82.50004511206311
 30
0.0
 11
116.0000106026821
 21
101.500045112063
 31
0.0
  0
LINE
  5
7F
330
2
100
AcDbEntity
  8
L-ZISSEN
100
AcDbLine
 10
133.8038581799752
 20
87.50004511206311
 30
0.0
 11
133.8038581799752
 21
96.50004511206311
 31
0.0
  0
LINE
  5
80
330
2
100
AcDbEntity
  8
L-ZISSEN
100
AcDbLine
 10
139.000010602682
 20
96.50004511206311
 30
0.0
 11
133.8038581799753
 21
87.50004511206311
 31
0.0
  0
LINE
  5
81
330
2
100
AcDbEntity
  8
L-TYUSIN
100
AcDbLine
 10
129.000010602682
 20
109.5000451120631
 30
0.0
 11
149.0000106026821
 21
109.5000451120631
 31
0.0
  0
LINE
  5
82
330
2
100
AcDbEntity
  8
L-ZISSEN
100
AcDbLine
 10
12.05001060268227
 20
179.0000451120631
 30
0.0
 11
39.55001060268229
 21
179.0000451120634
 31
0.0
  0
CIRCLE
  5
83
330
2
100
AcDbEntity
  8
L-ZISSEN
100
AcDbCircle
 10
25.80001060268216
 20
150.0000451120631
 30
0.0
 40
14.0
  0
CIRCLE
  5
84
330
2
100
AcDbEntity
  8
L-ZISSEN
100
AcDbCircle
 10
25.80001060268216
 20
150.0000451120631
 30
0.0
 40
11.0
  0
LINE
  5
85
330
2
100
AcDbEntity
  8
L-ZISSEN
100
AcDbLine
 10
0.800010602682164
 20
124.0000451120631
 30
0.0
 11
50.80001060268215
 21
124.0000451120631
 31
0.0
  0
LINE
  5
86
330
2
100
AcDbEntity
  8
L-ZISSEN
100
AcDbLine
 10
-0.1999893973178359
 20
123.0000451120631
 30
0.0
 11
51.80001060268215
 21
123.0000451120631
 31
0.0
  0
LINE
  5
87
330
2
100
AcDbEntity
  8
L-ZISSEN
100
AcDbLine
 10
12.05001060268239
 20
209.7000451120629
 30
0.0
 11
39.55001060268227
 21
209.7000451120629
 31
0.0
  0
LINE
  5
88
330
2
100
AcDbEntity
  8
L-TYUSIN
100
AcDbLine
 10
4.800010602682164
 20
150.0000451120631
 30
0.0
 11
46.80001060268215
 21
150.0000451120631
 31
0.0
  0
LINE
  5
89
330
2
100
AcDbEntity
  8
L-ZISSEN
100
AcDbLine
 10
42.80001060268215
 20
176.0000451120629
 30
0.0
 11
8.800010602682164
 21
176.0000451120629
 31
0.0
  0
LINE
  5
8A
330
2
100
AcDbEntity
  8
L-ZISSEN
100
AcDbLine
 10
12.05001060268239
 20
209.7000451120629
 30
0.0
 11
12.05001060268227
 21
176.0000451120631
 31
0.0
  0
LINE
  5
8B
330
2
100
AcDbEntity
  8
L-ZISSEN
100
AcDbLine
 10
2.050010602683073
 20
161.3000451120631
 30
0.0
 11
2.050010602683073
 21
155.0000451120632
 31
0.0
  0
LINE
  5
8C
330
2
100
AcDbEntity
  8
L-ZISSEN
100
AcDbLine
 10
10.20001060268258
 20
124.0000451120631
 30
0.0
 11
10.2000106026786
 21
176.0000451120629
 31
0.0
  0
LINE
  5
8D
330
2
100
AcDbEntity
  8
L-ZISSEN
100
AcDbLine
 10
8.800010602682164
 20
176.0000451120629
 30
0.0
 11
8.800010602682164
 21
123.0000451120631
 31
0.0
  0
LINE
  5
8E
330
2
100
AcDbEntity
  8
L-ZISSEN
100
AcDbLine
 10
0.800010602682164
 20
123.0000451120631
 30
0.0
 11
0.800010602682164
 21
155.0000451120631
 31
0.0
  0
CIRCLE
  5
8F
330
2
100
AcDbEntity
  8
L-ZISSEN
100
AcDbCircle
 10
14.80001060268216
 20
129.0000451120631
 30
0.0
 40
3.5
  0
LINE
  5
90
330
2
100
AcDbEntity
  8
L-ZISSEN
100
AcDbLine
 10
0.800010602682164
 20
155.0000451120631
 30
0.0
 11
8.800010602682164
 21
155.0000451120631
 31
0.0
  0
LINE
  5
91
330
2
100
AcDbEntity
  8
L-ZISSEN
100
AcDbLine
 10
2.050010602683073
 20
161.3000451120631
 30
0.0
 11
8.800010602682164
 21
161.3000451120631
 31
0.0
  0
CIRCLE
  5
92
330
2
100
AcDbEntity
  8
L-ZISSEN
100
AcDbCircle
 10
14.80001060268216
 20
171.0000451120631
 30
0.0
 40
3.5
  0
LINE
  5
93
330
2
100
AcDbEntity
  8
L-ZISSEN
100
AcDbLine
 10
39.55001060268227
 20
209.7000451120629
 30
0.0
 11
39.55001060268227
 21
176.0000451120631
 31
0.0
  0
LINE
  5
94
330
2
100
AcDbEntity
  8
L-ZISSEN
100
AcDbLine
 10
49.55001060268124
 20
161.3000451120631
 30
0.0
 11
49.55001060268124
 21
155.0000451120632
 31
0.0
  0
LINE
  5
95
330
2
100
AcDbEntity
  8
L-ZISSEN
100
AcDbLine
 10
41.40001060268172
 20
124.0000451120631
 30
0.0
 11
41.40001060268571
 21
176.0000451120629
 31
0.0
  0
LINE
  5
96
330
2
100
AcDbEntity
  8
L-ZISSEN
100
AcDbLine
 10
42.80001060268215
 20
176.0000451120629
 30
0.0
 11
42.80001060268215
 21
123.0000451120631
 31
0.0
  0
LINE
  5
97
330
2
100
AcDbEntity
  8
L-ZISSEN
100
AcDbLine
 10
50.80001060268215
 20
123.0000451120631
 30
0.0
 11
50.80001060268215
 21
155.0000451120631
 31
0.0
  0
CIRCLE
  5
98
330
2
100
AcDbEntity
  8
L-ZISSEN
100
AcDbCircle
 10
36.80001060268216
 20
129.0000451120631
 30
0.0
 40
3.5
  0
LINE
  5
99
330
2
100
AcDbEntity
  8
L-ZISSEN
100
AcDbLine
 10
50.80001060268215
 20
155.0000451120631
 30
0.0
 11
42.80001060268215
 21
155.0000451120631
 31
0.0
  0
CIRCLE
  5
9A
330
2
100
AcDbEntity
  8
L-ZISSEN
100
AcDbCircle
 10
36.80001060268216
 20
171.0000451120631
 30
0.0
 40
3.5
  0
ARC
  5
9B
330
2
100
AcDbEntity
  8
L-ZISSEN
100
AcDbCircle
 10
34.22542092681067
 20
161.1809422527251
 30
0.0
 40
4.28494059725952
100
AcDbArc
 50
323.0000000000021
 51
142.9999999999975
  0
LINE
  5
9C
330
2
100
AcDbEntity
  8
L-ZISSEN
100
AcDbLine
 10
30.80331520739594
 20
163.7596838774699
 30
0.0
 11
30.3989790484112
 21
163.2231116714955
 31
0.0
  0
LINE
  5
9D
330
2
100
AcDbEntity
  8
L-ZISSEN
100
AcDbLine
 10
37.6475266462254
 20
158.60220062798
 30
0.0
 11
37.24319048724111
 21
158.065628422006
 31
0.0
  0
LINE
  5
9E
330
2
100
AcDbEntity
  8
L-ZISSEN
100
AcDbLine
 10
49.55001060268124
 20
161.3000451120631
 30
0.0
 11
42.80001060268215
 21
161.3000451120631
 31
0.0
  0
LINE
  5
9F
330
2
100
AcDbEntity
  8
L-ZISSEN
100
AcDbLine
 10
150.7500106026829
 20
161.3000451120631
 30
0.0
 11
150.7500106026829
 21
155.0000451120631
 31
0.0
  0
LINE
  5
A0
330
2
100
AcDbEntity
  8
L-ZISSEN
100
AcDbLine
 10
100.000010602682
 20
161.0000451120631
 30
0.0
 11
100.000010602682
 21
139.0000451120632
 31
0.0
  0
LINE
  5
A1
330
2
100
AcDbEntity
  8
L-ZISSEN
100
AcDbLine
 10
107.100010602682
 20
165.4658828499839
 30
0.0
 11
107.100010602682
 21
136.0000451120631
 31
0.0
  0
LINE
  5
A2
330
2
100
AcDbEntity
  8
L-ZISSEN
100
AcDbLine
 10
125.2000106026821
 20
176.0000451120631
 30
0.0
 11
125.2000106026821
 21
124.0000451120631
 31
0.0
  0
LINE
  5
A3
330
2
100
AcDbEntity
  8
L-ZISSEN
100
AcDbLine
 10
117.2000106026821
 20
176.0000451120631
 30
0.0
 11
117.2000106026821
 21
124.0000451120631
 31
0.0
  0
LINE
  5
A4
330
2
100
AcDbEntity
  8
L-ZISSEN
100
AcDbLine
 10
133.3000106026822
 20
176.0000451120631
 30
0.0
 11
133.3000106026822
 21
132.0000451120631
 31
0.0
  0
LINE
  5
A5
330
2
100
AcDbEntity
  8
L-ZISSEN
100
AcDbLine
 10
113.600010602682
 20
125.5000451120631
 30
0.0
 11
117.2000106026821
 21
125.5000451120631
 31
0.0
  0
LINE
  5
A6
330
2
100
AcDbEntity
  8
L-ZISSEN
100
AcDbLine
 10
113.600010602682
 20
132.5000451120631
 30
0.0
 11
117.2000106026821
 21
132.5000451120631
 31
0.0
  0
LINE
  5
A7
330
2
100
AcDbEntity
  8
L-ZISSEN
100
AcDbLine
 10
113.600010602682
 20
125.5000451120631
 30
0.0
 11
113.600010602682
 21
132.5000451120631
 31
0.0
  0
LINE
  5
A8
330
2
100
AcDbEntity
  8
L-ZISSEN
100
AcDbLine
 10
107.100010602682
 20
136.0000451120631
 30
0.0
 11
117.100010602682
 21
136.0000451120631
 31
0.0
  0
LINE
  5
A9
330
2
100
AcDbEntity
  8
L-ZISSEN
100
AcDbLine
 10
100.000010602682
 20
139.0000451120632
 30
0.0
 11
107.100010602682
 21
139.0000451120632
 31
0.0
  0
LINE
  5
AA
330
2
100
AcDbEntity
  8
L-ZISSEN
100
AcDbLine
 10
107.0000106026822
 20
139.0000451120632
 30
0.0
 11
107.0000106026822
 21
139.0000451120632
 31
0.0
  0
LINE
  5
AB
330
2
100
AcDbEntity
  8
L-ZISSEN
100
AcDbLine
 10
117.100010602682
 20
136.0000451120631
 30
0.0
 11
117.100010602682
 21
136.0000451120631
 31
0.0
  0
LINE
  5
AC
330
2
100
AcDbEntity
  8
L-ZISSEN
100
AcDbLine
 10
149.5000106026821
 20
123.0000451120631
 30
0.0
 11
149.5000106026821
 21
155.0000451120631
 31
0.0
  0
LINE
  5
AD
330
2
100
AcDbEntity
  8
L-ZISSEN
100
AcDbLine
 10
149.5000106026821
 20
132.0000451120631
 30
0.0
 11
125.2000106026821
 21
132.0000451120631
 31
0.0
  0
LINE
  5
AE
330
2
100
AcDbEntity
  8
L-ZISSEN
100
AcDbLine
 10
133.3000106026822
 20
176.0000451120631
 30
0.0
 11
117.2000106026821
 21
176.0000451120631
 31
0.0
  0
LINE
  5
AF
330
2
100
AcDbEntity
  8
L-ZISSEN
100
AcDbLine
 10
107.100010602682
 20
165.4658828499839
 30
0.0
 11
117.2000106026821
 21
165.4658828499839
 31
0.0
  0
LINE
  5
B0
330
2
100
AcDbEntity
  8
L-ZISSEN
100
AcDbLine
 10
107.100010602682
 20
158.0656284220059
 30
0.0
 11
117.2000106026821
 21
158.0656284220059
 31
0.0
  0
LINE
  5
B1
330
2
100
AcDbEntity
  8
L-ZISSEN
100
AcDbLine
 10
100.000010602682
 20
161.0000451120629
 30
0.0
 11
107.100010602682
 21
161.0000451120629
 31
0.0
  0
LINE
  5
B2
330
2
100
AcDbEntity
  8
L-ZISSEN
100
AcDbLine
 10
107.0000106026822
 20
161.0000451120629
 30
0.0
 11
107.0000106026822
 21
161.0000451120629
 31
0.0
  0
LINE
  5
B3
330
2
100
AcDbEntity
  8
L-ZISSEN
100
AcDbLine
 10
113.600010602682
 20
174.5000451120631
 30
0.0
 11
113.600010602682
 21
167.5000451120631
 31
0.0
  0
LINE
  5
B4
330
2
100
AcDbEntity
  8
L-ZISSEN
100
AcDbLine
 10
113.600010602682
 20
167.5000451120631
 30
0.0
 11
117.2000106026821
 21
167.5000451120631
 31
0.0
  0
LINE
  5
B5
330
2
100
AcDbEntity
  8
L-ZISSEN
100
AcDbLine
 10
117.100010602682
 20
158.0656284220059
 30
0.0
 11
117.100010602682
 21
158.0656284220059
 31
0.0
  0
LINE
  5
B6
330
2
100
AcDbEntity
  8
L-ZISSEN
100
AcDbLine
 10
117.100010602682
 20
165.4658828499839
 30
0.0
 11
117.100010602682
 21
165.4658828499839
 31
0.0
  0
LINE
  5
B7
330
2
100
AcDbEntity
  8
L-ZISSEN
100
AcDbLine
 10
113.600010602682
 20
174.5000451120631
 30
0.0
 11
117.2000106026821
 21
174.5000451120631
 31
0.0
  0
LINE
  5
B8
330
2
100
AcDbEntity
  8
L-TYUSIN
100
AcDbLine
 10
116.0000106026822
 20
236.000045112063
 30
0.0
 11
116.0000106026822
 21
256.0000451120629
 31
0.0
  0
LINE
  5
B9
330
2
100
AcDbEntity
  8
L-ZISSEN
100
AcDbLine
 10
149.5000106026821
 20
245.0000451120631
 30
0.0
 11
149.5000106026821
 21
254.0000451120626
 31
0.0
  0
LINE
  5
BA
330
2
100
AcDbEntity
  8
L-ZISSEN
100
AcDbLine
 10
125.0000106026823
 20
254.4000451120628
 30
0.0
 11
125.0000106026823
 21
244.0000451120631
 31
0.0
  0
ARC
  5
BB
330
2
100
AcDbEntity
  8
L-ZISSEN
100
AcDbCircle
 10
116.0000106026821
 20
246.0000451120631
 30
0.0
 40
7.5
100
AcDbArc
 50
119.9999999999997
 51
270.0
  0
LINE
  5
BC
330
2
100
AcDbEntity
  8
L-TYUSIN
100
AcDbLine
 10
126.0000106026829
 20
246.0000451120631
 30
0.0
 11
106.000010602683
 21
246.0000451120631
 31
0.0
  0
LINE
  5
BD
330
2
100
AcDbEntity
  8
L-ZISSEN
100
AcDbLine
 10
133.8038581799752
 20
244.0000451120631
 30
0.0
 11
116.0000106026821
 21
238.5000451120626
 31
0.0
  0
CIRCLE
  5
BE
330
2
100
AcDbEntity
  8
L-ZISSEN
100
AcDbCircle
 10
116.0000106026822
 20
246.0000451120631
 30
0.0
 40
3.5
  0
LINE
  5
BF
330
2
100
AcDbEntity
  8
L-TYUSIN
100
AcDbLine
 10
139.0000106026822
 20
239.0000451120631
 30
0.0
 11
139.0000106026822
 21
249.0000451120631
 31
0.0
  0
LINE
  5
C0
330
2
100
AcDbEntity
  8
L-ZISSEN
100
AcDbLine
 10
125.2000106026822
 20
285.6000451120634
 30
0.0
 11
117.2000106026821
 21
285.6000451120634
 31
0.0
  0
LINE
  5
C1
330
2
100
AcDbEntity
  8
L-TYUSIN
100
AcDbLine
 10
126.0000106026829
 20
294.0000451120631
 30
0.0
 11
106.000010602683
 21
294.0000451120631
 31
0.0
  0
LINE
  5
C2
330
2
100
AcDbEntity
  8
L-ZISSEN
100
AcDbLine
 10
125.2000106026822
 20
254.4000451120628
 30
0.0
 11
117.2000106026821
 21
254.4000451120628
 31
0.0
  0
LINE
  5
C3
330
2
100
AcDbEntity
  8
L-ZISSEN
100
AcDbLine
 10
117.2000106026821
 20
285.6000451120634
 30
0.0
 11
117.2000106026821
 21
254.4000451120628
 31
0.0
  0
LINE
  5
C4
330
2
100
AcDbEntity
  8
L-ZISSEN
100
AcDbLine
 10
107.200010602682
 20
284.0000451120631
 30
0.0
 11
107.200010602682
 21
256.0000451120631
 31
0.0
  0
LINE
  5
C5
330
2
100
AcDbEntity
  8
L-ZISSEN
100
AcDbLine
 10
100.000010602682
 20
281.0000451120631
 30
0.0
 11
100.000010602682
 21
259.0000451120634
 31
0.0
  0
LINE
  5
C6
330
2
100
AcDbEntity
  8
L-ZISSEN
100
AcDbLine
 10
107.200010602682
 20
265.401076666334
 30
0.0
 11
117.2000106026821
 21
265.401076666334
 31
0.0
  0
LINE
  5
C7
330
2
100
AcDbEntity
  8
L-ZISSEN
100
AcDbLine
 10
107.200010602682
 20
256.0000451120631
 30
0.0
 11
113.6000106026822
 21
256.0000451120631
 31
0.0
  0
LINE
  5
C8
330
2
100
AcDbEntity
  8
L-ZISSEN
100
AcDbLine
 10
107.2000106026822
 20
257.2896941906764
 30
0.0
 11
113.6000106026822
 21
257.2896941906764
 31
0.0
  0
LINE
  5
C9
330
2
100
AcDbEntity
  8
L-ZISSEN
100
AcDbLine
 10
100.000010602682
 20
259.0000451120634
 30
0.0
 11
107.200010602682
 21
259.0000451120634
 31
0.0
  0
LINE
  5
CA
330
2
100
AcDbEntity
  8
L-ZISSEN
100
AcDbLine
 10
113.6000106026822
 20
262.5000451120631
 30
0.0
 11
113.6000106026822
 21
255.5000451120631
 31
0.0
  0
LINE
  5
CB
330
2
100
AcDbEntity
  8
L-ZISSEN
100
AcDbLine
 10
117.2000106026822
 20
255.3531194729391
 30
0.0
 11
112.2500106026803
 21
252.4952356404494
 31
0.0
  0
LINE
  5
CC
330
2
100
AcDbEntity
  8
L-ZISSEN
100
AcDbLine
 10
113.6000106026822
 20
255.5000451120631
 30
0.0
 11
117.2000106026821
 21
255.5000451120631
 31
0.0
  0
LINE
  5
CD
330
2
100
AcDbEntity
  8
L-ZISSEN
100
AcDbLine
 10
113.6000106026822
 20
262.5000451120631
 30
0.0
 11
117.2000106026821
 21
262.5000451120631
 31
0.0
  0
LINE
  5
CE
330
2
100
AcDbEntity
  8
L-ZISSEN
100
AcDbLine
 10
107.200010602682
 20
284.0000451120631
 30
0.0
 11
113.6000106026822
 21
284.0000451120631
 31
0.0
  0
LINE
  5
CF
330
2
100
AcDbEntity
  8
L-ZISSEN
100
AcDbLine
 10
100.000010602682
 20
281.0000451120629
 30
0.0
 11
107.200010602682
 21
281.0000451120629
 31
0.0
  0
LINE
  5
D0
330
2
100
AcDbEntity
  8
L-ZISSEN
100
AcDbLine
 10
117.2000106026822
 20
284.6469707511873
 30
0.0
 11
112.2500106026803
 21
287.5048545836767
 31
0.0
  0
LINE
  5
D1
330
2
100
AcDbEntity
  8
L-ZISSEN
100
AcDbLine
 10
113.6000106026822
 20
284.5000451120631
 30
0.0
 11
117.2000106026821
 21
284.5000451120631
 31
0.0
  0
LINE
  5
D2
330
2
100
AcDbEntity
  8
L-ZISSEN
100
AcDbLine
 10
113.6000106026822
 20
277.500045112063
 30
0.0
 11
117.2000106026821
 21
277.500045112063
 31
0.0
  0
LINE
  5
D3
330
2
100
AcDbEntity
  8
L-ZISSEN
100
AcDbLine
 10
113.6000106026822
 20
277.500045112063
 30
0.0
 11
113.6000106026822
 21
284.5000451120631
 31
0.0
  0
LINE
  5
D4
330
2
100
AcDbEntity
  8
L-ZISSEN
100
AcDbLine
 10
133.3000106026822
 20
287.0000451120631
 30
0.0
 11
133.3000106026822
 21
253.0000451120631
 31
0.0
  0
LINE
  5
D5
330
2
100
AcDbEntity
  8
L-ZISSEN
100
AcDbLine
 10
125.2000106026822
 20
287.0000451120631
 30
0.0
 11
125.2000106026822
 21
253.0000451120631
 31
0.0
  0
LINE
  5
D6
330
2
100
AcDbEntity
  8
L-ZISSEN
100
AcDbLine
 10
149.5000106026822
 20
254.0000451120626
 30
0.0
 11
133.3000106026822
 21
254.0000451120626
 31
0.0
  0
LINE
  5
D7
330
2
100
AcDbEntity
  8
L-ZISSEN
100
AcDbLine
 10
125.2000106026822
 20
253.0000451120631
 30
0.0
 11
133.3000106026822
 21
253.0000451120631
 31
0.0
  0
CIRCLE
  5
D8
330
2
100
AcDbEntity
  8
L-ZISSEN
100
AcDbCircle
 10
141.0000106026821
 20
289.5000451120631
 30
0.0
 40
4.25
  0
LINE
  5
D9
330
2
100
AcDbEntity
  8
L-ZISSEN
100
AcDbLine
 10
135.5000106026823
 20
295.0000451120631
 30
0.0
 11
146.5000106026821
 21
295.0000451120631
 31
0.0
  0
LINE
  5
DA
330
2
100
AcDbEntity
  8
L-ZISSEN
100
AcDbLine
 10
125.2000106026822
 20
287.0000451120631
 30
0.0
 11
133.3000106026822
 21
287.0000451120631
 31
0.0
  0
LINE
  5
DB
330
2
100
AcDbEntity
  8
L-ZISSEN
100
AcDbLine
 10
125.0000106026823
 20
296.0000451120631
 30
0.0
 11
125.0000106026823
 21
285.6000451120634
 31
0.0
  0
LINE
  5
DC
330
2
100
AcDbEntity
  8
L-ZISSEN
100
AcDbLine
 10
135.5000106026822
 20
286.0000451120636
 30
0.0
 11
133.3000106026822
 21
286.0000451120636
 31
0.0
  0
LINE
  5
DD
330
2
100
AcDbEntity
  8
L-ZISSEN
100
AcDbLine
 10
135.5000106026822
 20
295.0000451120631
 30
0.0
 11
135.5000106026822
 21
286.0000451120636
 31
0.0
  0
LINE
  5
DE
330
2
100
AcDbEntity
  8
L-ZISSEN
100
AcDbLine
 10
146.5000106026821
 20
295.0000451120631
 30
0.0
 11
146.5000106026821
 21
286.0000451120636
 31
0.0
  0
LEADER
  5
DF
330
2
100
AcDbEntity
  8
L-ZISSEN
100
AcDbLeader
  3
STANDARD
 73
     0
 74
     0
 40
5.599999999999998
 41
9.599999999999996
 76
     3
 10
250.000010602682
 20
124.0000451120629
 30
0.0
 10
267.3060967571889
 20
103.8360863778937
 30
0.0
 10
277.3808224660176
 20
103.8360863778937
 30
0.0
1001
ACAD
1000
DSTYLE
1002
{
1070
     5
1000

1070
    40
1040
2.0
1070
    41
1040
2.0
1070
    42
1040
2.0
1070
    44
1040
2.0
1070
    46
1040
1.0
1070
    73
1070
     0
1070
    74
1070
     0
1070
    77
1070
     1
1070
   140
1040
2.799999999999998
1070
   147
1040
1.0
1070
   172
1070
     1
1070
   174
1070
     1
1070
   271
1070
     1
1070
   287
1070
     5
1070
   342
1005
0
1002
}
1000
LEANOF
1010
0.0
1020
0.0
1030
0.0
1000
LEANOF
1010
0.0
1020
0.0
1030
0.0
  0
LINE
  5
E0
330
2
100
AcDbEntity
  8
L-TYUSIN
100
AcDbLine
 10
396.0000106026821
 20
91.50004511206311
 30
0.0
 11
396.0000106026821
 21
214.7000451120629
 31
0.0
  0
LINE
  5
E1
330
2
100
AcDbEntity
  8
L-TYUSIN
100
AcDbLine
 10
203.000010602682
 20
119.5000451120631
 30
0.0
 11
203.000010602682
 21
99.50004511206314
 31
0.0
  0
CIRCLE
  5
E2
330
2
100
AcDbEntity
  8
L-ZISSEN
100
AcDbCircle
 10
203.000010602682
 20
109.5000451120631
 30
0.0
 40
5.7225
  0
CIRCLE
  5
E3
330
2
100
AcDbEntity
  8
L-ZISSEN
100
AcDbCircle
 10
171.0000106026821
 20
109.5000451120631
 30
0.0
 40
5.7225
  0
LINE
  5
E4
330
2
100
AcDbEntity
  8
L-ZISSEN
100
AcDbLine
 10
370.000010602682
 20
123.0000451120631
 30
0.0
 11
370.000010602682
 21
96.50004511206311
 31
0.0
  0
LINE
  5
E5
330
2
100
AcDbEntity
  8
L-TYUSIN
100
AcDbLine
 10
171.0000106026821
 20
169.0000451120631
 30
0.0
 11
171.0000106026821
 21
91.50004511206311
 31
0.0
  0
LINE
  5
E6
330
2
100
AcDbEntity
  8
L-ZISSEN
100
AcDbLine
 10
217.0000106026821
 20
124.000045112063
 30
0.0
 11
217.0000106026821
 21
96.50004511206311
 31
0.0
  0
LINE
  5
E7
330
2
100
AcDbEntity
  8
L-ZISSEN
100
AcDbLine
 10
269.8000106026843
 20
11.40004511206321
 30
0.0
 11
302.0000106026821
 21
11.40004511206321
 31
0.0
  0
LINE
  5
E8
330
2
100
AcDbEntity
  8
L-ZISSEN
100
AcDbLine
 10
269.8000106026843
 20
-11.39995488793694
 30
0.0
 11
302.0000106026821
 21
-11.39995488793694
 31
0.0
  0
LINE
  5
E9
330
2
100
AcDbEntity
  8
L-ZISSEN
100
AcDbLine
 10
298.0000106026843
 20
-14.99995488793685
 30
0.0
 11
269.8000106026843
 21
-14.99995488793685
 31
0.0
  0
LINE
  5
EA
330
2
100
AcDbEntity
  8
L-ZISSEN
100
AcDbLine
 10
298.0000106026843
 20
-14.99995488793685
 30
0.0
 11
269.8000106026843
 21
-14.99995488793685
 31
0.0
  0
LINE
  5
EB
330
2
100
AcDbEntity
  8
L-ZISSEN
100
AcDbLine
 10
298.0000106026843
 20
15.00004511206313
 30
0.0
 11
269.8000106026843
 21
15.00004511206318
 31
0.0
  0
LINE
  5
EC
330
2
100
AcDbEntity
  8
L-ZISSEN
100
AcDbLine
 10
298.0000106026843
 20
15.00004511206313
 30
0.0
 11
269.8000106026843
 21
15.00004511206313
 31
0.0
  0
LINE
  5
ED
330
2
100
AcDbEntity
  8
L-TYUSIN
100
AcDbLine
 10
226.0000106026819
 20
34.00004511206307
 30
0.0
 11
226.0000106026819
 21
14.0000451120633
 31
0.0
  0
ARC
  5
EE
330
2
100
AcDbEntity
  8
L-ZISSEN
100
AcDbCircle
 10
226.0000106026819
 20
24.00004511206319
 30
0.0
 40
7.5
100
AcDbArc
 50
300.0000000000001
 51
90.0
  0
LINE
  5
EF
330
2
100
AcDbEntity
  8
L-ZISSEN
100
AcDbLine
 10
203.0000106026823
 20
26.00004511206313
 30
0.0
 11
203.0000106026823
 21
-25.99995488793686
 31
0.0
  0
LINE
  5
F0
330
2
100
AcDbEntity
  8
L-ZISSEN
100
AcDbLine
 10
208.1961630253889
 20
26.00004511206313
 30
0.0
 11
208.1961630253889
 21
-25.99995488793686
 31
0.0
  0
LINE
  5
F1
330
2
100
AcDbEntity
  8
L-TYUSIN
100
AcDbLine
 10
171.0000106026821
 20
-29.49995488793698
 30
0.0
 11
171.0000106026821
 21
31.00004511206319
 31
0.0
  0
CIRCLE
  5
F2
330
2
100
AcDbEntity
  8
L-ZISSEN
100
AcDbCircle
 10
226.0000106026819
 20
-23.99995488793692
 30
0.0
 40
3.5
  0
LINE
  5
F3
330
2
100
AcDbEntity
  8
L-ZISSEN
100
AcDbLine
 10
208.1961630253889
 20
-25.99995488793686
 30
0.0
 11
226.0000106026819
 21
-31.49995488793726
 31
0.0
  0
LINE
  5
F4
330
2
100
AcDbEntity
  8
L-ZISSEN
100
AcDbLine
 10
217.000010602682
 20
-10.14354842738159
 30
0.0
 11
229.7500106026839
 21
-17.50476435955059
 31
0.0
  0
LINE
  5
F5
330
2
100
AcDbEntity
  8
L-TYUSIN
100
AcDbLine
 10
216.0000106026813
 20
-23.99995488793692
 30
0.0
 11
236.0000106026813
 21
-23.99995488793686
 31
0.0
  0
LINE
  5
F6
330
2
100
AcDbEntity
  8
L-ZISSEN
100
AcDbLine
 10
217.000010602682
 20
10.14363865150825
 30
0.0
 11
229.7500106026839
 21
17.50485458367686
 31
0.0
  0
LINE
  5
F7
330
2
100
AcDbEntity
  8
L-TYUSIN
100
AcDbLine
 10
187.000010602682
 20
-20.99995488793685
 30
0.0
 11
187.000010602682
 21
-30.99995488793686
 31
0.0
  0
LINE
  5
F8
330
2
100
AcDbEntity
  8
L-ZISSEN
100
AcDbLine
 10
217.000010602682
 20
10.14363865150825
 30
0.0
 11
217.000010602682
 21
-10.14354842738159
 31
0.0
  0
LINE
  5
F9
330
2
100
AcDbEntity
  8
L-TYUSIN
100
AcDbLine
 10
226.0000106026819
 20
-33.99995488793681
 30
0.0
 11
226.0000106026819
 21
-13.99995488793702
 31
0.0
  0
ARC
  5
FA
330
2
100
AcDbEntity
  8
L-ZISSEN
100
AcDbCircle
 10
226.0000106026819
 20
-23.99995488793692
 30
0.0
 40
7.5
100
AcDbArc
 50
270.0
 51
59.99999999999985
  0
LINE
  5
FB
330
2
100
AcDbEntity
  8
L-ZISSEN
100
AcDbLine
 10
250.7869614740783
 20
-1.838625148208818
 30
0.0
 11
260.7000106026819
 21
-24.99995488793686
 31
0.0
  0
LINE
  5
FC
330
2
100
AcDbEntity
  8
L-ZISSEN
100
AcDbLine
 10
226.4507838191094
 20
15.6000451120627
 30
0.0
 11
258.8000106026819
 21
15.6000451120627
 31
0.0
  0
LINE
  5
FD
330
2
100
AcDbEntity
  8
L-ZISSEN
100
AcDbLine
 10
226.4507838191097
 20
-15.59995488793636
 30
0.0
 11
258.8000106026819
 21
-15.59995488793636
 31
0.0
  0
SOLID
  5
FE
330
2
100
AcDbEntity
  8
L-ZISSEN
100
AcDbTrace
 10
250.4805164306997
 20
-1.969783626774869
 30
0.0
 11
251.093406517457
 21
-1.707466669642741
 31
0.0
 12
250.000010602682
 22
0.000045112063134
 32
0.0
 13
250.000010602682
 23
0.000045112063134
 33
0.0
  0
LINE
  5
FF
330
2
100
AcDbEntity
  8
L-ZISSEN
100
AcDbLine
 10
269.8000106026843
 20
-14.99995488793685
 30
0.0
 11
269.8000106026843
 21
15.00004511206313
 31
0.0
  0
LINE
  5
100
330
2
100
AcDbEntity
  8
L-ZISSEN
100
AcDbLine
 10
269.8000106026843
 20
-14.99995488793685
 30
0.0
 11
269.8000106026843
 21
15.00004511206313
 31
0.0
  0
LINE
  5
101
330
2
100
AcDbEntity
  8
L-ZISSEN
100
AcDbLine
 10
258.8000106026819
 20
15.6000451120627
 30
0.0
 11
258.8000106026819
 21
-15.59995488793636
 31
0.0
  0
TEXT
  5
102
330
2
100
AcDbEntity
  8
L-ZISSEN
100
AcDbText
 10
264.7000106026819
 20
-27.24995488793686
 30
0.0
 40
4.5
  1
P.P
100
AcDbText
  0
LINE
  5
103
330
2
100
AcDbEntity
  8
L-ZISSEN
100
AcDbLine
 10
260.7000106026819
 20
-24.99995488793686
 30
0.0
 11
262.7000106026819
 21
-24.99995488793686
 31
0.0
  0
LINE
  5
104
330
2
100
AcDbEntity
  8
L-ZISSEN
100
AcDbLine
 10
269.8000106026843
 20
-11.39995488793694
 30
0.0
 11
258.8000106026819
 21
-11.39995488793694
 31
0.0
  0
LINE
  5
105
330
2
100
AcDbEntity
  8
L-ZISSEN
100
AcDbLine
 10
269.8000106026843
 20
11.40004511206321
 30
0.0
 11
258.8000106026819
 21
11.40004511206321
 31
0.0
  0
CIRCLE
  5
106
330
2
100
AcDbEntity
  8
L-ZISSEN
100
AcDbCircle
 10
226.0000106026819
 20
24.00004511206319
 30
0.0
 40
3.5
  0
LINE
  5
107
330
2
100
AcDbEntity
  8
L-ZISSEN
100
AcDbLine
 10
208.1961630253889
 20
26.00004511206313
 30
0.0
 11
226.0000106026819
 21
31.50004511206323
 31
0.0
  0
LINE
  5
108
330
2
100
AcDbEntity
  8
L-TYUSIN
100
AcDbLine
 10
216.0000106026813
 20
24.00004511206319
 30
0.0
 11
236.0000106026813
 21
24.00004511206312
 31
0.0
  0
LINE
  5
109
330
2
100
AcDbEntity
  8
L-ZISSEN
100
AcDbLine
 10
208.1961630253891
 20
87.50004511206311
 30
0.0
 11
233.5000106026822
 21
87.50004511206311
 31
0.0
  0
LINE
  5
10A
330
2
100
AcDbEntity
  8
L-TYUSIN
100
AcDbLine
 10
203.000010602682
 20
31.00004511206313
 30
0.0
 11
203.000010602682
 21
21.00004511206313
 31
0.0
  0
LINE
  5
10B
330
2
100
AcDbEntity
  8
L-TYUSIN
100
AcDbLine
 10
181.000010602682
 20
109.5000451120631
 30
0.0
 11
161.000010602682
 21
109.5000451120631
 31
0.0
  0
LINE
  5
10C
330
2
100
AcDbEntity
  8
L-ZISSEN
100
AcDbLine
 10
208.1961630253891
 20
87.50004511206311
 30
0.0
 11
208.1961630253891
 21
96.50004511206311
 31
0.0
  0
LINE
  5
10D
330
2
100
AcDbEntity
  8
L-ZISSEN
100
AcDbLine
 10
203.0000106026824
 20
96.50004511206311
 30
0.0
 11
208.1961630253889
 21
87.50004511206311
 31
0.0
  0
LINE
  5
10E
330
2
100
AcDbEntity
  8
L-TYUSIN
100
AcDbLine
 10
213.000010602682
 20
109.5000451120631
 30
0.0
 11
193.000010602682
 21
109.5000451120631
 31
0.0
  0
LINE
  5
10F
330
2
100
AcDbEntity
  8
L-ZISSEN
100
AcDbLine
 10
233.5000106026822
 20
87.50004511206311
 30
0.0
 11
233.5000106026822
 21
96.50004511206311
 31
0.0
  0
LINE
  5
110
330
2
100
AcDbEntity
  8
L-TYUSIN
100
AcDbLine
 10
226.000010602682
 20
82.50004511206311
 30
0.0
 11
226.000010602682
 21
101.500045112063
 31
0.0
  0
MTEXT
  5
111
330
2
100
AcDbEntity
  8
L-ZISSEN
100
AcDbMText
 10
279.3808224660176
 20
105.8360863778939
 30
0.0
 40
4.5
 41
0.0
 71
     7
 72
     1
  1
P.P
1001
ACAD
1000
MTEXTBEGIN
1070
    73
1070
     1
1070
    44
1040
1.0
1070
    74
1070
     0
1000
MTEXTEND
1000
MTEXTBEGIN
1070
    73
1070
     1
1070
    44
1040
1.0
1070
    74
1070
     0
1000
MTEXTEND
1000
MTEXTBEGIN
1070
    73
1070
     1
1070
    44
1040
1.0
1070
    74
1070
     0
1000
MTEXTEND
  0
LINE
  5
112
330
2
100
AcDbEntity
  8
L-ZISSEN
100
AcDbLine
 10
322.0000106026846
 20
9.500045112063132
 30
0.0
 11
317.0000106026843
 21
9.500045112063132
 31
0.0
  0
LINE
  5
113
330
2
100
AcDbEntity
  8
L-ZISSEN
100
AcDbLine
 10
322.0000106026848
 20
-9.499954887936867
 30
0.0
 11
317.0000106026843
 21
-9.499954887936867
 31
0.0
  0
LINE
  5
114
330
2
100
AcDbEntity
  8
L-ZISSEN
100
AcDbLine
 10
298.0000106026843
 20
15.00004511206313
 30
0.0
 11
298.0000106026843
 21
-14.99995488793685
 31
0.0
  0
LINE
  5
115
330
2
100
AcDbEntity
  8
L-ZISSEN
100
AcDbLine
 10
317.0000106026848
 20
9.500045112063132
 30
0.0
 11
317.0000106026843
 21
-9.499954887936867
 31
0.0
  0
LINE
  5
116
330
2
100
AcDbEntity
  8
L-ZISSEN
100
AcDbLine
 10
312.2500106026843
 20
11.2000451120634
 30
0.0
 11
312.2500106026843
 21
-11.19995488793668
 31
0.0
  0
LINE
  5
117
330
2
100
AcDbEntity
  8
L-ZISSEN
100
AcDbLine
 10
302.0000106026822
 20
11.40004511206321
 30
0.0
 11
302.0000106026821
 21
-11.39995488793694
 31
0.0
  0
LINE
  5
118
330
2
100
AcDbEntity
  8
L-ZISSEN
100
AcDbLine
 10
300.0000106026818
 20
11.40004511206321
 30
0.0
 11
300.0000106026818
 21
-11.39995488793694
 31
0.0
  0
LINE
  5
119
330
2
100
AcDbEntity
  8
L-ZISSEN
100
AcDbLine
 10
312.2500106026843
 20
-11.19995488793668
 30
0.0
 11
302.0000106026821
 21
-11.19995488793668
 31
0.0
  0
LINE
  5
11A
330
2
100
AcDbEntity
  8
L-ZISSEN
100
AcDbLine
 10
317.0000106026843
 20
-9.149954887936956
 30
0.0
 11
312.2500106026843
 21
-9.149954887936956
 31
0.0
  0
LINE
  5
11B
330
2
100
AcDbEntity
  8
L-ZISSEN
100
AcDbLine
 10
312.2500106026843
 20
11.2000451120634
 30
0.0
 11
302.0000106026821
 21
11.2000451120634
 31
0.0
  0
LINE
  5
11C
330
2
100
AcDbEntity
  8
L-ZISSEN
100
AcDbLine
 10
317.0000106026848
 20
9.150045112063224
 30
0.0
 11
312.2500106026843
 21
9.150045112063224
 31
0.0
  0
LINE
  5
11D
330
2
100
AcDbEntity
  8
L-ZISSEN
100
AcDbLine
 10
322.0000106026846
 20
9.500045112063132
 30
0.0
 11
322.0000106026848
 21
-9.499954887936867
 31
0.0
  0
LINE
  5
11E
330
2
100
AcDbEntity
  8
L-ZISSEN
100
AcDbLine
 10
385.969892924282
 20
96.50004511206311
 30
0.0
 11
385.969892924282
 21
87.50004511206311
 31
0.0
  0
LINE
  5
11F
330
2
100
AcDbEntity
  8
L-ZISSEN
100
AcDbLine
 10
364.5000106026821
 20
96.50004511206311
 30
0.0
 11
364.5000106026821
 21
87.50004511206311
 31
0.0
  0
LINE
  5
120
330
2
100
AcDbEntity
  8
L-TYUSIN
100
AcDbLine
 10
372.000010602682
 20
82.50004511206311
 30
0.0
 11
372.000010602682
 21
101.500045112063
 31
0.0
  0
LINE
  5
121
330
2
100
AcDbEntity
  8
L-ZISSEN
100
AcDbLine
 10
364.5000106026821
 20
87.50004511206311
 30
0.0
 11
385.969892924282
 21
87.50004511206311
 31
0.0
  0
LINE
  5
122
330
2
100
AcDbEntity
  8
L-TYUSIN
100
AcDbLine
 10
375.0000106026821
 20
109.5000451120631
 30
0.0
 11
365.0000106026821
 21
109.5000451120631
 31
0.0
  0
LINE
  5
123
330
2
100
AcDbEntity
  8
L-ZISSEN
100
AcDbLine
 10
406.0301282810824
 20
96.50004511206311
 30
0.0
 11
406.0301282810824
 21
87.50004511206311
 31
0.0
  0
LINE
  5
124
330
2
100
AcDbEntity
  8
L-TYUSIN
100
AcDbLine
 10
420.0000106026821
 20
82.50004511206311
 30
0.0
 11
420.0000106026821
 21
101.500045112063
 31
0.0
  0
LINE
  5
125
330
2
100
AcDbEntity
  8
L-ZISSEN
100
AcDbLine
 10
298.5500106026821
 20
255.0000451120626
 30
0.0
 11
270.0000106026844
 21
255.0000451120624
 31
0.0
  0
LINE
  5
126
330
2
100
AcDbEntity
  8
L-ZISSEN
100
AcDbLine
 10
298.5500106026821
 20
255.0000451120626
 30
0.0
 11
269.8000106026843
 21
255.0000451120624
 31
0.0
  0
LINE
  5
127
330
2
100
AcDbEntity
  8
L-ZISSEN
100
AcDbLine
 10
298.5500106026821
 20
285.0000451120627
 30
0.0
 11
270.0000106026844
 21
285.0000451120627
 31
0.0
  0
LINE
  5
128
330
2
100
AcDbEntity
  8
L-ZISSEN
100
AcDbLine
 10
298.5500106026821
 20
285.0000451120627
 30
0.0
 11
269.8000106026843
 21
285.0000451120627
 31
0.0
  0
LINE
  5
129
330
2
100
AcDbEntity
  8
L-ZISSEN
100
AcDbLine
 10
302.0000106026821
 20
165.7000451120629
 30
0.0
 11
269.721884100064
 21
165.7000451120629
 31
0.0
  0
LINE
  5
12A
330
2
100
AcDbEntity
  8
L-ZISSEN
100
AcDbLine
 10
302.0000106026821
 20
134.3000451120632
 30
0.0
 11
269.6184149526902
 21
134.3000451120632
 31
0.0
  0
LINE
  5
12B
330
2
100
AcDbEntity
  8
L-TYUSIN
 48
0.8
100
AcDbLine
 10
329.1000106026821
 20
199.0000451120634
 30
0.0
 11
284.800010602682
 21
199.0000451120634
 31
0.0
  0
LINE
  5
12C
330
2
100
AcDbEntity
  8
L-ZISSEN
100
AcDbLine
 10
298.5500106026821
 20
210.5000451120634
 30
0.0
 11
271.050010602682
 21
210.5000451120634
 31
0.0
  0
LINE
  5
12D
330
2
100
AcDbEntity
  8
L-ZISSEN
100
AcDbLine
 10
299.8000106026821
 20
169.5000451120631
 30
0.0
 11
269.800010602682
 21
169.5000451120626
 31
0.0
  0
LINE
  5
12E
330
2
100
AcDbEntity
  8
L-ZISSEN
100
AcDbLine
 10
269.800010602682
 20
179.0000451120631
 30
0.0
 11
299.8000106026821
 21
179.0000451120634
 31
0.0
  0
LINE
  5
12F
330
2
100
AcDbEntity
  8
L-ZISSEN
100
AcDbLine
 10
269.800010602682
 20
174.5000451120631
 30
0.0
 11
299.8000106026821
 21
174.5000451120631
 31
0.0
  0
LINE
  5
130
330
2
100
AcDbEntity
  8
L-ZISSEN
100
AcDbLine
 10
271.050010602682
 20
210.5000451120634
 30
0.0
 11
271.050010602682
 21
179.0000451120631
 31
0.0
  0
LINE
  5
131
330
2
100
AcDbEntity
  8
L-TYUSIN
100
AcDbLine
 10
284.800010602682
 20
212.7000451120629
 30
0.0
 11
284.800010602682
 21
163.3000451120633
 31
0.0
  0
LINE
  5
132
330
2
100
AcDbEntity
  8
L-ZISSEN
100
AcDbLine
 10
258.800010602682
 20
176.0000451120629
 30
0.0
 11
216.800010602682
 21
176.0000451120631
 31
0.0
  0
LINE
  5
133
330
2
100
AcDbEntity
  8
L-ZISSEN
100
AcDbLine
 10
216.800010602682
 20
124.0000451120631
 30
0.0
 11
224.800010602682
 21
124.0000451120631
 31
0.0
  0
LINE
  5
134
330
2
100
AcDbEntity
  8
L-ZISSEN
100
AcDbLine
 10
191.2500106026812
 20
161.3000451120631
 30
0.0
 11
191.2500106026812
 21
155.0000451120631
 31
0.0
  0
LINE
  5
135
330
2
100
AcDbEntity
  8
L-ZISSEN
100
AcDbLine
 10
182.7500106026829
 20
161.3000451120631
 30
0.0
 11
182.7500106026829
 21
155.0000451120631
 31
0.0
  0
LINE
  5
136
330
2
100
AcDbEntity
  8
L-ZISSEN
100
AcDbLine
 10
159.2500106026813
 20
161.3000451120631
 30
0.0
 11
159.2500106026813
 21
155.0000451120631
 31
0.0
  0
LINE
  5
137
330
2
100
AcDbEntity
  8
L-ZISSEN
100
AcDbLine
 10
216.800010602682
 20
124.0000451120631
 30
0.0
 11
216.800010602682
 21
176.0000451120631
 31
0.0
  0
LINE
  5
138
330
2
100
AcDbEntity
  8
L-ZISSEN
100
AcDbLine
 10
208.700010602682
 20
132.0000451120631
 30
0.0
 11
208.700010602682
 21
176.0000451120631
 31
0.0
  0
LINE
  5
139
330
2
100
AcDbEntity
  8
L-ZISSEN
100
AcDbLine
 10
216.800010602682
 20
124.2000451120629
 30
0.0
 11
216.800010602682
 21
175.8000451120627
 31
0.0
  0
LINE
  5
13A
330
2
100
AcDbEntity
  8
L-ZISSEN
100
AcDbLine
 10
216.800010602682
 20
124.0000451120631
 30
0.0
 11
216.800010602682
 21
176.0000451120631
 31
0.0
  0
LINE
  5
13B
330
2
100
AcDbEntity
  8
L-ZISSEN
100
AcDbLine
 10
192.500010602682
 20
155.0000451120631
 30
0.0
 11
181.5000106026822
 21
155.0000451120631
 31
0.0
  0
LINE
  5
13C
330
2
100
AcDbEntity
  8
L-ZISSEN
100
AcDbLine
 10
181.500010602682
 20
123.0000451120631
 30
0.0
 11
181.500010602682
 21
155.0000451120631
 31
0.0
  0
LINE
  5
13D
330
2
100
AcDbEntity
  8
L-ZISSEN
100
AcDbLine
 10
160.5000106026821
 20
123.0000451120631
 30
0.0
 11
160.5000106026821
 21
155.0000451120631
 31
0.0
  0
LINE
  5
13E
330
2
100
AcDbEntity
  8
L-ZISSEN
100
AcDbLine
 10
181.5000106026822
 20
132.0000451120631
 30
0.0
 11
160.5000106026821
 21
132.0000451120631
 31
0.0
  0
LINE
  5
13F
330
2
100
AcDbEntity
  8
L-ZISSEN
100
AcDbLine
 10
192.500010602682
 20
123.0000451120631
 30
0.0
 11
192.500010602682
 21
155.0000451120631
 31
0.0
  0
LINE
  5
140
330
2
100
AcDbEntity
  8
L-ZISSEN
100
AcDbLine
 10
216.800010602682
 20
132.0000451120631
 30
0.0
 11
192.500010602682
 21
132.0000451120631
 31
0.0
  0
LINE
  5
141
330
2
100
AcDbEntity
  8
L-ZISSEN
100
AcDbLine
 10
191.2500106026812
 20
161.3000451120631
 30
0.0
 11
182.7500106026829
 21
161.3000451120631
 31
0.0
  0
LINE
  5
142
330
2
100
AcDbEntity
  8
L-ZISSEN
100
AcDbLine
 10
216.8000106026822
 20
176.0000451120631
 30
0.0
 11
208.7000106026819
 21
176.0000451120631
 31
0.0
  0
LINE
  5
143
330
2
100
AcDbEntity
  8
L-ZISSEN
100
AcDbLine
 10
258.800010602682
 20
176.0000451120631
 30
0.0
 11
258.800010602682
 21
124.0000451120631
 31
0.0
  0
LINE
  5
144
330
2
100
AcDbEntity
  8
L-ZISSEN
100
AcDbLine
 10
269.800010602682
 20
134.3000451120632
 30
0.0
 11
269.800010602682
 21
179.0000451120631
 31
0.0
  0
LINE
  5
145
330
2
100
AcDbEntity
  8
L-ZISSEN
100
AcDbLine
 10
224.800010602682
 20
124.0000451120631
 30
0.0
 11
258.800010602682
 21
124.0000451120631
 31
0.0
  0
LINE
  5
146
330
2
100
AcDbEntity
  8
L-ZISSEN
100
AcDbLine
 10
269.800010602682
 20
134.3000451120632
 30
0.0
 11
258.800010602682
 21
134.3000451120632
 31
0.0
  0
LEADER
  5
147
330
2
100
AcDbEntity
  8
L-ZISSEN
100
AcDbLeader
  3
STANDARD
 73
     0
 74
     0
 40
5.599999999999998
 41
9.599999999999996
 76
     3
 10
264.0000106026821
 20
165.7000451120631
 30
0.0
 10
255.7993421644051
 20
188.6887429531338
 30
0.0
 10
253.4722968261795
 20
188.6887429531338
 30
0.0
211
-1.0
221
0.0
231
0.0
1001
ACAD
1000
DSTYLE
1002
{
1070
     5
1000

1070
    40
1040
2.0
1070
    41
1040
2.0
1070
    42
1040
2.0
1070
    44
1040
2.0
1070
    46
1040
1.0
1070
    73
1070
     0
1070
    74
1070
     0
1070
    77
1070
     1
1070
   140
1040
2.799999999999998
1070
   147
1040
1.0
1070
   172
1070
     1
1070
   174
1070
     1
1070
   271
1070
     1
1070
   287
1070
     5
1070
   342
1005
0
1002
}
1000
LEANOF
1010
0.0
1020
0.0
1030
0.0
1000
LEANOF
1010
0.0
1020
0.0
1030
0.0
  0
MTEXT
  5
148
330
2
100
AcDbEntity
  8
L-ZISSEN
100
AcDbMText
 10
242.5107124890669
 20
190.6887429531338
 30
0.0
 40
4.5
 41
0.0
 71
     7
 72
     1
  1
P.P
1001
ACAD
1000
MTEXTBEGIN
1070
    73
1070
     1
1070
    44
1040
1.0
1070
    74
1070
     0
1000
MTEXTEND
1000
MTEXTBEGIN
1070
    73
1070
     1
1070
    44
1040
1.0
1070
    74
1070
     0
1000
MTEXTEND
1000
MTEXTBEGIN
1070
    73
1070
     1
1070
    44
1040
1.0
1070
    74
1070
     0
1000
MTEXTEND
  0
LINE
  5
149
330
2
100
AcDbEntity
  8
L-ZISSEN
100
AcDbLine
 10
269.800010602682
 20
165.7000451120629
 30
0.0
 11
258.800010602682
 21
165.7000451120629
 31
0.0
  0
LINE
  5
14A
330
2
100
AcDbEntity
  8
L-ZISSEN
100
AcDbLine
 10
266.6000106026822
 20
166.000045112063
 30
0.0
 11
261.4000106026824
 21
166.000045112063
 31
0.0
  0
LINE
  5
14B
330
2
100
AcDbEntity
  8
L-TYUSIN
100
AcDbLine
 10
264.0000106026819
 20
163.2000451120629
 30
0.0
 11
264.0000106026819
 21
167.7000451120629
 31
0.0
  0
LINE
  5
14C
330
2
100
AcDbEntity
  8
L-ZISSEN
100
AcDbLine
 10
261.4000106026824
 20
166.0000451120616
 30
0.0
 11
261.4000106026827
 21
165.7000451120614
 31
0.0
  0
LINE
  5
14D
330
2
100
AcDbEntity
  8
L-ZISSEN
100
AcDbLine
 10
266.6000106026822
 20
166.000045112063
 30
0.0
 11
266.6000106026822
 21
165.7000451120629
 31
0.0
  0
LINE
  5
14E
330
2
100
AcDbEntity
  8
L-TYUSIN
100
AcDbLine
 10
216.0000106026813
 20
294.0000451120631
 30
0.0
 11
236.0000106026813
 21
294.0000451120631
 31
0.0
  0
LINE
  5
14F
330
2
100
AcDbEntity
  8
L-ZISSEN
100
AcDbLine
 10
258.800010602682
 20
286.0000451120631
 30
0.0
 11
216.800010602682
 21
286.0000451120632
 31
0.0
  0
LINE
  5
150
330
2
100
AcDbEntity
  8
L-TYUSIN
100
AcDbLine
 10
216.0000106026813
 20
246.0000451120631
 30
0.0
 11
236.0000106026813
 21
246.0000451120631
 31
0.0
  0
LINE
  5
151
330
2
100
AcDbEntity
  8
L-ZISSEN
100
AcDbLine
 10
258.800010602682
 20
254.0000451120624
 30
0.0
 11
216.8000106026823
 21
254.0000451120626
 31
0.0
  0
LINE
  5
152
330
2
100
AcDbEntity
  8
L-ZISSEN
100
AcDbLine
 10
208.1961630253891
 20
244.0000451120631
 30
0.0
 11
226.0000106026821
 21
238.5000451120626
 31
0.0
  0
CIRCLE
  5
153
330
2
100
AcDbEntity
  8
L-ZISSEN
100
AcDbCircle
 10
226.0000106026821
 20
246.0000451120631
 30
0.0
 40
3.5
  0
CIRCLE
  5
154
330
2
100
AcDbEntity
  8
L-ZISSEN
100
AcDbCircle
 10
187.0000106026821
 20
250.500045112063
 30
0.0
 40
4.25
  0
LINE
  5
155
330
2
100
AcDbEntity
  8
L-ZISSEN
100
AcDbLine
 10
217.0000106026821
 20
254.0000451120626
 30
0.0
 11
217.0000106026821
 21
244.0000451120631
 31
0.0
  0
LINE
  5
156
330
2
100
AcDbEntity
  8
L-ZISSEN
100
AcDbLine
 10
192.500010602682
 20
245.0000451120631
 30
0.0
 11
192.500010602682
 21
254.0000451120626
 31
0.0
  0
LINE
  5
157
330
2
100
AcDbEntity
  8
L-ZISSEN
100
AcDbLine
 10
181.5000106026822
 20
245.0000451120631
 30
0.0
 11
181.5000106026822
 21
254.0000451120626
 31
0.0
  0
LINE
  5
158
330
2
100
AcDbEntity
  8
L-ZISSEN
100
AcDbLine
 10
160.5000106026821
 20
245.0000451120631
 30
0.0
 11
160.5000106026821
 21
254.0000451120626
 31
0.0
  0
LINE
  5
159
330
2
100
AcDbEntity
  8
L-ZISSEN
100
AcDbLine
 10
181.5000106026823
 20
245.0000451120631
 30
0.0
 11
192.500010602682
 21
245.0000451120631
 31
0.0
  0
LINE
  5
15A
330
2
100
AcDbEntity
  8
L-TYUSIN
100
AcDbLine
 10
203.0000106026821
 20
239.0000451120631
 30
0.0
 11
203.0000106026821
 21
249.0000451120631
 31
0.0
  0
LINE
  5
15B
330
2
100
AcDbEntity
  8
L-ZISSEN
100
AcDbLine
 10
181.5000106026823
 20
254.0000451120626
 30
0.0
 11
160.5000106026821
 21
254.0000451120626
 31
0.0
  0
LINE
  5
15C
330
2
100
AcDbEntity
  8
L-ZISSEN
100
AcDbLine
 10
216.8000106026822
 20
253.0000451120631
 30
0.0
 11
216.8000106026822
 21
287.0000451120631
 31
0.0
  0
LINE
  5
15D
330
2
100
AcDbEntity
  8
L-ZISSEN
100
AcDbLine
 10
208.7000106026822
 20
253.0000451120631
 30
0.0
 11
208.7000106026822
 21
287.0000451120631
 31
0.0
  0
LINE
  5
15E
330
2
100
AcDbEntity
  8
L-ZISSEN
100
AcDbLine
 10
216.8000106026822
 20
254.0000451120626
 30
0.0
 11
216.8000106026822
 21
286.0000451120636
 31
0.0
  0
LINE
  5
15F
330
2
100
AcDbEntity
  8
L-ZISSEN
100
AcDbLine
 10
208.700010602682
 20
254.0000451120626
 30
0.0
 11
192.5000106026821
 21
254.0000451120626
 31
0.0
  0
LINE
  5
160
330
2
100
AcDbEntity
  8
L-ZISSEN
100
AcDbLine
 10
208.7000106026822
 20
253.0000451120631
 30
0.0
 11
216.8000106026822
 21
253.0000451120631
 31
0.0
  0
LINE
  5
161
330
2
100
AcDbEntity
  8
L-ZISSEN
100
AcDbLine
 10
208.7000106026822
 20
286.0000451120636
 30
0.0
 11
206.5000106026821
 21
286.0000451120636
 31
0.0
  0
LINE
  5
162
330
2
100
AcDbEntity
  8
L-ZISSEN
100
AcDbLine
 10
208.7000106026822
 20
286.0000451120636
 30
0.0
 11
206.500010602682
 21
286.0000451120636
 31
0.0
  0
CIRCLE
  5
163
330
2
100
AcDbEntity
  8
L-ZISSEN
100
AcDbCircle
 10
201.0000106026821
 20
289.5000451120631
 30
0.0
 40
4.25
  0
LINE
  5
164
330
2
100
AcDbEntity
  8
L-ZISSEN
100
AcDbLine
 10
195.5000106026822
 20
295.0000451120631
 30
0.0
 11
206.500010602682
 21
295.0000451120631
 31
0.0
  0
LINE
  5
165
330
2
100
AcDbEntity
  8
L-ZISSEN
100
AcDbLine
 10
195.5000106026821
 20
295.0000451120631
 30
0.0
 11
195.5000106026821
 21
286.0000451120636
 31
0.0
  0
LINE
  5
166
330
2
100
AcDbEntity
  8
L-ZISSEN
100
AcDbLine
 10
206.500010602682
 20
295.0000451120631
 30
0.0
 11
206.500010602682
 21
286.0000451120636
 31
0.0
  0
LINE
  5
167
330
2
100
AcDbEntity
  8
L-ZISSEN
100
AcDbLine
 10
208.7000106026822
 20
287.0000451120631
 30
0.0
 11
216.8000106026822
 21
287.0000451120631
 31
0.0
  0
LINE
  5
168
330
2
100
AcDbEntity
  8
L-ZISSEN
100
AcDbLine
 10
217.0000106026821
 20
296.0000451120631
 30
0.0
 11
217.0000106026821
 21
286.0000451120636
 31
0.0
  0
LINE
  5
169
330
2
100
AcDbEntity
  8
L-TYUSIN
100
AcDbLine
 10
226.0000106026821
 20
236.000045112063
 30
0.0
 11
226.0000106026821
 21
256.0000451120629
 31
0.0
  0
ARC
  5
16A
330
2
100
AcDbEntity
  8
L-ZISSEN
100
AcDbCircle
 10
226.0000106026821
 20
246.0000451120631
 30
0.0
 40
7.5
100
AcDbArc
 50
270.0
 51
60.00000000000015
  0
LINE
  5
16B
330
2
100
AcDbEntity
  8
L-TYUSIN
 48
0.4
100
AcDbLine
 10
250.000010602682
 20
264.5000451120631
 30
0.0
 11
250.000010602682
 21
275.500045112063
 31
0.0
  0
LINE
  5
16C
330
2
100
AcDbEntity
  8
L-ZISSEN
100
AcDbLine
 10
227.1436041421388
 20
254.0000451120626
 30
0.0
 11
229.7500106026839
 21
252.4952356404494
 31
0.0
  0
LINE
  5
16D
330
2
100
AcDbEntity
  8
L-TYUSIN
 48
0.4
100
AcDbLine
 10
255.3000106026821
 20
270.0000451120631
 30
0.0
 11
244.300010602682
 21
270.0000451120631
 31
0.0
  0
CIRCLE
  5
16E
330
2
100
AcDbEntity
  8
L-ZISSEN
100
AcDbCircle
 10
250.000010602682
 20
270.0000451120631
 30
0.0
 40
2.149999999999999
  0
LINE
  5
16F
330
2
100
AcDbEntity
  8
L-ZISSEN
100
AcDbLine
 10
227.1436041421385
 20
286.0000451120636
 30
0.0
 11
229.7500106026839
 21
287.5048545836767
 31
0.0
  0
LINE
  5
170
330
2
100
AcDbEntity
  8
L-TYUSIN
 48
0.4
100
AcDbLine
 10
285.0000106026842
 20
252.5000451120626
 30
0.0
 11
285.0000106026843
 21
287.5000451120627
 31
0.0
  0
LINE
  5
171
330
2
100
AcDbEntity
  8
L-ZISSEN
100
AcDbLine
 10
258.800010602682
 20
254.0000451120624
 30
0.0
 11
258.800010602682
 21
286.0000451120631
 31
0.0
  0
LINE
  5
172
330
2
100
AcDbEntity
  8
L-TYUSIN
 48
0.4
100
AcDbLine
 10
264.0000106026842
 20
264.9000451120627
 30
0.0
 11
264.0000106026842
 21
275.1000451120622
 31
0.0
  0
LINE
  5
173
330
2
100
AcDbEntity
  8
L-ZISSEN
100
AcDbLine
 10
269.8000106026843
 20
255.0000451120624
 30
0.0
 11
269.8000106026843
 21
285.0000451120627
 31
0.0
  0
LINE
  5
174
330
2
100
AcDbEntity
  8
L-ZISSEN
100
AcDbLine
 10
269.8000106026843
 20
255.0000451120624
 30
0.0
 11
269.8000106026843
 21
285.0000451120627
 31
0.0
  0
LINE
  5
175
330
2
100
AcDbEntity
  8
L-ZISSEN
100
AcDbLine
 10
269.8000106026843
 20
258.6000451120626
 30
0.0
 11
258.800010602682
 21
258.6000451120626
 31
0.0
  0
CIRCLE
  5
176
330
2
100
AcDbEntity
  8
L-ZISSEN
100
AcDbCircle
 10
264.0000106026842
 20
270.0000451120627
 30
0.0
 40
1.500000000000099
  0
CIRCLE
  5
177
330
2
100
AcDbEntity
  8
L-ZISSEN
100
AcDbCircle
 10
264.0000106026842
 20
270.0000451120627
 30
0.0
 40
2.600000000000008
  0
LINE
  5
178
330
2
100
AcDbEntity
  8
L-TYUSIN
 48
0.4
100
AcDbLine
 10
286.5910008603552
 20
271.5910353697338
 30
0.0
 11
283.4090203450148
 21
268.4090548543931
 31
0.0
  0
LINE
  5
179
330
2
100
AcDbEntity
  8
L-TYUSIN
 48
0.4
100
AcDbLine
 10
283.4090203450131
 20
271.5910353697338
 30
0.0
 11
286.5910008603526
 21
268.4090548543943
 31
0.0
  0
CIRCLE
  5
17A
330
2
100
AcDbEntity
  8
L-ZISSEN
100
AcDbCircle
 10
285.0000106026843
 20
270.0000451120629
 30
0.0
 40
3.25
  0
LINE
  5
17B
330
2
100
AcDbEntity
  8
L-ZISSEN
100
AcDbLine
 10
269.8000106026843
 20
281.4000451120628
 30
0.0
 11
258.800010602682
 21
281.4000451120628
 31
0.0
  0
CIRCLE
  5
17C
330
2
100
AcDbEntity
  8
L-ZISSEN
100
AcDbCircle
 10
396.0000106026818
 20
199.0000451120631
 30
0.0
 40
6.5
  0
CIRCLE
  5
17D
330
2
100
AcDbEntity
  8
L-ZISSEN
100
AcDbCircle
 10
396.0000106026818
 20
199.0000451120631
 30
0.0
 40
11.19999999999998
  0
LINE
  5
17E
330
2
100
AcDbEntity
  8
L-ZISSEN
100
AcDbLine
 10
409.7500106026818
 20
210.2000451120629
 30
0.0
 11
409.7500106026818
 21
179.0000451120634
 31
0.0
  0
LINE
  5
17F
330
2
100
AcDbEntity
  8
L-TYUSIN
100
AcDbLine
 10
396.0000106026821
 20
136.7000451120631
 30
0.0
 11
396.0000106026821
 21
217.6000451120628
 31
0.0
  0
LINE
  5
180
330
2
100
AcDbEntity
  8
L-ZISSEN
100
AcDbLine
 10
382.2500106026818
 20
210.2000451120629
 30
0.0
 11
382.2500106026818
 21
179.0000451120634
 31
0.0
  0
LINE
  5
181
330
2
100
AcDbEntity
  8
L-ZISSEN
100
AcDbLine
 10
298.5500106026821
 20
210.5000451120634
 30
0.0
 11
298.5500106026821
 21
179.0000451120635
 31
0.0
  0
LINE
  5
182
330
2
100
AcDbEntity
  8
L-ZISSEN
100
AcDbLine
 10
324.0000106026819
 20
210.5000002266661
 30
0.0
 11
324.0000106026819
 21
188.0303899974606
 31
0.0
  0
LINE
  5
183
330
2
100
AcDbEntity
  8
L-ZISSEN
100
AcDbLine
 10
314.2500106026821
 20
210.5000451120634
 30
0.0
 11
314.2500106026821
 21
188.1000451120632
 31
0.0
  0
LINE
  5
184
330
2
100
AcDbEntity
  8
L-ZISSEN
100
AcDbLine
 10
319.0000106026821
 20
210.5000002266661
 30
0.0
 11
319.0000106026821
 21
188.0303899974605
 31
0.0
  0
LINE
  5
185
330
2
100
AcDbEntity
  8
L-ZISSEN
100
AcDbLine
 10
295.5000106026821
 20
134.3000451120632
 30
0.0
 11
295.5000106026821
 21
169.5000451120631
 31
0.0
  0
LINE
  5
186
330
2
100
AcDbEntity
  8
L-ZISSEN
100
AcDbLine
 10
300.0000106026821
 20
134.3000451120632
 30
0.0
 11
300.0000106026821
 21
165.7000451120629
 31
0.0
  0
LINE
  5
187
330
2
100
AcDbEntity
  8
L-ZISSEN
100
AcDbLine
 10
302.0000106026821
 20
134.3000451120632
 30
0.0
 11
302.0000106026821
 21
165.7000451120629
 31
0.0
  0
LINE
  5
188
330
2
100
AcDbEntity
  8
L-ZISSEN
100
AcDbLine
 10
302.0000106026821
 20
157.500045112063
 30
0.0
 11
300.0000106026821
 21
157.500045112063
 31
0.0
  0
LINE
  5
189
330
2
100
AcDbEntity
  8
L-ZISSEN
100
AcDbLine
 10
324.0000106026819
 20
188.0303899974606
 30
0.0
 11
319.0000106026821
 21
188.0303899974605
 31
0.0
  0
LINE
  5
18A
330
2
100
AcDbEntity
  8
L-ZISSEN
100
AcDbLine
 10
301.0000106026819
 20
158.2500451120631
 30
0.0
 11
302.0000106026821
 21
158.2500451120631
 31
0.0
  0
LINE
  5
18B
330
2
100
AcDbEntity
  8
L-ZISSEN
100
AcDbLine
 10
301.0000106026819
 20
163.750045112063
 30
0.0
 11
302.0000106026821
 21
163.750045112063
 31
0.0
  0
LINE
  5
18C
330
2
100
AcDbEntity
  8
L-ZISSEN
100
AcDbLine
 10
301.0000106026819
 20
163.750045112063
 30
0.0
 11
300.0000106026821
 21
163.750045112063
 31
0.0
  0
LINE
  5
18D
330
2
100
AcDbEntity
  8
L-ZISSEN
100
AcDbLine
 10
301.0000106026819
 20
158.2500451120631
 30
0.0
 11
300.0000106026821
 21
158.2500451120631
 31
0.0
  0
LINE
  5
18E
330
2
100
AcDbEntity
  8
L-ZISSEN
100
AcDbLine
 10
299.8000106026821
 20
169.5000451120631
 30
0.0
 11
299.8000106026821
 21
179.0000451120634
 31
0.0
  0
LINE
  5
18F
330
2
100
AcDbEntity
  8
L-ZISSEN
100
AcDbLine
 10
314.2500106026821
 20
188.1000451120632
 30
0.0
 11
298.5500106026821
 21
188.1000451120632
 31
0.0
  0
LINE
  5
190
330
2
100
AcDbEntity
  8
L-ZISSEN
100
AcDbLine
 10
319.0000106026821
 20
189.8500451120634
 30
0.0
 11
314.2500106026821
 21
189.8500451120634
 31
0.0
  0
CIRCLE
  5
191
330
2
100
AcDbEntity
  8
L-ZISSEN
100
AcDbCircle
 10
389.0000106026818
 20
160.4400451120632
 30
0.0
 40
2.75
  0
LINE
  5
192
330
2
100
AcDbEntity
  8
L-ZISSEN
100
AcDbLine
 10
419.7500106026812
 20
161.3000451120631
 30
0.0
 11
419.7500106026812
 21
155.0000451120631
 31
0.0
  0
LINE
  5
193
330
2
100
AcDbEntity
  8
L-ZISSEN
100
AcDbLine
 10
392.0000106026818
 20
156.940045112063
 30
0.0
 11
392.0000106026818
 21
165.7000451120634
 31
0.0
  0
LINE
  5
194
330
2
100
AcDbEntity
  8
L-ZISSEN
100
AcDbLine
 10
407.400010602682
 20
134.3000451120632
 30
0.0
 11
407.400010602682
 21
165.7000451120634
 31
0.0
  0
LINE
  5
195
330
2
100
AcDbEntity
  8
L-ZISSEN
100
AcDbLine
 10
411.600010602682
 20
175.8000451120629
 30
0.0
 11
411.600010602682
 21
124.0000451120631
 31
0.0
  0
LINE
  5
196
330
2
100
AcDbEntity
  8
L-ZISSEN
100
AcDbLine
 10
372.250010602683
 20
161.3000451120631
 30
0.0
 11
372.250010602683
 21
155.0000451120631
 31
0.0
  0
LINE
  5
197
330
2
100
AcDbEntity
  8
L-ZISSEN
100
AcDbLine
 10
384.6000106026821
 20
134.3000451120632
 30
0.0
 11
384.6000106026821
 21
165.7000451120634
 31
0.0
  0
LINE
  5
198
330
2
100
AcDbEntity
  8
L-ZISSEN
100
AcDbLine
 10
380.4000106026821
 20
124.0000451120631
 30
0.0
 11
380.4000106026821
 21
175.8000451120629
 31
0.0
  0
LINE
  5
199
330
2
100
AcDbEntity
  8
L-TYUSIN
100
AcDbLine
 10
383.7500106026818
 20
150.0000451120631
 30
0.0
 11
408.2500106026823
 21
150.0000451120631
 31
0.0
  0
LINE
  5
19A
330
2
100
AcDbEntity
  8
L-ZISSEN
100
AcDbLine
 10
407.400010602682
 20
134.3000451120632
 30
0.0
 11
384.6000106026821
 21
134.3000451120632
 31
0.0
  0
LINE
  5
19B
330
2
100
AcDbEntity
  8
L-ZISSEN
100
AcDbLine
 10
384.6000106026821
 20
156.940045112063
 30
0.0
 11
392.0000106026818
 21
156.940045112063
 31
0.0
  0
LINE
  5
19C
330
2
100
AcDbEntity
  8
L-ZISSEN
100
AcDbLine
 10
371.0000106026821
 20
123.0000451120631
 30
0.0
 11
371.0000106026821
 21
155.0000451120631
 31
0.0
  0
LINE
  5
19D
330
2
100
AcDbEntity
  8
L-ZISSEN
100
AcDbLine
 10
371.0000106026821
 20
155.0000451120631
 30
0.0
 11
380.4000106026821
 21
155.0000451120631
 31
0.0
  0
LINE
  5
19E
330
2
100
AcDbEntity
  8
L-ZISSEN
100
AcDbLine
 10
400.0000106026822
 20
143.0000451120631
 30
0.0
 11
400.0000106026822
 21
134.3000451120632
 31
0.0
  0
LINE
  5
19F
330
2
100
AcDbEntity
  8
L-TYUSIN
100
AcDbLine
 10
404.7500106026823
 20
139.5000451120631
 30
0.0
 11
401.2500106026823
 21
139.5000451120631
 31
0.0
  0
CIRCLE
  5
1A0
330
2
100
AcDbEntity
  8
L-ZISSEN
100
AcDbCircle
 10
403.0000106026823
 20
139.5000451120631
 30
0.0
 40
2.75
  0
LINE
  5
1A1
330
2
100
AcDbEntity
  8
L-ZISSEN
100
AcDbLine
 10
407.400010602682
 20
143.0000451120631
 30
0.0
 11
400.0000106026822
 21
143.0000451120631
 31
0.0
  0
LINE
  5
1A2
330
2
100
AcDbEntity
  8
L-TYUSIN
100
AcDbLine
 10
403.0000106026823
 20
141.2500451120631
 30
0.0
 11
403.0000106026823
 21
137.7500451120631
 31
0.0
  0
LINE
  5
1A3
330
2
100
AcDbEntity
  8
L-TYUSIN
100
AcDbLine
 10
412.2500106026818
 20
199.0000451120631
 30
0.0
 11
379.7500106026818
 21
199.0000451120631
 31
0.0
  0
LINE
  5
1A4
330
2
100
AcDbEntity
  8
L-ZISSEN
100
AcDbLine
 10
411.0000106026818
 20
174.5000451120631
 30
0.0
 11
381.0000106026818
 21
174.5000451120631
 31
0.0
  0
LINE
  5
1A5
330
2
100
AcDbEntity
  8
L-ZISSEN
100
AcDbLine
 10
411.0000106026818
 20
179.0000451120634
 30
0.0
 11
381.0000106026818
 21
179.0000451120634
 31
0.0
  0
LINE
  5
1A6
330
2
100
AcDbEntity
  8
L-TYUSIN
100
AcDbLine
 10
390.7500106026818
 20
160.4400451120632
 30
0.0
 11
387.2500106026818
 21
160.4400451120632
 31
0.0
  0
LINE
  5
1A7
330
2
100
AcDbEntity
  8
L-ZISSEN
100
AcDbLine
 10
407.400010602682
 20
165.7000451120634
 30
0.0
 11
384.6000106026821
 21
165.7000451120634
 31
0.0
  0
LINE
  5
1A8
330
2
100
AcDbEntity
  8
L-ZISSEN
100
AcDbLine
 10
410.9101903238066
 20
169.5000451120631
 30
0.0
 11
381.0898308815577
 21
169.5000451120636
 31
0.0
  0
LINE
  5
1A9
330
2
100
AcDbEntity
  8
L-ZISSEN
100
AcDbLine
 10
372.250010602683
 20
161.3000451120631
 30
0.0
 11
380.4000106026821
 21
161.3000451120631
 31
0.0
  0
LINE
  5
1AA
330
2
100
AcDbEntity
  8
L-ZISSEN
100
AcDbLine
 10
380.4000106026819
 20
170.9000451120631
 30
0.0
 11
381.0000106026818
 21
170.9000451120631
 31
0.0
  0
LINE
  5
1AB
330
2
100
AcDbEntity
  8
L-ZISSEN
100
AcDbLine
 10
381.0000106026818
 20
179.0000451120634
 30
0.0
 11
381.0000106026818
 21
169.5000451120636
 31
0.0
  0
LINE
  5
1AC
330
2
100
AcDbEntity
  8
L-TYUSIN
100
AcDbLine
 10
389.0000106026818
 20
162.190045112063
 30
0.0
 11
389.0000106026818
 21
158.6900451120631
 31
0.0
  0
LINE
  5
1AD
330
2
100
AcDbEntity
  8
L-ZISSEN
100
AcDbLine
 10
419.7500106026812
 20
161.3000451120631
 30
0.0
 11
411.600010602682
 21
161.3000451120631
 31
0.0
  0
LINE
  5
1AE
330
2
100
AcDbEntity
  8
L-ZISSEN
100
AcDbLine
 10
411.600010602682
 20
175.8000451120629
 30
0.0
 11
411.600010602682
 21
175.8000451120629
 31
0.0
  0
LINE
  5
1AF
330
2
100
AcDbEntity
  8
L-ZISSEN
100
AcDbLine
 10
411.600010602682
 20
175.8000451120629
 30
0.0
 11
411.600010602682
 21
175.8000451120629
 31
0.0
  0
LINE
  5
1B0
330
2
100
AcDbEntity
  8
L-ZISSEN
100
AcDbLine
 10
411.600010602682
 20
175.8000451120629
 30
0.0
 11
411.600010602682
 21
175.8000451120629
 31
0.0
  0
LINE
  5
1B1
330
2
100
AcDbEntity
  8
L-ZISSEN
100
AcDbLine
 10
411.600010602682
 20
175.8000451120629
 30
0.0
 11
411.600010602682
 21
175.8000451120629
 31
0.0
  0
LINE
  5
1B2
330
2
100
AcDbEntity
  8
L-ZISSEN
100
AcDbLine
 10
411.0000106026823
 20
170.9000451120631
 30
0.0
 11
411.6000106026818
 21
170.9000451120631
 31
0.0
  0
LINE
  5
1B3
330
2
100
AcDbEntity
  8
L-ZISSEN
100
AcDbLine
 10
411.0000106026818
 20
179.0000451120634
 30
0.0
 11
411.0000106026823
 21
169.5000451120631
 31
0.0
  0
LINE
  5
1B4
330
2
100
AcDbEntity
  8
L-ZISSEN
100
AcDbLine
 10
324.0000106026819
 20
210.5000002266661
 30
0.0
 11
319.0000106026821
 21
210.5000002266661
 31
0.0
  0
LINE
  5
1B5
330
2
100
AcDbEntity
  8
L-ZISSEN
100
AcDbLine
 10
298.5500106026821
 20
210.5000451120634
 30
0.0
 11
314.2500106026821
 21
210.5000451120634
 31
0.0
  0
LINE
  5
1B6
330
2
100
AcDbEntity
  8
L-ZISSEN
100
AcDbLine
 10
319.0000106026821
 20
208.4500451120631
 30
0.0
 11
314.2500106026821
 21
208.4500451120631
 31
0.0
  0
LINE
  5
1B7
330
2
100
AcDbEntity
  8
L-ZISSEN
100
AcDbLine
 10
324.0000106026846
 20
279.5000451120627
 30
0.0
 11
319.0000106026843
 21
279.5000451120627
 31
0.0
  0
LINE
  5
1B8
330
2
100
AcDbEntity
  8
L-ZISSEN
100
AcDbLine
 10
324.0000106026846
 20
260.5000451120629
 30
0.0
 11
319.0000106026843
 21
260.5000451120629
 31
0.0
  0
LINE
  5
1B9
330
2
100
AcDbEntity
  8
L-ZISSEN
100
AcDbLine
 10
323.4052558072511
 20
270.0000451120615
 30
0.0
 11
319.0000106026846
 21
270.0000451120629
 31
0.0
  0
LINE
  5
1BA
330
2
100
AcDbEntity
  8
L-ZISSEN
100
AcDbLine
 10
298.5500106026821
 20
255.0000451120626
 30
0.0
 11
298.5500106026821
 21
285.0000451120625
 31
0.0
  0
LINE
  5
1BB
330
2
100
AcDbEntity
  8
L-ZISSEN
100
AcDbLine
 10
319.0000106026846
 20
279.5000451120627
 30
0.0
 11
319.0000106026843
 21
260.5000451120629
 31
0.0
  0
LINE
  5
1BC
330
2
100
AcDbEntity
  8
L-ZISSEN
100
AcDbLine
 10
314.2500106026843
 20
281.200045112063
 30
0.0
 11
314.2500106026843
 21
258.8000451120627
 31
0.0
  0
LINE
  5
1BD
330
2
100
AcDbEntity
  8
L-ZISSEN
100
AcDbLine
 10
314.2500106026843
 20
258.8000451120627
 30
0.0
 11
298.5500106026821
 21
258.8000451120627
 31
0.0
  0
LINE
  5
1BE
330
2
100
AcDbEntity
  8
L-ZISSEN
100
AcDbLine
 10
319.0000106026843
 20
260.8500451120627
 30
0.0
 11
314.2500106026843
 21
260.8500451120627
 31
0.0
  0
LINE
  5
1BF
330
2
100
AcDbEntity
  8
L-ZISSEN
100
AcDbLine
 10
314.2500106026843
 20
281.200045112063
 30
0.0
 11
298.5500106026821
 21
281.2000451120628
 31
0.0
  0
LINE
  5
1C0
330
2
100
AcDbEntity
  8
L-ZISSEN
100
AcDbLine
 10
319.0000106026846
 20
279.1500451120628
 30
0.0
 11
314.2500106026843
 21
279.1500451120628
 31
0.0
  0
LINE
  5
1C1
330
2
100
AcDbEntity
  8
L-ZISSEN
100
AcDbLine
 10
324.0000106026846
 20
279.5000451120627
 30
0.0
 11
324.0000106026846
 21
260.5000451120629
 31
0.0
  0
LINE
  5
1C2
330
2
100
AcDbEntity
  8
L-ZISSEN
100
AcDbLine
 10
382.2500106026818
 20
210.2000451120629
 30
0.0
 11
409.7500106026818
 21
210.2000451120629
 31
0.0
  0
LINE
  5
1C3
330
2
100
AcDbEntity
  8
L-TYUSIN
100
AcDbLine
 10
145.0000106026821
 20
440.5000451120631
 30
0.0
 11
165.0000106026821
 21
440.5000451120631
 31
0.0
  0
CIRCLE
  5
1C4
330
2
100
AcDbEntity
  8
L-ZISSEN
100
AcDbCircle
 10
155.000010602682
 20
440.5000451120631
 30
0.0
 40
5.7225
  0
LINE
  5
1C5
330
2
100
AcDbEntity
  8
L-ZISSEN
100
AcDbLine
 10
195.5000106026824
 20
418.0000451120632
 30
0.0
 11
146.5000106026821
 21
418.0000451120632
 31
0.0
  0
LINE
  5
1C6
330
2
100
AcDbEntity
  8
L-TYUSIN
100
AcDbLine
 10
95.20001060268226
 20
400.0000451120631
 30
0.0
 11
325.7000106026822
 21
400.0000451120631
 31
0.0
  0
LINE
  5
1C7
330
2
100
AcDbEntity
  8
L-ZISSEN
100
AcDbLine
 10
108.5000106026822
 20
453.5000451120631
 30
0.0
 11
233.5000106026824
 21
453.5000451120631
 31
0.0
  0
LINE
  5
1C8
330
2
100
AcDbEntity
  8
L-ZISSEN
100
AcDbLine
 10
125.0000106026823
 20
427.0000451120631
 30
0.0
 11
217.0000106026821
 21
427.0000451120631
 31
0.0
  0
LINE
  5
1C9
330
2
100
AcDbEntity
  8
L-ZISSEN
100
AcDbLine
 10
117.2000106026822
 20
426.0000451120631
 30
0.0
 11
258.800010602682
 21
426.0000451120631
 31
0.0
  0
LINE
  5
1CA
330
2
100
AcDbEntity
  8
L-ZISSEN
100
AcDbLine
 10
208.7000106026822
 20
386.0000451120631
 30
0.0
 11
133.3000106026821
 21
386.0000451120631
 31
0.0
  0
TEXT
  5
1CB
330
2
100
AcDbEntity
  8
L-ZISSEN
100
AcDbText
 10
-8.999989397317788
 20
480.0000451120631
 30
0.0
 40
4.5
  1
MODEL No. :
100
AcDbText
  0
TEXT
  5
1CC
330
2
100
AcDbEntity
  8
L-ZISSEN
100
AcDbText
 10
36.00001060268221
 20
480.0000451120631
 30
0.0
 40
4.5
  1
MVS-492-
100
AcDbText
  0
LINE
  5
1CD
330
2
100
AcDbEntity
  8
L-ZISSEN
100
AcDbLine
 10
145.2500106026811
 20
388.7000451120631
 30
0.0
 11
145.2500106026811
 21
395.0000451120631
 31
0.0
  0
LINE
  5
1CE
330
2
100
AcDbEntity
  8
L-ZISSEN
100
AcDbLine
 10
136.7500106026831
 20
388.7000451120631
 30
0.0
 11
136.7500106026831
 21
395.0000451120631
 31
0.0
  0
LINE
  5
1CF
330
2
100
AcDbEntity
  8
L-ZISSEN
100
AcDbLine
 10
107.2000106026822
 20
384.5342073741421
 30
0.0
 11
107.2000106026822
 21
414.000045112063
 31
0.0
  0
LINE
  5
1D0
330
2
100
AcDbEntity
  8
L-ZISSEN
100
AcDbLine
 10
100.2000106026822
 20
389.0000451120631
 30
0.0
 11
100.2000106026822
 21
411.000045112063
 31
0.0
  0
LINE
  5
1D1
330
2
100
AcDbEntity
  8
L-ZISSEN
100
AcDbLine
 10
133.3000106026821
 20
374.0000451120632
 30
0.0
 11
133.3000106026821
 21
418.0000451120632
 31
0.0
  0
LINE
  5
1D2
330
2
100
AcDbEntity
  8
L-ZISSEN
100
AcDbLine
 10
117.2000106026822
 20
374.0000451120632
 30
0.0
 11
117.2000106026822
 21
426.0000451120631
 31
0.0
  0
LINE
  5
1D3
330
2
100
AcDbEntity
  8
L-ZISSEN
100
AcDbLine
 10
125.2000106026822
 20
374.0000451120632
 30
0.0
 11
125.2000106026822
 21
426.0000451120631
 31
0.0
  0
LINE
  5
1D4
330
2
100
AcDbEntity
  8
L-ZISSEN
100
AcDbLine
 10
133.3000106026821
 20
374.0000451120632
 30
0.0
 11
117.2000106026822
 21
374.0000451120632
 31
0.0
  0
LINE
  5
1D5
330
2
100
AcDbEntity
  8
L-ZISSEN
100
AcDbLine
 10
107.2000106026822
 20
384.5342073741421
 30
0.0
 11
117.2000106026822
 21
384.5342073741421
 31
0.0
  0
LINE
  5
1D6
330
2
100
AcDbEntity
  8
L-ZISSEN
100
AcDbLine
 10
107.2000106026822
 20
386.0000451120632
 30
0.0
 11
117.2000106026822
 21
386.0000451120632
 31
0.0
  0
LINE
  5
1D7
330
2
100
AcDbEntity
  8
L-ZISSEN
100
AcDbLine
 10
100.2000106026822
 20
389.0000451120632
 30
0.0
 11
107.2000106026822
 21
389.0000451120632
 31
0.0
  0
LINE
  5
1D8
330
2
100
AcDbEntity
  8
L-ZISSEN
100
AcDbLine
 10
113.6000106026822
 20
375.5000451120631
 30
0.0
 11
113.6000106026822
 21
382.5000451120631
 31
0.0
  0
LINE
  5
1D9
330
2
100
AcDbEntity
  8
L-ZISSEN
100
AcDbLine
 10
113.6000106026822
 20
375.5000451120631
 30
0.0
 11
117.2000106026822
 21
375.5000451120631
 31
0.0
  0
LINE
  5
1DA
330
2
100
AcDbEntity
  8
L-ZISSEN
100
AcDbLine
 10
113.6000106026822
 20
382.5000451120631
 30
0.0
 11
117.2000106026822
 21
382.5000451120631
 31
0.0
  0
LINE
  5
1DB
330
2
100
AcDbEntity
  8
L-ZISSEN
100
AcDbLine
 10
136.7500106026831
 20
388.7000451120631
 30
0.0
 11
145.2500106026811
 21
388.7000451120631
 31
0.0
  0
TEXT
  5
1DC
330
2
100
AcDbEntity
  8
L-ZISSEN
100
AcDbText
 10
74.0000106026822
 20
477.0000451120631
 30
0.0
 40
4.5
  1
03J
100
AcDbText
  0
LINE
  5
1DD
330
2
100
AcDbEntity
  8
L-TYUSIN
100
AcDbLine
 10
155.000010602682
 20
430.5000451120632
 30
0.0
 11
155.000010602682
 21
450.5000451120631
 31
0.0
  0
LINE
  5
1DE
330
2
100
AcDbEntity
  8
L-ZISSEN
100
AcDbLine
 10
125.0000106026822
 20
426.0000451120633
 30
0.0
 11
125.0000106026822
 21
453.5000451120631
 31
0.0
  0
LINE
  5
1DF
330
2
100
AcDbEntity
  8
L-ZISSEN
100
AcDbLine
 10
100.2000106026822
 20
411.000045112063
 30
0.0
 11
107.2000106026822
 21
411.000045112063
 31
0.0
  0
LINE
  5
1E0
330
2
100
AcDbEntity
  8
L-ZISSEN
100
AcDbLine
 10
107.2000106026822
 20
414.000045112063
 30
0.0
 11
117.2000106026822
 21
414.000045112063
 31
0.0
  0
LINE
  5
1E1
330
2
100
AcDbEntity
  8
L-ZISSEN
100
AcDbLine
 10
113.6000106026822
 20
424.5000451120631
 30
0.0
 11
117.2000106026822
 21
424.5000451120631
 31
0.0
  0
LINE
  5
1E2
330
2
100
AcDbEntity
  8
L-ZISSEN
100
AcDbLine
 10
113.6000106026822
 20
417.5000451120631
 30
0.0
 11
117.2000106026822
 21
417.5000451120631
 31
0.0
  0
LINE
  5
1E3
330
2
100
AcDbEntity
  8
L-ZISSEN
100
AcDbLine
 10
113.6000106026822
 20
424.5000451120631
 30
0.0
 11
113.6000106026822
 21
417.5000451120631
 31
0.0
  0
LINE
  5
1E4
330
2
100
AcDbEntity
  8
L-ZISSEN
100
AcDbLine
 10
146.5000106026821
 20
427.0000451120631
 30
0.0
 11
146.5000106026821
 21
395.0000451120631
 31
0.0
  0
LINE
  5
1E5
330
2
100
AcDbEntity
  8
L-ZISSEN
100
AcDbLine
 10
135.5000106026822
 20
427.0000451120631
 30
0.0
 11
135.5000106026822
 21
395.0000451120631
 31
0.0
  0
LINE
  5
1E6
330
2
100
AcDbEntity
  8
L-ZISSEN
100
AcDbLine
 10
135.5000106026822
 20
395.0000451120631
 30
0.0
 11
146.5000106026821
 21
395.0000451120631
 31
0.0
  0
LINE
  5
1E7
330
2
100
AcDbEntity
  8
L-ZISSEN
100
AcDbLine
 10
135.5000106026822
 20
418.0000451120632
 30
0.0
 11
125.2000106026822
 21
418.0000451120632
 31
0.0
  0
LINE
  5
1E8
330
2
100
AcDbEntity
  8
L-ZISSEN
100
AcDbLine
 10
108.5000106026822
 20
462.5000451120631
 30
0.0
 11
133.8038581799753
 21
462.5000451120631
 31
0.0
  0
LINE
  5
1E9
330
2
100
AcDbEntity
  8
L-ZISSEN
100
AcDbLine
 10
108.5000106026822
 20
462.5000451120631
 30
0.0
 11
108.5000106026822
 21
453.5000451120631
 31
0.0
  0
LINE
  5
1EA
330
2
100
AcDbEntity
  8
L-TYUSIN
100
AcDbLine
 10
116.0000106026822
 20
467.5000451120631
 30
0.0
 11
116.0000106026822
 21
448.5000451120631
 31
0.0
  0
LINE
  5
1EB
330
2
100
AcDbEntity
  8
L-ZISSEN
100
AcDbLine
 10
133.8038581799753
 20
462.5000451120631
 30
0.0
 11
133.8038581799753
 21
453.5000451120631
 31
0.0
  0
LINE
  5
1EC
330
2
100
AcDbEntity
  8
L-ZISSEN
100
AcDbLine
 10
139.0000106026822
 20
453.5000451120631
 30
0.0
 11
133.8038581799753
 21
462.5000451120631
 31
0.0
  0
TEXT
  5
1ED
330
2
100
AcDbEntity
  8
L-ZISSEN
100
AcDbText
 10
74.0000106026822
 20
484.0000451120631
 30
0.0
 40
4.5
  1
02
100
AcDbText
  0
LINE
  5
1EE
330
2
100
AcDbEntity
  8
L-ZISSEN
100
AcDbLine
 10
302.0000106026821
 20
384.300045112063
 30
0.0
 11
258.8000106026822
 21
384.300045112063
 31
0.0
  0
LINE
  5
1EF
330
2
100
AcDbEntity
  8
L-ZISSEN
100
AcDbLine
 10
298.0000106026821
 20
380.5000451120629
 30
0.0
 11
269.800010602682
 21
380.5000451120637
 31
0.0
  0
LINE
  5
1F0
330
2
100
AcDbEntity
  8
L-ZISSEN
100
AcDbLine
 10
269.800010602682
 20
371.0000451120629
 30
0.0
 11
298.0000106026821
 21
371.0000451120629
 31
0.0
  0
LINE
  5
1F1
330
2
100
AcDbEntity
  8
L-ZISSEN
100
AcDbLine
 10
269.800010602682
 20
375.5000451120629
 30
0.0
 11
298.0000106026821
 21
375.5000451120629
 31
0.0
  0
LINE
  5
1F2
330
2
100
AcDbEntity
  8
L-ZISSEN
100
AcDbLine
 10
302.0000106026821
 20
415.7000451120632
 30
0.0
 11
258.8000106026821
 21
415.7000451120632
 31
0.0
  0
LINE
  5
1F3
330
2
100
AcDbEntity
  8
L-TYUSIN
100
AcDbLine
 10
327.0000106026821
 20
350.7348951120627
 30
0.0
 11
283.2750106026833
 21
350.7348951120626
 31
0.0
  0
LINE
  5
1F4
330
2
100
AcDbEntity
  8
L-ZISSEN
100
AcDbLine
 10
296.750010602682
 20
339.5000451120626
 30
0.0
 11
270.7500106026815
 21
339.5000451120627
 31
0.0
  0
LINE
  5
1F5
330
2
100
AcDbEntity
  8
L-ZISSEN
100
AcDbLine
 10
258.8000106026822
 20
374.0000451120631
 30
0.0
 11
258.800010602682
 21
426.0000451120633
 31
0.0
  0
LINE
  5
1F6
330
2
100
AcDbEntity
  8
L-ZISSEN
100
AcDbLine
 10
269.800010602682
 20
415.7000451120632
 30
0.0
 11
269.800010602682
 21
371.0000451120629
 31
0.0
  0
LINE
  5
1F7
330
2
100
AcDbEntity
  8
L-ZISSEN
100
AcDbLine
 10
205.2500106026815
 20
388.7000451120631
 30
0.0
 11
205.2500106026815
 21
395.0000451120631
 31
0.0
  0
LINE
  5
1F8
330
2
100
AcDbEntity
  8
L-ZISSEN
100
AcDbLine
 10
208.7000106026822
 20
418.0000451120632
 30
0.0
 11
208.7000106026822
 21
374.0000451120632
 31
0.0
  0
LINE
  5
1F9
330
2
100
AcDbEntity
  8
L-ZISSEN
100
AcDbLine
 10
216.800010602682
 20
426.0000451120631
 30
0.0
 11
216.800010602682
 21
374.0000451120632
 31
0.0
  0
LINE
  5
1FA
330
2
100
AcDbEntity
  8
L-ZISSEN
100
AcDbLine
 10
196.7500106026831
 20
388.7000451120631
 30
0.0
 11
196.7500106026831
 21
395.0000451120631
 31
0.0
  0
LINE
  5
1FB
330
2
100
AcDbEntity
  8
L-TYUSIN
100
AcDbLine
 10
171.0000106026821
 20
383.700045112063
 30
0.0
 11
171.0000106026821
 21
431.0000451120632
 31
0.0
  0
LINE
  5
1FC
330
2
100
AcDbEntity
  8
L-TYUSIN
100
AcDbLine
 10
171.0000106026821
 20
381.0000451120631
 30
0.0
 11
171.0000106026821
 21
458.5000451120631
 31
0.0
  0
LINE
  5
1FD
330
2
100
AcDbEntity
  8
L-ZISSEN
100
AcDbLine
 10
258.8000106026822
 20
374.0000451120632
 30
0.0
 11
208.7000106026822
 21
374.0000451120632
 31
0.0
  0
LINE
  5
1FE
330
2
100
AcDbEntity
  8
L-ZISSEN
100
AcDbLine
 10
205.2500106026815
 20
388.7000451120631
 30
0.0
 11
196.7500106026831
 21
388.7000451120631
 31
0.0
  0
LINE
  5
1FF
330
2
100
AcDbEntity
  8
L-TYUSIN
100
AcDbLine
 10
283.2750106026833
 20
334.5000451120625
 30
0.0
 11
283.2750106026833
 21
389.4788966309592
 31
0.0
  0
LINE
  5
200
330
2
100
AcDbEntity
  8
L-ZISSEN
100
AcDbLine
 10
270.7500106026815
 20
339.5000451120626
 30
0.0
 11
270.7500106026821
 21
370.7000451120629
 31
0.0
  0
MTEXT
  5
201
330
2
100
AcDbEntity
  8
L-ZISSEN
100
AcDbMText
 10
276.8331527537069
 20
298.4845698730472
 30
0.0
 40
4.5
 41
0.0
 71
     7
 72
     1
  1
P.P
1001
ACAD
1000
MTEXTBEGIN
1070
    73
1070
     1
1070
    44
1040
1.0
1070
    74
1070
     0
1000
MTEXTEND
1000
MTEXTBEGIN
1070
    73
1070
     1
1070
    44
1040
1.0
1070
    74
1070
     0
1000
MTEXTEND
1000
MTEXTBEGIN
1070
    73
1070
     1
1070
    44
1040
1.0
1070
    74
1070
     0
1000
MTEXTEND
  0
LINE
  5
202
330
2
100
AcDbEntity
  8
L-ZISSEN
100
AcDbLine
 10
266.6000106026822
 20
384.0000451120634
 30
0.0
 11
261.400010602682
 21
384.0000451120634
 31
0.0
  0
LINE
  5
203
330
2
100
AcDbEntity
  8
L-ZISSEN
100
AcDbLine
 10
261.400010602682
 20
384.0000451120634
 30
0.0
 11
261.400010602682
 21
384.300045112063
 31
0.0
  0
LINE
  5
204
330
2
100
AcDbEntity
  8
L-TYUSIN
100
AcDbLine
 10
264.0000106026822
 20
389.0000451120632
 30
0.0
 11
264.0000106026822
 21
379.0000451120632
 31
0.0
  0
LINE
  5
205
330
2
100
AcDbEntity
  8
L-ZISSEN
100
AcDbLine
 10
266.6000106026822
 20
384.0000451120634
 30
0.0
 11
266.6000106026822
 21
384.300045112063
 31
0.0
  0
LINE
  5
206
330
2
100
AcDbEntity
  8
L-ZISSEN
100
AcDbLine
 10
208.1961630253891
 20
462.5000451120631
 30
0.0
 11
233.5000106026824
 21
462.5000451120631
 31
0.0
  0
LINE
  5
207
330
2
100
AcDbEntity
  8
L-ZISSEN
100
AcDbLine
 10
217.0000106026821
 20
426.0000451120633
 30
0.0
 11
217.0000106026824
 21
453.5000451120631
 31
0.0
  0
LINE
  5
208
330
2
100
AcDbEntity
  8
L-TYUSIN
100
AcDbLine
 10
187.0000106026821
 20
430.5000451120632
 30
0.0
 11
187.0000106026821
 21
450.5000451120631
 31
0.0
  0
CIRCLE
  5
209
330
2
100
AcDbEntity
  8
L-ZISSEN
100
AcDbCircle
 10
187.0000106026821
 20
440.5000451120631
 30
0.0
 40
5.7225
  0
LINE
  5
20A
330
2
100
AcDbEntity
  8
L-ZISSEN
100
AcDbLine
 10
206.5000106026824
 20
427.0000451120631
 30
0.0
 11
206.500010602682
 21
395.0000451120631
 31
0.0
  0
LINE
  5
20B
330
2
100
AcDbEntity
  8
L-ZISSEN
100
AcDbLine
 10
195.5000106026824
 20
427.0000451120631
 30
0.0
 11
195.5000106026821
 21
395.0000451120631
 31
0.0
  0
LINE
  5
20C
330
2
100
AcDbEntity
  8
L-ZISSEN
100
AcDbLine
 10
206.500010602682
 20
395.0000451120631
 30
0.0
 11
195.5000106026824
 21
395.0000451120631
 31
0.0
  0
LINE
  5
20D
330
2
100
AcDbEntity
  8
L-ZISSEN
100
AcDbLine
 10
216.800010602682
 20
418.0000451120632
 30
0.0
 11
206.5000106026824
 21
418.0000451120632
 31
0.0
  0
LINE
  5
20E
330
2
100
AcDbEntity
  8
L-TYUSIN
100
AcDbLine
 10
197.0000106026821
 20
440.5000451120631
 30
0.0
 11
177.0000106026821
 21
440.5000451120631
 31
0.0
  0
LINE
  5
20F
330
2
100
AcDbEntity
  8
L-ZISSEN
100
AcDbLine
 10
203.0000106026824
 20
453.5000451120631
 30
0.0
 11
208.1961630253891
 21
462.5000451120631
 31
0.0
  0
LINE
  5
210
330
2
100
AcDbEntity
  8
L-ZISSEN
100
AcDbLine
 10
208.1961630253891
 20
462.5000451120631
 30
0.0
 11
208.1961630253891
 21
453.5000451120631
 31
0.0
  0
LINE
  5
211
330
2
100
AcDbEntity
  8
L-ZISSEN
100
AcDbLine
 10
233.5000106026824
 20
462.5000451120631
 30
0.0
 11
233.5000106026824
 21
453.5000451120631
 31
0.0
  0
LINE
  5
212
330
2
100
AcDbEntity
  8
L-TYUSIN
100
AcDbLine
 10
226.0000106026821
 20
467.5000451120631
 30
0.0
 11
226.0000106026821
 21
448.5000451120631
 31
0.0
  0
LINE
  5
213
330
2
100
AcDbEntity
  8
L-ZISSEN
100
AcDbLine
 10
300.0000106026821
 20
415.7000451120632
 30
0.0
 11
300.0000106026821
 21
384.300045112063
 31
0.0
  0
LINE
  5
214
330
2
100
AcDbEntity
  8
L-ZISSEN
100
AcDbLine
 10
302.0000106026821
 20
415.7000451120632
 30
0.0
 11
302.0000106026821
 21
384.300045112063
 31
0.0
  0
LINE
  5
215
330
2
100
AcDbEntity
  8
L-ZISSEN
100
AcDbLine
 10
295.5000106026821
 20
415.7000451120632
 30
0.0
 11
295.5000106026821
 21
380.5000451120629
 31
0.0
  0
LINE
  5
216
330
2
100
AcDbEntity
  8
L-ZISSEN
100
AcDbLine
 10
296.750010602682
 20
339.5000451120626
 30
0.0
 11
296.750010602682
 21
370.7000451120629
 31
0.0
  0
LINE
  5
217
330
2
100
AcDbEntity
  8
L-ZISSEN
100
AcDbLine
 10
312.2500106026817
 20
339.5000451120626
 30
0.0
 11
312.2500106026817
 21
361.9000451120626
 31
0.0
  0
LINE
  5
218
330
2
100
AcDbEntity
  8
L-ZISSEN
100
AcDbLine
 10
317.0000106026821
 20
339.5000899974598
 30
0.0
 11
317.0000106026821
 21
361.9697002266655
 31
0.0
  0
LINE
  5
219
330
2
100
AcDbEntity
  8
L-ZISSEN
100
AcDbLine
 10
322.0000106026819
 20
339.5000899974598
 30
0.0
 11
322.000010602682
 21
361.9697002266655
 31
0.0
  0
LINE
  5
21A
330
2
100
AcDbEntity
  8
L-ZISSEN
100
AcDbLine
 10
322.000010602682
 20
339.5000899974598
 30
0.0
 11
317.0000106026821
 21
339.5000899974598
 31
0.0
  0
LINE
  5
21B
330
2
100
AcDbEntity
  8
L-ZISSEN
100
AcDbLine
 10
296.750010602682
 20
339.5000451120626
 30
0.0
 11
312.2500106026817
 21
339.5000451120626
 31
0.0
  0
LINE
  5
21C
330
2
100
AcDbEntity
  8
L-ZISSEN
100
AcDbLine
 10
317.0000106026821
 20
341.5500451120627
 30
0.0
 11
312.2500106026817
 21
341.5500451120627
 31
0.0
  0
LINE
  5
21D
330
2
100
AcDbEntity
  8
L-ZISSEN
100
AcDbLine
 10
322.000010602682
 20
361.9697002266655
 30
0.0
 11
317.0000106026821
 21
361.9697002266655
 31
0.0
  0
LINE
  5
21E
330
2
100
AcDbEntity
  8
L-ZISSEN
100
AcDbLine
 10
312.2500106026817
 20
361.9000451120626
 30
0.0
 11
296.750010602682
 21
361.9000451120626
 31
0.0
  0
LINE
  5
21F
330
2
100
AcDbEntity
  8
L-ZISSEN
100
AcDbLine
 10
317.0000106026821
 20
360.1500451120625
 30
0.0
 11
312.2500106026817
 21
360.1500451120625
 31
0.0
  0
LINE
  5
220
330
2
100
AcDbEntity
  8
L-ZISSEN
100
AcDbLine
 10
298.0000106026821
 20
380.5000451120629
 30
0.0
 11
298.0000106026821
 21
371.0000451120629
 31
0.0
  0
LINE
  5
221
330
2
100
AcDbEntity
  8
L-ZISSEN
100
AcDbLine
 10
302.0000106026821
 20
386.2500451120629
 30
0.0
 11
300.0000106026821
 21
386.2500451120629
 31
0.0
  0
LINE
  5
222
330
2
100
AcDbEntity
  8
L-ZISSEN
100
AcDbLine
 10
302.0000106026821
 20
391.7500451120629
 30
0.0
 11
300.0000106026821
 21
391.7500451120629
 31
0.0
  0
LINE
  5
223
330
2
100
AcDbEntity
  8
L-ZISSEN
100
AcDbLine
 10
302.0000106026821
 20
392.5000451120629
 30
0.0
 11
300.0000106026821
 21
392.5000451120629
 31
0.0
  0
LINE
  5
224
330
2
100
AcDbEntity
  8
L-TYUSIN
100
AcDbLine
 10
470.2239931345262
 20
403.1507782523127
 30
0.0
 11
470.2239931345262
 21
177.1354531418019
 31
0.0
  0
TEXT
  5
225
330
2
100
AcDbEntity
  8
L-ZISSEN
100
AcDbText
 10
480.2239931345264
 20
294.6416799763269
 30
0.0
 40
4.5
  1
MODEL No. :  MVS-492-0*Y****R*
100
AcDbText
  0
TEXT
  5
226
330
2
100
AcDbEntity
  8
L-ZISSEN
100
AcDbText
 10
480.2239931345264
 20
294.6416799763269
 30
0.0
 40
4.5
  1
MODEL No. :
100
AcDbText
  0
LINE
  5
227
330
2
100
AcDbEntity
  8
L-ZISSEN
100
AcDbLine
 10
422.000010602682
 20
96.50004511206311
 30
0.0
 11
422.000010602682
 21
123.0000451120631
 31
0.0
  0
LINE
  5
228
330
2
100
AcDbEntity
  8
L-ZISSEN
100
AcDbLine
 10
427.5000106026821
 20
96.50004511206311
 30
0.0
 11
427.5000106026821
 21
87.50004511206311
 31
0.0
  0
LINE
  5
229
330
2
100
AcDbEntity
  8
L-ZISSEN
100
AcDbLine
 10
421.0000106026821
 20
123.0000451120631
 30
0.0
 11
421.0000106026821
 21
155.0000451120631
 31
0.0
  0
LEADER
  5
22A
330
2
100
AcDbEntity
  8
L-ZISSEN
100
AcDbLeader
  3
STANDARD
 73
     0
 74
     0
 40
5.599999999999998
 41
9.599999999999996
 76
     3
 10
563.8098622117398
 20
212.1390603500244
 30
0.0
 10
572.0105306500167
 20
189.1503625089539
 30
0.0
 10
574.3375759882423
 20
189.1503625089539
 30
0.0
1001
ACAD
1000
DSTYLE
1002
{
1070
     5
1000

1070
    40
1040
2.0
1070
    41
1040
2.0
1070
    42
1040
2.0
1070
    44
1040
2.0
1070
    46
1040
1.0
1070
    73
1070
     0
1070
    74
1070
     0
1070
    77
1070
     1
1070
   140
1040
2.799999999999998
1070
   147
1040
1.0
1070
   172
1070
     1
1070
   174
1070
     1
1070
   271
1070
     1
1070
   287
1070
     5
1070
   342
1005
0
1002
}
1000
LEANOF
1010
0.0
1020
0.0
1030
0.0
1000
LEANOF
1010
0.0
1020
0.0
1030
0.0
  0
MTEXT
  5
22B
330
2
100
AcDbEntity
  8
L-ZISSEN
100
AcDbMText
 10
576.366998979204
 20
191.1503625089538
 30
0.0
 40
4.5
 41
0.0
 71
     7
 72
     1
  1
P.P
1001
ACAD
1000
MTEXTBEGIN
1070
    73
1070
     1
1070
    44
1040
1.0
1070
    74
1070
     0
1000
MTEXTEND
1000
MTEXTBEGIN
1070
    73
1070
     1
1070
    44
1040
1.0
1070
    74
1070
     0
1000
MTEXTEND
1000
MTEXTBEGIN
1070
    73
1070
     1
1070
    44
1040
1.0
1070
    74
1070
     0
1000
MTEXTEND
  0
LINE
  5
22C
330
2
100
AcDbEntity
  8
L-TYUSIN
100
AcDbLine
 10
563.8098622117398
 20
251.3809846785456
 30
0.0
 11
563.8098622117398
 21
235.3809846785445
 31
0.0
  0
LEADER
  5
22D
330
2
100
AcDbEntity
  8
L-ZISSEN
100
AcDbLeader
  3
STANDARD
 73
     0
 74
     0
 40
5.599999999999998
 41
9.599999999999996
 76
     3
 10
563.8098622117398
 20
243.3809846785448
 30
0.0
 10
572.0105306500167
 20
270.4953778650273
 30
0.0
 10
574.3375759882423
 20
270.4953778650273
 30
0.0
210
0.0
220
0.0
230
-1.0
1001
ACAD
1000
DSTYLE
1002
{
1070
     5
1000

1070
    40
1040
2.0
1070
    41
1040
2.0
1070
    42
1040
2.0
1070
    44
1040
2.0
1070
    46
1040
1.0
1070
    73
1070
     0
1070
    74
1070
     0
1070
    77
1070
     1
1070
   140
1040
2.799999999999998
1070
   147
1040
1.0
1070
   172
1070
     1
1070
   174
1070
     1
1070
   271
1070
     1
1070
   287
1070
     5
1070
   342
1005
0
1002
}
1000
LEANOF
1010
0.0
1020
0.0
1030
0.0
1000
LEANOF
1010
0.0
1020
0.0
1030
0.0
  0
LINE
  5
22E
330
2
100
AcDbEntity
  8
L-TYUSIN
100
AcDbLine
 10
563.8098622117398
 20
207.1390603500244
 30
0.0
 11
563.8098622117398
 21
230.4390603500244
 31
0.0
  0
LINE
  5
22F
330
2
100
AcDbEntity
  8
L-ZISSEN
100
AcDbLine
 10
560.80986221174
 20
225.4390603500244
 30
0.0
 11
560.80986221174
 21
212.1390603500244
 31
0.0
  0
LINE
  5
230
330
2
100
AcDbEntity
  8
L-ZISSEN
100
AcDbLine
 10
566.8098622117399
 20
225.4390603500244
 30
0.0
 11
566.8098622117399
 21
212.1390603500244
 31
0.0
  0
LINE
  5
231
330
2
100
AcDbEntity
  8
L-ZISSEN
100
AcDbLine
 10
564.20986221174
 20
225.4390603500244
 30
0.0
 11
566.8098622117399
 21
225.4390603500244
 31
0.0
  0
LINE
  5
232
330
2
100
AcDbEntity
  8
L-ZISSEN
100
AcDbLine
 10
564.20986221174
 20
225.4390603500244
 30
0.0
 11
564.20986221174
 21
223.4390603500244
 31
0.0
  0
LINE
  5
233
330
2
100
AcDbEntity
  8
L-ZISSEN
100
AcDbLine
 10
564.20986221174
 20
223.4390603500244
 30
0.0
 11
563.40986221174
 21
223.4390603500244
 31
0.0
  0
LINE
  5
234
330
2
100
AcDbEntity
  8
L-ZISSEN
100
AcDbLine
 10
563.40986221174
 20
223.4390603500244
 30
0.0
 11
563.40986221174
 21
225.4390603500244
 31
0.0
  0
LINE
  5
235
330
2
100
AcDbEntity
  8
L-ZISSEN
100
AcDbLine
 10
560.80986221174
 20
225.4390603500244
 30
0.0
 11
563.40986221174
 21
225.4390603500244
 31
0.0
  0
LINE
  5
236
330
2
100
AcDbEntity
  8
L-ZISSEN
100
AcDbLine
 10
563.40986221174
 20
240.4077709290811
 30
0.0
 11
563.40986221174
 21
246.3541984280085
 31
0.0
  0
LINE
  5
237
330
2
100
AcDbEntity
  8
L-ZISSEN
100
AcDbLine
 10
564.20986221174
 20
246.3541984280085
 30
0.0
 11
564.20986221174
 21
240.4077709290811
 31
0.0
  0
CIRCLE
  5
238
330
2
100
AcDbEntity
  8
L-ZISSEN
100
AcDbCircle
 10
563.8098622117398
 20
243.3809846785448
 30
0.0
 40
3.0
  0
MTEXT
  5
239
330
2
100
AcDbEntity
  8
L-ZISSEN
100
AcDbMText
 10
576.6430043627625
 20
271.8655094395294
 30
0.0
 40
4.5
 41
0.0
 71
     7
 72
     1
  1
P.P
1001
ACAD
1000
MTEXTBEGIN
1070
    73
1070
     1
1070
    44
1040
1.0
1070
    74
1070
     0
1000
MTEXTEND
1000
MTEXTBEGIN
1070
    73
1070
     1
1070
    44
1040
1.0
1070
    74
1070
     0
1000
MTEXTEND
1000
MTEXTBEGIN
1070
    73
1070
     1
1070
    44
1040
1.0
1070
    74
1070
     0
1000
MTEXTEND
  0
LINE
  5
23A
330
2
100
AcDbEntity
  8
L-TYUSIN
100
AcDbLine
 10
470.2239931345262
 20
319.6416799763269
 30
0.0
 11
687.7682404693594
 21
319.6416799763269
 31
0.0
  0
TEXT
  5
23B
330
2
100
AcDbEntity
  8
L-ZISSEN
100
AcDbText
 10
483.0299427885369
 20
393.073662270682
 30
0.0
 40
4.5
  1
EXTERNAL PILOT AIR SUPPLY
100
AcDbText
  0
LINE
  5
23C
330
2
100
AcDbEntity
  8
L-ZISSEN
100
AcDbLine
 10
549.8761450583848
 20
352.3851614921219
 30
0.0
 11
563.2120444697092
 21
343.4945618845723
 31
0.0
  0
TEXT
  5
23D
330
2
100
AcDbEntity
  8
L-ZISSEN
100
AcDbText
 10
482.9957031129258
 20
384.0834741386649
 30
0.0
 40
4.5
  1
MODEL No. :  MVS-492-0*Y**P**
100
AcDbText
  0
CIRCLE
  5
23E
330
2
100
AcDbEntity
  8
L-ZISSEN
100
AcDbCircle
 10
548.2120444697093
 20
353.4945618845723
 30
0.0
 40
4.283
  0
TEXT
  5
23F
330
2
100
AcDbEntity
  8
L-ZISSEN
100
AcDbText
 10
480.2239931345264
 20
304.6416799763268
 30
0.0
 40
4.5
  1
LOCK TYPE MANUAL OPERATION BUTTON
100
AcDbText
  0
LINE
  5
240
330
2
100
AcDbEntity
  8
L-TYUSIN
100
AcDbLine
 10
548.2120444697093
 20
361.4945618845732
 30
0.0
 11
548.2120444697093
 21
345.4945618845722
 31
0.0
  0
SOLID
  5
241
330
2
100
AcDbEntity
  8
L-ZISSEN
100
AcDbTrace
 10
549.6912449929766
 20
352.1078113940093
 30
0.0
 11
550.0610451237935
 21
352.6625115902346
 31
0.0
 12
548.2120444697093
 22
353.4945618845723
 32
0.0
 13
548.2120444697093
 23
353.4945618845723
 33
0.0
  0
TEXT
  5
242
330
2
100
AcDbEntity
  8
L-ZISSEN
100
AcDbText
 10
567.2120444697092
 20
341.2445618845723
 30
0.0
 40
4.5
  1
P.P
100
AcDbText
  0
LINE
  5
243
330
2
100
AcDbEntity
  8
L-ZISSEN
100
AcDbLine
 10
563.2120444697092
 20
343.4945618845723
 30
0.0
 11
565.2120444697092
 21
343.4945618845723
 31
0.0
  0
ENDSEC
  0
SECTION
  2
OBJECTS
  0
DICTIONARY
  5
7
330
0
100
AcDbDictionary
  3
ACAD_GROUP
350
1F
  3
ACAD_LAYOUT
350
B
  3
ACAD_MLINESTYLE
350
20
  3
ACAD_PLOTSETTINGS
350
21
1001
ACAD
1000
TREAT_AS_HARD
1070
     0
1000
TREAT_AS_HARD
1070
     0
  0
DICTIONARY
  5
24B
330
2
100
AcDbDictionary
  3
ACAD_LAYOUTSELFREF
350
259
1001
ACAD
1000
TREAT_AS_HARD
1070
     0
  0
DICTIONARY
  5
24D
330
C
100
AcDbDictionary
  3
ACAD_LAYOUTSELFREF
350
25A
1001
ACAD
1000
TREAT_AS_HARD
1070
     0
  0
DICTIONARY
  5
1F
102
{ACAD_REACTORS
330
7
102
}
330
7
100
AcDbDictionary
1001
ACAD
1000
TREAT_AS_HARD
1070
     0
1000
TREAT_AS_HARD
1070
     0
  0
DICTIONARY
  5
B
102
{ACAD_REACTORS
330
7
102
}
330
7
100
AcDbDictionary
1001
ACAD
1000
TREAT_AS_HARD
1070
     0
1000
TREAT_AS_HARD
1070
     0
  0
DICTIONARY
  5
20
102
{ACAD_REACTORS
330
7
102
}
330
7
100
AcDbDictionary
  3
STANDARD
350
23
1001
ACAD
1000
TREAT_AS_HARD
1070
     0
1000
TREAT_AS_HARD
1070
     0
  0
DICTIONARY
  5
21
102
{ACAD_REACTORS
330
7
102
}
330
7
100
AcDbDictionary
1001
ACAD
1000
TREAT_AS_HARD
1070
     0
1000
TREAT_AS_HARD
1070
     0
  0
XRECORD
  5
259
102
{ACAD_REACTORS
330
24B
102
}
330
24B
100
AcDbXrecord
340
2
  0
XRECORD
  5
25A
102
{ACAD_REACTORS
330
24D
102
}
330
24D
100
AcDbXrecord
340
C
  0
MLINESTYLE
  5
23
102
{ACAD_REACTORS
330
20
102
}
330
20
100
AcDbMlineStyle
  2
STANDARD
 70
     0
  3

 62
   256
 51
90.0
 52
90.0
 71
     2
 49
0.5
 62
   256
  6
BYLAYER
 49
-0.5
 62
   256
  6
BYLAYER
  0
ENDSEC
  0
EOF
