  0
SECTION
  2
HEADER
  9
$ACADVER
  1
AC1012
  9
$DWGCODEPAGE
  3
dos932
  9
$INSBASE
 10
0.0
 20
0.0
 30
0.0
  9
$EXTMIN
 10
189.799965984931
 20
79.99996101807283
 30
0.0
  9
$EXTMAX
 10
909.1448012749987
 20
414.7513248203558
 30
0.0000000232876899
  9
$LIMMIN
 10
0.0
 20
0.0
  9
$LIMMAX
 10
594.0
 20
420.0
  9
$ORTHOMODE
 70
     0
  9
$REGENMODE
 70
     1
  9
$FILLMODE
 70
     1
  9
$QTEXTMODE
 70
     0
  9
$MIRRTEXT
 70
     0
  9
$DRAGMODE
 70
     2
  9
$LTSCALE
 40
0.5
  9
$OSMODE
 70
    37
  9
$ATTMODE
 70
     1
  9
$TEXTSIZE
 40
4.858365879078064
  9
$TRACEWID
 40
0.05
  9
$TEXTSTYLE
  7
STANDARD
  9
$CLAYER
  8
L-ZISSEN
  9
$CELTYPE
  6
BYLAYER
  9
$CECOLOR
 62
   256
  9
$CELTSCALE
 40
1.0
  9
$DELOBJ
 70
     1
  9
$DISPSILH
 70
     0
  9
$DIMSCALE
 40
2.0
  9
$DIMASZ
 40
2.0
  9
$DIMEXO
 40
1.0
  9
$DIMDLI
 40
8.0
  9
$DIMRND
 40
0.0
  9
$DIMDLE
 40
0.0
  9
$DIMEXE
 40
1.0
  9
$DIMTP
 40
0.0
  9
$DIMTM
 40
0.0
  9
$DIMTXT
 40
2.799999999999999
  9
$DIMCEN
 40
0.8
  9
$DIMTSZ
 40
0.0
  9
$DIMTOL
 70
     0
  9
$DIMLIM
 70
     0
  9
$DIMTIH
 70
     0
  9
$DIMTOH
 70
     0
  9
$DIMSE1
 70
     0
  9
$DIMSE2
 70
     0
  9
$DIMTAD
 70
     1
  9
$DIMZIN
 70
     8
  9
$DIMBLK
  1

  9
$DIMASO
 70
     1
  9
$DIMSHO
 70
     0
  9
$DIMPOST
  1

  9
$DIMAPOST
  1

  9
$DIMALT
 70
     0
  9
$DIMALTD
 70
     2
  9
$DIMALTF
 40
25.4
  9
$DIMLFAC
 40
1.0
  9
$DIMTOFL
 70
     1
  9
$DIMTVP
 40
1.0
  9
$DIMTIX
 70
     1
  9
$DIMSOXD
 70
     0
  9
$DIMSAH
 70
     0
  9
$DIMBLK1
  1

  9
$DIMBLK2
  1

  9
$DIMSTYLE
  2
STANDARD
  9
$DIMCLRD
 70
     0
  9
$DIMCLRE
 70
     0
  9
$DIMCLRT
 70
     0
  9
$DIMTFAC
 40
1.0
  9
$DIMGAP
 40
1.0
  9
$DIMJUST
 70
     0
  9
$DIMSD1
 70
     0
  9
$DIMSD2
 70
     0
  9
$DIMTOLJ
 70
     1
  9
$DIMTZIN
 70
     8
  9
$DIMALTZ
 70
     0
  9
$DIMALTTZ
 70
     0
  9
$DIMFIT
 70
     3
  9
$DIMUPT
 70
     0
  9
$DIMUNIT
 70
     2
  9
$DIMDEC
 70
     3
  9
$DIMTDEC
 70
     4
  9
$DIMALTU
 70
     2
  9
$DIMALTTD
 70
     2
  9
$DIMTXSTY
  7
STANDARD
  9
$DIMAUNIT
 70
     0
  9
$LUNITS
 70
     2
  9
$LUPREC
 70
     4
  9
$SKETCHINC
 40
0.1
  9
$FILLETRAD
 40
0.0
  9
$AUNITS
 70
     0
  9
$AUPREC
 70
     0
  9
$MENU
  1
acad
  9
$ELEVATION
 40
0.0
  9
$PELEVATION
 40
0.0
  9
$THICKNESS
 40
0.0
  9
$LIMCHECK
 70
     0
  9
$BLIPMODE
 70
     0
  9
$CHAMFERA
 40
0.0
  9
$CHAMFERB
 40
0.0
  9
$CHAMFERC
 40
0.0
  9
$CHAMFERD
 40
0.0
  9
$SKPOLY
 70
     0
  9
$TDCREATE
 40
2449002.565639698
  9
$TDUPDATE
 40
2453237.403123842
  9
$TDINDWG
 40
1.3711451389
  9
$TDUSRTIMER
 40
1.3711451389
  9
$USRTIMER
 70
     1
  9
$ANGBASE
 50
0.0
  9
$ANGDIR
 70
     0
  9
$PDMODE
 70
     0
  9
$PDSIZE
 40
0.0
  9
$PLINEWID
 40
0.0
  9
$COORDS
 70
     0
  9
$SPLFRAME
 70
     0
  9
$SPLINETYPE
 70
     6
  9
$SPLINESEGS
 70
     8
  9
$ATTDIA
 70
     0
  9
$ATTREQ
 70
     1
  9
$HANDLING
 70
-16383
  9
$HANDSEED
  5
1A9
  9
$SURFTAB1
 70
     6
  9
$SURFTAB2
 70
     6
  9
$SURFTYPE
 70
     6
  9
$SURFU
 70
     6
  9
$SURFV
 70
     6
  9
$UCSNAME
  2

  9
$UCSORG
 10
0.0
 20
0.0
 30
0.0
  9
$UCSXDIR
 10
1.0
 20
0.0
 30
0.0
  9
$UCSYDIR
 10
0.0
 20
1.0
 30
0.0
  9
$PUCSNAME
  2

  9
$PUCSORG
 10
0.0
 20
0.0
 30
0.0
  9
$PUCSXDIR
 10
1.0
 20
0.0
 30
0.0
  9
$PUCSYDIR
 10
0.0
 20
1.0
 30
0.0
  9
$USERI1
 70
     0
  9
$USERI2
 70
     0
  9
$USERI3
 70
     0
  9
$USERI4
 70
     0
  9
$USERI5
 70
     0
  9
$USERR1
 40
0.0
  9
$USERR2
 40
0.0
  9
$USERR3
 40
0.0
  9
$USERR4
 40
0.0
  9
$USERR5
 40
0.0
  9
$WORLDVIEW
 70
     1
  9
$SHADEDGE
 70
     3
  9
$SHADEDIF
 70
    70
  9
$TILEMODE
 70
     1
  9
$MAXACTVP
 70
    48
  9
$PINSBASE
 10
0.0
 20
0.0
 30
0.0
  9
$PLIMCHECK
 70
     0
  9
$PEXTMIN
 10
1.000000000000000E+20
 20
1.000000000000000E+20
 30
1.000000000000000E+20
  9
$PEXTMAX
 10
-1.000000000000000E+20
 20
-1.000000000000000E+20
 30
-1.000000000000000E+20
  9
$PLIMMIN
 10
0.0
 20
0.0
  9
$PLIMMAX
 10
12.0
 20
9.0
  9
$UNITMODE
 70
     0
  9
$VISRETAIN
 70
     0
  9
$PLINEGEN
 70
     0
  9
$PSLTSCALE
 70
     0
  9
$TREEDEPTH
 70
  3020
  9
$PICKSTYLE
 70
     1
  9
$CMLSTYLE
  2
STANDARD
  9
$CMLJUST
 70
     0
  9
$CMLSCALE
 40
1.0
  9
$SAVEIMAGES
 70
     1
  0
ENDSEC
  0
SECTION
  2
CLASSES
  0
CLASS
  1
DICTIONARYVAR
  2
AcDbDictionaryVar
  3
AutoCAD 2000
 90
    32768
280
     0
281
     0
  0
CLASS
  1
OLE2FRAME
  2
AcDbOle2Frame
  3
AutoCAD 2000
 90
    32768
280
     0
281
     1
  0
CLASS
  1
LWPOLYLINE
  2
AcDbPolyline
  3
AutoCAD 2000
 90
    32768
280
     0
281
     1
  0
CLASS
  1
HATCH
  2
AcDbHatch
  3
AutoCAD 2000
 90
    32768
280
     0
281
     1
  0
CLASS
  1
ACDBDICTIONARYWDFLT
  2
AcDbDictionaryWithDefault
  3
AutoCAD 2000
 90
    32768
280
     0
281
     0
  0
CLASS
  1
ACDBPLACEHOLDER
  2
AcDbPlaceHolder
  3
AutoCAD 2000
 90
    32768
280
     0
281
     0
  0
CLASS
  1
LAYOUT
  2
AcDbLayout
  3
AutoCAD 2000
 90
    32768
280
     0
281
     0
  0
CLASS
  1
LONG_TRANSACTION
  2
AcDbLongTransaction
  3
AutoCAD 2000
 90
    32768
280
     0
281
     0
  0
CLASS
  1
LWPOLYLINE
  2
AcDbPolyline
  3
AutoCAD 2000
 90
    32768
280
     0
281
     1
  0
CLASS
  1
HATCH
  2
AcDbHatch
  3
AutoCAD 2000
 90
    32768
280
     0
281
     1
  0
CLASS
  1
XRECORD
  2
AcDbXrecord
  3
AutoCAD 2000
 90
    32768
280
     0
281
     0
  0
CLASS
  1
LONG_TRANSACTION
  2
AcDbLongTransaction
  3
AutoCAD 2000
 90
    32768
280
     0
281
     0
  0
CLASS
  1
LWPOLYLINE
  2
AcDbPolyline
  3
AutoCAD 2000
 90
    32768
280
     0
281
     1
  0
CLASS
  1
HATCH
  2
AcDbHatch
  3
AutoCAD 2000
 90
    32768
280
     0
281
     1
  0
CLASS
  1
XRECORD
  2
AcDbXrecord
  3
AutoCAD 2000
 90
    32768
280
     0
281
     0
  0
ENDSEC
  0
SECTION
  2
TABLES
  0
TABLE
  2
VPORT
  5
1E
330
0
100
AcDbSymbolTable
 70
     2
  0
VPORT
  5
1A6
330
1E
100
AcDbSymbolTableRecord
100
AcDbViewportTableRecord
  2
*ACTIVE
 70
     0
 10
0.0
 20
0.0
 11
1.0
 21
1.0
 12
335.8897336968284
 22
-106.7125654945725
 13
0.0
 23
0.0
 14
5.0
 24
5.0
 15
0.0
 25
0.0
 16
0.0
 26
0.0
 36
1.0
 17
166.8045712797615
 27
373.5631784892733
 37
0.0000000232876899
 40
503.8346048278164
 41
1.84990253411306
 42
50.0
 43
-0.0000000232876899
 44
-0.0000000232876899
 50
0.0
 51
0.0
 71
     0
 72
   100
 73
     1
 74
     0
 75
     0
 76
     0
 77
     0
 78
     0
  0
ENDTAB
  0
TABLE
  2
LTYPE
  5
19
330
0
100
AcDbSymbolTable
 70
     2
  0
LTYPE
  5
1A
330
19
100
AcDbSymbolTableRecord
100
AcDbLinetypeTableRecord
  2
BYBLOCK
 70
     0
  3

 72
    65
 73
     0
 40
0.0
  0
LTYPE
  5
1B
330
19
100
AcDbSymbolTableRecord
100
AcDbLinetypeTableRecord
  2
BYLAYER
 70
     0
  3

 72
    65
 73
     0
 40
0.0
  0
LTYPE
  5
B
330
19
100
AcDbSymbolTableRecord
100
AcDbLinetypeTableRecord
  2
CONTINUOUS
 70
     0
  3
Solid line
 72
    65
 73
     0
 40
0.0
  0
LTYPE
  5
2B
330
19
100
AcDbSymbolTableRecord
100
AcDbLinetypeTableRecord
  2
CENTER
 70
     0
  3
____ _ ____ _ ____ _ ____ _ 
 72
    65
 73
     4
 40
60.0
 49
45.0
 74
     0
 49
-5.0
 74
     0
 49
5.0
 74
     0
 49
-5.0
 74
     0
  0
ENDTAB
  0
TABLE
  2
LAYER
  5
15
330
0
100
AcDbSymbolTable
 70
     3
  0
LAYER
  5
6
330
15
100
AcDbSymbolTableRecord
100
AcDbLayerTableRecord
  2
0
 70
     0
 62
     7
  6
CONTINUOUS
  0
LAYER
  5
26
330
15
100
AcDbSymbolTableRecord
100
AcDbLayerTableRecord
  2
L-ZISSEN
 70
     0
 62
     7
  6
CONTINUOUS
  0
LAYER
  5
2A
330
15
100
AcDbSymbolTableRecord
100
AcDbLayerTableRecord
  2
L-TYUSIN
 70
     0
 62
     1
  6
CENTER
  0
ENDTAB
  0
TABLE
  2
STYLE
  5
16
330
0
100
AcDbSymbolTable
 70
     1
  0
STYLE
  5
17
330
16
100
AcDbSymbolTableRecord
100
AcDbTextStyleTableRecord
  2
STANDARD
 70
     0
 40
0.0
 41
1.0
 50
0.0
 71
     0
 42
4.858365879078064
  3
txt.shx
  4
bigfont.shx
  0
ENDTAB
  0
TABLE
  2
VIEW
  5
1C
330
0
100
AcDbSymbolTable
 70
     0
  0
ENDTAB
  0
TABLE
  2
UCS
  5
1D
330
0
100
AcDbSymbolTable
 70
     0
  0
ENDTAB
  0
TABLE
  2
APPID
  5
20
330
0
100
AcDbSymbolTable
 70
     1
  0
APPID
  5
A
330
20
100
AcDbSymbolTableRecord
100
AcDbRegAppTableRecord
  2
ACAD
 70
     0
  0
ENDTAB
  0
TABLE
  2
DIMSTYLE
  5
21
330
0
100
AcDbSymbolTable
 70
     1
  0
DIMSTYLE
105
28
330
21
100
AcDbSymbolTableRecord
100
AcDbDimStyleTableRecord
  2
STANDARD
 70
     0
  3

  4

  5

  6

  7

 40
1.0
 41
0.18
 42
0.0625
 43
0.38
 44
0.18
 45
0.0
 46
0.0
 47
0.0
 48
0.0
140
0.18
141
0.09
142
0.0
143
25.4
144
1.0
145
0.0
146
1.0
147
0.09
 71
     0
 72
     0
 73
     1
 74
     1
 75
     0
 76
     0
 77
     0
 78
     0
170
     0
171
     2
172
     0
173
     0
174
     0
175
     0
176
     0
177
     0
178
     0
270
     2
271
     4
272
     4
273
     2
274
     2
340
17
275
     0
280
     0
281
     0
282
     0
283
     1
284
     0
285
     0
286
     0
287
     3
288
     0
  0
ENDTAB
  0
TABLE
  2
BLOCK_RECORD
  5
1
330
0
100
AcDbSymbolTable
 70
     1
  0
BLOCK_RECORD
  5
2
102
{ACAD_XDICTIONARY
360
3
102
}
330
1
100
AcDbSymbolTableRecord
100
AcDbBlockTableRecord
  2
*MODEL_SPACE
  0
BLOCK_RECORD
  5
F
102
{ACAD_XDICTIONARY
360
10
102
}
330
1
100
AcDbSymbolTableRecord
100
AcDbBlockTableRecord
  2
*PAPER_SPACE
  0
BLOCK_RECORD
  5
135
330
1
100
AcDbSymbolTableRecord
100
AcDbBlockTableRecord
  2
A$C8321
  0
ENDTAB
  0
ENDSEC
  0
SECTION
  2
BLOCKS
  0
BLOCK
  5
5
330
2
100
AcDbEntity
  8
0
100
AcDbBlockBegin
  2
*MODEL_SPACE
 70
     0
 10
0.0
 20
0.0
 30
0.0
  3
*MODEL_SPACE
  1

  0
ENDBLK
  5
C
330
2
100
AcDbEntity
  8
0
100
AcDbBlockEnd
  0
BLOCK
  5
12
330
F
100
AcDbEntity
 67
     1
  8
0
100
AcDbBlockBegin
  2
*PAPER_SPACE
 70
     0
 10
0.0
 20
0.0
 30
0.0
  3
*PAPER_SPACE
  1

  0
ENDBLK
  5
13
330
F
100
AcDbEntity
 67
     1
  8
0
100
AcDbBlockEnd
  0
BLOCK
  5
13B
330
135
100
AcDbEntity
  8
0
100
AcDbBlockBegin
  2
A$C8321
 70
     0
 10
0.0
 20
0.0
 30
0.0
  3
A$C8321
  1

  0
LINE
  5
136
330
135
100
AcDbEntity
  8
L-ZISSEN
100
AcDbLine
 10
7.81986377264684
 20
2.800931241379174
 30
-0.0000000232876899
 11
7.81986377264684
 21
2.500931241379447
 31
-0.0000000232876899
  0
LINE
  5
137
330
135
100
AcDbEntity
  8
L-ZISSEN
100
AcDbLine
 10
2.619863772646795
 20
2.800931241379174
 30
-0.0000000232876899
 11
2.619863772646795
 21
2.500931241379447
 31
-0.0000000232876899
  0
LINE
  5
138
330
135
100
AcDbEntity
  8
L-ZISSEN
100
AcDbLine
 10
7.81986377264684
 20
2.800931241379174
 30
-0.0000000232876899
 11
2.619863772647022
 21
2.800931241379174
 31
-0.0000000232876899
  0
LINE
  5
139
330
135
100
AcDbEntity
  8
L-ZISSEN
100
AcDbLine
 10
11.01986377264665
 20
2.50093124137885
 30
-0.0000000232876899
 11
0.0198637726457491
 21
2.500931241377799
 31
-0.0000000232876899
  0
LINE
  5
13A
330
135
100
AcDbEntity
  8
L-TYUSIN
100
AcDbLine
 10
5.219863772646931
 20
0.0009312413794476
 30
-0.0000000232876899
 11
5.219863772646931
 21
4.50093124137922
 31
-0.0000000232876899
  0
ENDBLK
  5
13C
330
135
100
AcDbEntity
  8
0
100
AcDbBlockEnd
  0
ENDSEC
  0
SECTION
  2
ENTITIES
  0
LINE
  5
29
330
2
100
AcDbEntity
  8
L-TYUSIN
  6
CENTER
100
AcDbLine
 10
189.799965984931
 20
345.1473744254312
 30
0.0
 11
567.1999659849316
 21
345.1473744254312
 31
0.0
  0
LINE
  5
2C
330
2
100
AcDbEntity
  8
L-ZISSEN
  6
CONTINUOUS
100
AcDbLine
 10
491.7999659849289
 20
361.1473744254317
 30
0.0
 11
265.1999659849343
 21
361.1473744254316
 31
0.0
  0
LINE
  5
2D
330
2
100
AcDbEntity
  8
L-ZISSEN
  6
CONTINUOUS
100
AcDbLine
 10
491.7999659849289
 20
329.1473744254309
 30
0.0
 11
265.1999659849343
 21
329.1473744254306
 31
0.0
  0
LINE
  5
2E
330
2
100
AcDbEntity
  8
L-TYUSIN
  6
CENTER
100
AcDbLine
 10
201.299965984931
 20
206.9830612601431
 30
0.0
 11
555.6999659849316
 21
206.9830612601431
 31
0.0
  0
LINE
  5
2F
330
2
100
AcDbEntity
  8
L-ZISSEN
  6
CONTINUOUS
100
AcDbLine
 10
265.199965984929
 20
180.9830612601432
 30
0.0
 11
491.7999659849339
 21
180.9830612601431
 31
0.0
  0
LINE
  5
30
330
2
100
AcDbEntity
  8
L-ZISSEN
  6
CONTINUOUS
100
AcDbLine
 10
491.7999659849287
 20
232.9830612601432
 30
0.0
 11
265.199965984934
 21
232.9830612601431
 31
0.0
  0
LINE
  5
31
330
2
100
AcDbEntity
  8
L-TYUSIN
  6
CENTER
100
AcDbLine
 10
189.799965984931
 20
99.99996101807283
 30
0.0
 11
567.1999659849316
 21
99.99996101807283
 31
0.0
  0
LINE
  5
32
330
2
100
AcDbEntity
  8
L-ZISSEN
  6
CONTINUOUS
100
AcDbLine
 10
491.7999659849335
 20
115.9999610180733
 30
0.0
 11
265.1999659849288
 21
115.9999610180732
 31
0.0
  0
LINE
  5
33
330
2
100
AcDbEntity
  8
L-ZISSEN
  6
CONTINUOUS
100
AcDbLine
 10
491.7999659849335
 20
83.99996101807237
 30
0.0
 11
265.1999659849292
 21
83.9999610180723
 31
0.0
  0
LINE
  5
34
330
2
100
AcDbEntity
  8
L-ZISSEN
  6
CONTINUOUS
100
AcDbLine
 10
424.299965984931
 20
180.9830612601431
 30
0.0
 11
424.299965984931
 21
232.9830612601432
 31
0.0
  0
LINE
  5
35
330
2
100
AcDbEntity
  8
L-ZISSEN
  6
CONTINUOUS
100
AcDbLine
 10
332.6999659849315
 20
232.9830612601432
 30
0.0
 11
332.6999659849315
 21
180.9830612601431
 31
0.0
  0
LINE
  5
36
330
2
100
AcDbEntity
  8
L-TYUSIN
  6
CENTER
100
AcDbLine
 10
378.4999659849312
 20
237.9830612601431
 30
0.0
 11
378.4999659849312
 21
175.983061260143
 31
0.0
  0
LINE
  5
37
330
2
100
AcDbEntity
  8
L-ZISSEN
  6
CONTINUOUS
100
AcDbLine
 10
223.4999659849315
 20
191.2830612601437
 30
0.0
 11
223.4999659849315
 21
222.6830612601436
 31
0.0
  0
LINE
  5
38
330
2
100
AcDbEntity
  8
L-ZISSEN
  6
CONTINUOUS
100
AcDbLine
 10
221.4999659849315
 20
191.283061260143
 30
0.0
 11
221.4999659849315
 21
222.683061260143
 31
0.0
  0
LINE
  5
39
330
2
100
AcDbEntity
  8
L-ZISSEN
  6
CONTINUOUS
100
AcDbLine
 10
285.1999659849315
 20
180.9830612601431
 30
0.0
 11
285.1999659849315
 21
232.9830612601432
 31
0.0
  0
LINE
  5
3A
330
2
100
AcDbEntity
  8
L-ZISSEN
  6
CONTINUOUS
100
AcDbLine
 10
265.199965984934
 20
232.9830612601432
 30
0.0
 11
265.199965984929
 21
180.9830612601432
 31
0.0
  0
LINE
  5
3B
330
2
100
AcDbEntity
  8
L-ZISSEN
  6
CONTINUOUS
100
AcDbLine
 10
254.1999659849315
 20
191.283061260143
 30
0.0
 11
254.1999659849315
 21
235.9830612601431
 31
0.0
  0
LINE
  5
3C
330
2
100
AcDbEntity
  8
L-ZISSEN
  6
CONTINUOUS
100
AcDbLine
 10
228.1999659849315
 20
191.283061260143
 30
0.0
 11
228.1999659849315
 21
226.483061260143
 31
0.0
  0
LINE
  5
3D
330
2
100
AcDbEntity
  8
L-ZISSEN
  6
CONTINUOUS
100
AcDbLine
 10
223.9999659849268
 20
114.9999610180727
 30
0.0
 11
253.9999659849265
 21
114.999961018073
 31
0.0
  0
LINE
  5
3E
330
2
100
AcDbEntity
  8
L-ZISSEN
  6
CONTINUOUS
100
AcDbLine
 10
224.1999659849267
 20
114.9999610180727
 30
0.0
 11
254.1999659849265
 21
114.999961018073
 31
0.0
  0
LINE
  5
3F
330
2
100
AcDbEntity
  8
L-ZISSEN
  6
CONTINUOUS
100
AcDbLine
 10
221.4999659849268
 20
111.3999610180728
 30
0.0
 11
253.9999659849265
 21
111.3999610180728
 31
0.0
  0
LINE
  5
40
330
2
100
AcDbEntity
  8
L-ZISSEN
  6
CONTINUOUS
100
AcDbLine
 10
223.9999659849265
 20
84.99996101807278
 30
0.0
 11
253.9999659849265
 21
84.99996101807278
 31
0.0
  0
LINE
  5
41
330
2
100
AcDbEntity
  8
L-ZISSEN
  6
CONTINUOUS
100
AcDbLine
 10
224.1999659849265
 20
84.99996101807278
 30
0.0
 11
254.1999659849265
 21
84.99996101807278
 31
0.0
  0
LINE
  5
42
330
2
100
AcDbEntity
  8
L-ZISSEN
  6
CONTINUOUS
100
AcDbLine
 10
221.4999659849268
 20
88.59996101807267
 30
0.0
 11
253.9999659849265
 21
88.59996101807269
 31
0.0
  0
LINE
  5
43
330
2
100
AcDbEntity
  8
L-ZISSEN
  6
CONTINUOUS
100
AcDbLine
 10
223.9999659849268
 20
114.9999610180727
 30
0.0
 11
223.999965984927
 21
111.3999610180731
 31
0.0
  0
LINE
  5
44
330
2
100
AcDbEntity
  8
L-ZISSEN
  6
CONTINUOUS
100
AcDbLine
 10
223.9999659849268
 20
114.9999610180727
 30
0.0
 11
223.9999659849268
 21
111.3999610180731
 31
0.0
  0
LINE
  5
45
330
2
100
AcDbEntity
  8
L-TYUSIN
  6
CENTER
100
AcDbLine
 10
238.9999659849268
 20
117.4999610180727
 30
0.0
 11
238.9999659849265
 21
82.49996101807278
 31
0.0
  0
LINE
  5
46
330
2
100
AcDbEntity
  8
L-ZISSEN
  6
CONTINUOUS
100
AcDbLine
 10
204.9999659849265
 20
109.1499610180726
 30
0.0
 11
209.7499659849265
 21
109.1499610180726
 31
0.0
  0
LINE
  5
47
330
2
100
AcDbEntity
  8
L-ZISSEN
  6
CONTINUOUS
100
AcDbLine
 10
204.9999659849263
 20
90.84996101807268
 30
0.0
 11
209.7499659849265
 21
90.84996101807268
 31
0.0
  0
LINE
  5
48
330
2
100
AcDbEntity
  8
L-ZISSEN
  6
CONTINUOUS
100
AcDbLine
 10
199.9999659849263
 20
90.49996101807279
 30
0.0
 11
199.9999659849263
 21
109.4999610180725
 31
0.0
  0
LINE
  5
49
330
2
100
AcDbEntity
  8
L-ZISSEN
  6
CONTINUOUS
100
AcDbLine
 10
204.9999659849263
 20
90.49996101807279
 30
0.0
 11
204.9999659849265
 21
109.4999610180725
 31
0.0
  0
LINE
  5
4A
330
2
100
AcDbEntity
  8
L-ZISSEN
  6
CONTINUOUS
100
AcDbLine
 10
199.9999659849263
 20
90.49996101807279
 30
0.0
 11
204.9999659849265
 21
90.49996101807279
 31
0.0
  0
LINE
  5
4B
330
2
100
AcDbEntity
  8
L-ZISSEN
  6
CONTINUOUS
100
AcDbLine
 10
200.5947207803599
 20
99.99996101807392
 30
0.0
 11
199.9999659849263
 21
99.99996101807267
 31
0.0
  0
LINE
  5
4C
330
2
100
AcDbEntity
  8
L-ZISSEN
  6
CONTINUOUS
100
AcDbLine
 10
200.5947207803599
 20
99.99996101807392
 30
0.0
 11
204.9999659849263
 21
99.99996101807255
 31
0.0
  0
LINE
  5
4D
330
2
100
AcDbEntity
  8
L-ZISSEN
  6
CONTINUOUS
100
AcDbLine
 10
199.9999659849263
 20
109.4999610180725
 30
0.0
 11
204.9999659849265
 21
109.4999610180725
 31
0.0
  0
LINE
  5
4E
330
2
100
AcDbEntity
  8
L-ZISSEN
  6
CONTINUOUS
100
AcDbLine
 10
221.4999659849268
 20
111.3999610180728
 30
0.0
 11
221.4999659849268
 21
88.59996101807267
 31
0.0
  0
LINE
  5
4F
330
2
100
AcDbEntity
  8
L-ZISSEN
  6
CONTINUOUS
100
AcDbLine
 10
223.4999659849268
 20
88.59996101807269
 30
0.0
 11
223.4999659849268
 21
111.3999610180728
 31
0.0
  0
LINE
  5
50
330
2
100
AcDbEntity
  8
L-ZISSEN
  6
CONTINUOUS
100
AcDbLine
 10
209.7499659849265
 20
88.79996101807273
 30
0.0
 11
209.7499659849265
 21
111.1999610180726
 31
0.0
  0
LINE
  5
51
330
2
100
AcDbEntity
  8
L-ZISSEN
  6
CONTINUOUS
100
AcDbLine
 10
209.7499659849265
 20
88.79996101807273
 30
0.0
 11
221.4999659849268
 21
88.79996101807273
 31
0.0
  0
LINE
  5
52
330
2
100
AcDbEntity
  8
L-ZISSEN
  6
CONTINUOUS
100
AcDbLine
 10
222.4999659849265
 20
90.24996101807278
 30
0.0
 11
223.4999659849268
 21
90.24996101807278
 31
0.0
  0
LINE
  5
53
330
2
100
AcDbEntity
  8
L-ZISSEN
  6
CONTINUOUS
100
AcDbLine
 10
222.4999659849268
 20
90.24996101807278
 30
0.0
 11
223.4999659849268
 21
90.24996101807278
 31
0.0
  0
LINE
  5
54
330
2
100
AcDbEntity
  8
L-ZISSEN
  6
CONTINUOUS
100
AcDbLine
 10
222.4999659849268
 20
90.24996101807278
 30
0.0
 11
221.4999659849268
 21
90.24996101807278
 31
0.0
  0
LINE
  5
55
330
2
100
AcDbEntity
  8
L-ZISSEN
  6
CONTINUOUS
100
AcDbLine
 10
223.9999659849268
 20
88.59996101807269
 30
0.0
 11
223.9999659849265
 21
84.99996101807278
 31
0.0
  0
LINE
  5
56
330
2
100
AcDbEntity
  8
L-ZISSEN
  6
CONTINUOUS
100
AcDbLine
 10
223.9999659849268
 20
88.59996101807269
 30
0.0
 11
223.9999659849265
 21
84.99996101807278
 31
0.0
  0
LINE
  5
57
330
2
100
AcDbEntity
  8
L-ZISSEN
  6
CONTINUOUS
100
AcDbLine
 10
222.4999659849265
 20
95.74996101807277
 30
0.0
 11
223.4999659849268
 21
95.74996101807277
 31
0.0
  0
LINE
  5
58
330
2
100
AcDbEntity
  8
L-ZISSEN
  6
CONTINUOUS
100
AcDbLine
 10
221.4999659849268
 20
96.49996101807278
 30
0.0
 11
223.4999659849268
 21
96.49996101807278
 31
0.0
  0
LINE
  5
59
330
2
100
AcDbEntity
  8
L-ZISSEN
  6
CONTINUOUS
100
AcDbLine
 10
222.4999659849265
 20
95.74996101807277
 30
0.0
 11
221.4999659849268
 21
95.74996101807277
 31
0.0
  0
LINE
  5
5A
330
2
100
AcDbEntity
  8
L-ZISSEN
  6
CONTINUOUS
100
AcDbLine
 10
209.7499659849265
 20
111.1999610180726
 30
0.0
 11
221.4999659849268
 21
111.1999610180726
 31
0.0
  0
LINE
  5
5B
330
2
100
AcDbEntity
  8
L-ZISSEN
  6
CONTINUOUS
100
AcDbLine
 10
285.1999659849315
 20
83.99996101807237
 30
0.0
 11
285.1999659849315
 21
115.9999610180733
 31
0.0
  0
LINE
  5
5C
330
2
100
AcDbEntity
  8
L-ZISSEN
  6
CONTINUOUS
100
AcDbLine
 10
265.1999659849288
 20
115.9999610180732
 30
0.0
 11
265.1999659849292
 21
83.99996101807232
 31
0.0
  0
LINE
  5
5D
330
2
100
AcDbEntity
  8
L-ZISSEN
  6
CONTINUOUS
100
AcDbLine
 10
254.1999659849265
 20
114.999961018073
 30
0.0
 11
254.1999659849265
 21
84.99996101807278
 31
0.0
  0
LINE
  5
5E
330
2
100
AcDbEntity
  8
L-ZISSEN
  6
CONTINUOUS
100
AcDbLine
 10
254.1999659849265
 20
114.999961018073
 30
0.0
 11
254.1999659849265
 21
84.99996101807278
 31
0.0
  0
LINE
  5
5F
330
2
100
AcDbEntity
  8
L-TYUSIN
  6
CENTER
100
AcDbLine
 10
270.4999659849316
 20
94.49996101807284
 30
0.0
 11
270.4999659849316
 21
105.4999610180728
 31
0.0
  0
LINE
  5
60
330
2
100
AcDbEntity
  8
L-ZISSEN
  6
CONTINUOUS
100
AcDbLine
 10
254.1999659849265
 20
88.59996101807269
 30
0.0
 11
265.1999659849292
 21
88.59996101807285
 31
0.0
  0
LINE
  5
61
330
2
100
AcDbEntity
  8
L-ZISSEN
  6
CONTINUOUS
100
AcDbLine
 10
253.9999659849265
 20
88.59996101807269
 30
0.0
 11
254.1999659849265
 21
88.59996101807269
 31
0.0
  0
LINE
  5
62
330
2
100
AcDbEntity
  8
L-ZISSEN
  6
CONTINUOUS
100
AcDbLine
 10
254.1999659849265
 20
111.3999610180728
 30
0.0
 11
265.1999659849288
 21
111.399961018073
 31
0.0
  0
LINE
  5
63
330
2
100
AcDbEntity
  8
L-ZISSEN
  6
CONTINUOUS
100
AcDbLine
 10
253.9999659849265
 20
111.3999610180728
 30
0.0
 11
254.1999659849265
 21
111.3999610180728
 31
0.0
  0
CIRCLE
  5
64
330
2
100
AcDbEntity
  8
L-ZISSEN
  6
CONTINUOUS
100
AcDbCircle
 10
270.4999659849316
 20
99.99996101807283
 30
0.0
 40
2.5
  0
LINE
  5
65
330
2
100
AcDbEntity
  8
L-TYUSIN
  6
CONTINUOUS
100
AcDbLine
 10
275.6999659849315
 20
99.99996101807283
 30
0.0
 11
264.6999659849315
 21
99.99996101807283
 31
0.0
  0
CIRCLE
  5
66
330
2
100
AcDbEntity
  8
L-ZISSEN
  6
CONTINUOUS
100
AcDbCircle
 10
270.4999659849316
 20
99.99996101807283
 30
0.0
 40
2.149999999999999
  0
LINE
  5
67
330
2
100
AcDbEntity
  8
L-ZISSEN
  6
CONTINUOUS
100
AcDbLine
 10
221.6999659849315
 20
191.283061260143
 30
0.0
 11
265.1999659849315
 21
191.2830612601432
 31
0.0
  0
LINE
  5
68
330
2
100
AcDbEntity
  8
L-ZISSEN
  6
CONTINUOUS
100
AcDbLine
 10
222.4999659849316
 20
193.2330612601435
 30
0.0
 11
223.4999659849315
 21
193.2330612601435
 31
0.0
  0
LINE
  5
69
330
2
100
AcDbEntity
  8
L-ZISSEN
  6
CONTINUOUS
100
AcDbLine
 10
222.4999659849316
 20
193.2330612601435
 30
0.0
 11
221.4999659849315
 21
193.2330612601435
 31
0.0
  0
LINE
  5
6A
330
2
100
AcDbEntity
  8
L-ZISSEN
  6
CONTINUOUS
100
AcDbLine
 10
221.6999659849315
 20
191.283061260143
 30
0.0
 11
221.4999659849315
 21
191.283061260143
 31
0.0
  0
LINE
  5
6B
330
2
100
AcDbEntity
  8
L-TYUSIN
  6
CONTINUOUS
100
AcDbLine
 10
220.1999659849315
 20
195.9830612601435
 30
0.0
 11
229.6999659849315
 21
195.9830612601435
 31
0.0
  0
LINE
  5
6C
330
2
100
AcDbEntity
  8
L-ZISSEN
  6
CONTINUOUS
100
AcDbLine
 10
221.4999659849315
 20
199.4830612601434
 30
0.0
 11
223.4999659849315
 21
199.4830612601434
 31
0.0
  0
LINE
  5
6D
330
2
100
AcDbEntity
  8
L-ZISSEN
  6
CONTINUOUS
100
AcDbLine
 10
222.4999659849316
 20
198.7330612601434
 30
0.0
 11
223.4999659849315
 21
198.7330612601434
 31
0.0
  0
LINE
  5
6E
330
2
100
AcDbEntity
  8
L-ZISSEN
  6
CONTINUOUS
100
AcDbLine
 10
222.4999659849316
 20
198.7330612601434
 30
0.0
 11
221.4999659849315
 21
198.7330612601434
 31
0.0
  0
CIRCLE
  5
6F
330
2
100
AcDbEntity
  8
L-ZISSEN
  6
CONTINUOUS
100
AcDbCircle
 10
378.4999659849312
 20
99.99996101807283
 30
0.0
 40
5.7225
  0
LINE
  5
70
330
2
100
AcDbEntity
  8
L-TYUSIN
  6
CENTER
100
AcDbLine
 10
378.4999659849312
 20
119.9999610180728
 30
0.0
 11
378.4999659849312
 21
79.99996101807283
 31
0.0
  0
LINE
  5
71
330
2
100
AcDbEntity
  8
L-ZISSEN
  6
CONTINUOUS
100
AcDbLine
 10
332.6999659849315
 20
83.99996101807237
 30
0.0
 11
332.6999659849315
 21
115.9999610180733
 31
0.0
  0
CIRCLE
  5
72
330
2
100
AcDbEntity
  8
L-ZISSEN
  6
CONTINUOUS
100
AcDbCircle
 10
346.4999659849313
 20
99.99996101807283
 30
0.0
 40
5.7225
  0
LINE
  5
73
330
2
100
AcDbEntity
  8
L-TYUSIN
  6
CENTER
100
AcDbLine
 10
346.4999659849313
 20
109.9999610180728
 30
0.0
 11
346.4999659849313
 21
89.99996101807283
 31
0.0
  0
LINE
  5
74
330
2
100
AcDbEntity
  8
L-ZISSEN
  6
CONTINUOUS
100
AcDbLine
 10
424.299965984931
 20
83.99996101807237
 30
0.0
 11
424.299965984931
 21
115.9999610180733
 31
0.0
  0
LINE
  5
75
330
2
100
AcDbEntity
  8
L-TYUSIN
  6
CENTER
100
AcDbLine
 10
410.4999659849313
 20
109.9999610180728
 30
0.0
 11
410.4999659849313
 21
89.99996101807283
 31
0.0
  0
CIRCLE
  5
76
330
2
100
AcDbEntity
  8
L-ZISSEN
  6
CONTINUOUS
100
AcDbCircle
 10
410.4999659849313
 20
99.99996101807283
 30
0.0
 40
5.7225
  0
LINE
  5
77
330
2
100
AcDbEntity
  8
L-TYUSIN
  6
CENTER
100
AcDbLine
 10
346.4999659849313
 20
185.9830612601434
 30
0.0
 11
346.4999659849313
 21
175.9830612601428
 31
0.0
  0
LEADER
  5
78
330
2
100
AcDbEntity
  8
L-ZISSEN
100
AcDbLeader
  3
STANDARD
 76
     3
 10
378.4999659849312
 20
180.9830612601432
 30
0.0
 10
360.1897836907082
 20
161.353092169802
 30
0.0
 10
347.0027918466521
 20
161.353092169802
 30
0.0
1001
ACAD
1000
DSTYLE
1002
{
1070
     5
1000

1070
    40
1040
2.0
1070
    41
1040
2.0
1070
    42
1040
1.0
1070
    43
1040
8.0
1070
    44
1040
1.0
1070
    73
1070
     0
1070
    74
1070
     0
1070
    77
1070
     1
1070
    78
1070
     8
1070
   140
1040
2.799999999999999
1070
   141
1040
0.8
1070
   145
1040
1.0
1070
   147
1040
1.0
1070
   172
1070
     1
1070
   174
1070
     1
1070
   271
1070
     3
1070
   284
1070
     8
1070
   342
1005
0
1002
}
1000
LEANOF
1010
0.0
1020
0.0
1030
0.0
  0
TEXT
  5
79
330
2
100
AcDbEntity
  8
L-ZISSEN
100
AcDbText
 10
317.6468969849957
 20
159.0162015364744
 30
0.0
 40
4.5
  1
"1"PORT
100
AcDbText
  0
TEXT
  5
7A
330
2
100
AcDbEntity
  8
L-ZISSEN
100
AcDbText
 10
317.6468969849957
 20
151.8481755223488
 30
0.0
 40
4.5
  1
Rc1/4
100
AcDbText
  0
TEXT
  5
7B
330
2
100
AcDbEntity
  8
L-ZISSEN
100
AcDbText
 10
317.6468969849957
 20
144.847397987932
 30
0.0
 40
4.5
  1
Rc3/8
100
AcDbText
  0
LINE
  5
7C
330
2
100
AcDbEntity
  8
L-TYUSIN
  6
CENTER
100
AcDbLine
 10
366.4999659849312
 20
185.9830612601431
 30
0.0
 11
352.4999659849313
 21
185.9830612601431
 31
0.0
  0
LINE
  5
7D
330
2
100
AcDbEntity
  8
L-TYUSIN
  6
CENTER
100
AcDbLine
 10
359.4999659849313
 20
192.9830612601433
 30
0.0
 11
359.4999659849313
 21
178.9830612601427
 31
0.0
  0
CIRCLE
  5
7E
330
2
100
AcDbEntity
  8
L-ZISSEN
  6
CONTINUOUS
100
AcDbCircle
 10
359.4999659849313
 20
185.9830612601431
 30
0.0
 40
2.75
  0
LINE
  5
7F
330
2
100
AcDbEntity
  8
L-TYUSIN
  6
CENTER
100
AcDbLine
 10
410.4999659849313
 20
185.9830612601434
 30
0.0
 11
410.4999659849313
 21
175.9830612601428
 31
0.0
  0
LINE
  5
80
330
2
100
AcDbEntity
  8
L-TYUSIN
  6
CENTER
100
AcDbLine
 10
390.4999659849313
 20
185.9830612601431
 30
0.0
 11
404.4999659849312
 21
185.9830612601431
 31
0.0
  0
CIRCLE
  5
81
330
2
100
AcDbEntity
  8
L-ZISSEN
  6
CONTINUOUS
100
AcDbCircle
 10
397.4999659849313
 20
185.9830612601431
 30
0.0
 40
2.75
  0
LINE
  5
82
330
2
100
AcDbEntity
  8
L-TYUSIN
  6
CENTER
100
AcDbLine
 10
397.4999659849313
 20
192.9830612601433
 30
0.0
 11
397.4999659849313
 21
178.9830612601427
 31
0.0
  0
CIRCLE
  5
83
330
2
100
AcDbEntity
  8
L-ZISSEN
  6
CONTINUOUS
100
AcDbCircle
 10
394.4999659849313
 20
345.1473744254312
 30
0.0
 40
5.7225
  0
LINE
  5
84
330
2
100
AcDbEntity
  8
L-TYUSIN
  6
CENTER
100
AcDbLine
 10
394.4999659849313
 20
355.1473744254312
 30
0.0
 11
394.4999659849313
 21
335.1473744254312
 31
0.0
  0
CIRCLE
  5
85
330
2
100
AcDbEntity
  8
L-ZISSEN
  6
CONTINUOUS
100
AcDbCircle
 10
362.4999659849312
 20
345.1473744254312
 30
0.0
 40
5.7225
  0
LINE
  5
86
330
2
100
AcDbEntity
  8
L-TYUSIN
  6
CENTER
100
AcDbLine
 10
362.4999659849312
 20
355.1473744254312
 30
0.0
 11
362.4999659849312
 21
335.1473744254312
 31
0.0
  0
LINE
  5
87
330
2
100
AcDbEntity
  8
L-TYUSIN
100
AcDbLine
 10
259.9999659849322
 20
340.0473744254313
 30
0.0
 11
259.9999659849322
 21
350.2473744254309
 31
0.0
  0
LINE
  5
88
330
2
100
AcDbEntity
  8
L-ZISSEN
  6
CONTINUOUS
100
AcDbLine
 10
254.1999659849313
 20
330.147374425431
 30
0.0
 11
254.1999659849313
 21
360.1473744254312
 31
0.0
  0
LINE
  5
89
330
2
100
AcDbEntity
  8
L-ZISSEN
  6
CONTINUOUS
100
AcDbLine
 10
254.1999659849313
 20
330.147374425431
 30
0.0
 11
254.1999659849313
 21
360.1473744254312
 31
0.0
  0
LINE
  5
8A
330
2
100
AcDbEntity
  8
L-ZISSEN
  6
CONTINUOUS
100
AcDbLine
 10
199.9999659849311
 20
354.6473744254313
 30
0.0
 11
199.9999659849309
 21
335.6473744254313
 31
0.0
  0
LINE
  5
8B
330
2
100
AcDbEntity
  8
L-ZISSEN
  6
CONTINUOUS
100
AcDbLine
 10
204.9999659849311
 20
354.6473744254313
 30
0.0
 11
204.9999659849313
 21
335.6473744254313
 31
0.0
  0
LINE
  5
8C
330
2
100
AcDbEntity
  8
L-ZISSEN
  6
CONTINUOUS
100
AcDbLine
 10
209.7499659849313
 20
356.3473744254314
 30
0.0
 11
209.7499659849313
 21
333.9473744254314
 31
0.0
  0
LINE
  5
8D
330
2
100
AcDbEntity
  8
L-ZISSEN
  6
CONTINUOUS
100
AcDbLine
 10
223.9999659849313
 20
360.1473744254312
 30
0.0
 11
223.9999659849315
 21
330.1473744254312
 31
0.0
  0
LINE
  5
8E
330
2
100
AcDbEntity
  8
L-ZISSEN
  6
CONTINUOUS
100
AcDbLine
 10
424.299965984931
 20
329.1473744254307
 30
0.0
 11
424.299965984931
 21
361.1473744254316
 31
0.0
  0
LINE
  5
8F
330
2
100
AcDbEntity
  8
L-ZISSEN
100
AcDbLine
 10
259.3881593722004
 20
343.2432492539635
 30
0.0
 11
251.7605192367418
 21
319.503751709188
 31
0.0
  0
LINE
  5
90
330
2
100
AcDbEntity
  8
L-ZISSEN
  6
CONTINUOUS
100
AcDbLine
 10
285.1999659849315
 20
329.1473744254307
 30
0.0
 11
285.1999659849315
 21
361.1473744254316
 31
0.0
  0
LINE
  5
91
330
2
100
AcDbEntity
  8
L-ZISSEN
  6
CONTINUOUS
100
AcDbLine
 10
332.6999659849315
 20
329.1473744254307
 30
0.0
 11
332.6999659849315
 21
361.1473744254316
 31
0.0
  0
LINE
  5
92
330
2
100
AcDbEntity
  8
L-TYUSIN
  6
CONTINUOUS
 48
0.5
100
AcDbLine
 10
378.4999659849312
 20
365.1473744254312
 30
0.0
 11
378.4999659849312
 21
325.1473744254312
 31
0.0
  0
LINE
  5
93
330
2
100
AcDbEntity
  8
L-ZISSEN
  6
CONTINUOUS
100
AcDbLine
 10
265.1999659849343
 20
329.1473744254307
 30
0.0
 11
265.1999659849343
 21
361.1473744254316
 31
0.0
  0
LINE
  5
94
330
2
100
AcDbEntity
  8
L-TYUSIN
  6
CENTER
 48
0.5
100
AcDbLine
 10
238.9999659849315
 20
327.6473744254313
 30
0.0
 11
238.9999659849313
 21
362.6473744254312
 31
0.0
  0
LINE
  5
95
330
2
100
AcDbEntity
  8
L-ZISSEN
  6
CONTINUOUS
100
AcDbLine
 10
224.1999659849315
 20
226.4830612601432
 30
0.0
 11
254.1999659849315
 21
226.4830612601424
 31
0.0
  0
LINE
  5
96
330
2
100
AcDbEntity
  8
L-ZISSEN
  6
CONTINUOUS
100
AcDbLine
 10
254.1999659849315
 20
231.483061260143
 30
0.0
 11
224.1999659849315
 21
231.4830612601431
 31
0.0
  0
LINE
  5
97
330
2
100
AcDbEntity
  8
L-ZISSEN
  6
CONTINUOUS
100
AcDbLine
 10
254.1999659849315
 20
235.9830612601431
 30
0.0
 11
223.9999659849315
 21
235.9830612601433
 31
0.0
  0
LINE
  5
98
330
2
100
AcDbEntity
  8
L-ZISSEN
  6
CONTINUOUS
100
AcDbLine
 10
252.9499659849315
 20
266.9830612601433
 30
0.0
 11
209.7499659849315
 21
266.9830612601433
 31
0.0
  0
LINE
  5
99
330
2
100
AcDbEntity
  8
L-ZISSEN
  6
CONTINUOUS
100
AcDbLine
 10
221.6999659849315
 20
222.683061260143
 30
0.0
 11
254.1999659849315
 21
222.6830612601431
 31
0.0
  0
LINE
  5
9A
330
2
100
AcDbEntity
  8
L-ZISSEN
  6
CONTINUOUS
100
AcDbLine
 10
225.2499659849315
 20
266.9830612601433
 30
0.0
 11
225.2499659849313
 21
235.7830612601433
 31
0.0
  0
LINE
  5
9B
330
2
100
AcDbEntity
  8
L-TYUSIN
  6
CENTER
 48
0.5
100
AcDbLine
 10
239.1999659849315
 20
269.6830612601426
 30
0.0
 11
239.1999659849315
 21
220.2830612601432
 31
0.0
  0
LINE
  5
9C
330
2
100
AcDbEntity
  8
L-ZISSEN
  6
CONTINUOUS
100
AcDbLine
 10
223.9999659849315
 20
226.483061260143
 30
0.0
 11
223.9999659849315
 21
235.9830612601433
 31
0.0
  0
LINE
  5
9D
330
2
100
AcDbEntity
  8
L-ZISSEN
  6
CONTINUOUS
100
AcDbLine
 10
229.2999659849314
 20
231.483061260143
 30
0.0
 11
228.6999659849315
 21
231.4830612601431
 31
0.0
  0
LINE
  5
9E
330
2
100
AcDbEntity
  8
L-ZISSEN
  6
CONTINUOUS
100
AcDbLine
 10
224.1999659849315
 20
231.4830612601431
 30
0.0
 11
223.9999659849315
 21
231.4830612601432
 31
0.0
  0
LINE
  5
9F
330
2
100
AcDbEntity
  8
L-ZISSEN
  6
CONTINUOUS
100
AcDbLine
 10
224.1999659849315
 20
226.4830612601432
 30
0.0
 11
223.9999659849315
 21
226.483061260143
 31
0.0
  0
LINE
  5
A0
330
2
100
AcDbEntity
  8
L-ZISSEN
  6
CONTINUOUS
100
AcDbLine
 10
204.9999659849315
 20
264.9330612601431
 30
0.0
 11
209.7499659849315
 21
264.9330612601431
 31
0.0
  0
LINE
  5
A1
330
2
100
AcDbEntity
  8
L-TYUSIN
  6
CENTER
 48
0.5
100
AcDbLine
 10
194.8999659849313
 20
255.9830612601432
 30
0.0
 11
239.1999659849315
 21
255.9830612601432
 31
0.0
  0
LINE
  5
A2
330
2
100
AcDbEntity
  8
L-ZISSEN
  6
CONTINUOUS
100
AcDbLine
 10
204.9999659849315
 20
246.8330612601434
 30
0.0
 11
209.7499659849315
 21
246.8330612601434
 31
0.0
  0
LINE
  5
A3
330
2
100
AcDbEntity
  8
L-ZISSEN
  6
CONTINUOUS
100
AcDbLine
 10
204.9999659849315
 20
266.952716374746
 30
0.0
 11
204.9999659849315
 21
245.0134061455405
 31
0.0
  0
LINE
  5
A4
330
2
100
AcDbEntity
  8
L-ZISSEN
  6
CONTINUOUS
100
AcDbLine
 10
199.9999659849315
 20
266.952716374746
 30
0.0
 11
199.9999659849315
 21
245.0134061455405
 31
0.0
  0
LINE
  5
A5
330
2
100
AcDbEntity
  8
L-ZISSEN
  6
CONTINUOUS
100
AcDbLine
 10
199.9999659849315
 20
245.0134061455405
 30
0.0
 11
204.9999659849315
 21
245.0134061455405
 31
0.0
  0
LINE
  5
A6
330
2
100
AcDbEntity
  8
L-ZISSEN
  6
CONTINUOUS
100
AcDbLine
 10
204.9999659849315
 20
266.9830163747461
 30
0.0
 11
204.9999659849315
 21
266.952716374746
 31
0.0
  0
LINE
  5
A7
330
2
100
AcDbEntity
  8
L-ZISSEN
  6
CONTINUOUS
100
AcDbLine
 10
199.9999659849315
 20
266.9830163747461
 30
0.0
 11
199.9999659849315
 21
266.952716374746
 31
0.0
  0
LINE
  5
A8
330
2
100
AcDbEntity
  8
L-ZISSEN
  6
CONTINUOUS
100
AcDbLine
 10
199.9999659849315
 20
266.9830163747461
 30
0.0
 11
204.9999659849315
 21
266.9830163747461
 31
0.0
  0
LINE
  5
A9
330
2
100
AcDbEntity
  8
L-ZISSEN
  6
CONTINUOUS
100
AcDbLine
 10
209.7499659849315
 20
266.9830612601433
 30
0.0
 11
209.7499659849315
 21
244.5830612601432
 31
0.0
  0
LINE
  5
AA
330
2
100
AcDbEntity
  8
L-ZISSEN
  6
CONTINUOUS
100
AcDbLine
 10
209.7499659849315
 20
244.5830612601432
 30
0.0
 11
225.2499659849315
 21
244.5830612601432
 31
0.0
  0
LINE
  5
AB
330
2
100
AcDbEntity
  8
L-ZISSEN
  6
CONTINUOUS
100
AcDbLine
 10
252.9499659849315
 20
266.9830612601433
 30
0.0
 11
252.9499659849315
 21
235.7830612601432
 31
0.0
  0
LINE
  5
AC
330
2
100
AcDbEntity
  8
L-ZISSEN
100
AcDbLine
 10
260.6117725976631
 20
224.5871864316102
 30
0.0
 11
268.2394127331216
 21
248.3266839763857
 31
0.0
  0
LINE
  5
AD
330
2
100
AcDbEntity
  8
L-ZISSEN
  6
CONTINUOUS
100
AcDbLine
 10
257.3999659849314
 20
222.9830612601434
 30
0.0
 11
262.5999659849312
 21
222.9830612601434
 31
0.0
  0
LINE
  5
AE
330
2
100
AcDbEntity
  8
L-ZISSEN
  6
CONTINUOUS
100
AcDbLine
 10
254.1999659849315
 20
222.6830612601431
 30
0.0
 11
265.1999659849331
 21
222.683061260142
 31
0.0
  0
LINE
  5
AF
330
2
100
AcDbEntity
  8
L-ZISSEN
  6
CONTINUOUS
100
AcDbLine
 10
254.1999659849315
 20
222.6830612601431
 30
0.0
 11
265.1999659849324
 21
222.683061260142
 31
0.0
  0
LINE
  5
B0
330
2
100
AcDbEntity
  8
L-ZISSEN
  6
CONTINUOUS
100
AcDbLine
 10
257.3999659849314
 20
222.9830612601434
 30
0.0
 11
257.3999659849314
 21
222.6830612601436
 31
0.0
  0
SOLID
  5
B1
330
2
100
AcDbEntity
  8
L-ZISSEN
100
AcDbTrace
 10
260.2944184024185
 20
224.689154200399
 30
0.0
 11
260.9291267929078
 21
224.4852186628218
 31
0.0
 12
259.9999659849312
 22
222.6830612601425
 32
0.0
 13
259.9999659849312
 23
222.6830612601425
 33
0.0
  0
LINE
  5
B2
330
2
100
AcDbEntity
  8
L-ZISSEN
  6
CONTINUOUS
100
AcDbLine
 10
262.5999659849314
 20
222.9830612601434
 30
0.0
 11
262.5999659849314
 21
222.6830612601436
 31
0.0
  0
LINE
  5
B3
330
2
100
AcDbEntity
  8
L-TYUSIN
  6
CENTER
100
AcDbLine
 10
259.9999659849312
 20
220.1830612601436
 30
0.0
 11
259.9999659849312
 21
224.6830612601434
 31
0.0
  0
LINE
  5
B4
330
2
100
AcDbEntity
  8
L-ZISSEN
100
AcDbLine
 10
268.2394127331216
 20
248.3266839763857
 30
0.0
 11
270.2394127331216
 21
248.3266839763857
 31
0.0
  0
LINE
  5
B5
330
2
100
AcDbEntity
  8
L-ZISSEN
  6
CONTINUOUS
100
AcDbLine
 10
224.1999659849315
 20
330.1473744254312
 30
0.0
 11
254.1999659849313
 21
330.147374425431
 31
0.0
  0
LINE
  5
B6
330
2
100
AcDbEntity
  8
L-ZISSEN
  6
CONTINUOUS
100
AcDbLine
 10
223.9999659849315
 20
330.1473744254312
 30
0.0
 11
253.9999659849313
 21
330.147374425431
 31
0.0
  0
TEXT
  5
B7
330
2
100
AcDbEntity
  8
L-ZISSEN
100
AcDbText
 10
238.9447082107758
 20
317.0902052590371
 30
0.0
 40
4.5
  1
P.P
100
AcDbText
  0
LINE
  5
B8
330
2
100
AcDbEntity
  8
L-ZISSEN
  6
CONTINUOUS
100
AcDbLine
 10
204.9999659849313
 20
335.9973744254312
 30
0.0
 11
209.7499659849313
 21
335.9973744254312
 31
0.0
  0
LINE
  5
B9
330
2
100
AcDbEntity
  8
L-ZISSEN
  6
CONTINUOUS
100
AcDbLine
 10
199.9999659849309
 20
335.6473744254313
 30
0.0
 11
204.9999659849313
 21
335.6473744254313
 31
0.0
  0
LINE
  5
BA
330
2
100
AcDbEntity
  8
L-ZISSEN
  6
CONTINUOUS
100
AcDbLine
 10
209.7499659849313
 20
333.9473744254314
 30
0.0
 11
223.9999659849315
 21
333.9473744254313
 31
0.0
  0
LINE
  5
BB
330
2
100
AcDbEntity
  8
L-ZISSEN
100
AcDbLine
 10
251.7605192367418
 20
319.503751709188
 30
0.0
 11
249.7605192367419
 21
319.503751709188
 31
0.0
  0
LINE
  5
BC
330
2
100
AcDbEntity
  8
L-ZISSEN
  6
CONTINUOUS
100
AcDbLine
 10
254.1999659849313
 20
333.7473744254312
 30
0.0
 11
265.1999659849336
 21
333.7473744254312
 31
0.0
  0
LINE
  5
BD
330
2
100
AcDbEntity
  8
L-ZISSEN
100
AcDbLine
 10
254.199965984932
 20
333.7473744254312
 30
0.0
 11
265.1999659849343
 21
333.7473744254312
 31
0.0
  0
LINE
  5
BE
330
2
100
AcDbEntity
  8
L-TYUSIN
  6
CENTER
100
AcDbLine
 10
371.4999659849313
 20
227.9830612601431
 30
0.0
 11
385.4999659849312
 21
227.9830612601431
 31
0.0
  0
CIRCLE
  5
BF
330
2
100
AcDbEntity
  8
L-ZISSEN
  6
CONTINUOUS
100
AcDbCircle
 10
378.4999659849312
 20
227.9830612601431
 30
0.0
 40
2.75
  0
LINE
  5
C0
330
2
100
AcDbEntity
  8
L-TYUSIN
  6
CENTER
100
AcDbLine
 10
362.4999659849312
 20
237.9830612601428
 30
0.0
 11
362.4999659849312
 21
227.9830612601434
 31
0.0
  0
LINE
  5
C1
330
2
100
AcDbEntity
  8
L-TYUSIN
  6
CENTER
100
AcDbLine
 10
394.4999659849313
 20
237.9830612601428
 30
0.0
 11
394.4999659849313
 21
227.9830612601434
 31
0.0
  0
MTEXT
  5
C2
330
2
100
AcDbEntity
  8
L-ZISSEN
100
AcDbMText
 10
201.6873290793814
 20
414.7346718889314
 30
0.0
 40
4.5
 41
81.42927108592402
 71
     1
 72
     1
  1
MODEL No. MVD-4*5-02Y
1001
ACAD
1000
MTEXTBEGIN
1070
    73
1070
     1
1070
    44
1040
1.0
1070
    74
1070
     0
1000
MTEXTEND
1000
MTEXTBEGIN
1070
    73
1070
     1
1070
    44
1040
1.0
1070
    74
1070
     0
1000
MTEXTEND
  0
MTEXT
  5
C3
330
2
100
AcDbEntity
  8
L-ZISSEN
100
AcDbMText
 10
237.3178412384911
 20
399.4259144781434
 30
0.0
 40
4.5
 41
81.42927108592402
 71
     1
 72
     1
  1
03JY
1001
ACAD
1000
MTEXTBEGIN
1070
    73
1070
     1
1070
    44
1040
1.0
1070
    74
1070
     0
1000
MTEXTEND
1000
MTEXTBEGIN
1070
    73
1070
     1
1070
    44
1040
1.0
1070
    74
1070
     0
1000
MTEXTEND
  0
CIRCLE
  5
C4
330
2
100
AcDbEntity
  8
L-ZISSEN
  6
CONTINUOUS
100
AcDbCircle
 10
238.9999659849313
 20
345.1473744254314
 30
0.0
 40
3.25
  0
LINE
  5
C5
330
2
100
AcDbEntity
  8
L-ZISSEN
  6
CONTINUOUS
100
AcDbLine
 10
224.1999659849313
 20
360.1473744254312
 30
0.0
 11
254.1999659849313
 21
360.1473744254312
 31
0.0
  0
LINE
  5
C6
330
2
100
AcDbEntity
  8
L-ZISSEN
  6
CONTINUOUS
100
AcDbLine
 10
223.9999659849313
 20
360.1473744254312
 30
0.0
 11
253.9999659849313
 21
360.1473744254312
 31
0.0
  0
LINE
  5
C7
330
2
100
AcDbEntity
  8
L-ZISSEN
  6
CONTINUOUS
100
AcDbLine
 10
204.9999659849311
 20
354.2973744254313
 30
0.0
 11
209.7499659849313
 21
354.2973744254313
 31
0.0
  0
LINE
  5
C8
330
2
100
AcDbEntity
  8
L-ZISSEN
  6
CONTINUOUS
100
AcDbLine
 10
200.5947207803647
 20
345.14737442543
 30
0.0
 11
204.9999659849311
 21
345.1473744254314
 31
0.0
  0
LINE
  5
C9
330
2
100
AcDbEntity
  8
L-ZISSEN
  6
CONTINUOUS
100
AcDbLine
 10
199.9999659849311
 20
354.6473744254313
 30
0.0
 11
204.9999659849313
 21
354.6473744254313
 31
0.0
  0
LINE
  5
CA
330
2
100
AcDbEntity
  8
L-ZISSEN
  6
CONTINUOUS
100
AcDbLine
 10
209.7499659849313
 20
356.3473744254314
 30
0.0
 11
223.9999659849313
 21
356.3473744254314
 31
0.0
  0
LINE
  5
CB
330
2
100
AcDbEntity
  8
L-TYUSIN
  6
CONTINUOUS
100
AcDbLine
 10
237.4089757272604
 20
346.7383646831023
 30
0.0
 11
240.5909562426009
 21
343.5563841677616
 31
0.0
  0
LINE
  5
CC
330
2
100
AcDbEntity
  8
L-TYUSIN
  6
CONTINUOUS
100
AcDbLine
 10
240.5909562426024
 20
346.7383646831023
 30
0.0
 11
237.4089757272631
 21
343.5563841677628
 31
0.0
  0
LINE
  5
CD
330
2
100
AcDbEntity
  8
L-ZISSEN
  6
CONTINUOUS
100
AcDbLine
 10
254.1999659849313
 20
356.5473744254313
 30
0.0
 11
265.1999659849336
 21
356.5473744254313
 31
0.0
  0
LINE
  5
CE
330
2
100
AcDbEntity
  8
L-ZISSEN
100
AcDbLine
 10
254.199965984932
 20
356.5473744254313
 30
0.0
 11
265.1999659849343
 21
356.5473744254313
 31
0.0
  0
SOLID
  5
CF
330
2
100
AcDbEntity
  8
L-ZISSEN
100
AcDbTrace
 10
259.7055135674449
 20
343.1412814851747
 30
0.0
 11
259.0708051769556
 21
343.3452170227519
 31
0.0
 12
259.9999659849322
 22
345.1473744254312
 32
0.0
 13
259.9999659849322
 23
345.1473744254312
 33
0.0
  0
CIRCLE
  5
D0
330
2
100
AcDbEntity
  8
L-ZISSEN
100
AcDbCircle
 10
259.9999659849322
 20
345.1473744254312
 30
0.0
 40
1.500000000000099
  0
CIRCLE
  5
D1
330
2
100
AcDbEntity
  8
L-ZISSEN
100
AcDbCircle
 10
259.9999659849322
 20
345.1473744254312
 30
0.0
 40
2.600000000000008
  0
TEXT
  5
D2
330
2
100
AcDbEntity
  8
L-ZISSEN
100
AcDbText
 10
272.1040287248027
 20
245.9203453478611
 30
0.0000000232876899
 40
4.5
  1
P.P
100
AcDbText
  0
LINE
  5
D3
330
2
100
AcDbEntity
  8
L-TYUSIN
  6
CONTINUOUS
100
AcDbLine
 10
258.3999659849323
 20
345.1473744254312
 30
0.0000000232876899
 11
261.5999659849321
 21
345.1473744254312
 31
0.0000000232876899
  0
LINE
  5
D4
330
2
100
AcDbEntity
  8
L-TYUSIN
  6
CONTINUOUS
100
AcDbLine
 10
259.9999659849322
 20
343.5473744254312
 30
0.0000000232876899
 11
259.9999659849322
 21
346.7473744254313
 31
0.0000000232876899
  0
LEADER
  5
D5
330
2
100
AcDbEntity
  8
L-ZISSEN
100
AcDbLeader
  3
STANDARD
 73
     0
 74
     0
 40
5.599999999999999
 41
9.599999999999997
 76
     3
 10
785.1864230173792
 20
223.7396069180675
 30
0.0
 10
793.387091455656
 20
200.7509090769968
 30
0.0
 10
795.7141367938817
 20
200.7509090769968
 30
0.0
1001
ACAD
1000
DSTYLE
1002
{
1070
     5
1000

1070
    40
1040
2.0
1070
    41
1040
2.0
1070
    42
1040
2.0
1070
    44
1040
2.0
1070
    46
1040
1.0
1070
    73
1070
     0
1070
    74
1070
     0
1070
    77
1070
     1
1070
   140
1040
2.799999999999999
1070
   147
1040
1.0
1070
   172
1070
     1
1070
   174
1070
     1
1070
   271
1070
     1
1070
   287
1070
     5
1070
   342
1005
0
1002
}
1000
LEANOF
1010
0.0
1020
0.0
1030
0.0
  0
LINE
  5
D6
330
2
100
AcDbEntity
  8
L-ZISSEN
  6
CONTINUOUS
100
AcDbLine
 10
642.4999516690534
 20
191.2830612601431
 30
0.0
 11
642.4999516690534
 21
222.683061260143
 31
0.0
  0
LINE
  5
D7
330
2
100
AcDbEntity
  8
L-ZISSEN
  6
CONTINUOUS
100
AcDbLine
 10
619.6999516690537
 20
191.2830612601431
 30
0.0
 11
619.6999516690537
 21
222.683061260143
 31
0.0
  0
LINE
  5
D8
330
2
100
AcDbEntity
  8
L-ZISSEN
  6
CONTINUOUS
100
AcDbLine
 10
615.4999516690536
 20
181.1830612601431
 30
0.0
 11
615.4999516690536
 21
232.783061260143
 31
0.0
  0
LINE
  5
D9
330
2
100
AcDbEntity
  8
L-ZISSEN
  6
CONTINUOUS
100
AcDbLine
 10
646.6999516690536
 20
232.783061260143
 30
0.0
 11
646.6999516690536
 21
181.1830612601431
 31
0.0
  0
LINE
  5
DA
330
2
100
AcDbEntity
  8
L-TYUSIN
  6
CENTER
 48
0.5
100
AcDbLine
 10
631.0999516690535
 20
193.6830612601431
 30
0.0
 11
631.0999516690535
 21
274.5830612601426
 31
0.0
  0
LINE
  5
DB
330
2
100
AcDbEntity
  8
L-ZISSEN
  6
CONTINUOUS
100
AcDbLine
 10
535.4999659849311
 20
191.283061260143
 30
0.0
 11
535.4999659849308
 21
222.683061260143
 31
0.0
  0
LINE
  5
DC
330
2
100
AcDbEntity
  8
L-ZISSEN
  6
CONTINUOUS
100
AcDbLine
 10
533.4999659849311
 20
191.2830612601437
 30
0.0
 11
533.4999659849311
 21
222.6830612601436
 31
0.0
  0
LINE
  5
DD
330
2
100
AcDbEntity
  8
L-ZISSEN
  6
CONTINUOUS
100
AcDbLine
 10
471.799965984931
 20
180.9830612601431
 30
0.0
 11
471.799965984931
 21
232.9830612601432
 31
0.0
  0
LINE
  5
DE
330
2
100
AcDbEntity
  8
L-ZISSEN
  6
CONTINUOUS
100
AcDbLine
 10
491.7999659849289
 20
232.9830612601432
 30
0.0
 11
491.7999659849339
 21
180.9830612601431
 31
0.0
  0
LINE
  5
DF
330
2
100
AcDbEntity
  8
L-ZISSEN
  6
CONTINUOUS
100
AcDbLine
 10
502.799965984931
 20
191.283061260143
 30
0.0
 11
502.799965984931
 21
235.9830612601431
 31
0.0
  0
LINE
  5
E0
330
2
100
AcDbEntity
  8
L-ZISSEN
  6
CONTINUOUS
100
AcDbLine
 10
528.9999659849311
 20
191.283061260143
 30
0.0
 11
528.9999659849311
 21
226.483061260143
 31
0.0
  0
LINE
  5
E1
330
2
100
AcDbEntity
  8
L-TYUSIN
100
AcDbLine
 10
691.6005539401656
 20
414.7513248203558
 30
0.0
 11
691.6005539401656
 21
188.7359997098448
 31
0.0
  0
LINE
  5
E2
330
2
100
AcDbEntity
  8
L-ZISSEN
  6
CONTINUOUS
100
AcDbLine
 10
532.9999659849359
 20
114.9999610180727
 30
0.0
 11
502.9999659849361
 21
114.999961018073
 31
0.0
  0
LINE
  5
E3
330
2
100
AcDbEntity
  8
L-ZISSEN
  6
CONTINUOUS
100
AcDbLine
 10
532.7999659849358
 20
114.9999610180727
 30
0.0
 11
502.799965984936
 21
114.999961018073
 31
0.0
  0
LINE
  5
E4
330
2
100
AcDbEntity
  8
L-ZISSEN
  6
CONTINUOUS
100
AcDbLine
 10
535.4999659849359
 20
111.3999610180728
 30
0.0
 11
502.999965984936
 21
111.3999610180728
 31
0.0
  0
LINE
  5
E5
330
2
100
AcDbEntity
  8
L-ZISSEN
  6
CONTINUOUS
100
AcDbLine
 10
532.9999659849361
 20
84.99996101807278
 30
0.0
 11
502.9999659849361
 21
84.99996101807278
 31
0.0
  0
LINE
  5
E6
330
2
100
AcDbEntity
  8
L-ZISSEN
  6
CONTINUOUS
100
AcDbLine
 10
532.7999659849361
 20
84.99996101807278
 30
0.0
 11
502.799965984936
 21
84.99996101807278
 31
0.0
  0
LINE
  5
E7
330
2
100
AcDbEntity
  8
L-ZISSEN
  6
CONTINUOUS
100
AcDbLine
 10
535.4999659849359
 20
88.59996101807267
 30
0.0
 11
502.999965984936
 21
88.59996101807269
 31
0.0
  0
LINE
  5
E8
330
2
100
AcDbEntity
  8
L-ZISSEN
  6
CONTINUOUS
100
AcDbLine
 10
502.799965984936
 20
114.999961018073
 30
0.0
 11
502.799965984936
 21
84.99996101807278
 31
0.0
  0
LINE
  5
E9
330
2
100
AcDbEntity
  8
L-ZISSEN
  6
CONTINUOUS
100
AcDbLine
 10
502.799965984936
 20
114.999961018073
 30
0.0
 11
502.799965984936
 21
84.99996101807278
 31
0.0
  0
LINE
  5
EA
330
2
100
AcDbEntity
  8
L-TYUSIN
  6
CENTER
100
AcDbLine
 10
517.7999659849358
 20
117.4999610180727
 30
0.0
 11
517.799965984936
 21
82.49996101807278
 31
0.0
  0
LINE
  5
EB
330
2
100
AcDbEntity
  8
L-ZISSEN
  6
CONTINUOUS
100
AcDbLine
 10
491.7999659849335
 20
115.9999610180733
 30
0.0
 11
491.7999659849335
 21
83.99996101807237
 31
0.0
  0
LINE
  5
EC
330
2
100
AcDbEntity
  8
L-ZISSEN
  6
CONTINUOUS
100
AcDbLine
 10
471.799965984931
 20
83.99996101807237
 30
0.0
 11
471.799965984931
 21
115.9999610180733
 31
0.0
  0
LINE
  5
ED
330
2
100
AcDbEntity
  8
L-TYUSIN
  6
CONTINUOUS
100
AcDbLine
 10
481.2999659849309
 20
99.99996101807283
 30
0.0
 11
492.299965984931
 21
99.99996101807283
 31
0.0
  0
LINE
  5
EE
330
2
100
AcDbEntity
  8
L-TYUSIN
  6
CENTER
100
AcDbLine
 10
486.499965984931
 20
94.49996101807284
 30
0.0
 11
486.499965984931
 21
105.4999610180728
 31
0.0
  0
CIRCLE
  5
EF
330
2
100
AcDbEntity
  8
L-ZISSEN
  6
CONTINUOUS
100
AcDbCircle
 10
486.499965984931
 20
99.99996101807283
 30
0.0
 40
2.5
  0
CIRCLE
  5
F0
330
2
100
AcDbEntity
  8
L-ZISSEN
  6
CONTINUOUS
100
AcDbCircle
 10
486.499965984931
 20
99.99996101807283
 30
0.0
 40
2.149999999999999
  0
LINE
  5
F1
330
2
100
AcDbEntity
  8
L-ZISSEN
  6
CONTINUOUS
100
AcDbLine
 10
502.799965984936
 20
88.59996101807269
 30
0.0
 11
491.7999659849337
 21
88.59996101807269
 31
0.0
  0
LINE
  5
F2
330
2
100
AcDbEntity
  8
L-ZISSEN
  6
CONTINUOUS
100
AcDbLine
 10
492.0052047201422
 20
88.59996101807269
 30
0.0
 11
491.7999659849337
 21
88.59996101807269
 31
0.0
  0
LINE
  5
F3
330
2
100
AcDbEntity
  8
L-ZISSEN
  6
CONTINUOUS
100
AcDbLine
 10
502.999965984936
 20
88.59996101807269
 30
0.0
 11
502.7999659849359
 21
88.59996101807269
 31
0.0
  0
LINE
  5
F4
330
2
100
AcDbEntity
  8
L-ZISSEN
  6
CONTINUOUS
100
AcDbLine
 10
502.7999659849359
 20
111.3999610180728
 30
0.0
 11
491.7999659849337
 21
111.3999610180728
 31
0.0
  0
LINE
  5
F5
330
2
100
AcDbEntity
  8
L-ZISSEN
  6
CONTINUOUS
100
AcDbLine
 10
492.0994629762078
 20
111.3999610180728
 30
0.0
 11
491.7999659849337
 21
111.3999610180728
 31
0.0
  0
LINE
  5
F6
330
2
100
AcDbEntity
  8
L-ZISSEN
  6
CONTINUOUS
100
AcDbLine
 10
502.999965984936
 20
111.3999610180728
 30
0.0
 11
502.799965984936
 21
111.3999610180728
 31
0.0
  0
LINE
  5
F7
330
2
100
AcDbEntity
  8
L-ZISSEN
  6
CONTINUOUS
100
AcDbLine
 10
532.9999659849359
 20
114.9999610180727
 30
0.0
 11
532.9999659849359
 21
111.3999610180731
 31
0.0
  0
LINE
  5
F8
330
2
100
AcDbEntity
  8
L-ZISSEN
  6
CONTINUOUS
100
AcDbLine
 10
532.9999659849359
 20
114.9999610180727
 30
0.0
 11
532.9999659849356
 21
111.3999610180731
 31
0.0
  0
LINE
  5
F9
330
2
100
AcDbEntity
  8
L-ZISSEN
  6
CONTINUOUS
100
AcDbLine
 10
547.249965984936
 20
88.79996101807273
 30
0.0
 11
547.249965984936
 21
111.1999610180726
 31
0.0
  0
LINE
  5
FA
330
2
100
AcDbEntity
  8
L-ZISSEN
  6
CONTINUOUS
100
AcDbLine
 10
551.9999659849363
 20
90.49996101807279
 30
0.0
 11
551.9999659849361
 21
109.4999610180725
 31
0.0
  0
LINE
  5
FB
330
2
100
AcDbEntity
  8
L-ZISSEN
  6
CONTINUOUS
100
AcDbLine
 10
556.9999659849363
 20
90.49996101807279
 30
0.0
 11
556.9999659849361
 21
109.4999610180725
 31
0.0
  0
LINE
  5
FC
330
2
100
AcDbEntity
  8
L-ZISSEN
  6
CONTINUOUS
100
AcDbLine
 10
533.4999659849358
 20
88.59996101807269
 30
0.0
 11
533.4999659849358
 21
111.3999610180728
 31
0.0
  0
LINE
  5
FD
330
2
100
AcDbEntity
  8
L-ZISSEN
  6
CONTINUOUS
100
AcDbLine
 10
535.4999659849359
 20
111.3999610180728
 30
0.0
 11
535.4999659849359
 21
88.59996101807267
 31
0.0
  0
LINE
  5
FE
330
2
100
AcDbEntity
  8
L-ZISSEN
  6
CONTINUOUS
100
AcDbLine
 10
547.249965984936
 20
88.79996101807273
 30
0.0
 11
535.4999659849359
 21
88.79996101807273
 31
0.0
  0
LINE
  5
FF
330
2
100
AcDbEntity
  8
L-ZISSEN
  6
CONTINUOUS
100
AcDbLine
 10
532.9999659849359
 20
88.59996101807269
 30
0.0
 11
532.9999659849361
 21
84.99996101807278
 31
0.0
  0
LINE
  5
100
330
2
100
AcDbEntity
  8
L-ZISSEN
  6
CONTINUOUS
100
AcDbLine
 10
532.9999659849359
 20
88.59996101807269
 30
0.0
 11
532.9999659849361
 21
84.99996101807278
 31
0.0
  0
LINE
  5
101
330
2
100
AcDbEntity
  8
L-ZISSEN
  6
CONTINUOUS
100
AcDbLine
 10
534.4999659849358
 20
90.24996101807278
 30
0.0
 11
533.4999659849358
 21
90.24996101807278
 31
0.0
  0
LINE
  5
102
330
2
100
AcDbEntity
  8
L-ZISSEN
  6
CONTINUOUS
100
AcDbLine
 10
534.4999659849361
 20
90.24996101807278
 30
0.0
 11
533.4999659849358
 21
90.24996101807278
 31
0.0
  0
LINE
  5
103
330
2
100
AcDbEntity
  8
L-ZISSEN
  6
CONTINUOUS
100
AcDbLine
 10
534.4999659849358
 20
90.24996101807278
 30
0.0
 11
535.4999659849359
 21
90.24996101807278
 31
0.0
  0
LINE
  5
104
330
2
100
AcDbEntity
  8
L-ZISSEN
  6
CONTINUOUS
100
AcDbLine
 10
556.9999659849363
 20
90.49996101807279
 30
0.0
 11
551.9999659849361
 21
90.49996101807279
 31
0.0
  0
LINE
  5
105
330
2
100
AcDbEntity
  8
L-ZISSEN
  6
CONTINUOUS
100
AcDbLine
 10
551.9999659849363
 20
90.84996101807268
 30
0.0
 11
547.249965984936
 21
90.84996101807268
 31
0.0
  0
LINE
  5
106
330
2
100
AcDbEntity
  8
L-ZISSEN
  6
CONTINUOUS
100
AcDbLine
 10
547.249965984936
 20
111.1999610180726
 30
0.0
 11
535.4999659849359
 21
111.1999610180726
 31
0.0
  0
LINE
  5
107
330
2
100
AcDbEntity
  8
L-ZISSEN
  6
CONTINUOUS
100
AcDbLine
 10
535.4999659849359
 20
96.49996101807278
 30
0.0
 11
533.4999659849358
 21
96.49996101807278
 31
0.0
  0
LINE
  5
108
330
2
100
AcDbEntity
  8
L-ZISSEN
  6
CONTINUOUS
100
AcDbLine
 10
534.4999659849361
 20
95.74996101807277
 30
0.0
 11
533.4999659849358
 21
95.74996101807277
 31
0.0
  0
LINE
  5
109
330
2
100
AcDbEntity
  8
L-ZISSEN
  6
CONTINUOUS
100
AcDbLine
 10
534.4999659849361
 20
95.74996101807277
 30
0.0
 11
535.4999659849359
 21
95.74996101807277
 31
0.0
  0
LINE
  5
10A
330
2
100
AcDbEntity
  8
L-ZISSEN
  6
CONTINUOUS
100
AcDbLine
 10
556.4052111895027
 20
99.99996101807392
 30
0.0
 11
551.9999659849363
 21
99.99996101807255
 31
0.0
  0
LINE
  5
10B
330
2
100
AcDbEntity
  8
L-ZISSEN
  6
CONTINUOUS
100
AcDbLine
 10
556.9999659849361
 20
109.4999610180725
 30
0.0
 11
551.9999659849361
 21
109.4999610180725
 31
0.0
  0
LINE
  5
10C
330
2
100
AcDbEntity
  8
L-ZISSEN
  6
CONTINUOUS
100
AcDbLine
 10
551.9999659849361
 20
109.1499610180726
 30
0.0
 11
547.249965984936
 21
109.1499610180726
 31
0.0
  0
LINE
  5
10D
330
2
100
AcDbEntity
  8
L-ZISSEN
  6
CONTINUOUS
100
AcDbLine
 10
535.4999659849311
 20
191.283061260143
 30
0.0
 11
502.9768041592933
 21
191.283061260143
 31
0.0
  0
LINE
  5
10E
330
2
100
AcDbEntity
  8
L-ZISSEN
  6
CONTINUOUS
100
AcDbLine
 10
502.799965984931
 20
191.283061260143
 30
0.0
 11
491.7999659849329
 21
191.2830612601419
 31
0.0
  0
LINE
  5
10F
330
2
100
AcDbEntity
  8
L-ZISSEN
  6
CONTINUOUS
100
AcDbLine
 10
502.9768041592933
 20
191.283061260143
 30
0.0
 11
502.799965984931
 21
191.283061260143
 31
0.0
  0
LINE
  5
110
330
2
100
AcDbEntity
  8
L-TYUSIN
  6
CENTER
100
AcDbLine
 10
618.8499516690533
 20
206.9830612601429
 30
0.0
 11
643.3499516690537
 21
206.9830612601429
 31
0.0
  0
LINE
  5
111
330
2
100
AcDbEntity
  8
L-ZISSEN
  6
CONTINUOUS
100
AcDbLine
 10
646.6999516690536
 20
181.1830612601431
 30
0.0
 11
615.4999516690536
 21
181.1830612601431
 31
0.0
  0
LINE
  5
112
330
2
100
AcDbEntity
  8
L-ZISSEN
  6
CONTINUOUS
100
AcDbLine
 10
615.4999516690536
 20
190.183061260143
 30
0.0
 11
646.6999516690536
 21
190.183061260143
 31
0.0
  0
LINE
  5
113
330
2
100
AcDbEntity
  8
L-ZISSEN
  6
CONTINUOUS
100
AcDbLine
 10
642.4999516690534
 20
191.2830612601431
 30
0.0
 11
619.6999516690537
 21
191.2830612601431
 31
0.0
  0
LINE
  5
114
330
2
100
AcDbEntity
  8
L-ZISSEN
  6
CONTINUOUS
100
AcDbLine
 10
635.0999516690535
 20
199.9830612601429
 30
0.0
 11
635.0999516690538
 21
191.2830612601431
 31
0.0
  0
LINE
  5
115
330
2
100
AcDbEntity
  8
L-ZISSEN
  6
CONTINUOUS
100
AcDbLine
 10
642.4999516690534
 20
199.9830612601429
 30
0.0
 11
635.0999516690535
 21
199.9830612601429
 31
0.0
  0
LINE
  5
116
330
2
100
AcDbEntity
  8
L-TYUSIN
  6
CENTER
100
AcDbLine
 10
638.0999516690537
 20
198.2330612601429
 30
0.0
 11
638.0999516690537
 21
194.7330612601429
 31
0.0
  0
CIRCLE
  5
117
330
2
100
AcDbEntity
  8
L-ZISSEN
  6
CONTINUOUS
100
AcDbCircle
 10
638.0999516690537
 20
196.4830612601429
 30
0.0
 40
2.75
  0
LINE
  5
118
330
2
100
AcDbEntity
  8
L-TYUSIN
  6
CONTINUOUS
100
AcDbLine
 10
639.8499516690537
 20
196.4830612601429
 30
0.0
 11
636.3499516690538
 21
196.4830612601429
 31
0.0
  0
MTEXT
  5
119
330
2
100
AcDbEntity
  8
L-ZISSEN
100
AcDbMText
 10
797.7435597848433
 20
202.7509090769968
 30
0.0
 40
4.5
 41
0.0
 71
     7
 72
     1
  1
P.P
1001
ACAD
1000
MTEXTBEGIN
1070
    73
1070
     1
1070
    44
1040
1.0
1070
    74
1070
     0
1000
MTEXTEND
1000
MTEXTBEGIN
1070
    73
1070
     1
1070
    44
1040
1.0
1070
    74
1070
     0
1000
MTEXTEND
1000
MTEXTBEGIN
1070
    73
1070
     1
1070
    44
1040
1.0
1070
    74
1070
     0
1000
MTEXTEND
1000
MTEXTBEGIN
1070
    73
1070
     1
1070
    44
1040
1.0
1070
    74
1070
     0
1000
MTEXTEND
1000
MTEXTBEGIN
1070
    73
1070
     1
1070
    44
1040
1.0
1070
    74
1070
     0
1000
MTEXTEND
  0
TEXT
  5
11A
330
2
100
AcDbEntity
  8
L-ZISSEN
100
AcDbText
 10
701.6005539401657
 20
306.2422265443698
 30
0.0
 40
4.5
  1
MODEL No. :  MVD-4*5-0*Y****R*
100
AcDbText
  0
TEXT
  5
11B
330
2
100
AcDbEntity
  8
L-ZISSEN
100
AcDbText
 10
704.3722639185651
 20
395.6840207067079
 30
0.0
 40
4.5
  1
MODEL No. :  MVD-4*5-0*Y**P**
100
AcDbText
  0
TEXT
  5
11C
330
2
100
AcDbEntity
  8
L-ZISSEN
100
AcDbText
 10
704.4065035941761
 20
404.6742088387249
 30
0.0
 40
4.5
  1
EXTERNAL PILOT AIR SUPPLY
100
AcDbText
  0
TEXT
  5
11D
330
2
100
AcDbEntity
  8
L-ZISSEN
100
AcDbText
 10
701.6005539401657
 20
306.2422265443698
 30
0.0
 40
4.5
  1
MODEL No. :
100
AcDbText
  0
TEXT
  5
11E
330
2
100
AcDbEntity
  8
L-ZISSEN
100
AcDbText
 10
701.6005539401657
 20
316.2422265443698
 30
0.0
 40
4.5
  1
LOCK TYPE MANUAL OPERATION BUTTON
100
AcDbText
  0
LINE
  5
11F
330
2
100
AcDbEntity
  8
L-TYUSIN
100
AcDbLine
 10
691.6005539401656
 20
331.2422265443698
 30
0.0
 11
909.1448012749987
 21
331.2422265443698
 31
0.0
  0
LINE
  5
120
330
2
100
AcDbEntity
  8
L-ZISSEN
  6
CONTINUOUS
100
AcDbLine
 10
551.9999659849315
 20
354.6473744254313
 30
0.0
 11
551.9999659849313
 21
335.6473744254313
 31
0.0
  0
LINE
  5
121
330
2
100
AcDbEntity
  8
L-ZISSEN
  6
CONTINUOUS
100
AcDbLine
 10
556.9999659849318
 20
354.6473744254313
 30
0.0
 11
556.9999659849313
 21
335.6473744254313
 31
0.0
  0
LINE
  5
122
330
2
100
AcDbEntity
  8
L-TYUSIN
  6
CENTER
100
AcDbLine
 10
496.999965984931
 20
340.0473744254313
 30
0.0
 11
496.999965984931
 21
350.2473744254309
 31
0.0
  0
LINE
  5
123
330
2
100
AcDbEntity
  8
L-ZISSEN
  6
CONTINUOUS
100
AcDbLine
 10
502.7999659849312
 20
330.147374425431
 30
0.0
 11
502.7999659849312
 21
360.1473744254312
 31
0.0
  0
LINE
  5
124
330
2
100
AcDbEntity
  8
L-ZISSEN
  6
CONTINUOUS
100
AcDbLine
 10
502.7999659849312
 20
330.147374425431
 30
0.0
 11
502.7999659849312
 21
360.1473744254312
 31
0.0
  0
LINE
  5
125
330
2
100
AcDbEntity
  8
L-ZISSEN
  6
CONTINUOUS
100
AcDbLine
 10
547.2499659849313
 20
356.3473744254314
 30
0.0
 11
547.2499659849313
 21
333.9473744254314
 31
0.0
  0
LINE
  5
126
330
2
100
AcDbEntity
  8
L-ZISSEN
  6
CONTINUOUS
100
AcDbLine
 10
532.9999659849313
 20
360.1473744254312
 30
0.0
 11
532.9999659849311
 21
330.1473744254312
 31
0.0
  0
LINE
  5
127
330
2
100
AcDbEntity
  8
L-ZISSEN
  6
CONTINUOUS
100
AcDbLine
 10
471.799965984931
 20
329.1473744254307
 30
0.0
 11
471.799965984931
 21
361.1473744254316
 31
0.0
  0
LINE
  5
128
330
2
100
AcDbEntity
  8
L-ZISSEN
  6
CONTINUOUS
100
AcDbLine
 10
491.7999659849289
 20
329.1473744254308
 30
0.0
 11
491.7999659849289
 21
361.1473744254317
 31
0.0
  0
LINE
  5
129
330
2
100
AcDbEntity
  8
L-TYUSIN
  6
CENTER
100
AcDbLine
 10
517.9999659849309
 20
327.6473744254313
 30
0.0
 11
517.9999659849312
 21
362.6473744254312
 31
0.0
  0
LINE
  5
12A
330
2
100
AcDbEntity
  8
L-ZISSEN
  6
CONTINUOUS
100
AcDbLine
 10
531.749965984931
 20
266.9830612601433
 30
0.0
 11
504.249965984931
 21
266.9830612601433
 31
0.0
  0
LINE
  5
12B
330
2
100
AcDbEntity
  8
L-ZISSEN
  6
CONTINUOUS
100
AcDbLine
 10
502.999965984931
 20
235.9830612601431
 30
0.0
 11
532.799965984931
 21
235.9830612601433
 31
0.0
  0
LINE
  5
12C
330
2
100
AcDbEntity
  8
L-ZISSEN
  6
CONTINUOUS
100
AcDbLine
 10
502.999965984931
 20
231.483061260143
 30
0.0
 11
532.799965984931
 21
231.4830612601431
 31
0.0
  0
LINE
  5
12D
330
2
100
AcDbEntity
  8
L-ZISSEN
  6
CONTINUOUS
100
AcDbLine
 10
532.799965984931
 20
226.4830612601432
 30
0.0
 11
502.999965984931
 21
226.4830612601424
 31
0.0
  0
LINE
  5
12E
330
2
100
AcDbEntity
  8
L-ZISSEN
  6
CONTINUOUS
100
AcDbLine
 10
535.4999659849308
 20
222.683061260143
 30
0.0
 11
502.999965984931
 21
222.6830612601431
 31
0.0
  0
LINE
  5
12F
330
2
100
AcDbEntity
  8
L-TYUSIN
  6
CENTER
 48
0.5
100
AcDbLine
 10
562.2999659849313
 20
255.9830612601432
 30
0.0
 11
517.9999659849311
 21
255.9830612601432
 31
0.0
  0
LINE
  5
130
330
2
100
AcDbEntity
  8
L-ZISSEN
  6
CONTINUOUS
100
AcDbLine
 10
504.0499659849309
 20
266.9830612601433
 30
0.0
 11
504.0499659849309
 21
235.7830612601432
 31
0.0
  0
LINE
  5
131
330
2
100
AcDbEntity
  8
L-ZISSEN
100
AcDbLine
 10
496.3881593721994
 20
224.5871864316102
 30
0.0
 11
488.7605192367409
 21
248.3266839763857
 31
0.0
  0
LINE
  5
132
330
2
100
AcDbEntity
  8
L-TYUSIN
  6
CENTER
 48
0.5
100
AcDbLine
 10
517.9999659849311
 20
269.6830612601426
 30
0.0
 11
517.9999659849311
 21
220.2830612601432
 31
0.0
  0
LINE
  5
133
330
2
100
AcDbEntity
  8
L-ZISSEN
  6
CONTINUOUS
100
AcDbLine
 10
502.799965984931
 20
222.6830612601431
 30
0.0
 11
491.7999659849301
 21
222.683061260142
 31
0.0
  0
INSERT
  5
134
330
2
100
AcDbEntity
  8
L-TYUSIN
  6
CENTER
100
AcDbBlockReference
  2
A$C8321
 10
491.7801022122843
 20
220.1821300187642
 30
0.0000000232876899
  0
SOLID
  5
13D
330
2
100
AcDbEntity
  8
L-ZISSEN
100
AcDbTrace
 10
496.705513567444
 20
224.689154200399
 30
0.0
 11
496.0708051769548
 21
224.4852186628218
 31
0.0
 12
496.9999659849313
 22
222.6830612601425
 32
0.0
 13
496.9999659849313
 23
222.6830612601425
 33
0.0
  0
LINE
  5
13E
330
2
100
AcDbEntity
  8
L-ZISSEN
  6
CONTINUOUS
100
AcDbLine
 10
502.999965984931
 20
222.6830612601431
 30
0.0
 11
502.799965984931
 21
222.6830612601431
 31
0.0
  0
LINE
  5
13F
330
2
100
AcDbEntity
  8
L-ZISSEN
  6
CONTINUOUS
100
AcDbLine
 10
502.999965984931
 20
231.483061260143
 30
0.0
 11
502.799965984931
 21
231.483061260143
 31
0.0
  0
LINE
  5
140
330
2
100
AcDbEntity
  8
L-ZISSEN
  6
CONTINUOUS
100
AcDbLine
 10
502.999965984931
 20
226.4830612601424
 30
0.0
 11
502.799965984931
 21
226.4830612601424
 31
0.0
  0
LINE
  5
141
330
2
100
AcDbEntity
  8
L-ZISSEN
  6
CONTINUOUS
100
AcDbLine
 10
502.999965984931
 20
235.9830612601431
 30
0.0
 11
502.799965984931
 21
235.9830612601431
 31
0.0
  0
LINE
  5
142
330
2
100
AcDbEntity
  8
L-ZISSEN
100
AcDbLine
 10
488.7605192367409
 20
248.3266839763857
 30
0.0
 11
486.7605192367409
 21
248.3266839763857
 31
0.0
  0
LINE
  5
143
330
2
100
AcDbEntity
  8
L-ZISSEN
  6
CONTINUOUS
100
AcDbLine
 10
504.249965984931
 20
266.9830612601433
 30
0.0
 11
504.0499659849309
 21
266.9830612601433
 31
0.0
  0
LINE
  5
144
330
2
100
AcDbEntity
  8
L-ZISSEN
  6
CONTINUOUS
100
AcDbLine
 10
531.749965984931
 20
266.9830612601433
 30
0.0
 11
531.7499659849313
 21
235.7830612601433
 31
0.0
  0
LINE
  5
145
330
2
100
AcDbEntity
  8
L-ZISSEN
  6
CONTINUOUS
100
AcDbLine
 10
535.4999659849311
 20
214.4830612601429
 30
0.0
 11
533.4999659849311
 21
214.4830612601429
 31
0.0
  0
LINE
  5
146
330
2
100
AcDbEntity
  8
L-ZISSEN
  6
CONTINUOUS
100
AcDbLine
 10
534.4999659849311
 20
215.2330612601429
 30
0.0
 11
533.4999659849311
 21
215.2330612601429
 31
0.0
  0
LINE
  5
147
330
2
100
AcDbEntity
  8
L-ZISSEN
  6
CONTINUOUS
100
AcDbLine
 10
534.2999659849311
 20
215.2330612601429
 30
0.0
 11
535.2999659849309
 21
215.2330612601429
 31
0.0
  0
LINE
  5
148
330
2
100
AcDbEntity
  8
L-TYUSIN
  6
CENTER
100
AcDbLine
 10
536.9999659849311
 20
217.9830612601428
 30
0.0
 11
527.4999659849311
 21
217.9830612601428
 31
0.0
  0
LINE
  5
149
330
2
100
AcDbEntity
  8
L-ZISSEN
  6
CONTINUOUS
100
AcDbLine
 10
535.2999659849309
 20
215.2330612601429
 30
0.0
 11
535.4999659849308
 21
215.2330612601429
 31
0.0
  0
LINE
  5
14A
330
2
100
AcDbEntity
  8
L-ZISSEN
  6
CONTINUOUS
100
AcDbLine
 10
534.4999659849311
 20
220.7330612601428
 30
0.0
 11
533.4999659849311
 21
220.7330612601428
 31
0.0
  0
LINE
  5
14B
330
2
100
AcDbEntity
  8
L-ZISSEN
  6
CONTINUOUS
100
AcDbLine
 10
534.2999659849311
 20
220.7330612601428
 30
0.0
 11
535.2999659849309
 21
220.7330612601428
 31
0.0
  0
LINE
  5
14C
330
2
100
AcDbEntity
  8
L-ZISSEN
  6
CONTINUOUS
100
AcDbLine
 10
535.2999659849309
 20
220.7330612601428
 30
0.0
 11
535.4999659849308
 21
220.7330612601428
 31
0.0
  0
LINE
  5
14D
330
2
100
AcDbEntity
  8
L-ZISSEN
  6
CONTINUOUS
100
AcDbLine
 10
532.799965984931
 20
226.483061260143
 30
0.0
 11
532.799965984931
 21
235.9830612601433
 31
0.0
  0
LINE
  5
14E
330
2
100
AcDbEntity
  8
L-ZISSEN
  6
CONTINUOUS
100
AcDbLine
 10
532.9999659849311
 20
226.4830612601432
 30
0.0
 11
532.9840131753351
 21
226.4830612601432
 31
0.0
  0
LINE
  5
14F
330
2
100
AcDbEntity
  8
L-ZISSEN
  6
CONTINUOUS
100
AcDbLine
 10
527.6999659849312
 20
231.483061260143
 30
0.0
 11
528.299965984931
 21
231.4830612601431
 31
0.0
  0
LINE
  5
150
330
2
100
AcDbEntity
  8
L-ZISSEN
  6
CONTINUOUS
100
AcDbLine
 10
551.9999659849311
 20
266.952716374746
 30
0.0
 11
551.9999659849311
 21
245.0134061455405
 31
0.0
  0
LINE
  5
151
330
2
100
AcDbEntity
  8
L-ZISSEN
  6
CONTINUOUS
100
AcDbLine
 10
556.9999659849313
 20
266.952716374746
 30
0.0
 11
556.9999659849315
 21
245.0134061455405
 31
0.0
  0
LINE
  5
152
330
2
100
AcDbEntity
  8
L-ZISSEN
  6
CONTINUOUS
100
AcDbLine
 10
547.2499659849311
 20
266.9830612601433
 30
0.0
 11
547.2499659849311
 21
244.5830612601432
 31
0.0
  0
LINE
  5
153
330
2
100
AcDbEntity
  8
L-ZISSEN
  6
CONTINUOUS
100
AcDbLine
 10
547.2499659849311
 20
244.5830612601432
 30
0.0
 11
531.749965984931
 21
244.5830612601432
 31
0.0
  0
LINE
  5
154
330
2
100
AcDbEntity
  8
L-ZISSEN
  6
CONTINUOUS
100
AcDbLine
 10
556.9999659849315
 20
245.0134061455405
 30
0.0
 11
551.9999659849311
 21
245.0134061455405
 31
0.0
  0
LINE
  5
155
330
2
100
AcDbEntity
  8
L-ZISSEN
  6
CONTINUOUS
100
AcDbLine
 10
551.9999659849311
 20
246.8330612601434
 30
0.0
 11
547.2499659849311
 21
246.8330612601434
 31
0.0
  0
LINE
  5
156
330
2
100
AcDbEntity
  8
L-ZISSEN
  6
CONTINUOUS
100
AcDbLine
 10
547.2499659849311
 20
266.9830612601433
 30
0.0
 11
531.749965984931
 21
266.9830612601433
 31
0.0
  0
LINE
  5
157
330
2
100
AcDbEntity
  8
L-ZISSEN
  6
CONTINUOUS
100
AcDbLine
 10
556.9999659849313
 20
266.9830163747461
 30
0.0
 11
551.9999659849311
 21
266.9830163747461
 31
0.0
  0
LINE
  5
158
330
2
100
AcDbEntity
  8
L-ZISSEN
  6
CONTINUOUS
100
AcDbLine
 10
551.9999659849311
 20
264.9330612601431
 30
0.0
 11
547.2499659849311
 21
264.9330612601431
 31
0.0
  0
LINE
  5
159
330
2
100
AcDbEntity
  8
L-ZISSEN
  6
CONTINUOUS
100
AcDbLine
 10
551.9999659849311
 20
266.952716374746
 30
0.0
 11
551.9999659849311
 21
266.9830163747461
 31
0.0
  0
LINE
  5
15A
330
2
100
AcDbEntity
  8
L-ZISSEN
  6
CONTINUOUS
100
AcDbLine
 10
556.9999659849313
 20
266.952716374746
 30
0.0
 11
556.9999659849313
 21
266.9830163747461
 31
0.0
  0
LINE
  5
15B
330
2
100
AcDbEntity
  8
L-ZISSEN
  6
CONTINUOUS
100
AcDbLine
 10
532.9999659849311
 20
330.1473744254312
 30
0.0
 11
502.9999659849313
 21
330.147374425431
 31
0.0
  0
LINE
  5
15C
330
2
100
AcDbEntity
  8
L-ZISSEN
  6
CONTINUOUS
100
AcDbLine
 10
532.799965984931
 20
330.1473744254312
 30
0.0
 11
502.7999659849312
 21
330.147374425431
 31
0.0
  0
LINE
  5
15D
330
2
100
AcDbEntity
  8
L-ZISSEN
  6
CONTINUOUS
100
AcDbLine
 10
502.7999659849312
 20
333.7473744254312
 30
0.0
 11
491.7999659849289
 21
333.7473744254312
 31
0.0
  0
LINE
  5
15E
330
2
100
AcDbEntity
  8
L-ZISSEN
  6
CONTINUOUS
100
AcDbLine
 10
502.7999659849312
 20
333.7473744254312
 30
0.0
 11
491.7999659849289
 21
333.7473744254312
 31
0.0
  0
LINE
  5
15F
330
2
100
AcDbEntity
  8
L-ZISSEN
  6
CONTINUOUS
100
AcDbLine
 10
547.2499659849313
 20
333.9473744254314
 30
0.0
 11
532.9999659849311
 21
333.9473744254313
 31
0.0
  0
LINE
  5
160
330
2
100
AcDbEntity
  8
L-ZISSEN
  6
CONTINUOUS
100
AcDbLine
 10
556.9999659849313
 20
335.6473744254313
 30
0.0
 11
551.9999659849313
 21
335.6473744254313
 31
0.0
  0
LINE
  5
161
330
2
100
AcDbEntity
  8
L-ZISSEN
  6
CONTINUOUS
100
AcDbLine
 10
551.9999659849313
 20
335.9973744254312
 30
0.0
 11
547.2499659849313
 21
335.9973744254312
 31
0.0
  0
LINE
  5
162
330
2
100
AcDbEntity
  8
L-ZISSEN
  6
CONTINUOUS
100
AcDbLine
 10
644.8499516690538
 20
267.1830612601406
 30
0.0
 11
644.8499516690535
 21
235.9830612601433
 31
0.0
  0
LINE
  5
163
330
2
100
AcDbEntity
  8
L-ZISSEN
  6
CONTINUOUS
100
AcDbLine
 10
617.3499516690535
 20
267.1830612601406
 30
0.0
 11
617.3499516690533
 21
235.9830612601433
 31
0.0
  0
LINE
  5
164
330
2
100
AcDbEntity
  8
L-ZISSEN
  6
CONTINUOUS
100
AcDbLine
 10
646.0101313901779
 20
226.4830612601428
 30
0.0
 11
616.189771947929
 21
226.4830612601433
 31
0.0
  0
LINE
  5
165
330
2
100
AcDbEntity
  8
L-ZISSEN
  6
CONTINUOUS
100
AcDbLine
 10
646.0999516690535
 20
231.4830612601429
 30
0.0
 11
616.0999516690536
 21
231.483061260143
 31
0.0
  0
LINE
  5
166
330
2
100
AcDbEntity
  8
L-ZISSEN
  6
CONTINUOUS
100
AcDbLine
 10
646.0999516690535
 20
235.9830612601433
 30
0.0
 11
616.0999516690536
 21
235.9830612601433
 31
0.0
  0
LINE
  5
167
330
2
100
AcDbEntity
  8
L-ZISSEN
  6
CONTINUOUS
100
AcDbLine
 10
642.4999516690534
 20
222.683061260143
 30
0.0
 11
619.6999516690537
 21
222.683061260143
 31
0.0
  0
LINE
  5
168
330
2
100
AcDbEntity
  8
L-ZISSEN
  6
CONTINUOUS
100
AcDbLine
 10
627.0999516690531
 20
213.9230612601429
 30
0.0
 11
627.0999516690533
 21
222.683061260143
 31
0.0
  0
LINE
  5
169
330
2
100
AcDbEntity
  8
L-TYUSIN
  6
CONTINUOUS
100
AcDbLine
 10
624.0999516690533
 20
219.173061260143
 30
0.0
 11
624.0999516690533
 21
215.673061260143
 31
0.0
  0
CIRCLE
  5
16A
330
2
100
AcDbEntity
  8
L-ZISSEN
  6
CONTINUOUS
100
AcDbCircle
 10
624.0999516690533
 20
217.423061260143
 30
0.0
 40
2.75
  0
LINE
  5
16B
330
2
100
AcDbEntity
  8
L-TYUSIN
  6
CENTER
100
AcDbLine
 10
625.8499516690533
 20
217.423061260143
 30
0.0
 11
622.3499516690533
 21
217.423061260143
 31
0.0
  0
LINE
  5
16C
330
2
100
AcDbEntity
  8
L-ZISSEN
  6
CONTINUOUS
100
AcDbLine
 10
619.6999516690537
 20
213.9230612601429
 30
0.0
 11
627.0999516690531
 21
213.9230612601429
 31
0.0
  0
LINE
  5
16D
330
2
100
AcDbEntity
  8
L-ZISSEN
  6
CONTINUOUS
100
AcDbLine
 10
616.0999516690536
 20
235.9830612601433
 30
0.0
 11
616.0999516690536
 21
226.4830612601432
 31
0.0
  0
LINE
  5
16E
330
2
100
AcDbEntity
  8
L-ZISSEN
  6
CONTINUOUS
100
AcDbLine
 10
615.4999516690536
 20
232.783061260143
 30
0.0
 11
616.0999516690536
 21
232.783061260143
 31
0.0
  0
LINE
  5
16F
330
2
100
AcDbEntity
  8
L-ZISSEN
  6
CONTINUOUS
100
AcDbLine
 10
646.0999516690535
 20
235.9830612601433
 30
0.0
 11
646.0999516690537
 21
226.483061260143
 31
0.0
  0
LINE
  5
170
330
2
100
AcDbEntity
  8
L-ZISSEN
  6
CONTINUOUS
100
AcDbLine
 10
646.099951669054
 20
232.783061260143
 30
0.0
 11
646.6999516690536
 21
232.783061260143
 31
0.0
  0
CIRCLE
  5
171
330
2
100
AcDbEntity
  8
L-ZISSEN
  6
CONTINUOUS
100
AcDbCircle
 10
631.0999516690533
 20
255.9830612601426
 30
0.0
 40
6.5
  0
LINE
  5
172
330
2
100
AcDbEntity
  8
L-ZISSEN
  6
CONTINUOUS
100
AcDbLine
 10
617.3499516690535
 20
267.1830612601406
 30
0.0
 11
644.8499516690538
 21
267.1830612601406
 31
0.0
  0
LINE
  5
173
330
2
100
AcDbEntity
  8
L-TYUSIN
  6
CENTER
 48
0.5
100
AcDbLine
 10
647.3499516690533
 20
255.9830612601432
 30
0.0
 11
614.8499516690533
 21
255.9830612601432
 31
0.0
  0
CIRCLE
  5
174
330
2
100
AcDbEntity
  8
L-ZISSEN
  6
CONTINUOUS
100
AcDbCircle
 10
631.0999516690533
 20
255.9830612601426
 30
0.0
 40
11.19999999999999
  0
LINE
  5
175
330
2
100
AcDbEntity
  8
L-ZISSEN
  6
CONTINUOUS
100
AcDbLine
 10
532.9999659849313
 20
360.1473744254312
 30
0.0
 11
502.9999659849313
 21
360.1473744254312
 31
0.0
  0
LINE
  5
176
330
2
100
AcDbEntity
  8
L-ZISSEN
  6
CONTINUOUS
100
AcDbLine
 10
532.7999659849313
 20
360.1473744254312
 30
0.0
 11
502.7999659849312
 21
360.1473744254312
 31
0.0
  0
CIRCLE
  5
177
330
2
100
AcDbEntity
  8
L-ZISSEN
  6
CONTINUOUS
100
AcDbCircle
 10
496.999965984931
 20
345.1473744254312
 30
0.0
 40
2.600000000000008
  0
CIRCLE
  5
178
330
2
100
AcDbEntity
  8
L-ZISSEN
  6
CONTINUOUS
100
AcDbCircle
 10
496.999965984931
 20
345.1473744254312
 30
0.0
 40
1.500000000000099
  0
LINE
  5
179
330
2
100
AcDbEntity
  8
L-ZISSEN
  6
CONTINUOUS
100
AcDbLine
 10
502.7999659849312
 20
356.5473744254313
 30
0.0
 11
491.7999659849289
 21
356.5473744254313
 31
0.0
  0
LINE
  5
17A
330
2
100
AcDbEntity
  8
L-ZISSEN
  6
CONTINUOUS
100
AcDbLine
 10
502.7999659849312
 20
356.5473744254313
 30
0.0
 11
491.7999659849289
 21
356.5473744254313
 31
0.0
  0
LINE
  5
17B
330
2
100
AcDbEntity
  8
L-TYUSIN
  6
CONTINUOUS
100
AcDbLine
 10
516.40897572726
 20
346.7383646831023
 30
0.0
 11
519.5909562425994
 21
343.5563841677628
 31
0.0
  0
LINE
  5
17C
330
2
100
AcDbEntity
  8
L-TYUSIN
  6
CONTINUOUS
100
AcDbLine
 10
519.5909562426021
 20
346.7383646831023
 30
0.0
 11
516.4089757272616
 21
343.5563841677616
 31
0.0
  0
CIRCLE
  5
17D
330
2
100
AcDbEntity
  8
L-ZISSEN
  6
CONTINUOUS
100
AcDbCircle
 10
517.9999659849312
 20
345.1473744254314
 30
0.0
 40
3.25
  0
LINE
  5
17E
330
2
100
AcDbEntity
  8
L-ZISSEN
  6
CONTINUOUS
100
AcDbLine
 10
547.2499659849313
 20
356.3473744254314
 30
0.0
 11
532.9999659849313
 21
356.3473744254314
 31
0.0
  0
LINE
  5
17F
330
2
100
AcDbEntity
  8
L-ZISSEN
  6
CONTINUOUS
100
AcDbLine
 10
556.4052111894979
 20
345.14737442543
 30
0.0
 11
551.9999659849315
 21
345.1473744254314
 31
0.0
  0
LINE
  5
180
330
2
100
AcDbEntity
  8
L-ZISSEN
  6
CONTINUOUS
100
AcDbLine
 10
556.9999659849318
 20
354.6473744254313
 30
0.0
 11
551.9999659849313
 21
354.6473744254313
 31
0.0
  0
LINE
  5
181
330
2
100
AcDbEntity
  8
L-ZISSEN
  6
CONTINUOUS
100
AcDbLine
 10
551.9999659849315
 20
354.2973744254313
 30
0.0
 11
547.2499659849313
 21
354.2973744254313
 31
0.0
  0
LEADER
  5
182
330
2
100
AcDbEntity
  8
L-ZISSEN
100
AcDbLeader
  3
STANDARD
 73
     0
 74
     0
 40
5.599999999999999
 41
9.599999999999997
 76
     3
 10
785.1864230173792
 20
254.9815312465878
 30
0.0
 10
793.387091455656
 20
282.0959244330703
 30
0.0
 10
795.7141367938817
 20
282.0959244330703
 30
0.0
210
0.0
220
0.0
230
-1.0
1001
ACAD
1000
DSTYLE
1002
{
1070
     5
1000

1070
    40
1040
2.0
1070
    41
1040
2.0
1070
    42
1040
2.0
1070
    44
1040
2.0
1070
    46
1040
1.0
1070
    73
1070
     0
1070
    74
1070
     0
1070
    77
1070
     1
1070
   140
1040
2.799999999999999
1070
   147
1040
1.0
1070
   172
1070
     1
1070
   174
1070
     1
1070
   271
1070
     1
1070
   287
1070
     5
1070
   342
1005
0
1002
}
1000
LEANOF
1010
0.0
1020
0.0
1030
0.0
  0
LINE
  5
183
330
2
100
AcDbEntity
  8
L-ZISSEN
100
AcDbLine
 10
782.1864230173793
 20
237.0396069180674
 30
0.0
 11
782.1864230173793
 21
223.7396069180675
 31
0.0
  0
LINE
  5
184
330
2
100
AcDbEntity
  8
L-TYUSIN
100
AcDbLine
 10
785.1864230173792
 20
218.7396069180675
 30
0.0
 11
785.1864230173792
 21
242.0396069180674
 31
0.0
  0
LINE
  5
185
330
2
100
AcDbEntity
  8
L-ZISSEN
100
AcDbLine
 10
788.1864230173793
 20
237.0396069180674
 30
0.0
 11
788.1864230173793
 21
223.7396069180675
 31
0.0
  0
LINE
  5
186
330
2
100
AcDbEntity
  8
L-ZISSEN
100
AcDbLine
 10
782.1864230173793
 20
237.0396069180674
 30
0.0
 11
784.7864230173794
 21
237.0396069180674
 31
0.0
  0
LINE
  5
187
330
2
100
AcDbEntity
  8
L-ZISSEN
100
AcDbLine
 10
785.5864230173791
 20
235.0396069180674
 30
0.0
 11
784.7864230173794
 21
235.0396069180674
 31
0.0
  0
LINE
  5
188
330
2
100
AcDbEntity
  8
L-ZISSEN
100
AcDbLine
 10
784.7864230173794
 20
235.0396069180674
 30
0.0
 11
784.7864230173794
 21
237.0396069180674
 31
0.0
  0
LINE
  5
189
330
2
100
AcDbEntity
  8
L-ZISSEN
100
AcDbLine
 10
785.5864230173791
 20
237.0396069180674
 30
0.0
 11
785.5864230173791
 21
235.0396069180674
 31
0.0
  0
LINE
  5
18A
330
2
100
AcDbEntity
  8
L-ZISSEN
100
AcDbLine
 10
785.5864230173791
 20
237.0396069180674
 30
0.0
 11
788.1864230173793
 21
237.0396069180674
 31
0.0
  0
LINE
  5
18B
330
2
100
AcDbEntity
  8
L-TYUSIN
100
AcDbLine
 10
785.1864230173792
 20
262.9815312465886
 30
0.0
 11
785.1864230173792
 21
246.9815312465876
 31
0.0
  0
CIRCLE
  5
18C
330
2
100
AcDbEntity
  8
L-ZISSEN
100
AcDbCircle
 10
785.1864230173792
 20
254.9815312465878
 30
0.0
 40
3.0
  0
LINE
  5
18D
330
2
100
AcDbEntity
  8
L-ZISSEN
100
AcDbLine
 10
785.5864230173791
 20
257.9547449960516
 30
0.0
 11
785.5864230173791
 21
252.0083174971241
 31
0.0
  0
LINE
  5
18E
330
2
100
AcDbEntity
  8
L-ZISSEN
100
AcDbLine
 10
784.7864230173794
 20
252.0083174971241
 30
0.0
 11
784.7864230173794
 21
257.9547449960516
 31
0.0
  0
MTEXT
  5
18F
330
2
100
AcDbEntity
  8
L-ZISSEN
100
AcDbMText
 10
798.0195651684019
 20
283.4660560075724
 30
0.0
 40
4.5
 41
0.0
 71
     7
 72
     1
  1
P.P
1001
ACAD
1000
MTEXTBEGIN
1070
    73
1070
     1
1070
    44
1040
1.0
1070
    74
1070
     0
1000
MTEXTEND
1000
MTEXTBEGIN
1070
    73
1070
     1
1070
    44
1040
1.0
1070
    74
1070
     0
1000
MTEXTEND
1000
MTEXTBEGIN
1070
    73
1070
     1
1070
    44
1040
1.0
1070
    74
1070
     0
1000
MTEXTEND
1000
MTEXTBEGIN
1070
    73
1070
     1
1070
    44
1040
1.0
1070
    74
1070
     0
1000
MTEXTEND
1000
MTEXTBEGIN
1070
    73
1070
     1
1070
    44
1040
1.0
1070
    74
1070
     0
1000
MTEXTEND
  0
LINE
  5
190
330
2
100
AcDbEntity
  8
L-ZISSEN
100
AcDbLine
 10
771.2527058640242
 20
363.9857080601649
 30
0.0
 11
784.5886052753486
 21
355.0951084526154
 31
0.0
  0
LINE
  5
191
330
2
100
AcDbEntity
  8
L-TYUSIN
100
AcDbLine
 10
769.5886052753486
 20
373.0951084526162
 30
0.0
 11
769.5886052753486
 21
357.0951084526151
 31
0.0
  0
CIRCLE
  5
192
330
2
100
AcDbEntity
  8
L-ZISSEN
100
AcDbCircle
 10
769.5886052753486
 20
365.0951084526154
 30
0.0
 40
4.283
  0
SOLID
  5
193
330
2
100
AcDbEntity
  8
L-ZISSEN
100
AcDbTrace
 10
771.0678057986159
 20
363.7083579620524
 30
0.0
 11
771.4376059294328
 21
364.2630581582776
 31
0.0
 12
769.5886052753486
 22
365.0951084526154
 32
0.0
 13
769.5886052753486
 23
365.0951084526154
 33
0.0
  0
TEXT
  5
194
330
2
100
AcDbEntity
  8
L-ZISSEN
100
AcDbText
 10
788.5886052753486
 20
352.8451084526154
 30
0.0
 40
4.5
  1
P.P
100
AcDbText
  0
LINE
  5
195
330
2
100
AcDbEntity
  8
L-ZISSEN
100
AcDbLine
 10
784.5886052753486
 20
355.0951084526153
 30
0.0
 11
786.5886052753486
 21
355.0951084526153
 31
0.0
  0
LINE
  5
196
330
2
100
AcDbEntity
  8
L-ZISSEN
100
AcDbLine
 10
497.611772597663
 20
343.2432492539635
 30
0.0000000232876899
 11
505.2394127331215
 21
319.503751709188
 31
0.0000000232876899
  0
TEXT
  5
197
330
2
100
AcDbEntity
  8
L-ZISSEN
100
AcDbText
 10
475.8959032450597
 20
245.9203453478611
 30
0.0000000232876899
 40
4.5
  1
P.P
100
AcDbText
  0
LINE
  5
198
330
2
100
AcDbEntity
  8
L-ZISSEN
100
AcDbLine
 10
505.2394127331215
 20
319.503751709188
 30
0.0000000232876899
 11
507.2394127331214
 21
319.503751709188
 31
0.0000000232876899
  0
TEXT
  5
199
330
2
100
AcDbEntity
  8
L-ZISSEN
100
AcDbText
 10
509.0552237590875
 20
317.0902052590371
 30
0.0000000232876899
 40
4.5
  1
P.P
100
AcDbText
  0
LEADER
  5
19A
330
2
100
AcDbEntity
  8
L-ZISSEN
100
AcDbLeader
  3
STANDARD
 73
     0
 74
     0
 40
5.599999999999999
 41
9.599999999999997
 76
     3
 10
481.499965984931
 20
345.1473744254312
 30
0.0000000232876899
 10
492.2131839695304
 20
379.8344829903334
 30
0.0000000232876899
 10
499.2341513955791
 20
379.8344829903334
 30
0.0000000232876899
1001
ACAD
1000
DSTYLE
1002
{
1070
     5
1000

1070
    40
1040
2.0
1070
    41
1040
2.0
1070
    42
1040
1.0
1070
    43
1040
8.0
1070
    44
1040
1.0
1070
    73
1070
     0
1070
    74
1070
     0
1070
    77
1070
     1
1070
    78
1070
     8
1070
   140
1040
2.799999999999999
1070
   141
1040
0.8
1070
   145
1040
1.0
1070
   147
1040
1.0
1070
   172
1070
     1
1070
   174
1070
     1
1070
   271
1070
     3
1070
   284
1070
     8
1070
   342
1005
0
1002
}
1000
LEANOF
1010
0.0
1020
0.0
1030
0.0
  0
LINE
  5
19B
330
2
100
AcDbEntity
  8
L-TYUSIN
  6
CONTINUOUS
100
AcDbLine
 10
480.1999659849311
 20
345.1473744254312
 30
0.0000000232876899
 11
483.3999659849309
 21
345.1473744254312
 31
0.0000000232876899
  0
LINE
  5
19C
330
2
100
AcDbEntity
  8
L-ZISSEN
  6
CONTINUOUS
100
AcDbLine
 10
496.999965984931
 20
343.5473744254312
 30
0.0000000232876899
 11
496.999965984931
 21
346.7473744254313
 31
0.0000000232876899
  0
SOLID
  5
19D
330
2
100
AcDbEntity
  8
L-ZISSEN
100
AcDbTrace
 10
497.2944184024184
 20
343.1412814851747
 30
0.0000000232876899
 11
497.9291267929077
 21
343.3452170227519
 31
0.0000000232876899
 12
496.9999659849311
 22
345.1473744254312
 32
0.0000000232876899
 13
496.9999659849311
 23
345.1473744254312
 33
0.0000000232876899
  0
LINE
  5
19E
330
2
100
AcDbEntity
  8
L-TYUSIN
  6
CONTINUOUS
100
AcDbLine
 10
495.3999659849311
 20
345.1473744254312
 30
0.0000000232876899
 11
498.5999659849309
 21
345.1473744254312
 31
0.0000000232876899
  0
MTEXT
  5
19F
330
2
100
AcDbEntity
  8
L-ZISSEN
100
AcDbMText
 10
501.234151395579
 20
381.8344829903334
 30
0.0000000232876899
 40
4.5
 41
0.0
 71
     7
 72
     1
  1
P.P
1001
ACAD
1000
MTEXTBEGIN
1070
    73
1070
     1
1070
    44
1040
1.0
1070
    74
1070
     0
1000
MTEXTEND
1000
MTEXTBEGIN
1070
    73
1070
     1
1070
    44
1040
1.0
1070
    74
1070
     0
1000
MTEXTEND
  0
ENDSEC
  0
SECTION
  2
OBJECTS
  0
DICTIONARY
  5
9
330
0
100
AcDbDictionary
  3
ACAD_GROUP
350
23
  3
ACAD_LAYOUT
350
E
  3
ACAD_MLINESTYLE
350
24
  3
ACAD_PLOTSETTINGS
350
25
1001
ACAD
1000
TREAT_AS_HARD
1070
     0
  0
DICTIONARY
  5
3
330
2
100
AcDbDictionary
  3
ACAD_LAYOUTSELFREF
350
1A7
1001
ACAD
1000
TREAT_AS_HARD
1070
     1
  0
DICTIONARY
  5
10
330
F
100
AcDbDictionary
  3
ACAD_LAYOUTSELFREF
350
1A8
1001
ACAD
1000
TREAT_AS_HARD
1070
     1
  0
DICTIONARY
  5
23
102
{ACAD_REACTORS
330
9
102
}
330
9
100
AcDbDictionary
1001
ACAD
1000
TREAT_AS_HARD
1070
     0
  0
DICTIONARY
  5
E
102
{ACAD_REACTORS
330
9
102
}
330
9
100
AcDbDictionary
1001
ACAD
1000
TREAT_AS_HARD
1070
     0
  0
DICTIONARY
  5
24
102
{ACAD_REACTORS
330
9
102
}
330
9
100
AcDbDictionary
  3
STANDARD
350
27
1001
ACAD
1000
TREAT_AS_HARD
1070
     0
  0
DICTIONARY
  5
25
102
{ACAD_REACTORS
330
9
102
}
330
9
100
AcDbDictionary
1001
ACAD
1000
TREAT_AS_HARD
1070
     0
  0
XRECORD
  5
1A7
102
{ACAD_REACTORS
330
3
102
}
330
3
100
AcDbXrecord
340
2
  0
XRECORD
  5
1A8
102
{ACAD_REACTORS
330
10
102
}
330
10
100
AcDbXrecord
340
F
  0
MLINESTYLE
  5
27
102
{ACAD_REACTORS
330
24
102
}
330
24
100
AcDbMlineStyle
  2
STANDARD
 70
     0
  3

 62
   256
 51
90.0
 52
90.0
 71
     2
 49
0.5
 62
   256
  6
BYLAYER
 49
-0.5
 62
   256
  6
BYLAYER
  0
ENDSEC
  0
EOF
