  0
SECTION
  2
HEADER
  9
$ACADVER
  1
AC1006
  9
$INSBASE
 10
0.0
 20
0.0
 30
0.0
  9
$EXTMIN
 10
10.0
 20
10.0
  9
$EXTMAX
 10
765.0
 20
574.5
  9
$LIMMIN
 10
0.0
 20
0.0
  9
$LIMMAX
 10
841.0
 20
594.0
  9
$ORTHOMODE
 70
     0
  9
$REGENMODE
 70
     1
  9
$FILLMODE
 70
     1
  9
$QTEXTMODE
 70
     0
  9
$MIRRTEXT
 70
     1
  9
$DRAGMODE
 70
     2
  9
$LTSCALE
 40
1.0
  9
$OSMODE
 70
     0
  9
$ATTMODE
 70
     1
  9
$TEXTSIZE
 40
4.5
  9
$TRACEWID
 40
0.05
  9
$TEXTSTYLE
  7
STANDARD
  9
$CLAYER
  8
L-ZISSEN
  9
$CELTYPE
  6
BYLAYER
  9
$CECOLOR
 62
   256
  9
$DIMSCALE
 40
1.0
  9
$DIMASZ
 40
2.0
  9
$DIMEXO
 40
2.0
  9
$DIMDLI
 40
0.38
  9
$DIMRND
 40
0.0
  9
$DIMDLE
 40
1.0
  9
$DIMEXE
 40
2.0
  9
$DIMTP
 40
0.0
  9
$DIMTM
 40
0.0
  9
$DIMTXT
 40
4.5
  9
$DIMCEN
 40
0.09
  9
$DIMTSZ
 40
0.0
  9
$DIMTOL
 70
     0
  9
$DIMLIM
 70
     0
  9
$DIMTIH
 70
     0
  9
$DIMTOH
 70
     0
  9
$DIMSE1
 70
     0
  9
$DIMSE2
 70
     0
  9
$DIMTAD
 70
     1
  9
$DIMZIN
 70
     0
  9
$DIMBLK
  1

  9
$DIMASO
 70
     0
  9
$DIMSHO
 70
     0
  9
$DIMPOST
  1

  9
$DIMAPOST
  1

  9
$DIMALT
 70
     0
  9
$DIMALTD
 70
     2
  9
$DIMALTF
 40
25.4
  9
$DIMLFAC
 40
1.0
  9
$DIMTOFL
 70
     1
  9
$DIMTVP
 40
0.0
  9
$DIMTIX
 70
     1
  9
$DIMSOXD
 70
     0
  9
$DIMSAH
 70
     0
  9
$DIMBLK1
  1

  9
$DIMBLK2
  1

  9
$LUNITS
 70
     2
  9
$LUPREC
 70
     4
  9
$AXISMODE
 70
     0
  9
$AXISUNIT
 10
0.0
 20
0.0
  9
$SKETCHINC
 40
0.1
  9
$FILLETRAD
 40
0.0
  9
$AUNITS
 70
     0
  9
$AUPREC
 70
     0
  9
$MENU
  1
acad
  9
$ELEVATION
 40
0.0
  9
$THICKNESS
 40
0.0
  9
$LIMCHECK
 70
     0
  9
$BLIPMODE
 70
     1
  9
$CHAMFERA
 40
0.0
  9
$CHAMFERB
 40
0.0
  9
$SKPOLY
 70
     0
  9
$TDCREATE
 40
2449002.5750799770
  9
$TDUPDATE
 40
2449002.5750799770
  9
$TDINDWG
 40
0.0000000000
  9
$TDUSRTIMER
 40
0.0000000000
  9
$USRTIMER
 70
     1
  9
$ANGBASE
 50
0.0
  9
$ANGDIR
 70
     0
  9
$PDMODE
 70
     0
  9
$PDSIZE
 40
0.0
  9
$PLINEWID
 40
0.0
  9
$COORDS
 70
     2
  9
$SPLFRAME
 70
     0
  9
$SPLINETYPE
 70
     6
  9
$SPLINESEGS
 70
     8
  9
$ATTDIA
 70
     0
  9
$ATTREQ
 70
     1
  9
$HANDLING
 70
     0
  9
$HANDSEED
  5
0
  9
$SURFTAB1
 70
     6
  9
$SURFTAB2
 70
     6
  9
$SURFTYPE
 70
     6
  9
$SURFU
 70
     6
  9
$SURFV
 70
     6
  9
$FLATLAND
 70
     0
  9
$UCSNAME
  2

  9
$UCSORG
 10
0.0
 20
0.0
 30
0.0
  9
$UCSXDIR
 10
1.0
 20
0.0
 30
0.0
  9
$UCSYDIR
 10
0.0
 20
1.0
 30
0.0
  9
$USERI1
 70
     0
  9
$USERI2
 70
     0
  9
$USERI3
 70
     0
  9
$USERI4
 70
     0
  9
$USERI5
 70
     0
  9
$USERR1
 40
0.0
  9
$USERR2
 40
0.0
  9
$USERR3
 40
0.0
  9
$USERR4
 40
0.0
  9
$USERR5
 40
0.0
  9
$WORLDVIEW
 70
     1
  0
ENDSEC
  0
SECTION
  2
TABLES
  0
TABLE
  2
VPORT
 70
     2
  0
VPORT
  2
*ACTIVE
 70
     0
 10
0.0
 20
0.0
 11
1.0
 21
1.0
 12
476.455978
 22
307.649038
 13
0.0
 23
0.0
 14
5.0
 24
5.0
 15
0.0
 25
0.0
 16
0.0
 26
0.0
 36
1.0
 17
0.0
 27
0.0
 37
0.0
 40
615.298075
 41
1.5487
 42
50.0
 43
0.0
 44
0.0
 50
0.0
 51
0.0
 71
     0
 72
   100
 73
     1
 74
     0
 75
     0
 76
     0
 77
     0
 78
     0
  0
ENDTAB
  0
TABLE
  2
LTYPE
 70
     2
  0
LTYPE
  2
CONTINUOUS
 70
    64
  3
Solid line
 72
    65
 73
     0
 40
0.0
  0
LTYPE
  2
CENTER
 70
    64
  3
____ _ ____ _ ____ _ ____ _ 
 72
    65
 73
     4
 40
60.0
 49
45.0
 49
-5.0
 49
5.0
 49
-5.0
  0
ENDTAB
  0
TABLE
  2
LAYER
 70
     3
  0
LAYER
  2
0
 70
     0
 62
     7
  6
CONTINUOUS
  0
LAYER
  2
L-ZISSEN
 70
    64
 62
     7
  6
CONTINUOUS
  0
LAYER
  2
L-TYUSIN
 70
    64
 62
     1
  6
CENTER
  0
ENDTAB
  0
TABLE
  2
STYLE
 70
     1
  0
STYLE
  2
STANDARD
 70
    64
 40
0.0
 41
1.0
 50
0.0
 71
     0
 42
4.5
  3
TXT
  4

  0
ENDTAB
  0
TABLE
  2
VIEW
 70
     0
  0
ENDTAB
  0
TABLE
  2
UCS
 70
     0
  0
ENDTAB
  0
TABLE
  2
DWGMGR
 70
     0
  0
ENDTAB
  0
ENDSEC
  0
SECTION
  2
BLOCKS
  0
ENDSEC
  0
SECTION
  2
ENTITIES
  0
TEXT
  8
L-ZISSEN
 10
35.0
 20
220.0
 30
0.0
 40
4.5
  1
ELECTRICAL CONNECTION
  0
LINE
  8
L-TYUSIN
 10
117.8
 20
380.0
 30
0.0
 11
472.2
 21
380.0
 31
0.0
  0
LINE
  8
L-TYUSIN
 10
295.0
 20
411.0
 30
0.0
 11
295.0
 21
349.0
 31
0.0
  0
LINE
  8
L-ZISSEN
 10
340.8
 20
354.0
 30
0.0
 11
340.8
 21
406.0
 31
0.0
  0
LINE
  8
L-ZISSEN
 10
420.3
 20
406.0
 30
0.0
 11
169.7
 21
406.0
 31
0.0
  0
LINE
  8
L-ZISSEN
 10
249.2
 20
406.0
 30
0.0
 11
249.2
 21
354.0
 31
0.0
  0
LINE
  8
L-ZISSEN
 10
169.7
 20
354.0
 30
0.0
 11
420.3
 21
354.0
 31
0.0
  0
LINE
  8
L-ZISSEN
 10
420.3
 20
404.0
 30
0.0
 11
464.2
 21
404.0
 31
0.0
  0
LINE
  8
L-ZISSEN
 10
464.2
 20
361.2
 30
0.0
 11
420.3
 21
361.2
 31
0.0
  0
LINE
  8
L-ZISSEN
 10
464.2
 20
404.0
 30
0.0
 11
464.2
 21
361.2
 31
0.0
  0
LINE
  8
L-ZISSEN
 10
467.2
 20
389.814955
 30
0.0
 11
464.2
 21
389.814955
 31
0.0
  0
LINE
  8
L-ZISSEN
 10
467.2
 20
370.185045
 30
0.0
 11
464.2
 21
370.185045
 31
0.0
  0
LINE
  8
L-ZISSEN
 10
467.2
 20
389.814955
 30
0.0
 11
467.2
 21
370.185045
 31
0.0
  0
LINE
  8
L-ZISSEN
 10
424.95
 20
439.7
 30
0.0
 11
424.95
 21
408.5
 31
0.0
  0
LINE
  8
L-ZISSEN
 10
424.95
 20
439.7
 30
0.0
 11
467.95
 21
439.7
 31
0.0
  0
LINE
  8
L-ZISSEN
 10
452.45
 20
417.2
 30
0.0
 11
467.95
 21
417.2
 31
0.0
  0
LINE
  8
L-ZISSEN
 10
467.95
 20
439.7
 30
0.0
 11
467.95
 21
417.2
 31
0.0
  0
LINE
  8
L-ZISSEN
 10
452.45
 20
439.7
 30
0.0
 11
452.45
 21
408.5
 31
0.0
  0
LINE
  8
L-ZISSEN
 10
478.7
 20
439.419655
 30
0.0
 11
478.7
 21
417.480345
 31
0.0
  0
LINE
  8
L-ZISSEN
 10
478.7
 20
439.419655
 30
0.0
 11
473.2
 21
439.419655
 31
0.0
  0
LINE
  8
L-ZISSEN
 10
478.7
 20
417.480345
 30
0.0
 11
473.2
 21
417.480345
 31
0.0
  0
LINE
  8
L-ZISSEN
 10
473.2
 20
439.419655
 30
0.0
 11
473.2
 21
417.480345
 31
0.0
  0
LINE
  8
L-ZISSEN
 10
467.95
 20
437.65
 30
0.0
 11
470.85
 21
437.65
 31
0.0
  0
LINE
  8
L-ZISSEN
 10
467.95
 20
419.25
 30
0.0
 11
470.85
 21
419.25
 31
0.0
  0
LINE
  8
L-ZISSEN
 10
470.85
 20
436.95
 30
0.0
 11
473.2
 21
436.95
 31
0.0
  0
LINE
  8
L-ZISSEN
 10
470.85
 20
419.95
 30
0.0
 11
473.2
 21
419.95
 31
0.0
  0
LINE
  8
L-ZISSEN
 10
470.85
 20
437.65
 30
0.0
 11
470.85
 21
419.25
 31
0.0
  0
LINE
  8
L-ZISSEN
 10
423.45
 20
408.5
 30
0.0
 11
423.45
 21
404.0
 31
0.0
  0
LINE
  8
L-ZISSEN
 10
453.95
 20
408.5
 30
0.0
 11
453.95
 21
404.0
 31
0.0
  0
LINE
  8
L-ZISSEN
 10
423.45
 20
408.5
 30
0.0
 11
453.95
 21
408.5
 31
0.0
  0
LINE
  8
L-ZISSEN
 10
420.3
 20
464.0
 30
0.0
 11
420.3
 21
496.0
 31
0.0
  0
LINE
  8
L-ZISSEN
 10
340.8
 20
464.0
 30
0.0
 11
340.8
 21
496.0
 31
0.0
  0
LINE
  8
L-TYUSIN
 10
295.0
 20
500.0
 30
0.0
 11
295.0
 21
460.0
 31
0.0
  0
LINE
  8
L-TYUSIN
 10
106.3
 20
480.0
 30
0.0
 11
483.7
 21
480.0
 31
0.0
  0
LINE
  8
L-ZISSEN
 10
420.3
 20
496.0
 30
0.0
 11
169.7
 21
496.0
 31
0.0
  0
LINE
  8
L-ZISSEN
 10
420.3
 20
464.0
 30
0.0
 11
169.7
 21
464.0
 31
0.0
  0
LINE
  8
L-ZISSEN
 10
453.95
 20
468.75
 30
0.0
 11
453.95
 21
465.0
 31
0.0
  0
LINE
  8
L-ZISSEN
 10
423.95
 20
495.0
 30
0.0
 11
423.95
 21
465.0
 31
0.0
  0
LINE
  8
L-ZISSEN
 10
453.95
 20
495.0
 30
0.0
 11
453.95
 21
491.25
 31
0.0
  0
LINE
  8
L-ZISSEN
 10
424.95
 20
466.25
 30
0.0
 11
452.45
 21
466.25
 31
0.0
  0
LINE
  8
L-ZISSEN
 10
424.95
 20
493.75
 30
0.0
 11
452.45
 21
493.75
 31
0.0
  0
LINE
  8
L-ZISSEN
 10
452.45
 20
466.25
 30
0.0
 11
452.45
 21
493.75
 31
0.0
  0
LINE
  8
L-ZISSEN
 10
424.95
 20
466.25
 30
0.0
 11
424.95
 21
493.75
 31
0.0
  0
LINE
  8
L-ZISSEN
 10
464.2
 20
491.25
 30
0.0
 11
464.2
 21
495.0
 31
0.0
  0
LINE
  8
L-ZISSEN
 10
452.45
 20
491.25
 30
0.0
 11
467.95
 21
491.25
 31
0.0
  0
LINE
  8
L-ZISSEN
 10
467.95
 20
468.75
 30
0.0
 11
467.95
 21
491.25
 31
0.0
  0
LINE
  8
L-ZISSEN
 10
452.45
 20
468.75
 30
0.0
 11
467.95
 21
468.75
 31
0.0
  0
LINE
  8
L-ZISSEN
 10
470.85
 20
470.8
 30
0.0
 11
470.85
 21
489.2
 31
0.0
  0
LINE
  8
L-ZISSEN
 10
470.85
 20
488.5
 30
0.0
 11
473.2
 21
488.5
 31
0.0
  0
LINE
  8
L-ZISSEN
 10
470.85
 20
471.5
 30
0.0
 11
473.2
 21
471.5
 31
0.0
  0
LINE
  8
L-ZISSEN
 10
467.95
 20
489.2
 30
0.0
 11
470.85
 21
489.2
 31
0.0
  0
LINE
  8
L-ZISSEN
 10
467.95
 20
470.8
 30
0.0
 11
470.85
 21
470.8
 31
0.0
  0
LINE
  8
L-ZISSEN
 10
473.2
 20
469.030345
 30
0.0
 11
473.2
 21
490.969655
 31
0.0
  0
LINE
  8
L-ZISSEN
 10
478.7
 20
490.969655
 30
0.0
 11
473.2
 21
490.969655
 31
0.0
  0
LINE
  8
L-ZISSEN
 10
478.7
 20
469.030345
 30
0.0
 11
473.2
 21
469.030345
 31
0.0
  0
LINE
  8
L-ZISSEN
 10
478.7
 20
469.030345
 30
0.0
 11
478.7
 21
490.969655
 31
0.0
  0
LINE
  8
L-ZISSEN
 10
464.2
 20
465.0
 30
0.0
 11
420.3
 21
465.0
 31
0.0
  0
LINE
  8
L-ZISSEN
 10
464.2
 20
495.0
 30
0.0
 11
420.3
 21
495.0
 31
0.0
  0
LINE
  8
L-ZISSEN
 10
464.2
 20
465.0
 30
0.0
 11
464.2
 21
468.75
 31
0.0
  0
LINE
  8
L-ZISSEN
 10
464.2
 20
295.0
 30
0.0
 11
420.3
 21
295.0
 31
0.0
  0
LINE
  8
L-ZISSEN
 10
464.2
 20
265.0
 30
0.0
 11
420.3
 21
265.0
 31
0.0
  0
LINE
  8
L-ZISSEN
 10
478.7
 20
269.030345
 30
0.0
 11
478.7
 21
290.969655
 31
0.0
  0
LINE
  8
L-ZISSEN
 10
478.7
 20
269.030345
 30
0.0
 11
473.2
 21
269.030345
 31
0.0
  0
LINE
  8
L-ZISSEN
 10
478.7
 20
290.969655
 30
0.0
 11
473.2
 21
290.969655
 31
0.0
  0
LINE
  8
L-ZISSEN
 10
473.2
 20
269.030345
 30
0.0
 11
473.2
 21
290.969655
 31
0.0
  0
LINE
  8
L-ZISSEN
 10
467.95
 20
270.8
 30
0.0
 11
470.85
 21
270.8
 31
0.0
  0
LINE
  8
L-ZISSEN
 10
467.95
 20
289.2
 30
0.0
 11
470.85
 21
289.2
 31
0.0
  0
LINE
  8
L-ZISSEN
 10
470.85
 20
271.5
 30
0.0
 11
473.2
 21
271.5
 31
0.0
  0
LINE
  8
L-ZISSEN
 10
470.85
 20
288.5
 30
0.0
 11
473.2
 21
288.5
 31
0.0
  0
LINE
  8
L-ZISSEN
 10
470.85
 20
270.8
 30
0.0
 11
470.85
 21
289.2
 31
0.0
  0
LINE
  8
L-ZISSEN
 10
464.2
 20
268.75
 30
0.0
 11
467.95
 21
268.75
 31
0.0
  0
LINE
  8
L-ZISSEN
 10
467.95
 20
268.75
 30
0.0
 11
467.95
 21
291.25
 31
0.0
  0
LINE
  8
L-ZISSEN
 10
464.2
 20
291.25
 30
0.0
 11
467.95
 21
291.25
 31
0.0
  0
LINE
  8
L-ZISSEN
 10
464.2
 20
265.0
 30
0.0
 11
464.2
 21
295.0
 31
0.0
  0
LINE
  8
L-ZISSEN
 10
423.95
 20
295.0
 30
0.0
 11
423.95
 21
265.0
 31
0.0
  0
LINE
  8
L-ZISSEN
 10
420.3
 20
264.0
 30
0.0
 11
169.7
 21
264.0
 31
0.0
  0
LINE
  8
L-ZISSEN
 10
420.3
 20
296.0
 30
0.0
 11
169.7
 21
296.0
 31
0.0
  0
LINE
  8
L-TYUSIN
 10
106.3
 20
280.0
 30
0.0
 11
483.7
 21
280.0
 31
0.0
  0
LINE
  8
L-TYUSIN
 10
295.0
 20
300.0
 30
0.0
 11
295.0
 21
260.0
 31
0.0
  0
LINE
  8
L-ZISSEN
 10
340.8
 20
264.0
 30
0.0
 11
340.8
 21
296.0
 31
0.0
  0
LINE
  8
L-ZISSEN
 10
420.3
 20
264.0
 30
0.0
 11
420.3
 21
296.0
 31
0.0
  0
LINE
  8
L-TYUSIN
 10
314.0
 20
366.0
 30
0.0
 11
314.0
 21
352.0
 31
0.0
  0
LINE
  8
L-TYUSIN
 10
307.0
 20
359.0
 30
0.0
 11
321.0
 21
359.0
 31
0.0
  0
CIRCLE
  8
L-ZISSEN
 10
314.0
 20
359.0
 30
0.0
 40
2.75
  0
CIRCLE
  8
L-ZISSEN
 10
276.0
 20
359.0
 30
0.0
 40
2.75
  0
LINE
  8
L-TYUSIN
 10
283.0
 20
359.0
 30
0.0
 11
269.0
 21
359.0
 31
0.0
  0
LINE
  8
L-TYUSIN
 10
276.0
 20
366.0
 30
0.0
 11
276.0
 21
352.0
 31
0.0
  0
CIRCLE
  8
L-ZISSEN
 10
295.0
 20
401.0
 30
0.0
 40
2.75
  0
LINE
  8
L-TYUSIN
 10
288.0
 20
401.0
 30
0.0
 11
302.0
 21
401.0
 31
0.0
  0
LINE
  8
L-TYUSIN
 10
311.0
 20
490.0
 30
0.0
 11
311.0
 21
470.0
 31
0.0
  0
CIRCLE
  8
L-ZISSEN
 10
311.0
 20
480.0
 30
0.0
 40
5.7225
  0
CIRCLE
  8
L-ZISSEN
 10
279.0
 20
480.0
 30
0.0
 40
5.7225
  0
LINE
  8
L-TYUSIN
 10
279.0
 20
490.0
 30
0.0
 11
279.0
 21
470.0
 31
0.0
  0
CIRCLE
  8
L-ZISSEN
 10
327.0
 20
280.0
 30
0.0
 40
5.7225
  0
LINE
  8
L-TYUSIN
 10
327.0
 20
290.0
 30
0.0
 11
327.0
 21
270.0
 31
0.0
  0
CIRCLE
  8
L-ZISSEN
 10
295.0
 20
280.0
 30
0.0
 40
5.7225
  0
CIRCLE
  8
L-ZISSEN
 10
263.0
 20
280.0
 30
0.0
 40
5.7225
  0
LINE
  8
L-TYUSIN
 10
263.0
 20
290.0
 30
0.0
 11
263.0
 21
270.0
 31
0.0
  0
LINE
  8
L-ZISSEN
 10
531.5
 20
384.907477
 30
0.0
 11
531.5
 21
375.092523
 31
0.0
  0
LINE
  8
L-ZISSEN
 10
540.0
 20
389.814955
 30
0.0
 11
531.5
 21
384.907477
 31
0.0
  0
LINE
  8
L-ZISSEN
 10
548.5
 20
384.907477
 30
0.0
 11
540.0
 21
389.814955
 31
0.0
  0
LINE
  8
L-ZISSEN
 10
548.5
 20
375.092523
 30
0.0
 11
548.5
 21
384.907477
 31
0.0
  0
LINE
  8
L-ZISSEN
 10
540.0
 20
370.185045
 30
0.0
 11
548.5
 21
375.092523
 31
0.0
  0
LINE
  8
L-ZISSEN
 10
531.5
 20
375.092523
 30
0.0
 11
540.0
 21
370.185045
 31
0.0
  0
LINE
  8
L-ZISSEN
 10
556.0
 20
406.0
 30
0.0
 11
556.0
 21
354.0
 31
0.0
  0
LINE
  8
L-ZISSEN
 10
524.0
 20
406.0
 30
0.0
 11
524.0
 21
354.0
 31
0.0
  0
LINE
  8
L-ZISSEN
 10
524.0
 20
404.0
 30
0.0
 11
556.0
 21
404.0
 31
0.0
  0
LINE
  8
L-ZISSEN
 10
524.75
 20
408.5
 30
0.0
 11
555.25
 21
408.5
 31
0.0
  0
LINE
  8
L-ZISSEN
 10
555.25
 20
408.5
 30
0.0
 11
555.25
 21
404.0
 31
0.0
  0
LINE
  8
L-ZISSEN
 10
524.75
 20
408.5
 30
0.0
 11
524.75
 21
404.0
 31
0.0
  0
CIRCLE
  8
L-ZISSEN
 10
540.0
 20
428.45
 30
0.0
 40
6.5
  0
LINE
  8
L-ZISSEN
 10
526.25
 20
439.7
 30
0.0
 11
526.25
 21
408.5
 31
0.0
  0
LINE
  8
L-ZISSEN
 10
553.75
 20
439.7
 30
0.0
 11
553.75
 21
408.5
 31
0.0
  0
CIRCLE
  8
L-ZISSEN
 10
540.0
 20
428.45
 30
0.0
 40
11.25
  0
LINE
  8
L-ZISSEN
 10
526.25
 20
439.7
 30
0.0
 11
553.75
 21
439.7
 31
0.0
  0
LINE
  8
L-ZISSEN
 10
524.0
 20
361.2
 30
0.0
 11
556.0
 21
361.2
 31
0.0
  0
LINE
  8
L-TYUSIN
 10
540.0
 20
349.0
 30
0.0
 11
540.0
 21
444.7
 31
0.0
  0
LINE
  8
L-TYUSIN
 10
519.0
 20
380.0
 30
0.0
 11
561.0
 21
380.0
 31
0.0
  0
LINE
  8
L-ZISSEN
 10
556.0
 20
406.0
 30
0.0
 11
555.25
 21
406.0
 31
0.0
  0
LINE
  8
L-ZISSEN
 10
524.0
 20
354.0
 30
0.0
 11
556.0
 21
354.0
 31
0.0
  0
LINE
  8
L-ZISSEN
 10
524.75
 20
406.0
 30
0.0
 11
524.0
 21
406.0
 31
0.0
  0
LINE
  8
L-ZISSEN
 10
412.628203
 20
412.9
 30
0.0
 11
398.771797
 21
412.9
 31
0.0
  0
LINE
  8
L-ZISSEN
 10
398.771797
 20
412.9
 30
0.0
 11
398.771797
 21
406.0
 31
0.0
  0
LINE
  8
L-ZISSEN
 10
412.628203
 20
412.9
 30
0.0
 11
412.628203
 21
406.0
 31
0.0
  0
LINE
  8
L-ZISSEN
 10
402.235898
 20
486.0
 30
0.0
 11
398.771797
 21
480.0
 31
0.0
  0
LINE
  8
L-ZISSEN
 10
398.771797
 20
480.0
 30
0.0
 11
402.235898
 21
474.0
 31
0.0
  0
LINE
  8
L-ZISSEN
 10
402.235898
 20
474.0
 30
0.0
 11
409.164102
 21
474.0
 31
0.0
  0
LINE
  8
L-ZISSEN
 10
409.164102
 20
474.0
 30
0.0
 11
412.628203
 21
480.0
 31
0.0
  0
LINE
  8
L-ZISSEN
 10
412.628203
 20
480.0
 30
0.0
 11
409.164102
 21
486.0
 31
0.0
  0
LINE
  8
L-ZISSEN
 10
409.164102
 20
486.0
 30
0.0
 11
402.235898
 21
486.0
 31
0.0
  0
TEXT
  8
L-ZISSEN
 10
35.0
 20
525.0
 30
0.0
 40
4.5
  1
MODEL No. :
  0
TEXT
  8
L-ZISSEN
 10
80.0
 20
525.0
 30
0.0
 40
4.5
  1
MVD-4 5-
  0
TEXT
  8
L-ZISSEN
 10
35.0
 20
210.0
 30
0.0
 40
4.5
  1
MODEL No. :
  0
TEXT
  8
L-ZISSEN
 10
80.0
 20
210.0
 30
0.0
 40
4.5
  1
MVD-4*5-0*M1
  0
LINE
  8
L-TYUSIN
 10
600.0
 20
235.0
 30
0.0
 11
600.0
 21
15.0
 31
0.0
  0
LINE
  8
L-TYUSIN
 10
600.0
 20
160.0
 30
0.0
 11
765.0
 21
160.0
 31
0.0
  0
TEXT
  8
L-ZISSEN
 10
610.0
 20
220.0
 30
0.0
 40
4.5
  1
EXTERNAL PILOT AIR SUPPLY
  0
TEXT
  8
L-ZISSEN
 10
610.0
 20
210.0
 30
0.0
 40
4.5
  1
MODEL No. :
  0
TEXT
  8
L-ZISSEN
 10
655.0
 20
210.0
 30
0.0
 40
4.5
  1
MVD-4*5-0*P
  0
LINE
  8
L-TYUSIN
 10
680.0
 20
198.0
 30
0.0
 11
680.0
 21
182.0
 31
0.0
  0
CIRCLE
  8
L-ZISSEN
 10
680.0
 20
190.0
 30
0.0
 40
4.283
  0
SOLID
  8
L-ZISSEN
 10
681.479201
 20
188.61325
 30
0.0
 11
681.849001
 21
189.16795
 31
0.0
 12
680.0
 22
190.0
 32
0.0
 13
680.0
 23
190.0
 33
0.0
  0
LINE
  8
L-ZISSEN
 10
681.664101
 20
188.8906
 30
0.0
 11
695.0
 21
180.0
 31
0.0
  0
LINE
  8
L-ZISSEN
 10
695.0
 20
180.0
 30
0.0
 11
697.0
 21
180.0
 31
0.0
  0
TEXT
  8
L-ZISSEN
 10
699.0
 20
177.75
 30
0.0
 40
4.5
  1
P.P
  0
TEXT
  8
L-ZISSEN
 10
610.0
 20
145.0
 30
0.0
 40
4.5
  1
LOCK TYPE MANUAL OPERATION BUTTON
  0
TEXT
  8
L-ZISSEN
 10
610.0
 20
135.0
 30
0.0
 40
4.5
  1
MODEL No. :
  0
TEXT
  8
L-ZISSEN
 10
655.0
 20
135.0
 30
0.0
 40
4.5
  1
MVD-4*5-0*R
  0
LINE
  8
L-ZISSEN
 10
682.113249
 20
115.0
 30
0.0
 11
679.226497
 21
110.0
 31
0.0
  0
LINE
  8
L-ZISSEN
 10
679.226497
 20
110.0
 30
0.0
 11
682.113249
 21
105.0
 31
0.0
  0
LINE
  8
L-ZISSEN
 10
682.113249
 20
105.0
 30
0.0
 11
687.886751
 21
105.0
 31
0.0
  0
LINE
  8
L-ZISSEN
 10
687.886751
 20
105.0
 30
0.0
 11
690.773503
 21
110.0
 31
0.0
  0
LINE
  8
L-ZISSEN
 10
690.773503
 20
110.0
 30
0.0
 11
687.886751
 21
115.0
 31
0.0
  0
LINE
  8
L-ZISSEN
 10
687.886751
 20
115.0
 30
0.0
 11
682.113249
 21
115.0
 31
0.0
  0
LINE
  8
L-ZISSEN
 10
679.226497
 20
96.4
 30
0.0
 11
679.226497
 21
85.0
 31
0.0
  0
SOLID
  8
L-ZISSEN
 10
683.520799
 20
111.38675
 30
0.0
 11
683.150999
 21
110.83205
 31
0.0
 12
685.0
 22
110.0
 32
0.0
 13
685.0
 23
110.0
 33
0.0
  0
LINE
  8
L-ZISSEN
 10
683.335899
 20
111.1094
 30
0.0
 11
670.0
 21
120.0
 31
0.0
  0
LINE
  8
L-ZISSEN
 10
670.0
 20
120.0
 30
0.0
 11
668.0
 21
120.0
 31
0.0
  0
TEXT
  8
L-ZISSEN
 10
657.0
 20
117.75
 30
0.0
 40
4.5
  1
P.P
  0
LINE
  8
L-ZISSEN
 10
690.773503
 20
96.4
 30
0.0
 11
690.773503
 21
85.0
 31
0.0
  0
LINE
  8
L-ZISSEN
 10
679.226497
 20
96.4
 30
0.0
 11
690.773503
 21
96.4
 31
0.0
  0
SOLID
  8
L-ZISSEN
 10
683.150999
 20
84.16795
 30
0.0
 11
683.520799
 21
83.61325
 31
0.0
 12
685.0
 22
85.0
 32
0.0
 13
685.0
 23
85.0
 33
0.0
  0
LINE
  8
L-ZISSEN
 10
683.335899
 20
83.8906
 30
0.0
 11
670.0
 21
75.0
 31
0.0
  0
LINE
  8
L-ZISSEN
 10
670.0
 20
75.0
 30
0.0
 11
668.0
 21
75.0
 31
0.0
  0
TEXT
  8
L-ZISSEN
 10
657.0
 20
72.75
 30
0.0
 40
4.5
  1
P.P
  0
LINE
  8
L-TYUSIN
 10
279.0
 20
411.0
 30
0.0
 11
279.0
 21
401.0
 31
0.0
  0
LINE
  8
L-TYUSIN
 10
311.0
 20
411.0
 30
0.0
 11
311.0
 21
401.0
 31
0.0
  0
LINE
  8
L-TYUSIN
 10
263.0
 20
359.0
 30
0.0
 11
263.0
 21
349.0
 31
0.0
  0
LINE
  8
L-TYUSIN
 10
327.0
 20
359.0
 30
0.0
 11
327.0
 21
349.0
 31
0.0
  0
LINE
  8
L-ZISSEN
 10
65.25
 20
406.0
 30
0.0
 11
66.0
 21
406.0
 31
0.0
  0
LINE
  8
L-ZISSEN
 10
66.0
 20
354.0
 30
0.0
 11
34.0
 21
354.0
 31
0.0
  0
LINE
  8
L-ZISSEN
 10
34.0
 20
406.0
 30
0.0
 11
34.75
 21
406.0
 31
0.0
  0
LINE
  8
L-TYUSIN
 10
71.0
 20
380.0
 30
0.0
 11
29.0
 21
380.0
 31
0.0
  0
LINE
  8
L-TYUSIN
 10
50.0
 20
349.0
 30
0.0
 11
50.0
 21
444.7
 31
0.0
  0
LINE
  8
L-ZISSEN
 10
66.0
 20
361.2
 30
0.0
 11
34.0
 21
361.2
 31
0.0
  0
LINE
  8
L-ZISSEN
 10
63.75
 20
439.7
 30
0.0
 11
36.25
 21
439.7
 31
0.0
  0
CIRCLE
  8
L-ZISSEN
 10
50.0
 20
428.45
 30
0.0
 40
11.25
  0
LINE
  8
L-ZISSEN
 10
36.25
 20
439.7
 30
0.0
 11
36.25
 21
408.5
 31
0.0
  0
LINE
  8
L-ZISSEN
 10
63.75
 20
439.7
 30
0.0
 11
63.75
 21
408.5
 31
0.0
  0
CIRCLE
  8
L-ZISSEN
 10
50.0
 20
428.45
 30
0.0
 40
6.5
  0
LINE
  8
L-ZISSEN
 10
65.25
 20
408.5
 30
0.0
 11
65.25
 21
404.0
 31
0.0
  0
LINE
  8
L-ZISSEN
 10
34.75
 20
408.5
 30
0.0
 11
34.75
 21
404.0
 31
0.0
  0
LINE
  8
L-ZISSEN
 10
65.25
 20
408.5
 30
0.0
 11
34.75
 21
408.5
 31
0.0
  0
LINE
  8
L-ZISSEN
 10
66.0
 20
404.0
 30
0.0
 11
34.0
 21
404.0
 31
0.0
  0
LINE
  8
L-ZISSEN
 10
66.0
 20
406.0
 30
0.0
 11
66.0
 21
354.0
 31
0.0
  0
LINE
  8
L-ZISSEN
 10
34.0
 20
406.0
 30
0.0
 11
34.0
 21
354.0
 31
0.0
  0
LINE
  8
L-ZISSEN
 10
58.5
 20
375.092523
 30
0.0
 11
50.0
 21
370.185045
 31
0.0
  0
LINE
  8
L-ZISSEN
 10
50.0
 20
370.185045
 30
0.0
 11
41.5
 21
375.092523
 31
0.0
  0
LINE
  8
L-ZISSEN
 10
41.5
 20
375.092523
 30
0.0
 11
41.5
 21
384.907477
 31
0.0
  0
LINE
  8
L-ZISSEN
 10
41.5
 20
384.907477
 30
0.0
 11
50.0
 21
389.814955
 31
0.0
  0
LINE
  8
L-ZISSEN
 10
50.0
 20
389.814955
 30
0.0
 11
58.5
 21
384.907477
 31
0.0
  0
LINE
  8
L-ZISSEN
 10
58.5
 20
384.907477
 30
0.0
 11
58.5
 21
375.092523
 31
0.0
  0
LINE
  8
L-ZISSEN
 10
249.2
 20
264.0
 30
0.0
 11
249.2
 21
296.0
 31
0.0
  0
LINE
  8
L-ZISSEN
 10
249.2
 20
464.0
 30
0.0
 11
249.2
 21
496.0
 31
0.0
  0
SOLID
  8
L-ZISSEN
 10
296.50968
 20
481.353506
 30
0.0
 11
295.9891
 21
481.769969
 31
0.0
 12
295.0
 22
480.0
 32
0.0
 13
295.0
 23
480.0
 33
0.0
  0
LINE
  8
L-ZISSEN
 10
296.24939
 20
481.561738
 30
0.0
 11
315.0
 21
505.0
 31
0.0
  0
LINE
  8
L-ZISSEN
 10
315.0
 20
505.0
 30
0.0
 11
317.0
 21
505.0
 31
0.0
  0
TEXT
  8
L-ZISSEN
 10
319.0
 20
502.75
 30
0.0
 40
4.5
  1
P.P
  0
SOLID
  8
L-ZISSEN
 10
296.567868
 20
381.285652
 30
0.0
 11
296.06615
 21
381.724655
 31
0.0
 12
295.0
 22
380.0
 32
0.0
 13
295.0
 23
380.0
 33
0.0
  0
LINE
  8
L-ZISSEN
 10
296.317009
 20
381.505153
 30
0.0
 11
330.0
 21
420.0
 31
0.0
  0
LINE
  8
L-ZISSEN
 10
330.0
 20
420.0
 30
0.0
 11
332.0
 21
420.0
 31
0.0
  0
TEXT
  8
L-ZISSEN
 10
334.0
 20
417.75
 30
0.0
 40
4.5
  1
P.P
  0
SOLID
  8
L-ZISSEN
 10
295.743161
 20
278.113516
 30
0.0
 11
296.314822
 21
278.456513
 31
0.0
 12
295.0
 22
280.0
 32
0.0
 13
295.0
 23
280.0
 33
0.0
  0
LINE
  8
L-ZISSEN
 10
296.028992
 20
278.285014
 30
0.0
 11
310.0
 21
255.0
 31
0.0
  0
LINE
  8
L-ZISSEN
 10
310.0
 20
255.0
 30
0.0
 11
312.0
 21
255.0
 31
0.0
  0
TEXT
  8
L-ZISSEN
 10
314.0
 20
252.75
 30
0.0
 40
4.5
  1
P.P
  0
LINE
  8
L-ZISSEN
 10
123.8
 20
60.0
 30
0.0
 11
123.8
 21
58.5
 31
0.0
  0
LINE
  8
L-ZISSEN
 10
110.8
 20
63.0
 30
0.0
 11
110.8
 21
37.0
 31
0.0
  0
LINE
  8
L-ZISSEN
 10
103.65
 20
59.2
 30
0.0
 11
103.65
 21
40.8
 31
0.0
  0
LINE
  8
L-ZISSEN
 10
103.65
 20
41.5
 30
0.0
 11
101.3
 21
41.5
 31
0.0
  0
LINE
  8
L-ZISSEN
 10
103.65
 20
58.5
 30
0.0
 11
101.3
 21
58.5
 31
0.0
  0
LINE
  8
L-ZISSEN
 10
110.8
 20
40.8
 30
0.0
 11
103.65
 21
40.8
 31
0.0
  0
LINE
  8
L-ZISSEN
 10
110.8
 20
59.2
 30
0.0
 11
103.65
 21
59.2
 31
0.0
  0
LINE
  8
L-ZISSEN
 10
101.3
 20
60.969655
 30
0.0
 11
101.3
 21
39.030345
 31
0.0
  0
LINE
  8
L-ZISSEN
 10
95.8
 20
39.030345
 30
0.0
 11
101.3
 21
39.030345
 31
0.0
  0
LINE
  8
L-ZISSEN
 10
95.8
 20
60.969655
 30
0.0
 11
101.3
 21
60.969655
 31
0.0
  0
LINE
  8
L-ZISSEN
 10
95.8
 20
60.969655
 30
0.0
 11
95.8
 21
39.030345
 31
0.0
  0
LINE
  8
L-ZISSEN
 10
125.8
 20
63.0
 30
0.0
 11
110.8
 21
63.0
 31
0.0
  0
LINE
  8
L-ZISSEN
 10
110.8
 20
37.0
 30
0.0
 11
125.8
 21
37.0
 31
0.0
  0
LINE
  8
L-ZISSEN
 10
120.8
 20
63.0
 30
0.0
 11
120.8
 21
60.0
 31
0.0
  0
LINE
  8
L-ZISSEN
 10
120.8
 20
60.0
 30
0.0
 11
123.8
 21
60.0
 31
0.0
  0
LINE
  8
L-ZISSEN
 10
120.8
 20
37.0
 30
0.0
 11
120.8
 21
40.0
 31
0.0
  0
LINE
  8
L-ZISSEN
 10
120.8
 20
40.0
 30
0.0
 11
123.8
 21
40.0
 31
0.0
  0
LINE
  8
L-ZISSEN
 10
469.2
 20
40.0
 30
0.0
 11
466.2
 21
40.0
 31
0.0
  0
LINE
  8
L-ZISSEN
 10
469.2
 20
37.0
 30
0.0
 11
469.2
 21
40.0
 31
0.0
  0
LINE
  8
L-ZISSEN
 10
469.2
 20
60.0
 30
0.0
 11
466.2
 21
60.0
 31
0.0
  0
LINE
  8
L-ZISSEN
 10
469.2
 20
63.0
 30
0.0
 11
469.2
 21
60.0
 31
0.0
  0
LINE
  8
L-ZISSEN
 10
479.2
 20
37.0
 30
0.0
 11
464.2
 21
37.0
 31
0.0
  0
LINE
  8
L-ZISSEN
 10
464.2
 20
63.0
 30
0.0
 11
479.2
 21
63.0
 31
0.0
  0
LINE
  8
L-ZISSEN
 10
494.2
 20
60.969655
 30
0.0
 11
494.2
 21
39.030345
 31
0.0
  0
LINE
  8
L-ZISSEN
 10
494.2
 20
60.969655
 30
0.0
 11
488.7
 21
60.969655
 31
0.0
  0
LINE
  8
L-ZISSEN
 10
494.2
 20
39.030345
 30
0.0
 11
488.7
 21
39.030345
 31
0.0
  0
LINE
  8
L-ZISSEN
 10
488.7
 20
60.969655
 30
0.0
 11
488.7
 21
39.030345
 31
0.0
  0
LINE
  8
L-ZISSEN
 10
479.2
 20
59.2
 30
0.0
 11
486.35
 21
59.2
 31
0.0
  0
LINE
  8
L-ZISSEN
 10
479.2
 20
40.8
 30
0.0
 11
486.35
 21
40.8
 31
0.0
  0
LINE
  8
L-ZISSEN
 10
486.35
 20
58.5
 30
0.0
 11
488.7
 21
58.5
 31
0.0
  0
LINE
  8
L-ZISSEN
 10
486.35
 20
41.5
 30
0.0
 11
488.7
 21
41.5
 31
0.0
  0
LINE
  8
L-ZISSEN
 10
486.35
 20
59.2
 30
0.0
 11
486.35
 21
40.8
 31
0.0
  0
LINE
  8
L-ZISSEN
 10
479.2
 20
63.0
 30
0.0
 11
479.2
 21
37.0
 31
0.0
  0
LINE
  8
L-ZISSEN
 10
466.2
 20
60.0
 30
0.0
 11
466.2
 21
58.5
 31
0.0
  0
LINE
  8
L-ZISSEN
 10
137.8
 20
157.0
 30
0.0
 11
110.8
 21
157.0
 31
0.0
  0
LINE
  8
L-ZISSEN
 10
110.8
 20
183.0
 30
0.0
 11
137.8
 21
183.0
 31
0.0
  0
LINE
  8
L-ZISSEN
 10
110.8
 20
157.0
 30
0.0
 11
110.8
 21
183.0
 31
0.0
  0
LINE
  8
L-ZISSEN
 10
103.65
 20
160.8
 30
0.0
 11
103.65
 21
179.2
 31
0.0
  0
LINE
  8
L-ZISSEN
 10
103.65
 20
178.5
 30
0.0
 11
101.3
 21
178.5
 31
0.0
  0
LINE
  8
L-ZISSEN
 10
103.65
 20
161.5
 30
0.0
 11
101.3
 21
161.5
 31
0.0
  0
LINE
  8
L-ZISSEN
 10
110.8
 20
179.2
 30
0.0
 11
103.65
 21
179.2
 31
0.0
  0
LINE
  8
L-ZISSEN
 10
110.8
 20
160.8
 30
0.0
 11
103.65
 21
160.8
 31
0.0
  0
LINE
  8
L-ZISSEN
 10
101.3
 20
159.030345
 30
0.0
 11
101.3
 21
180.969655
 31
0.0
  0
LINE
  8
L-ZISSEN
 10
95.8
 20
180.969655
 30
0.0
 11
101.3
 21
180.969655
 31
0.0
  0
LINE
  8
L-ZISSEN
 10
95.8
 20
159.030345
 30
0.0
 11
101.3
 21
159.030345
 31
0.0
  0
LINE
  8
L-ZISSEN
 10
95.8
 20
159.030345
 30
0.0
 11
95.8
 21
180.969655
 31
0.0
  0
LINE
  8
L-ZISSEN
 10
137.8
 20
156.5
 30
0.0
 11
137.8
 21
183.5
 31
0.0
  0
LINE
  8
L-ZISSEN
 10
164.8
 20
156.5
 30
0.0
 11
164.8
 21
183.5
 31
0.0
  0
LINE
  8
L-ZISSEN
 10
164.8
 20
156.5
 30
0.0
 11
137.8
 21
156.5
 31
0.0
  0
LINE
  8
L-ZISSEN
 10
164.8
 20
183.5
 30
0.0
 11
137.8
 21
183.5
 31
0.0
  0
LINE
  8
L-ZISSEN
 10
165.8
 20
184.5
 30
0.0
 11
165.8
 21
155.5
 31
0.0
  0
LINE
  8
L-ZISSEN
 10
165.8
 20
155.5
 30
0.0
 11
136.8
 21
155.5
 31
0.0
  0
LINE
  8
L-ZISSEN
 10
136.8
 20
155.5
 30
0.0
 11
136.8
 21
157.0
 31
0.0
  0
LINE
  8
L-ZISSEN
 10
136.8
 20
184.5
 30
0.0
 11
165.8
 21
184.5
 31
0.0
  0
LINE
  8
L-ZISSEN
 10
136.8
 20
183.0
 30
0.0
 11
136.8
 21
184.5
 31
0.0
  0
LINE
  8
L-ZISSEN
 10
125.8
 20
155.0
 30
0.0
 11
125.8
 21
157.0
 31
0.0
  0
LINE
  8
L-ZISSEN
 10
125.8
 20
183.0
 30
0.0
 11
125.8
 21
185.0
 31
0.0
  0
LINE
  8
L-ZISSEN
 10
95.8
 20
127.969655
 30
0.0
 11
95.8
 21
106.030345
 31
0.0
  0
LINE
  8
L-ZISSEN
 10
95.8
 20
127.969655
 30
0.0
 11
101.3
 21
127.969655
 31
0.0
  0
LINE
  8
L-ZISSEN
 10
95.8
 20
106.030345
 30
0.0
 11
101.3
 21
106.030345
 31
0.0
  0
LINE
  8
L-ZISSEN
 10
101.3
 20
127.969655
 30
0.0
 11
101.3
 21
106.030345
 31
0.0
  0
LINE
  8
L-ZISSEN
 10
110.8
 20
126.2
 30
0.0
 11
103.65
 21
126.2
 31
0.0
  0
LINE
  8
L-ZISSEN
 10
110.8
 20
107.8
 30
0.0
 11
103.65
 21
107.8
 31
0.0
  0
LINE
  8
L-ZISSEN
 10
103.65
 20
125.5
 30
0.0
 11
101.3
 21
125.5
 31
0.0
  0
LINE
  8
L-ZISSEN
 10
103.65
 20
108.5
 30
0.0
 11
101.3
 21
108.5
 31
0.0
  0
LINE
  8
L-ZISSEN
 10
103.65
 20
126.2
 30
0.0
 11
103.65
 21
107.8
 31
0.0
  0
LINE
  8
L-ZISSEN
 10
110.8
 20
130.0
 30
0.0
 11
110.8
 21
104.0
 31
0.0
  0
LINE
  8
L-ZISSEN
 10
137.8
 20
130.0
 30
0.0
 11
110.8
 21
130.0
 31
0.0
  0
LINE
  8
L-ZISSEN
 10
164.8
 20
132.0
 30
0.0
 11
137.8
 21
132.0
 31
0.0
  0
LINE
  8
L-ZISSEN
 10
110.8
 20
104.0
 30
0.0
 11
125.8
 21
104.0
 31
0.0
  0
LINE
  8
L-ZISSEN
 10
164.8
 20
132.0
 30
0.0
 11
164.8
 21
110.0
 31
0.0
  0
LINE
  8
L-ZISSEN
 10
137.8
 20
132.0
 30
0.0
 11
137.8
 21
110.0
 31
0.0
  0
LINE
  8
L-ZISSEN
 10
136.8
 20
107.5
 30
0.0
 11
120.8
 21
107.5
 31
0.0
  0
LINE
  8
L-ZISSEN
 10
165.8
 20
110.0
 30
0.0
 11
165.8
 21
104.0
 31
0.0
  0
LINE
  8
L-ZISSEN
 10
136.8
 20
110.0
 30
0.0
 11
136.8
 21
104.0
 31
0.0
  0
LINE
  8
L-ZISSEN
 10
120.8
 20
107.5
 30
0.0
 11
120.8
 21
104.0
 31
0.0
  0
LINE
  8
L-ZISSEN
 10
165.8
 20
110.0
 30
0.0
 11
136.8
 21
110.0
 31
0.0
  0
CIRCLE
  8
L-ZISSEN
 10
540.0
 20
117.0
 30
0.0
 40
6.5
  0
CIRCLE
  8
L-ZISSEN
 10
540.0
 20
117.0
 30
0.0
 40
11.25
  0
LINE
  8
L-ZISSEN
 10
554.5
 20
110.0
 30
0.0
 11
553.0
 21
110.0
 31
0.0
  0
LINE
  8
L-ZISSEN
 10
525.5
 20
110.0
 30
0.0
 11
525.5
 21
104.0
 31
0.0
  0
LINE
  8
L-ZISSEN
 10
554.5
 20
110.0
 30
0.0
 11
554.5
 21
104.0
 31
0.0
  0
LINE
  8
L-ZISSEN
 10
526.5
 20
132.0
 30
0.0
 11
526.5
 21
110.0
 31
0.0
  0
LINE
  8
L-ZISSEN
 10
553.5
 20
132.0
 30
0.0
 11
553.5
 21
110.0
 31
0.0
  0
LINE
  8
L-ZISSEN
 10
553.5
 20
132.0
 30
0.0
 11
526.5
 21
132.0
 31
0.0
  0
LINE
  8
L-ZISSEN
 10
554.5
 20
107.5
 30
0.0
 11
548.87412
 21
107.5
 31
0.0
  0
LINE
  8
L-ZISSEN
 10
528.5
 20
107.5
 30
0.0
 11
528.5
 21
104.0
 31
0.0
  0
LINE
  8
L-ZISSEN
 10
551.5
 20
107.5
 30
0.0
 11
551.5
 21
104.0
 31
0.0
  0
LINE
  8
L-ZISSEN
 10
531.12588
 20
107.5
 30
0.0
 11
525.5
 21
107.5
 31
0.0
  0
CIRCLE
  8
L-ZISSEN
 10
540.0
 20
117.0
 30
0.0
 40
13.0
  0
LINE
  8
L-ZISSEN
 10
553.0
 20
117.0
 30
0.0
 11
553.0
 21
107.5
 31
0.0
  0
LINE
  8
L-ZISSEN
 10
527.0
 20
117.0
 30
0.0
 11
527.0
 21
107.5
 31
0.0
  0
LINE
  8
L-ZISSEN
 10
527.0
 20
110.0
 30
0.0
 11
525.5
 21
110.0
 31
0.0
  0
LINE
  8
L-ZISSEN
 10
464.2
 20
155.0
 30
0.0
 11
420.3
 21
155.0
 31
0.0
  0
LINE
  8
L-ZISSEN
 10
464.2
 20
185.0
 30
0.0
 11
420.3
 21
185.0
 31
0.0
  0
LINE
  8
L-ZISSEN
 10
556.0
 20
106.0
 30
0.0
 11
554.5
 21
106.0
 31
0.0
  0
LINE
  8
L-ZISSEN
 10
525.5
 20
106.0
 30
0.0
 11
524.0
 21
106.0
 31
0.0
  0
LINE
  8
L-ZISSEN
 10
125.8
 20
185.0
 30
0.0
 11
169.7
 21
185.0
 31
0.0
  0
LINE
  8
L-ZISSEN
 10
125.8
 20
155.0
 30
0.0
 11
169.7
 21
155.0
 31
0.0
  0
LINE
  8
L-ZISSEN
 10
464.2
 20
183.0
 30
0.0
 11
464.2
 21
185.0
 31
0.0
  0
LINE
  8
L-ZISSEN
 10
464.2
 20
155.0
 30
0.0
 11
464.2
 21
157.0
 31
0.0
  0
LINE
  8
L-ZISSEN
 10
453.2
 20
183.0
 30
0.0
 11
453.2
 21
184.5
 31
0.0
  0
LINE
  8
L-ZISSEN
 10
453.2
 20
184.5
 30
0.0
 11
424.2
 21
184.5
 31
0.0
  0
LINE
  8
L-ZISSEN
 10
453.2
 20
155.5
 30
0.0
 11
453.2
 21
157.0
 31
0.0
  0
LINE
  8
L-ZISSEN
 10
424.2
 20
155.5
 30
0.0
 11
453.2
 21
155.5
 31
0.0
  0
LINE
  8
L-ZISSEN
 10
424.2
 20
184.5
 30
0.0
 11
424.2
 21
155.5
 31
0.0
  0
LINE
  8
L-ZISSEN
 10
425.2
 20
183.5
 30
0.0
 11
452.2
 21
183.5
 31
0.0
  0
LINE
  8
L-ZISSEN
 10
425.2
 20
156.5
 30
0.0
 11
452.2
 21
156.5
 31
0.0
  0
LINE
  8
L-ZISSEN
 10
425.2
 20
156.5
 30
0.0
 11
425.2
 21
183.5
 31
0.0
  0
LINE
  8
L-ZISSEN
 10
452.2
 20
156.5
 30
0.0
 11
452.2
 21
183.5
 31
0.0
  0
LINE
  8
L-ZISSEN
 10
494.2
 20
159.030345
 30
0.0
 11
494.2
 21
180.969655
 31
0.0
  0
LINE
  8
L-ZISSEN
 10
494.2
 20
159.030345
 30
0.0
 11
488.7
 21
159.030345
 31
0.0
  0
LINE
  8
L-ZISSEN
 10
494.2
 20
180.969655
 30
0.0
 11
488.7
 21
180.969655
 31
0.0
  0
LINE
  8
L-ZISSEN
 10
488.7
 20
159.030345
 30
0.0
 11
488.7
 21
180.969655
 31
0.0
  0
LINE
  8
L-ZISSEN
 10
479.2
 20
160.8
 30
0.0
 11
486.35
 21
160.8
 31
0.0
  0
LINE
  8
L-ZISSEN
 10
479.2
 20
179.2
 30
0.0
 11
486.35
 21
179.2
 31
0.0
  0
LINE
  8
L-ZISSEN
 10
486.35
 20
161.5
 30
0.0
 11
488.7
 21
161.5
 31
0.0
  0
LINE
  8
L-ZISSEN
 10
486.35
 20
178.5
 30
0.0
 11
488.7
 21
178.5
 31
0.0
  0
LINE
  8
L-ZISSEN
 10
486.35
 20
160.8
 30
0.0
 11
486.35
 21
179.2
 31
0.0
  0
LINE
  8
L-ZISSEN
 10
479.2
 20
157.0
 30
0.0
 11
479.2
 21
183.0
 31
0.0
  0
LINE
  8
L-ZISSEN
 10
479.2
 20
183.0
 30
0.0
 11
452.2
 21
183.0
 31
0.0
  0
LINE
  8
L-ZISSEN
 10
452.2
 20
157.0
 30
0.0
 11
479.2
 21
157.0
 31
0.0
  0
LINE
  8
L-ZISSEN
 10
424.2
 20
110.0
 30
0.0
 11
453.2
 21
110.0
 31
0.0
  0
LINE
  8
L-ZISSEN
 10
469.2
 20
107.5
 30
0.0
 11
469.2
 21
104.0
 31
0.0
  0
LINE
  8
L-ZISSEN
 10
453.2
 20
110.0
 30
0.0
 11
453.2
 21
104.0
 31
0.0
  0
LINE
  8
L-ZISSEN
 10
424.2
 20
110.0
 30
0.0
 11
424.2
 21
104.0
 31
0.0
  0
LINE
  8
L-ZISSEN
 10
453.2
 20
107.5
 30
0.0
 11
469.2
 21
107.5
 31
0.0
  0
LINE
  8
L-ZISSEN
 10
452.2
 20
132.0
 30
0.0
 11
452.2
 21
110.0
 31
0.0
  0
LINE
  8
L-ZISSEN
 10
425.2
 20
132.0
 30
0.0
 11
425.2
 21
110.0
 31
0.0
  0
LINE
  8
L-ZISSEN
 10
479.2
 20
104.0
 30
0.0
 11
464.2
 21
104.0
 31
0.0
  0
LINE
  8
L-ZISSEN
 10
425.2
 20
132.0
 30
0.0
 11
452.2
 21
132.0
 31
0.0
  0
LINE
  8
L-ZISSEN
 10
452.2
 20
130.0
 30
0.0
 11
479.2
 21
130.0
 31
0.0
  0
LINE
  8
L-ZISSEN
 10
479.2
 20
130.0
 30
0.0
 11
479.2
 21
104.0
 31
0.0
  0
LINE
  8
L-ZISSEN
 10
486.35
 20
126.2
 30
0.0
 11
486.35
 21
107.8
 31
0.0
  0
LINE
  8
L-ZISSEN
 10
486.35
 20
108.5
 30
0.0
 11
488.7
 21
108.5
 31
0.0
  0
LINE
  8
L-ZISSEN
 10
486.35
 20
125.5
 30
0.0
 11
488.7
 21
125.5
 31
0.0
  0
LINE
  8
L-ZISSEN
 10
479.2
 20
107.8
 30
0.0
 11
486.35
 21
107.8
 31
0.0
  0
LINE
  8
L-ZISSEN
 10
479.2
 20
126.2
 30
0.0
 11
486.35
 21
126.2
 31
0.0
  0
LINE
  8
L-ZISSEN
 10
488.7
 20
127.969655
 30
0.0
 11
488.7
 21
106.030345
 31
0.0
  0
LINE
  8
L-ZISSEN
 10
494.2
 20
106.030345
 30
0.0
 11
488.7
 21
106.030345
 31
0.0
  0
LINE
  8
L-ZISSEN
 10
494.2
 20
127.969655
 30
0.0
 11
488.7
 21
127.969655
 31
0.0
  0
LINE
  8
L-ZISSEN
 10
494.2
 20
127.969655
 30
0.0
 11
494.2
 21
106.030345
 31
0.0
  0
LINE
  8
L-TYUSIN
 10
10.0
 20
235.0
 30
0.0
 11
765.0
 21
235.0
 31
0.0
  0
SOLID
  8
L-ZISSEN
 10
296.178511
 20
48.350084
 30
0.0
 11
296.649916
 21
48.821489
 31
0.0
 12
295.0
 22
50.0
 32
0.0
 13
295.0
 23
50.0
 33
0.0
  0
LINE
  8
L-ZISSEN
 10
296.414214
 20
48.585786
 30
0.0
 11
310.0
 21
35.0
 31
0.0
  0
LINE
  8
L-ZISSEN
 10
310.0
 20
35.0
 30
0.0
 11
312.0
 21
35.0
 31
0.0
  0
TEXT
  8
L-ZISSEN
 10
314.0
 20
32.75
 30
0.0
 40
4.5
  1
P.P
  0
SOLID
  8
L-ZISSEN
 10
296.649916
 20
81.178511
 30
0.0
 11
296.178511
 21
81.649916
 31
0.0
 12
295.0
 22
80.0
 32
0.0
 13
295.0
 23
80.0
 33
0.0
  0
LINE
  8
L-ZISSEN
 10
296.414214
 20
81.414214
 30
0.0
 11
310.0
 21
95.0
 31
0.0
  0
LINE
  8
L-ZISSEN
 10
310.0
 20
95.0
 30
0.0
 11
312.0
 21
95.0
 31
0.0
  0
TEXT
  8
L-ZISSEN
 10
314.0
 20
92.75
 30
0.0
 40
4.5
  1
P.P
  0
SOLID
  8
L-ZISSEN
 10
541.649916
 20
81.178511
 30
0.0
 11
541.178511
 21
81.649916
 31
0.0
 12
540.0
 22
80.0
 32
0.0
 13
540.0
 23
80.0
 33
0.0
  0
LINE
  8
L-ZISSEN
 10
541.414214
 20
81.414214
 30
0.0
 11
555.0
 21
95.0
 31
0.0
  0
LINE
  8
L-ZISSEN
 10
555.0
 20
95.0
 30
0.0
 11
557.0
 21
95.0
 31
0.0
  0
TEXT
  8
L-ZISSEN
 10
559.0
 20
92.75
 30
0.0
 40
4.5
  1
P.P
  0
SOLID
  8
L-ZISSEN
 10
296.649916
 20
171.178511
 30
0.0
 11
296.178511
 21
171.649916
 31
0.0
 12
295.0
 22
170.0
 32
0.0
 13
295.0
 23
170.0
 33
0.0
  0
LINE
  8
L-ZISSEN
 10
296.414214
 20
171.414214
 30
0.0
 11
305.0
 21
180.0
 31
0.0
  0
LINE
  8
L-ZISSEN
 10
305.0
 20
180.0
 30
0.0
 11
307.0
 21
180.0
 31
0.0
  0
TEXT
  8
L-ZISSEN
 10
309.0
 20
177.75
 30
0.0
 40
4.5
  1
P.P
  0
LINE
  8
L-ZISSEN
 10
388.3
 20
354.0
 30
0.0
 11
388.3
 21
406.0
 31
0.0
  0
LINE
  8
L-ZISSEN
 10
420.3
 20
354.0
 30
0.0
 11
420.3
 21
406.0
 31
0.0
  0
LINE
  8
L-ZISSEN
 10
388.3
 20
264.0
 30
0.0
 11
388.3
 21
296.0
 31
0.0
  0
LINE
  8
L-ZISSEN
 10
388.3
 20
464.0
 30
0.0
 11
388.3
 21
496.0
 31
0.0
  0
LINE
  8
L-ZISSEN
 10
201.7
 20
464.0
 30
0.0
 11
201.7
 21
496.0
 31
0.0
  0
LINE
  8
L-ZISSEN
 10
201.7
 20
264.0
 30
0.0
 11
201.7
 21
296.0
 31
0.0
  0
LINE
  8
L-ZISSEN
 10
169.7
 20
354.0
 30
0.0
 11
169.7
 21
406.0
 31
0.0
  0
LINE
  8
L-ZISSEN
 10
201.7
 20
354.0
 30
0.0
 11
201.7
 21
406.0
 31
0.0
  0
LINE
  8
L-ZISSEN
 10
180.835898
 20
486.0
 30
0.0
 11
187.764102
 21
486.0
 31
0.0
  0
LINE
  8
L-ZISSEN
 10
177.371797
 20
480.0
 30
0.0
 11
180.835898
 21
486.0
 31
0.0
  0
LINE
  8
L-ZISSEN
 10
180.835898
 20
474.0
 30
0.0
 11
177.371797
 21
480.0
 31
0.0
  0
LINE
  8
L-ZISSEN
 10
187.764102
 20
474.0
 30
0.0
 11
180.835898
 21
474.0
 31
0.0
  0
LINE
  8
L-ZISSEN
 10
191.228203
 20
480.0
 30
0.0
 11
187.764102
 21
474.0
 31
0.0
  0
LINE
  8
L-ZISSEN
 10
187.764102
 20
486.0
 30
0.0
 11
191.228203
 21
480.0
 31
0.0
  0
LINE
  8
L-ZISSEN
 10
177.371797
 20
412.9
 30
0.0
 11
177.371797
 21
406.0
 31
0.0
  0
LINE
  8
L-ZISSEN
 10
191.228203
 20
412.9
 30
0.0
 11
191.228203
 21
406.0
 31
0.0
  0
LINE
  8
L-ZISSEN
 10
177.371797
 20
412.9
 30
0.0
 11
191.228203
 21
412.9
 31
0.0
  0
LINE
  8
L-ZISSEN
 10
169.7
 20
264.0
 30
0.0
 11
169.7
 21
296.0
 31
0.0
  0
LINE
  8
L-ZISSEN
 10
166.05
 20
295.0
 30
0.0
 11
166.05
 21
265.0
 31
0.0
  0
LINE
  8
L-ZISSEN
 10
125.8
 20
265.0
 30
0.0
 11
125.8
 21
295.0
 31
0.0
  0
LINE
  8
L-ZISSEN
 10
125.8
 20
291.25
 30
0.0
 11
122.05
 21
291.25
 31
0.0
  0
LINE
  8
L-ZISSEN
 10
122.05
 20
268.75
 30
0.0
 11
122.05
 21
291.25
 31
0.0
  0
LINE
  8
L-ZISSEN
 10
125.8
 20
268.75
 30
0.0
 11
122.05
 21
268.75
 31
0.0
  0
LINE
  8
L-ZISSEN
 10
119.15
 20
270.8
 30
0.0
 11
119.15
 21
289.2
 31
0.0
  0
LINE
  8
L-ZISSEN
 10
119.15
 20
288.5
 30
0.0
 11
116.8
 21
288.5
 31
0.0
  0
LINE
  8
L-ZISSEN
 10
119.15
 20
271.5
 30
0.0
 11
116.8
 21
271.5
 31
0.0
  0
LINE
  8
L-ZISSEN
 10
122.05
 20
289.2
 30
0.0
 11
119.15
 21
289.2
 31
0.0
  0
LINE
  8
L-ZISSEN
 10
122.05
 20
270.8
 30
0.0
 11
119.15
 21
270.8
 31
0.0
  0
LINE
  8
L-ZISSEN
 10
116.8
 20
269.030345
 30
0.0
 11
116.8
 21
290.969655
 31
0.0
  0
LINE
  8
L-ZISSEN
 10
111.3
 20
290.969655
 30
0.0
 11
116.8
 21
290.969655
 31
0.0
  0
LINE
  8
L-ZISSEN
 10
111.3
 20
269.030345
 30
0.0
 11
116.8
 21
269.030345
 31
0.0
  0
LINE
  8
L-ZISSEN
 10
111.3
 20
269.030345
 30
0.0
 11
111.3
 21
290.969655
 31
0.0
  0
LINE
  8
L-ZISSEN
 10
125.8
 20
265.0
 30
0.0
 11
169.7
 21
265.0
 31
0.0
  0
LINE
  8
L-ZISSEN
 10
125.8
 20
295.0
 30
0.0
 11
169.7
 21
295.0
 31
0.0
  0
LINE
  8
L-ZISSEN
 10
125.8
 20
465.0
 30
0.0
 11
125.8
 21
468.75
 31
0.0
  0
LINE
  8
L-ZISSEN
 10
125.8
 20
495.0
 30
0.0
 11
169.7
 21
495.0
 31
0.0
  0
LINE
  8
L-ZISSEN
 10
125.8
 20
465.0
 30
0.0
 11
169.7
 21
465.0
 31
0.0
  0
LINE
  8
L-ZISSEN
 10
111.3
 20
469.030345
 30
0.0
 11
111.3
 21
490.969655
 31
0.0
  0
LINE
  8
L-ZISSEN
 10
111.3
 20
469.030345
 30
0.0
 11
116.8
 21
469.030345
 31
0.0
  0
LINE
  8
L-ZISSEN
 10
111.3
 20
490.969655
 30
0.0
 11
116.8
 21
490.969655
 31
0.0
  0
LINE
  8
L-ZISSEN
 10
116.8
 20
469.030345
 30
0.0
 11
116.8
 21
490.969655
 31
0.0
  0
LINE
  8
L-ZISSEN
 10
122.05
 20
470.8
 30
0.0
 11
119.15
 21
470.8
 31
0.0
  0
LINE
  8
L-ZISSEN
 10
122.05
 20
489.2
 30
0.0
 11
119.15
 21
489.2
 31
0.0
  0
LINE
  8
L-ZISSEN
 10
119.15
 20
471.5
 30
0.0
 11
116.8
 21
471.5
 31
0.0
  0
LINE
  8
L-ZISSEN
 10
119.15
 20
488.5
 30
0.0
 11
116.8
 21
488.5
 31
0.0
  0
LINE
  8
L-ZISSEN
 10
119.15
 20
470.8
 30
0.0
 11
119.15
 21
489.2
 31
0.0
  0
LINE
  8
L-ZISSEN
 10
137.55
 20
468.75
 30
0.0
 11
122.05
 21
468.75
 31
0.0
  0
LINE
  8
L-ZISSEN
 10
122.05
 20
468.75
 30
0.0
 11
122.05
 21
491.25
 31
0.0
  0
LINE
  8
L-ZISSEN
 10
137.55
 20
491.25
 30
0.0
 11
122.05
 21
491.25
 31
0.0
  0
LINE
  8
L-ZISSEN
 10
125.8
 20
491.25
 30
0.0
 11
125.8
 21
495.0
 31
0.0
  0
LINE
  8
L-ZISSEN
 10
165.05
 20
466.25
 30
0.0
 11
165.05
 21
493.75
 31
0.0
  0
LINE
  8
L-ZISSEN
 10
137.55
 20
466.25
 30
0.0
 11
137.55
 21
493.75
 31
0.0
  0
LINE
  8
L-ZISSEN
 10
165.05
 20
493.75
 30
0.0
 11
137.55
 21
493.75
 31
0.0
  0
LINE
  8
L-ZISSEN
 10
165.05
 20
466.25
 30
0.0
 11
137.55
 21
466.25
 31
0.0
  0
LINE
  8
L-ZISSEN
 10
136.05
 20
495.0
 30
0.0
 11
136.05
 21
491.25
 31
0.0
  0
LINE
  8
L-ZISSEN
 10
166.05
 20
495.0
 30
0.0
 11
166.05
 21
465.0
 31
0.0
  0
LINE
  8
L-ZISSEN
 10
136.05
 20
468.75
 30
0.0
 11
136.05
 21
465.0
 31
0.0
  0
LINE
  8
L-ZISSEN
 10
169.7
 20
464.0
 30
0.0
 11
169.7
 21
496.0
 31
0.0
  0
LINE
  8
L-ZISSEN
 10
166.55
 20
408.5
 30
0.0
 11
136.05
 21
408.5
 31
0.0
  0
LINE
  8
L-ZISSEN
 10
136.05
 20
408.5
 30
0.0
 11
136.05
 21
404.0
 31
0.0
  0
LINE
  8
L-ZISSEN
 10
166.55
 20
408.5
 30
0.0
 11
166.55
 21
404.0
 31
0.0
  0
LINE
  8
L-ZISSEN
 10
119.15
 20
437.65
 30
0.0
 11
119.15
 21
419.25
 31
0.0
  0
LINE
  8
L-ZISSEN
 10
119.15
 20
419.95
 30
0.0
 11
116.8
 21
419.95
 31
0.0
  0
LINE
  8
L-ZISSEN
 10
119.15
 20
436.95
 30
0.0
 11
116.8
 21
436.95
 31
0.0
  0
LINE
  8
L-ZISSEN
 10
122.05
 20
419.25
 30
0.0
 11
119.15
 21
419.25
 31
0.0
  0
LINE
  8
L-ZISSEN
 10
122.05
 20
437.65
 30
0.0
 11
119.15
 21
437.65
 31
0.0
  0
LINE
  8
L-ZISSEN
 10
116.8
 20
439.419655
 30
0.0
 11
116.8
 21
417.480345
 31
0.0
  0
LINE
  8
L-ZISSEN
 10
111.3
 20
417.480345
 30
0.0
 11
116.8
 21
417.480345
 31
0.0
  0
LINE
  8
L-ZISSEN
 10
111.3
 20
439.419655
 30
0.0
 11
116.8
 21
439.419655
 31
0.0
  0
LINE
  8
L-ZISSEN
 10
111.3
 20
439.419655
 30
0.0
 11
111.3
 21
417.480345
 31
0.0
  0
LINE
  8
L-ZISSEN
 10
137.55
 20
439.7
 30
0.0
 11
137.55
 21
408.5
 31
0.0
  0
LINE
  8
L-ZISSEN
 10
122.05
 20
439.7
 30
0.0
 11
122.05
 21
417.2
 31
0.0
  0
LINE
  8
L-ZISSEN
 10
137.55
 20
417.2
 30
0.0
 11
122.05
 21
417.2
 31
0.0
  0
LINE
  8
L-ZISSEN
 10
165.05
 20
439.7
 30
0.0
 11
122.05
 21
439.7
 31
0.0
  0
LINE
  8
L-ZISSEN
 10
165.05
 20
439.7
 30
0.0
 11
165.05
 21
408.5
 31
0.0
  0
LINE
  8
L-ZISSEN
 10
122.8
 20
389.814955
 30
0.0
 11
122.8
 21
370.185045
 31
0.0
  0
LINE
  8
L-ZISSEN
 10
122.8
 20
370.185045
 30
0.0
 11
125.8
 21
370.185045
 31
0.0
  0
LINE
  8
L-ZISSEN
 10
122.8
 20
389.814955
 30
0.0
 11
125.8
 21
389.814955
 31
0.0
  0
LINE
  8
L-ZISSEN
 10
125.8
 20
404.0
 30
0.0
 11
125.8
 21
361.2
 31
0.0
  0
LINE
  8
L-ZISSEN
 10
125.8
 20
361.2
 30
0.0
 11
169.7
 21
361.2
 31
0.0
  0
LINE
  8
L-ZISSEN
 10
169.7
 20
404.0
 30
0.0
 11
125.8
 21
404.0
 31
0.0
  0
SOLID
  8
L-ZISSEN
 10
399.780506
 20
278.030171
 30
0.0
 11
400.393396
 21
278.292488
 31
0.0
 12
399.3
 22
280.0
 32
0.0
 13
399.3
 23
280.0
 33
0.0
  0
LINE
  8
L-ZISSEN
 10
400.086951
 20
278.16133
 30
0.0
 11
410.0
 21
255.0
 31
0.0
  0
LINE
  8
L-ZISSEN
 10
410.0
 20
255.0
 30
0.0
 11
412.0
 21
255.0
 31
0.0
  0
TEXT
  8
L-ZISSEN
 10
414.0
 20
252.75
 30
0.0
 40
4.5
  1
P.P
  0
SOLID
  8
L-ZISSEN
 10
404.230067
 20
407.39657
 30
0.0
 11
403.856581
 21
406.844345
 31
0.0
 12
405.7
 22
406.0
 32
0.0
 13
405.7
 23
406.0
 33
0.0
  0
LINE
  8
L-ZISSEN
 10
404.043324
 20
407.120457
 30
0.0
 11
385.0
 21
420.0
 31
0.0
  0
LINE
  8
L-ZISSEN
 10
385.0
 20
420.0
 30
0.0
 11
383.0
 21
420.0
 31
0.0
  0
TEXT
  8
L-ZISSEN
 10
372.0
 20
417.75
 30
0.0
 40
4.5
  1
P.P
  0
SOLID
  8
L-ZISSEN
 10
404.918636
 20
481.870984
 30
0.0
 11
404.354066
 21
481.516434
 31
0.0
 12
405.7
 22
480.0
 32
0.0
 13
405.7
 23
480.0
 33
0.0
  0
LINE
  8
L-ZISSEN
 10
404.636351
 20
481.693709
 30
0.0
 11
390.0
 21
505.0
 31
0.0
  0
LINE
  8
L-ZISSEN
 10
390.0
 20
505.0
 30
0.0
 11
388.0
 21
505.0
 31
0.0
  0
TEXT
  8
L-ZISSEN
 10
377.0
 20
502.75
 30
0.0
 40
4.5
  1
P.P
  0
SOLID
  8
L-ZISSEN
 10
541.543487
 20
378.685178
 30
0.0
 11
541.886484
 21
379.256839
 31
0.0
 12
540.0
 22
380.0
 32
0.0
 13
540.0
 23
380.0
 33
0.0
  0
LINE
  8
L-ZISSEN
 10
541.714986
 20
378.971008
 30
0.0
 11
565.0
 21
365.0
 31
0.0
  0
LINE
  8
L-ZISSEN
 10
565.0
 20
365.0
 30
0.0
 11
567.0
 21
365.0
 31
0.0
  0
TEXT
  8
L-ZISSEN
 10
569.0
 20
362.75
 30
0.0
 40
4.5
  1
P.P
  0
SOLID
  8
L-ZISSEN
 10
185.645934
 20
481.516434
 30
0.0
 11
185.081364
 21
481.870984
 31
0.0
 12
184.3
 22
480.0
 32
0.0
 13
184.3
 23
480.0
 33
0.0
  0
LINE
  8
L-ZISSEN
 10
185.363649
 20
481.693709
 30
0.0
 11
200.0
 21
505.0
 31
0.0
  0
LINE
  8
L-ZISSEN
 10
200.0
 20
505.0
 30
0.0
 11
202.0
 21
505.0
 31
0.0
  0
TEXT
  8
L-ZISSEN
 10
204.0
 20
502.75
 30
0.0
 40
4.5
  1
P.P
  0
SOLID
  8
L-ZISSEN
 10
185.779319
 20
407.386625
 30
0.0
 11
185.249639
 21
407.791451
 31
0.0
 12
184.3
 22
406.0
 32
0.0
 13
184.3
 23
406.0
 33
0.0
  0
LINE
  8
L-ZISSEN
 10
185.514479
 20
407.589038
 30
0.0
 11
195.0
 21
420.0
 31
0.0
  0
LINE
  8
L-ZISSEN
 10
195.0
 20
420.0
 30
0.0
 11
197.0
 21
420.0
 31
0.0
  0
TEXT
  8
L-ZISSEN
 10
199.0
 20
417.75
 30
0.0
 40
4.5
  1
P.P
  0
CIRCLE
  8
L-ZISSEN
 10
540.0
 20
380.0
 30
0.0
 40
2.067
  0
CIRCLE
  8
L-ZISSEN
 10
50.0
 20
380.0
 30
0.0
 40
2.067
  0
LINE
  8
L-ZISSEN
 10
122.8
 20
288.5
 30
0.0
 11
122.8
 21
271.5
 31
0.0
  0
LINE
  8
L-ZISSEN
 10
122.8
 20
288.5
 30
0.0
 11
125.8
 21
288.5
 31
0.0
  0
LINE
  8
L-ZISSEN
 10
122.8
 20
271.5
 30
0.0
 11
125.8
 21
271.5
 31
0.0
  0
LINE
  8
L-ZISSEN
 10
467.2
 20
271.5
 30
0.0
 11
464.2
 21
271.5
 31
0.0
  0
LINE
  8
L-ZISSEN
 10
467.2
 20
288.5
 30
0.0
 11
464.2
 21
288.5
 31
0.0
  0
LINE
  8
L-ZISSEN
 10
467.2
 20
288.5
 30
0.0
 11
467.2
 21
271.5
 31
0.0
  0
SOLID
  8
L-ZISSEN
 10
293.566279
 20
352.566279
 30
0.0
 11
294.108768
 21
352.178787
 31
0.0
 12
295.0
 22
354.0
 32
0.0
 13
295.0
 23
354.0
 33
0.0
  0
LINE
  8
L-ZISSEN
 10
293.837524
 20
352.372533
 30
0.0
 11
285.0
 21
340.0
 31
0.0
  0
LINE
  8
L-ZISSEN
 10
285.0
 20
340.0
 30
0.0
 11
283.0
 21
340.0
 31
0.0
  0
TEXT
  8
L-ZISSEN
 10
251.0
 20
337.75
 30
0.0
 40
4.5
  1
"1" PORT
  0
TEXT
  8
L-ZISSEN
 10
255.0
 20
330.0
 30
0.0
 40
4.5
  1
Rc 1/4
  0
TEXT
  8
L-ZISSEN
 10
255.0
 20
320.0
 30
0.0
 40
4.5
  1
Rc 3/8
  0
TEXT
  8
L-ZISSEN
 10
104.0
 20
532.0
 30
0.0
 40
4.5
  1
3
  0
TEXT
  8
L-ZISSEN
 10
104.0
 20
525.0
 30
0.0
 40
4.5
  1
4
  0
TEXT
  8
L-ZISSEN
 10
104.0
 20
518.0
 30
0.0
 40
4.5
  1
5
  0
TEXT
  8
L-ZISSEN
 10
117.0
 20
529.0
 30
0.0
 40
4.5
  1
02
  0
TEXT
  8
L-ZISSEN
 10
117.0
 20
522.0
 30
0.0
 40
4.5
  1
03J
  0
LINE
  8
L-ZISSEN
 10
466.2
 20
41.5
 30
0.0
 11
466.2
 21
40.0
 31
0.0
  0
LINE
  8
L-ZISSEN
 10
123.8
 20
41.5
 30
0.0
 11
123.8
 21
40.0
 31
0.0
  0
ENDSEC
  0
EOF
