  0
SECTION
  2
HEADER
  9
$ACADVER
  1
AC1006
  9
$INSBASE
 10
0.0
 20
0.0
 30
0.0
  9
$EXTMIN
 10
20.0
 20
5.0
  9
$EXTMAX
 10
660.0
 20
412.808219
  9
$LIMMIN
 10
0.0
 20
0.0
  9
$LIMMAX
 10
594.0
 20
420.0
  9
$ORTHOMODE
 70
     0
  9
$REGENMODE
 70
     1
  9
$FILLMODE
 70
     1
  9
$QTEXTMODE
 70
     0
  9
$MIRRTEXT
 70
     1
  9
$DRAGMODE
 70
     2
  9
$LTSCALE
 40
1.0
  9
$OSMODE
 70
     0
  9
$ATTMODE
 70
     1
  9
$TEXTSIZE
 40
4.5
  9
$TRACEWID
 40
0.05
  9
$TEXTSTYLE
  7
STANDARD
  9
$CLAYER
  8
L-ZISSEN
  9
$CELTYPE
  6
BYLAYER
  9
$CECOLOR
 62
   256
  9
$DIMSCALE
 40
1.0
  9
$DIMASZ
 40
2.0
  9
$DIMEXO
 40
2.0
  9
$DIMDLI
 40
0.38
  9
$DIMRND
 40
0.0
  9
$DIMDLE
 40
1.0
  9
$DIMEXE
 40
2.0
  9
$DIMTP
 40
0.0
  9
$DIMTM
 40
0.0
  9
$DIMTXT
 40
4.5
  9
$DIMCEN
 40
0.09
  9
$DIMTSZ
 40
0.0
  9
$DIMTOL
 70
     0
  9
$DIMLIM
 70
     0
  9
$DIMTIH
 70
     0
  9
$DIMTOH
 70
     0
  9
$DIMSE1
 70
     0
  9
$DIMSE2
 70
     0
  9
$DIMTAD
 70
     1
  9
$DIMZIN
 70
     0
  9
$DIMBLK
  1

  9
$DIMASO
 70
     0
  9
$DIMSHO
 70
     0
  9
$DIMPOST
  1

  9
$DIMAPOST
  1

  9
$DIMALT
 70
     0
  9
$DIMALTD
 70
     2
  9
$DIMALTF
 40
25.4
  9
$DIMLFAC
 40
1.0
  9
$DIMTOFL
 70
     1
  9
$DIMTVP
 40
0.0
  9
$DIMTIX
 70
     1
  9
$DIMSOXD
 70
     0
  9
$DIMSAH
 70
     0
  9
$DIMBLK1
  1

  9
$DIMBLK2
  1

  9
$LUNITS
 70
     2
  9
$LUPREC
 70
     4
  9
$AXISMODE
 70
     0
  9
$AXISUNIT
 10
0.0
 20
0.0
  9
$SKETCHINC
 40
0.1
  9
$FILLETRAD
 40
0.0
  9
$AUNITS
 70
     0
  9
$AUPREC
 70
     0
  9
$MENU
  1
acad
  9
$ELEVATION
 40
0.0
  9
$THICKNESS
 40
0.0
  9
$LIMCHECK
 70
     0
  9
$BLIPMODE
 70
     1
  9
$CHAMFERA
 40
0.0
  9
$CHAMFERB
 40
0.0
  9
$SKPOLY
 70
     0
  9
$TDCREATE
 40
2449002.5656396989
  9
$TDUPDATE
 40
2449002.5656396989
  9
$TDINDWG
 40
0.0000000000
  9
$TDUSRTIMER
 40
0.0000000000
  9
$USRTIMER
 70
     1
  9
$ANGBASE
 50
0.0
  9
$ANGDIR
 70
     0
  9
$PDMODE
 70
     0
  9
$PDSIZE
 40
0.0
  9
$PLINEWID
 40
0.0
  9
$COORDS
 70
     2
  9
$SPLFRAME
 70
     0
  9
$SPLINETYPE
 70
     6
  9
$SPLINESEGS
 70
     8
  9
$ATTDIA
 70
     0
  9
$ATTREQ
 70
     1
  9
$HANDLING
 70
     0
  9
$HANDSEED
  5
0
  9
$SURFTAB1
 70
     6
  9
$SURFTAB2
 70
     6
  9
$SURFTYPE
 70
     6
  9
$SURFU
 70
     6
  9
$SURFV
 70
     6
  9
$FLATLAND
 70
     0
  9
$UCSNAME
  2

  9
$UCSORG
 10
0.0
 20
0.0
 30
0.0
  9
$UCSXDIR
 10
1.0
 20
0.0
 30
0.0
  9
$UCSYDIR
 10
0.0
 20
1.0
 30
0.0
  9
$USERI1
 70
     0
  9
$USERI2
 70
     0
  9
$USERI3
 70
     0
  9
$USERI4
 70
     0
  9
$USERI5
 70
     0
  9
$USERR1
 40
0.0
  9
$USERR2
 40
0.0
  9
$USERR3
 40
0.0
  9
$USERR4
 40
0.0
  9
$USERR5
 40
0.0
  9
$WORLDVIEW
 70
     1
  0
ENDSEC
  0
SECTION
  2
TABLES
  0
TABLE
  2
VPORT
 70
     2
  0
VPORT
  2
*ACTIVE
 70
     0
 10
0.0
 20
0.0
 11
1.0
 21
1.0
 12
336.888065
 22
217.529623
 13
0.0
 23
0.0
 14
5.0
 24
5.0
 15
0.0
 25
0.0
 16
0.0
 26
0.0
 36
1.0
 17
0.0
 27
0.0
 37
0.0
 40
435.059245
 41
1.5487
 42
50.0
 43
0.0
 44
0.0
 50
0.0
 51
0.0
 71
     0
 72
   100
 73
     1
 74
     0
 75
     0
 76
     0
 77
     0
 78
     0
  0
ENDTAB
  0
TABLE
  2
LTYPE
 70
     2
  0
LTYPE
  2
CONTINUOUS
 70
    64
  3
Solid line
 72
    65
 73
     0
 40
0.0
  0
LTYPE
  2
CENTER
 70
    64
  3
____ _ ____ _ ____ _ ____ _ 
 72
    65
 73
     4
 40
60.0
 49
45.0
 49
-5.0
 49
5.0
 49
-5.0
  0
ENDTAB
  0
TABLE
  2
LAYER
 70
     3
  0
LAYER
  2
0
 70
     0
 62
     7
  6
CONTINUOUS
  0
LAYER
  2
L-ZISSEN
 70
    64
 62
     7
  6
CONTINUOUS
  0
LAYER
  2
L-TYUSIN
 70
    64
 62
     1
  6
CENTER
  0
ENDTAB
  0
TABLE
  2
STYLE
 70
     1
  0
STYLE
  2
STANDARD
 70
    64
 40
0.0
 41
1.0
 50
0.0
 71
     0
 42
4.5
  3
TXT
  4

  0
ENDTAB
  0
TABLE
  2
VIEW
 70
     0
  0
ENDTAB
  0
TABLE
  2
UCS
 70
     0
  0
ENDTAB
  0
TABLE
  2
DWGMGR
 70
     0
  0
ENDTAB
  0
ENDSEC
  0
SECTION
  2
BLOCKS
  0
ENDSEC
  0
SECTION
  2
ENTITIES
  0
LINE
  8
L-TYUSIN
 10
460.0
 20
205.0
 30
0.0
 11
660.0
 21
205.0
 31
0.0
  0
LINE
  8
L-ZISSEN
 10
595.5
 20
108.969655
 30
0.0
 11
595.5
 21
87.030345
 31
0.0
  0
LINE
  8
L-ZISSEN
 10
595.5
 20
108.969655
 30
0.0
 11
590.0
 21
108.969655
 31
0.0
  0
LINE
  8
L-ZISSEN
 10
595.5
 20
87.030345
 30
0.0
 11
590.0
 21
87.030345
 31
0.0
  0
LINE
  8
L-ZISSEN
 10
590.0
 20
108.969655
 30
0.0
 11
590.0
 21
87.030345
 31
0.0
  0
LINE
  8
L-ZISSEN
 10
580.5
 20
107.2
 30
0.0
 11
587.65
 21
107.2
 31
0.0
  0
LINE
  8
L-ZISSEN
 10
580.5
 20
88.8
 30
0.0
 11
587.65
 21
88.8
 31
0.0
  0
LINE
  8
L-ZISSEN
 10
587.65
 20
106.5
 30
0.0
 11
590.0
 21
106.5
 31
0.0
  0
LINE
  8
L-ZISSEN
 10
587.65
 20
89.5
 30
0.0
 11
590.0
 21
89.5
 31
0.0
  0
LINE
  8
L-ZISSEN
 10
587.65
 20
107.2
 30
0.0
 11
587.65
 21
88.8
 31
0.0
  0
CIRCLE
  8
L-ZISSEN
 10
630.0
 20
98.0
 30
0.0
 40
6.5
  0
CIRCLE
  8
L-ZISSEN
 10
630.0
 20
98.0
 30
0.0
 40
11.25
  0
LINE
  8
L-ZISSEN
 10
580.5
 20
111.0
 30
0.0
 11
580.5
 21
85.0
 31
0.0
  0
LINE
  8
L-ZISSEN
 10
553.5
 20
111.0
 30
0.0
 11
580.5
 21
111.0
 31
0.0
  0
LINE
  8
L-ZISSEN
 10
526.5
 20
113.0
 30
0.0
 11
553.5
 21
113.0
 31
0.0
  0
LINE
  8
L-ZISSEN
 10
580.5
 20
85.0
 30
0.0
 11
565.5
 21
85.0
 31
0.0
  0
LINE
  8
L-ZISSEN
 10
526.5
 20
113.0
 30
0.0
 11
526.5
 21
91.0
 31
0.0
  0
LINE
  8
L-ZISSEN
 10
553.5
 20
113.0
 30
0.0
 11
553.5
 21
91.0
 31
0.0
  0
LINE
  8
L-ZISSEN
 10
554.5
 20
88.5
 30
0.0
 11
570.5
 21
88.5
 31
0.0
  0
LINE
  8
L-ZISSEN
 10
525.5
 20
91.0
 30
0.0
 11
525.5
 21
85.0
 31
0.0
  0
LINE
  8
L-ZISSEN
 10
554.5
 20
91.0
 30
0.0
 11
554.5
 21
85.0
 31
0.0
  0
LINE
  8
L-ZISSEN
 10
570.5
 20
88.5
 30
0.0
 11
570.5
 21
85.0
 31
0.0
  0
LINE
  8
L-ZISSEN
 10
525.5
 20
91.0
 30
0.0
 11
554.5
 21
91.0
 31
0.0
  0
LINE
  8
L-ZISSEN
 10
553.5
 20
142.0
 30
0.0
 11
580.5
 21
142.0
 31
0.0
  0
LINE
  8
L-ZISSEN
 10
580.5
 20
168.0
 30
0.0
 11
553.5
 21
168.0
 31
0.0
  0
LINE
  8
L-ZISSEN
 10
580.5
 20
142.0
 30
0.0
 11
580.5
 21
168.0
 31
0.0
  0
LINE
  8
L-ZISSEN
 10
587.65
 20
145.8
 30
0.0
 11
587.65
 21
164.2
 31
0.0
  0
LINE
  8
L-ZISSEN
 10
587.65
 20
163.5
 30
0.0
 11
590.0
 21
163.5
 31
0.0
  0
LINE
  8
L-ZISSEN
 10
587.65
 20
146.5
 30
0.0
 11
590.0
 21
146.5
 31
0.0
  0
LINE
  8
L-ZISSEN
 10
580.5
 20
164.2
 30
0.0
 11
587.65
 21
164.2
 31
0.0
  0
LINE
  8
L-ZISSEN
 10
580.5
 20
145.8
 30
0.0
 11
587.65
 21
145.8
 31
0.0
  0
LINE
  8
L-ZISSEN
 10
590.0
 20
144.030345
 30
0.0
 11
590.0
 21
165.969655
 31
0.0
  0
LINE
  8
L-ZISSEN
 10
595.5
 20
165.969655
 30
0.0
 11
590.0
 21
165.969655
 31
0.0
  0
LINE
  8
L-ZISSEN
 10
595.5
 20
144.030345
 30
0.0
 11
590.0
 21
144.030345
 31
0.0
  0
LINE
  8
L-ZISSEN
 10
595.5
 20
144.030345
 30
0.0
 11
595.5
 21
165.969655
 31
0.0
  0
LINE
  8
L-ZISSEN
 10
553.5
 20
141.5
 30
0.0
 11
553.5
 21
168.5
 31
0.0
  0
LINE
  8
L-ZISSEN
 10
526.5
 20
141.5
 30
0.0
 11
526.5
 21
168.5
 31
0.0
  0
LINE
  8
L-ZISSEN
 10
526.5
 20
141.5
 30
0.0
 11
553.5
 21
141.5
 31
0.0
  0
LINE
  8
L-ZISSEN
 10
526.5
 20
168.5
 30
0.0
 11
553.5
 21
168.5
 31
0.0
  0
LINE
  8
L-ZISSEN
 10
525.5
 20
169.5
 30
0.0
 11
525.5
 21
140.5
 31
0.0
  0
LINE
  8
L-ZISSEN
 10
525.5
 20
140.5
 30
0.0
 11
554.5
 21
140.5
 31
0.0
  0
LINE
  8
L-ZISSEN
 10
554.5
 20
140.5
 30
0.0
 11
554.5
 21
142.0
 31
0.0
  0
LINE
  8
L-ZISSEN
 10
554.5
 20
169.5
 30
0.0
 11
525.5
 21
169.5
 31
0.0
  0
LINE
  8
L-ZISSEN
 10
554.5
 20
168.0
 30
0.0
 11
554.5
 21
169.5
 31
0.0
  0
LINE
  8
L-ZISSEN
 10
644.5
 20
91.0
 30
0.0
 11
643.0
 21
91.0
 31
0.0
  0
LINE
  8
L-ZISSEN
 10
615.5
 20
91.0
 30
0.0
 11
615.5
 21
85.0
 31
0.0
  0
LINE
  8
L-ZISSEN
 10
644.5
 20
91.0
 30
0.0
 11
644.5
 21
85.0
 31
0.0
  0
LINE
  8
L-ZISSEN
 10
616.5
 20
113.0
 30
0.0
 11
616.5
 21
91.0
 31
0.0
  0
LINE
  8
L-ZISSEN
 10
643.5
 20
113.0
 30
0.0
 11
643.5
 21
91.0
 31
0.0
  0
LINE
  8
L-ZISSEN
 10
643.5
 20
113.0
 30
0.0
 11
616.5
 21
113.0
 31
0.0
  0
LINE
  8
L-ZISSEN
 10
644.5
 20
88.5
 30
0.0
 11
638.87412
 21
88.5
 31
0.0
  0
LINE
  8
L-ZISSEN
 10
618.5
 20
88.5
 30
0.0
 11
618.5
 21
85.0
 31
0.0
  0
LINE
  8
L-ZISSEN
 10
641.5
 20
88.5
 30
0.0
 11
641.5
 21
85.0
 31
0.0
  0
LINE
  8
L-ZISSEN
 10
621.12588
 20
88.5
 30
0.0
 11
615.5
 21
88.5
 31
0.0
  0
CIRCLE
  8
L-ZISSEN
 10
630.0
 20
98.0
 30
0.0
 40
13.0
  0
LINE
  8
L-ZISSEN
 10
643.0
 20
98.0
 30
0.0
 11
643.0
 21
88.5
 31
0.0
  0
LINE
  8
L-ZISSEN
 10
617.0
 20
98.0
 30
0.0
 11
617.0
 21
88.5
 31
0.0
  0
LINE
  8
L-ZISSEN
 10
617.0
 20
91.0
 30
0.0
 11
615.5
 21
91.0
 31
0.0
  0
TEXT
  8
L-ZISSEN
 10
470.0
 20
195.0
 30
0.0
 40
4.5
  1
ELECTRICAL CONNECTION
  0
LINE
  8
L-TYUSIN
 10
109.2
 20
140.0
 30
0.0
 11
339.7
 21
140.0
 31
0.0
  0
LINE
  8
L-TYUSIN
 10
185.0
 20
171.0
 30
0.0
 11
185.0
 21
109.0
 31
0.0
  0
LINE
  8
L-ZISSEN
 10
230.8
 20
114.0
 30
0.0
 11
230.8
 21
166.0
 31
0.0
  0
LINE
  8
L-ZISSEN
 10
287.8
 20
166.0
 30
0.0
 11
131.2
 21
166.0
 31
0.0
  0
LINE
  8
L-ZISSEN
 10
139.2
 20
166.0
 30
0.0
 11
139.2
 21
114.0
 31
0.0
  0
LINE
  8
L-ZISSEN
 10
131.2
 20
114.0
 30
0.0
 11
287.8
 21
114.0
 31
0.0
  0
LINE
  8
L-ZISSEN
 10
287.8
 20
114.0
 30
0.0
 11
287.8
 21
166.0
 31
0.0
  0
LINE
  8
L-ZISSEN
 10
114.2
 20
151.0
 30
0.0
 11
114.2
 21
129.0
 31
0.0
  0
LINE
  8
L-ZISSEN
 10
131.2
 20
166.0
 30
0.0
 11
131.2
 21
114.0
 31
0.0
  0
LINE
  8
L-ZISSEN
 10
121.2
 20
155.465838
 30
0.0
 11
121.2
 21
126.0
 31
0.0
  0
LINE
  8
L-ZISSEN
 10
121.2
 20
126.0
 30
0.0
 11
131.2
 21
126.0
 31
0.0
  0
LINE
  8
L-ZISSEN
 10
114.2
 20
129.0
 30
0.0
 11
121.2
 21
129.0
 31
0.0
  0
LINE
  8
L-ZISSEN
 10
114.2
 20
151.0
 30
0.0
 11
121.2
 21
151.0
 31
0.0
  0
LINE
  8
L-ZISSEN
 10
287.8
 20
164.0
 30
0.0
 11
331.7
 21
164.0
 31
0.0
  0
LINE
  8
L-ZISSEN
 10
331.7
 20
121.2
 30
0.0
 11
287.8
 21
121.2
 31
0.0
  0
LINE
  8
L-ZISSEN
 10
331.7
 20
164.0
 30
0.0
 11
331.7
 21
121.2
 31
0.0
  0
LINE
  8
L-ZISSEN
 10
334.7
 20
149.814955
 30
0.0
 11
331.7
 21
149.814955
 31
0.0
  0
LINE
  8
L-ZISSEN
 10
334.7
 20
130.185045
 30
0.0
 11
331.7
 21
130.185045
 31
0.0
  0
LINE
  8
L-ZISSEN
 10
334.7
 20
149.814955
 30
0.0
 11
334.7
 21
130.185045
 31
0.0
  0
LINE
  8
L-ZISSEN
 10
292.45
 20
199.7
 30
0.0
 11
292.45
 21
168.5
 31
0.0
  0
LINE
  8
L-ZISSEN
 10
292.45
 20
199.7
 30
0.0
 11
335.45
 21
199.7
 31
0.0
  0
LINE
  8
L-ZISSEN
 10
319.95
 20
177.2
 30
0.0
 11
335.45
 21
177.2
 31
0.0
  0
LINE
  8
L-ZISSEN
 10
335.45
 20
199.7
 30
0.0
 11
335.45
 21
177.2
 31
0.0
  0
LINE
  8
L-ZISSEN
 10
319.95
 20
199.7
 30
0.0
 11
319.95
 21
168.5
 31
0.0
  0
LINE
  8
L-ZISSEN
 10
346.2
 20
199.419655
 30
0.0
 11
346.2
 21
177.480345
 31
0.0
  0
LINE
  8
L-ZISSEN
 10
346.2
 20
199.419655
 30
0.0
 11
340.7
 21
199.419655
 31
0.0
  0
LINE
  8
L-ZISSEN
 10
346.2
 20
177.480345
 30
0.0
 11
340.7
 21
177.480345
 31
0.0
  0
LINE
  8
L-ZISSEN
 10
340.7
 20
199.419655
 30
0.0
 11
340.7
 21
177.480345
 31
0.0
  0
LINE
  8
L-ZISSEN
 10
335.45
 20
197.65
 30
0.0
 11
338.35
 21
197.65
 31
0.0
  0
LINE
  8
L-ZISSEN
 10
335.45
 20
179.25
 30
0.0
 11
338.35
 21
179.25
 31
0.0
  0
LINE
  8
L-ZISSEN
 10
338.35
 20
196.95
 30
0.0
 11
340.7
 21
196.95
 31
0.0
  0
LINE
  8
L-ZISSEN
 10
338.35
 20
179.95
 30
0.0
 11
340.7
 21
179.95
 31
0.0
  0
LINE
  8
L-ZISSEN
 10
338.35
 20
197.65
 30
0.0
 11
338.35
 21
179.25
 31
0.0
  0
LINE
  8
L-ZISSEN
 10
290.95
 20
168.5
 30
0.0
 11
290.95
 21
164.0
 31
0.0
  0
LINE
  8
L-ZISSEN
 10
321.45
 20
168.5
 30
0.0
 11
321.45
 21
164.0
 31
0.0
  0
LINE
  8
L-ZISSEN
 10
290.95
 20
168.5
 30
0.0
 11
321.45
 21
168.5
 31
0.0
  0
LINE
  8
L-ZISSEN
 10
114.2
 20
251.0
 30
0.0
 11
121.2
 21
251.0
 31
0.0
  0
LINE
  8
L-ZISSEN
 10
121.2
 20
254.0
 30
0.0
 11
127.6
 21
254.0
 31
0.0
  0
LINE
  8
L-ZISSEN
 10
114.2
 20
229.0
 30
0.0
 11
121.2
 21
229.0
 31
0.0
  0
LINE
  8
L-ZISSEN
 10
121.2
 20
226.0
 30
0.0
 11
127.6
 21
226.0
 31
0.0
  0
LINE
  8
L-ZISSEN
 10
121.2
 20
254.0
 30
0.0
 11
121.2
 21
226.0
 31
0.0
  0
LINE
  8
L-ZISSEN
 10
131.2
 20
256.0
 30
0.0
 11
131.2
 21
224.0
 31
0.0
  0
LINE
  8
L-ZISSEN
 10
114.2
 20
251.0
 30
0.0
 11
114.2
 21
229.0
 31
0.0
  0
LINE
  8
L-ZISSEN
 10
287.8
 20
224.0
 30
0.0
 11
287.8
 21
256.0
 31
0.0
  0
LINE
  8
L-ZISSEN
 10
139.2
 20
256.0
 30
0.0
 11
139.2
 21
224.0
 31
0.0
  0
LINE
  8
L-ZISSEN
 10
230.8
 20
224.0
 30
0.0
 11
230.8
 21
256.0
 31
0.0
  0
LINE
  8
L-TYUSIN
 10
185.0
 20
260.0
 30
0.0
 11
185.0
 21
220.0
 31
0.0
  0
LINE
  8
L-TYUSIN
 10
109.2
 20
240.0
 30
0.0
 11
351.2
 21
240.0
 31
0.0
  0
LINE
  8
L-ZISSEN
 10
287.8
 20
256.0
 30
0.0
 11
131.2
 21
256.0
 31
0.0
  0
LINE
  8
L-ZISSEN
 10
287.8
 20
224.0
 30
0.0
 11
131.2
 21
224.0
 31
0.0
  0
LINE
  8
L-ZISSEN
 10
321.45
 20
228.75
 30
0.0
 11
321.45
 21
225.0
 31
0.0
  0
LINE
  8
L-ZISSEN
 10
291.45
 20
255.0
 30
0.0
 11
291.45
 21
225.0
 31
0.0
  0
LINE
  8
L-ZISSEN
 10
321.45
 20
255.0
 30
0.0
 11
321.45
 21
251.25
 31
0.0
  0
LINE
  8
L-ZISSEN
 10
292.45
 20
226.25
 30
0.0
 11
319.95
 21
226.25
 31
0.0
  0
LINE
  8
L-ZISSEN
 10
292.45
 20
253.75
 30
0.0
 11
319.95
 21
253.75
 31
0.0
  0
LINE
  8
L-ZISSEN
 10
319.95
 20
226.25
 30
0.0
 11
319.95
 21
253.75
 31
0.0
  0
LINE
  8
L-ZISSEN
 10
292.45
 20
226.25
 30
0.0
 11
292.45
 21
253.75
 31
0.0
  0
LINE
  8
L-ZISSEN
 10
331.7
 20
251.25
 30
0.0
 11
331.7
 21
255.0
 31
0.0
  0
LINE
  8
L-ZISSEN
 10
319.95
 20
251.25
 30
0.0
 11
335.45
 21
251.25
 31
0.0
  0
LINE
  8
L-ZISSEN
 10
335.45
 20
228.75
 30
0.0
 11
335.45
 21
251.25
 31
0.0
  0
LINE
  8
L-ZISSEN
 10
319.95
 20
228.75
 30
0.0
 11
335.45
 21
228.75
 31
0.0
  0
LINE
  8
L-ZISSEN
 10
338.35
 20
230.8
 30
0.0
 11
338.35
 21
249.2
 31
0.0
  0
LINE
  8
L-ZISSEN
 10
338.35
 20
248.5
 30
0.0
 11
340.7
 21
248.5
 31
0.0
  0
LINE
  8
L-ZISSEN
 10
338.35
 20
231.5
 30
0.0
 11
340.7
 21
231.5
 31
0.0
  0
LINE
  8
L-ZISSEN
 10
335.45
 20
249.2
 30
0.0
 11
338.35
 21
249.2
 31
0.0
  0
LINE
  8
L-ZISSEN
 10
335.45
 20
230.8
 30
0.0
 11
338.35
 21
230.8
 31
0.0
  0
LINE
  8
L-ZISSEN
 10
340.7
 20
229.030345
 30
0.0
 11
340.7
 21
250.969655
 31
0.0
  0
LINE
  8
L-ZISSEN
 10
346.2
 20
250.969655
 30
0.0
 11
340.7
 21
250.969655
 31
0.0
  0
LINE
  8
L-ZISSEN
 10
346.2
 20
229.030345
 30
0.0
 11
340.7
 21
229.030345
 31
0.0
  0
LINE
  8
L-ZISSEN
 10
346.2
 20
229.030345
 30
0.0
 11
346.2
 21
250.969655
 31
0.0
  0
LINE
  8
L-ZISSEN
 10
331.7
 20
225.0
 30
0.0
 11
287.8
 21
225.0
 31
0.0
  0
LINE
  8
L-ZISSEN
 10
331.7
 20
255.0
 30
0.0
 11
287.8
 21
255.0
 31
0.0
  0
LINE
  8
L-ZISSEN
 10
331.7
 20
225.0
 30
0.0
 11
331.7
 21
228.75
 31
0.0
  0
LINE
  8
L-ZISSEN
 10
331.7
 20
65.0
 30
0.0
 11
287.8
 21
65.0
 31
0.0
  0
LINE
  8
L-ZISSEN
 10
331.7
 20
35.0
 30
0.0
 11
287.8
 21
35.0
 31
0.0
  0
LINE
  8
L-ZISSEN
 10
346.2
 20
39.030345
 30
0.0
 11
346.2
 21
60.969655
 31
0.0
  0
LINE
  8
L-ZISSEN
 10
346.2
 20
39.030345
 30
0.0
 11
340.7
 21
39.030345
 31
0.0
  0
LINE
  8
L-ZISSEN
 10
346.2
 20
60.969655
 30
0.0
 11
340.7
 21
60.969655
 31
0.0
  0
LINE
  8
L-ZISSEN
 10
340.7
 20
39.030345
 30
0.0
 11
340.7
 21
60.969655
 31
0.0
  0
LINE
  8
L-ZISSEN
 10
335.45
 20
40.8
 30
0.0
 11
338.35
 21
40.8
 31
0.0
  0
LINE
  8
L-ZISSEN
 10
335.45
 20
59.2
 30
0.0
 11
338.35
 21
59.2
 31
0.0
  0
LINE
  8
L-ZISSEN
 10
338.35
 20
41.5
 30
0.0
 11
340.7
 21
41.5
 31
0.0
  0
LINE
  8
L-ZISSEN
 10
338.35
 20
58.5
 30
0.0
 11
340.7
 21
58.5
 31
0.0
  0
LINE
  8
L-ZISSEN
 10
338.35
 20
40.8
 30
0.0
 11
338.35
 21
59.2
 31
0.0
  0
LINE
  8
L-ZISSEN
 10
331.7
 20
38.75
 30
0.0
 11
335.45
 21
38.75
 31
0.0
  0
LINE
  8
L-ZISSEN
 10
335.45
 20
38.75
 30
0.0
 11
335.45
 21
61.25
 31
0.0
  0
LINE
  8
L-ZISSEN
 10
331.7
 20
61.25
 30
0.0
 11
335.45
 21
61.25
 31
0.0
  0
LINE
  8
L-ZISSEN
 10
331.7
 20
35.0
 30
0.0
 11
331.7
 21
65.0
 31
0.0
  0
LINE
  8
L-ZISSEN
 10
291.45
 20
65.0
 30
0.0
 11
291.45
 21
35.0
 31
0.0
  0
LINE
  8
L-ZISSEN
 10
287.8
 20
34.0
 30
0.0
 11
131.2
 21
34.0
 31
0.0
  0
LINE
  8
L-ZISSEN
 10
287.8
 20
66.0
 30
0.0
 11
131.2
 21
66.0
 31
0.0
  0
LINE
  8
L-TYUSIN
 10
109.2
 20
50.0
 30
0.0
 11
351.2
 21
50.0
 31
0.0
  0
LINE
  8
L-TYUSIN
 10
185.0
 20
70.0
 30
0.0
 11
185.0
 21
30.0
 31
0.0
  0
LINE
  8
L-ZISSEN
 10
230.8
 20
34.0
 30
0.0
 11
230.8
 21
66.0
 31
0.0
  0
LINE
  8
L-ZISSEN
 10
139.2
 20
66.0
 30
0.0
 11
139.2
 21
34.0
 31
0.0
  0
LINE
  8
L-ZISSEN
 10
287.8
 20
34.0
 30
0.0
 11
287.8
 21
66.0
 31
0.0
  0
LINE
  8
L-ZISSEN
 10
114.2
 20
61.0
 30
0.0
 11
114.2
 21
39.0
 31
0.0
  0
LINE
  8
L-ZISSEN
 10
131.2
 20
66.0
 30
0.0
 11
131.2
 21
34.0
 31
0.0
  0
LINE
  8
L-ZISSEN
 10
121.2
 20
64.0
 30
0.0
 11
121.2
 21
36.0
 31
0.0
  0
LINE
  8
L-ZISSEN
 10
121.2
 20
36.0
 30
0.0
 11
127.6
 21
36.0
 31
0.0
  0
LINE
  8
L-ZISSEN
 10
114.2
 20
39.0
 30
0.0
 11
121.2
 21
39.0
 31
0.0
  0
LINE
  8
L-ZISSEN
 10
121.2
 20
64.0
 30
0.0
 11
127.6
 21
64.0
 31
0.0
  0
LINE
  8
L-ZISSEN
 10
114.2
 20
61.0
 30
0.0
 11
121.2
 21
61.0
 31
0.0
  0
LINE
  8
L-TYUSIN
 10
204.0
 20
126.0
 30
0.0
 11
204.0
 21
112.0
 31
0.0
  0
LINE
  8
L-TYUSIN
 10
197.0
 20
119.0
 30
0.0
 11
211.0
 21
119.0
 31
0.0
  0
CIRCLE
  8
L-ZISSEN
 10
204.0
 20
119.0
 30
0.0
 40
2.75
  0
CIRCLE
  8
L-ZISSEN
 10
166.0
 20
119.0
 30
0.0
 40
2.75
  0
LINE
  8
L-TYUSIN
 10
173.0
 20
119.0
 30
0.0
 11
159.0
 21
119.0
 31
0.0
  0
LINE
  8
L-TYUSIN
 10
166.0
 20
126.0
 30
0.0
 11
166.0
 21
112.0
 31
0.0
  0
CIRCLE
  8
L-ZISSEN
 10
185.0
 20
161.0
 30
0.0
 40
2.75
  0
LINE
  8
L-TYUSIN
 10
178.0
 20
161.0
 30
0.0
 11
192.0
 21
161.0
 31
0.0
  0
LINE
  8
L-TYUSIN
 10
201.0
 20
250.0
 30
0.0
 11
201.0
 21
230.0
 31
0.0
  0
CIRCLE
  8
L-ZISSEN
 10
201.0
 20
240.0
 30
0.0
 40
5.7225
  0
CIRCLE
  8
L-ZISSEN
 10
169.0
 20
240.0
 30
0.0
 40
5.7225
  0
LINE
  8
L-TYUSIN
 10
169.0
 20
250.0
 30
0.0
 11
169.0
 21
230.0
 31
0.0
  0
CIRCLE
  8
L-ZISSEN
 10
217.0
 20
50.0
 30
0.0
 40
5.7225
  0
LINE
  8
L-TYUSIN
 10
217.0
 20
60.0
 30
0.0
 11
217.0
 21
40.0
 31
0.0
  0
CIRCLE
  8
L-ZISSEN
 10
185.0
 20
50.0
 30
0.0
 40
5.7225
  0
CIRCLE
  8
L-ZISSEN
 10
153.0
 20
50.0
 30
0.0
 40
5.7225
  0
LINE
  8
L-TYUSIN
 10
153.0
 20
60.0
 30
0.0
 11
153.0
 21
40.0
 31
0.0
  0
SOLID
  8
L-ZISSEN
 10
265.081364
 20
48.129016
 30
0.0
 11
265.645934
 21
48.483566
 31
0.0
 12
264.3
 22
50.0
 32
0.0
 13
264.3
 23
50.0
 33
0.0
  0
LINE
  8
L-ZISSEN
 10
265.363649
 20
48.306291
 30
0.0
 11
280.0
 21
25.0
 31
0.0
  0
LINE
  8
L-ZISSEN
 10
280.0
 20
25.0
 30
0.0
 11
282.0
 21
25.0
 31
0.0
  0
TEXT
  8
L-ZISSEN
 10
284.0
 20
22.75
 30
0.0
 40
4.5
  1
P.P
  0
LINE
  8
L-ZISSEN
 10
391.5
 20
144.907477
 30
0.0
 11
391.5
 21
135.092523
 31
0.0
  0
LINE
  8
L-ZISSEN
 10
400.0
 20
149.814955
 30
0.0
 11
391.5
 21
144.907477
 31
0.0
  0
LINE
  8
L-ZISSEN
 10
408.5
 20
144.907477
 30
0.0
 11
400.0
 21
149.814955
 31
0.0
  0
LINE
  8
L-ZISSEN
 10
408.5
 20
135.092523
 30
0.0
 11
408.5
 21
144.907477
 31
0.0
  0
LINE
  8
L-ZISSEN
 10
400.0
 20
130.185045
 30
0.0
 11
408.5
 21
135.092523
 31
0.0
  0
LINE
  8
L-ZISSEN
 10
391.5
 20
135.092523
 30
0.0
 11
400.0
 21
130.185045
 31
0.0
  0
LINE
  8
L-ZISSEN
 10
416.0
 20
166.0
 30
0.0
 11
416.0
 21
114.0
 31
0.0
  0
LINE
  8
L-ZISSEN
 10
384.0
 20
166.0
 30
0.0
 11
384.0
 21
114.0
 31
0.0
  0
LINE
  8
L-ZISSEN
 10
384.0
 20
164.0
 30
0.0
 11
416.0
 21
164.0
 31
0.0
  0
LINE
  8
L-ZISSEN
 10
384.75
 20
168.5
 30
0.0
 11
415.25
 21
168.5
 31
0.0
  0
LINE
  8
L-ZISSEN
 10
415.25
 20
168.5
 30
0.0
 11
415.25
 21
164.0
 31
0.0
  0
LINE
  8
L-ZISSEN
 10
384.75
 20
168.5
 30
0.0
 11
384.75
 21
164.0
 31
0.0
  0
CIRCLE
  8
L-ZISSEN
 10
400.0
 20
188.45
 30
0.0
 40
6.5
  0
LINE
  8
L-ZISSEN
 10
386.25
 20
199.7
 30
0.0
 11
386.25
 21
168.5
 31
0.0
  0
LINE
  8
L-ZISSEN
 10
413.75
 20
199.7
 30
0.0
 11
413.75
 21
168.5
 31
0.0
  0
CIRCLE
  8
L-ZISSEN
 10
400.0
 20
188.45
 30
0.0
 40
11.25
  0
LINE
  8
L-ZISSEN
 10
386.25
 20
199.7
 30
0.0
 11
413.75
 21
199.7
 31
0.0
  0
LINE
  8
L-ZISSEN
 10
384.0
 20
121.2
 30
0.0
 11
416.0
 21
121.2
 31
0.0
  0
LINE
  8
L-TYUSIN
 10
400.0
 20
109.0
 30
0.0
 11
400.0
 21
204.7
 31
0.0
  0
LINE
  8
L-TYUSIN
 10
379.0
 20
140.0
 30
0.0
 11
421.0
 21
140.0
 31
0.0
  0
LINE
  8
L-ZISSEN
 10
416.0
 20
166.0
 30
0.0
 11
415.25
 21
166.0
 31
0.0
  0
LINE
  8
L-ZISSEN
 10
384.0
 20
114.0
 30
0.0
 11
416.0
 21
114.0
 31
0.0
  0
LINE
  8
L-ZISSEN
 10
384.75
 20
166.0
 30
0.0
 11
384.0
 21
166.0
 31
0.0
  0
LINE
  8
L-ZISSEN
 10
280.128203
 20
172.9
 30
0.0
 11
266.271797
 21
172.9
 31
0.0
  0
LINE
  8
L-ZISSEN
 10
266.271797
 20
172.9
 30
0.0
 11
266.271797
 21
166.0
 31
0.0
  0
LINE
  8
L-ZISSEN
 10
280.128203
 20
172.9
 30
0.0
 11
280.128203
 21
166.0
 31
0.0
  0
LINE
  8
L-TYUSIN
 10
34.0
 20
140.0
 30
0.0
 11
76.0
 21
140.0
 31
0.0
  0
LINE
  8
L-TYUSIN
 10
55.0
 20
204.7
 30
0.0
 11
55.0
 21
109.0
 31
0.0
  0
CIRCLE
  8
L-ZISSEN
 10
55.0
 20
140.0
 30
0.0
 40
11.0
  0
CIRCLE
  8
L-ZISSEN
 10
55.0
 20
140.0
 30
0.0
 40
14.0
  0
ARC
  8
L-ZISSEN
 10
63.42541
 20
151.180897
 30
0.0
 40
4.284941
 50
323.0
 51
143.0
  0
LINE
  8
L-ZISSEN
 10
60.003305
 20
153.759639
 30
0.0
 11
59.598968
 21
153.223067
 31
0.0
  0
LINE
  8
L-ZISSEN
 10
66.847516
 20
148.602156
 30
0.0
 11
66.44318
 21
148.065583
 31
0.0
  0
LINE
  8
L-ZISSEN
 10
39.0
 20
166.0
 30
0.0
 11
39.0
 21
114.0
 31
0.0
  0
LINE
  8
L-ZISSEN
 10
71.0
 20
166.0
 30
0.0
 11
71.0
 21
114.0
 31
0.0
  0
LINE
  8
L-ZISSEN
 10
39.0
 20
114.0
 30
0.0
 11
71.0
 21
114.0
 31
0.0
  0
LINE
  8
L-ZISSEN
 10
39.0
 20
166.0
 30
0.0
 11
71.0
 21
166.0
 31
0.0
  0
LINE
  8
L-ZISSEN
 10
121.2
 20
227.289649
 30
0.0
 11
127.6
 21
227.289649
 31
0.0
  0
LINE
  8
L-ZISSEN
 10
121.2
 20
235.401032
 30
0.0
 11
131.2
 21
235.401032
 31
0.0
  0
LINE
  8
L-ZISSEN
 10
121.2
 20
155.465838
 30
0.0
 11
131.2
 21
155.465838
 31
0.0
  0
LINE
  8
L-ZISSEN
 10
121.2
 20
148.065583
 30
0.0
 11
131.2
 21
148.065583
 31
0.0
  0
LINE
  8
L-ZISSEN
 10
68.75
 20
199.7
 30
0.0
 11
68.75
 21
168.5
 31
0.0
  0
LINE
  8
L-ZISSEN
 10
41.25
 20
199.7
 30
0.0
 11
68.75
 21
199.7
 31
0.0
  0
LINE
  8
L-ZISSEN
 10
41.25
 20
199.7
 30
0.0
 11
41.25
 21
168.5
 31
0.0
  0
LINE
  8
L-ZISSEN
 10
39.75
 20
168.5
 30
0.0
 11
49.0
 21
168.5
 31
0.0
  0
LINE
  8
L-ZISSEN
 10
39.75
 20
168.5
 30
0.0
 11
39.75
 21
166.0
 31
0.0
  0
LINE
  8
L-ZISSEN
 10
70.25
 20
168.5
 30
0.0
 11
70.25
 21
166.0
 31
0.0
  0
LINE
  8
L-ZISSEN
 10
61.0
 20
172.9
 30
0.0
 11
49.0
 21
172.9
 31
0.0
  0
LINE
  8
L-ZISSEN
 10
61.0
 20
166.0
 30
0.0
 11
61.0
 21
172.9
 31
0.0
  0
LINE
  8
L-ZISSEN
 10
49.0
 20
172.9
 30
0.0
 11
49.0
 21
166.0
 31
0.0
  0
LINE
  8
L-ZISSEN
 10
61.0
 20
168.5
 30
0.0
 11
70.25
 21
168.5
 31
0.0
  0
LINE
  8
L-ZISSEN
 10
269.735898
 20
246.0
 30
0.0
 11
266.271797
 21
240.0
 31
0.0
  0
LINE
  8
L-ZISSEN
 10
266.271797
 20
240.0
 30
0.0
 11
269.735898
 21
234.0
 31
0.0
  0
LINE
  8
L-ZISSEN
 10
269.735898
 20
234.0
 30
0.0
 11
276.664102
 21
234.0
 31
0.0
  0
LINE
  8
L-ZISSEN
 10
276.664102
 20
234.0
 30
0.0
 11
280.128203
 21
240.0
 31
0.0
  0
LINE
  8
L-ZISSEN
 10
280.128203
 20
240.0
 30
0.0
 11
276.664102
 21
246.0
 31
0.0
  0
LINE
  8
L-ZISSEN
 10
276.664102
 20
246.0
 30
0.0
 11
269.735898
 21
246.0
 31
0.0
  0
TEXT
  8
L-ZISSEN
 10
35.0
 20
290.0
 30
0.0
 40
4.5
  1
MODEL No. :
  0
TEXT
  8
L-ZISSEN
 10
80.0
 20
290.0
 30
0.0
 40
4.5
  1
MVS-495-
  0
TEXT
  8
L-ZISSEN
 10
470.0
 20
185.0
 30
0.0
 40
4.5
  1
MODEL No. :
  0
TEXT
  8
L-ZISSEN
 10
515.0
 20
185.0
 30
0.0
 40
4.5
  1
MVS-495-0*M1
  0
LINE
  8
L-TYUSIN
 10
460.0
 20
355.0
 30
0.0
 11
460.0
 21
5.0
 31
0.0
  0
SOLID
  8
L-ZISSEN
 10
306.372242
 20
161.979742
 30
0.0
 11
307.018151
 21
162.144807
 31
0.0
 12
306.2
 22
164.0
 32
0.0
 13
306.2
 23
164.0
 33
0.0
  0
LINE
  8
L-ZISSEN
 10
306.695197
 20
162.062274
 30
0.0
 11
320.0
 21
110.0
 31
0.0
  0
LINE
  8
L-ZISSEN
 10
320.0
 20
110.0
 30
0.0
 11
322.0
 21
110.0
 31
0.0
  0
TEXT
  8
L-ZISSEN
 10
324.0
 20
107.75
 30
0.0
 40
4.5
  1
P.P
  0
SOLID
  8
L-ZISSEN
 10
540.83205
 20
83.150999
 30
0.0
 11
541.38675
 21
83.520799
 31
0.0
 12
540.0
 22
85.0
 32
0.0
 13
540.0
 23
85.0
 33
0.0
  0
LINE
  8
L-ZISSEN
 10
541.1094
 20
83.335899
 30
0.0
 11
550.0
 21
70.0
 31
0.0
  0
LINE
  8
L-ZISSEN
 10
550.0
 20
70.0
 30
0.0
 11
552.0
 21
70.0
 31
0.0
  0
TEXT
  8
L-ZISSEN
 10
554.0
 20
67.75
 30
0.0
 40
4.5
  1
P.P
  0
SOLID
  8
L-ZISSEN
 10
630.83205
 20
83.150999
 30
0.0
 11
631.38675
 21
83.520799
 31
0.0
 12
630.0
 22
85.0
 32
0.0
 13
630.0
 23
85.0
 33
0.0
  0
LINE
  8
L-ZISSEN
 10
631.1094
 20
83.335899
 30
0.0
 11
640.0
 21
70.0
 31
0.0
  0
LINE
  8
L-ZISSEN
 10
640.0
 20
70.0
 30
0.0
 11
642.0
 21
70.0
 31
0.0
  0
TEXT
  8
L-ZISSEN
 10
644.0
 20
67.75
 30
0.0
 40
4.5
  1
P.P
  0
SOLID
  8
L-ZISSEN
 10
401.582144
 20
162.731958
 30
0.0
 11
401.90788
 21
163.313629
 31
0.0
 12
400.0
 22
164.0
 32
0.0
 13
400.0
 23
164.0
 33
0.0
  0
LINE
  8
L-ZISSEN
 10
401.745012
 20
163.022793
 30
0.0
 11
425.0
 21
150.0
 31
0.0
  0
LINE
  8
L-ZISSEN
 10
425.0
 20
150.0
 30
0.0
 11
427.0
 21
150.0
 31
0.0
  0
TEXT
  8
L-ZISSEN
 10
429.0
 20
147.75
 30
0.0
 40
4.5
  1
P.P
  0
SOLID
  8
L-ZISSEN
 10
540.433289
 20
153.01925
 30
0.0
 11
541.052274
 21
153.266844
 31
0.0
 12
540.0
 22
155.0
 32
0.0
 13
540.0
 23
155.0
 33
0.0
  0
LINE
  8
L-ZISSEN
 10
540.742781
 20
153.143047
 30
0.0
 11
550.0
 21
130.0
 31
0.0
  0
LINE
  8
L-ZISSEN
 10
550.0
 20
130.0
 30
0.0
 11
552.0
 21
130.0
 31
0.0
  0
TEXT
  8
L-ZISSEN
 10
554.0
 20
127.75
 30
0.0
 40
4.5
  1
P.P
  0
LINE
  8
L-ZISSEN
 10
565.5
 20
140.0
 30
0.0
 11
565.5
 21
142.0
 31
0.0
  0
LINE
  8
L-ZISSEN
 10
565.5
 20
168.0
 30
0.0
 11
565.5
 21
170.0
 31
0.0
  0
LINE
  8
L-TYUSIN
 10
460.0
 20
295.0
 30
0.0
 11
660.0
 21
295.0
 31
0.0
  0
TEXT
  8
L-ZISSEN
 10
470.0
 20
345.0
 30
0.0
 40
4.5
  1
EXTERNAL PILOT AIR SUPPLY
  0
TEXT
  8
L-ZISSEN
 10
470.0
 20
335.0
 30
0.0
 40
4.5
  1
MODEL No. :
  0
TEXT
  8
L-ZISSEN
 10
515.0
 20
335.0
 30
0.0
 40
4.5
  1
MVS-495-0*P
  0
LINE
  8
L-TYUSIN
 10
560.0
 20
323.0
 30
0.0
 11
560.0
 21
307.0
 31
0.0
  0
CIRCLE
  8
L-ZISSEN
 10
560.0
 20
315.0
 30
0.0
 40
4.283
  0
SOLID
  8
L-ZISSEN
 10
561.479201
 20
313.61325
 30
0.0
 11
561.849001
 21
314.16795
 31
0.0
 12
560.0
 22
315.0
 32
0.0
 13
560.0
 23
315.0
 33
0.0
  0
LINE
  8
L-ZISSEN
 10
561.664101
 20
313.8906
 30
0.0
 11
575.0
 21
305.0
 31
0.0
  0
LINE
  8
L-ZISSEN
 10
575.0
 20
305.0
 30
0.0
 11
577.0
 21
305.0
 31
0.0
  0
TEXT
  8
L-ZISSEN
 10
579.0
 20
302.75
 30
0.0
 40
4.5
  1
P.P
  0
SOLID
  8
L-ZISSEN
 10
271.817989
 20
167.48363
 30
0.0
 11
271.411515
 21
166.955214
 31
0.0
 12
273.2
 22
166.0
 32
0.0
 13
273.2
 23
166.0
 33
0.0
  0
LINE
  8
L-ZISSEN
 10
271.614752
 20
167.219422
 30
0.0
 11
255.0
 21
180.0
 31
0.0
  0
LINE
  8
L-ZISSEN
 10
255.0
 20
180.0
 30
0.0
 11
253.0
 21
180.0
 31
0.0
  0
TEXT
  8
L-ZISSEN
 10
242.0
 20
177.75
 30
0.0
 40
4.5
  1
P.P
  0
SOLID
  8
L-ZISSEN
 10
272.292373
 20
241.813098
 30
0.0
 11
271.753402
 21
241.420727
 31
0.0
 12
273.2
 22
240.0
 32
0.0
 13
273.2
 23
240.0
 33
0.0
  0
LINE
  8
L-ZISSEN
 10
272.022888
 20
241.616913
 30
0.0
 11
255.0
 21
265.0
 31
0.0
  0
LINE
  8
L-ZISSEN
 10
255.0
 20
265.0
 30
0.0
 11
253.0
 21
265.0
 31
0.0
  0
TEXT
  8
L-ZISSEN
 10
242.0
 20
262.75
 30
0.0
 40
4.5
  1
P.P
  0
TEXT
  8
L-ZISSEN
 10
470.0
 20
285.0
 30
0.0
 40
4.5
  1
LOCK TYPE MANUAL OPERATION BUTTON
  0
TEXT
  8
L-ZISSEN
 10
470.0
 20
275.0
 30
0.0
 40
4.5
  1
MODEL No. :
  0
TEXT
  8
L-ZISSEN
 10
515.0
 20
275.0
 30
0.0
 40
4.5
  1
MVS-495-0*R
  0
LINE
  8
L-ZISSEN
 10
582.113249
 20
255.0
 30
0.0
 11
579.226497
 21
250.0
 31
0.0
  0
LINE
  8
L-ZISSEN
 10
579.226497
 20
250.0
 30
0.0
 11
582.113249
 21
245.0
 31
0.0
  0
LINE
  8
L-ZISSEN
 10
582.113249
 20
245.0
 30
0.0
 11
587.886751
 21
245.0
 31
0.0
  0
LINE
  8
L-ZISSEN
 10
587.886751
 20
245.0
 30
0.0
 11
590.773503
 21
250.0
 31
0.0
  0
LINE
  8
L-ZISSEN
 10
590.773503
 20
250.0
 30
0.0
 11
587.886751
 21
255.0
 31
0.0
  0
LINE
  8
L-ZISSEN
 10
587.886751
 20
255.0
 30
0.0
 11
582.113249
 21
255.0
 31
0.0
  0
LINE
  8
L-ZISSEN
 10
579.226497
 20
236.4
 30
0.0
 11
579.226497
 21
225.0
 31
0.0
  0
SOLID
  8
L-ZISSEN
 10
583.520799
 20
251.38675
 30
0.0
 11
583.150999
 21
250.83205
 31
0.0
 12
585.0
 22
250.0
 32
0.0
 13
585.0
 23
250.0
 33
0.0
  0
LINE
  8
L-ZISSEN
 10
583.335899
 20
251.1094
 30
0.0
 11
570.0
 21
260.0
 31
0.0
  0
LINE
  8
L-ZISSEN
 10
570.0
 20
260.0
 30
0.0
 11
568.0
 21
260.0
 31
0.0
  0
TEXT
  8
L-ZISSEN
 10
557.0
 20
257.75
 30
0.0
 40
4.5
  1
P.P
  0
LINE
  8
L-ZISSEN
 10
590.773503
 20
236.4
 30
0.0
 11
590.773503
 21
225.0
 31
0.0
  0
LINE
  8
L-ZISSEN
 10
579.226497
 20
236.4
 30
0.0
 11
590.773503
 21
236.4
 31
0.0
  0
SOLID
  8
L-ZISSEN
 10
583.150999
 20
224.16795
 30
0.0
 11
583.520799
 21
223.61325
 31
0.0
 12
585.0
 22
225.0
 32
0.0
 13
585.0
 23
225.0
 33
0.0
  0
LINE
  8
L-ZISSEN
 10
583.335899
 20
223.8906
 30
0.0
 11
570.0
 21
215.0
 31
0.0
  0
LINE
  8
L-ZISSEN
 10
570.0
 20
215.0
 30
0.0
 11
568.0
 21
215.0
 31
0.0
  0
TEXT
  8
L-ZISSEN
 10
557.0
 20
212.75
 30
0.0
 40
4.5
  1
P.P
  0
LINE
  8
L-ZISSEN
 10
525.0
 20
236.4
 30
0.0
 11
535.0
 21
236.4
 31
0.0
  0
LINE
  8
L-ZISSEN
 10
525.0
 20
236.4
 30
0.0
 11
525.0
 21
225.0
 31
0.0
  0
LINE
  8
L-ZISSEN
 10
535.0
 20
236.4
 30
0.0
 11
535.0
 21
225.0
 31
0.0
  0
SOLID
  8
L-ZISSEN
 10
528.350084
 20
223.821489
 30
0.0
 11
528.821489
 21
223.350084
 31
0.0
 12
530.0
 22
225.0
 32
0.0
 13
530.0
 23
225.0
 33
0.0
  0
LINE
  8
L-ZISSEN
 10
528.585786
 20
223.585786
 30
0.0
 11
520.0
 21
215.0
 31
0.0
  0
LINE
  8
L-ZISSEN
 10
520.0
 20
215.0
 30
0.0
 11
518.0
 21
215.0
 31
0.0
  0
TEXT
  8
L-ZISSEN
 10
507.0
 20
212.75
 30
0.0
 40
4.5
  1
P.P
  0
SOLID
  8
L-ZISSEN
 10
53.086929
 20
165.328234
 30
0.0
 11
53.408208
 21
164.744091
 31
0.0
 12
55.0
 22
166.0
 32
0.0
 13
55.0
 23
166.0
 33
0.0
  0
LINE
  8
L-ZISSEN
 10
53.247568
 20
165.036163
 30
0.0
 11
35.0
 21
155.0
 31
0.0
  0
LINE
  8
L-ZISSEN
 10
35.0
 20
155.0
 30
0.0
 11
33.0
 21
155.0
 31
0.0
  0
TEXT
  8
L-ZISSEN
 10
22.0
 20
152.75
 30
0.0
 40
4.5
  1
P.P
  0
LINE
  8
L-TYUSIN
 10
169.0
 20
171.0
 30
0.0
 11
169.0
 21
161.0
 31
0.0
  0
LINE
  8
L-TYUSIN
 10
201.0
 20
171.0
 30
0.0
 11
201.0
 21
161.0
 31
0.0
  0
LINE
  8
L-TYUSIN
 10
153.0
 20
119.0
 30
0.0
 11
153.0
 21
109.0
 31
0.0
  0
LINE
  8
L-TYUSIN
 10
217.0
 20
119.0
 30
0.0
 11
217.0
 21
109.0
 31
0.0
  0
CIRCLE
  8
L-ZISSEN
 10
66.0
 20
161.0
 30
0.0
 40
3.5
  0
CIRCLE
  8
L-ZISSEN
 10
44.0
 20
161.0
 30
0.0
 40
3.5
  0
CIRCLE
  8
L-ZISSEN
 10
44.0
 20
119.0
 30
0.0
 40
3.5
  0
CIRCLE
  8
L-ZISSEN
 10
66.0
 20
119.0
 30
0.0
 40
3.5
  0
LINE
  8
L-ZISSEN
 10
127.6
 20
164.5
 30
0.0
 11
127.6
 21
157.5
 31
0.0
  0
LINE
  8
L-ZISSEN
 10
127.6
 20
164.5
 30
0.0
 11
131.2
 21
164.5
 31
0.0
  0
LINE
  8
L-ZISSEN
 10
127.6
 20
157.5
 30
0.0
 11
131.2
 21
157.5
 31
0.0
  0
LINE
  8
L-ZISSEN
 10
127.6
 20
122.5
 30
0.0
 11
131.2
 21
122.5
 31
0.0
  0
LINE
  8
L-ZISSEN
 10
127.6
 20
115.5
 30
0.0
 11
127.6
 21
122.5
 31
0.0
  0
LINE
  8
L-ZISSEN
 10
127.6
 20
115.5
 30
0.0
 11
131.2
 21
115.5
 31
0.0
  0
LINE
  8
L-ZISSEN
 10
127.6
 20
225.5
 30
0.0
 11
131.2
 21
225.5
 31
0.0
  0
LINE
  8
L-ZISSEN
 10
127.6
 20
232.5
 30
0.0
 11
131.2
 21
232.5
 31
0.0
  0
LINE
  8
L-ZISSEN
 10
127.6
 20
232.5
 30
0.0
 11
127.6
 21
225.5
 31
0.0
  0
LINE
  8
L-ZISSEN
 10
127.6
 20
247.5
 30
0.0
 11
127.6
 21
254.5
 31
0.0
  0
LINE
  8
L-ZISSEN
 10
127.6
 20
247.5
 30
0.0
 11
131.2
 21
247.5
 31
0.0
  0
LINE
  8
L-ZISSEN
 10
127.6
 20
254.5
 30
0.0
 11
131.2
 21
254.5
 31
0.0
  0
LINE
  8
L-ZISSEN
 10
127.6
 20
64.5
 30
0.0
 11
131.2
 21
64.5
 31
0.0
  0
LINE
  8
L-ZISSEN
 10
127.6
 20
57.5
 30
0.0
 11
127.6
 21
64.5
 31
0.0
  0
LINE
  8
L-ZISSEN
 10
127.6
 20
57.5
 30
0.0
 11
131.2
 21
57.5
 31
0.0
  0
LINE
  8
L-ZISSEN
 10
127.6
 20
42.5
 30
0.0
 11
131.2
 21
42.5
 31
0.0
  0
LINE
  8
L-ZISSEN
 10
127.6
 20
42.5
 30
0.0
 11
127.6
 21
35.5
 31
0.0
  0
LINE
  8
L-ZISSEN
 10
127.6
 20
35.5
 30
0.0
 11
131.2
 21
35.5
 31
0.0
  0
LINE
  8
L-ZISSEN
 10
615.5
 20
87.0
 30
0.0
 11
614.0
 21
87.0
 31
0.0
  0
LINE
  8
L-ZISSEN
 10
646.0
 20
87.0
 30
0.0
 11
644.5
 21
87.0
 31
0.0
  0
SOLID
  8
L-ZISSEN
 10
306.549638
 20
48.002786
 30
0.0
 11
307.178484
 21
48.22414
 31
0.0
 12
306.2
 22
50.0
 32
0.0
 13
306.2
 23
50.0
 33
0.0
  0
LINE
  8
L-ZISSEN
 10
306.864061
 20
48.113463
 30
0.0
 11
315.0
 21
25.0
 31
0.0
  0
LINE
  8
L-ZISSEN
 10
315.0
 20
25.0
 30
0.0
 11
317.0
 21
25.0
 31
0.0
  0
TEXT
  8
L-ZISSEN
 10
319.0
 20
22.75
 30
0.0
 40
4.5
  1
P.P
  0
LINE
  8
L-ZISSEN
 10
595.5
 20
24.030345
 30
0.0
 11
595.5
 21
45.969655
 31
0.0
  0
LINE
  8
L-ZISSEN
 10
595.5
 20
24.030345
 30
0.0
 11
590.0
 21
24.030345
 31
0.0
  0
LINE
  8
L-ZISSEN
 10
595.5
 20
45.969655
 30
0.0
 11
590.0
 21
45.969655
 31
0.0
  0
LINE
  8
L-ZISSEN
 10
590.0
 20
24.030345
 30
0.0
 11
590.0
 21
45.969655
 31
0.0
  0
LINE
  8
L-ZISSEN
 10
580.5
 20
25.8
 30
0.0
 11
587.65
 21
25.8
 31
0.0
  0
LINE
  8
L-ZISSEN
 10
580.5
 20
44.2
 30
0.0
 11
587.65
 21
44.2
 31
0.0
  0
LINE
  8
L-ZISSEN
 10
587.65
 20
26.5
 30
0.0
 11
590.0
 21
26.5
 31
0.0
  0
LINE
  8
L-ZISSEN
 10
587.65
 20
43.5
 30
0.0
 11
590.0
 21
43.5
 31
0.0
  0
LINE
  8
L-ZISSEN
 10
587.65
 20
25.8
 30
0.0
 11
587.65
 21
44.2
 31
0.0
  0
LINE
  8
L-ZISSEN
 10
580.5
 20
22.0
 30
0.0
 11
580.5
 21
48.0
 31
0.0
  0
LINE
  8
L-ZISSEN
 10
580.5
 20
48.0
 30
0.0
 11
565.5
 21
48.0
 31
0.0
  0
LINE
  8
L-ZISSEN
 10
565.5
 20
22.0
 30
0.0
 11
580.5
 21
22.0
 31
0.0
  0
LINE
  8
L-ZISSEN
 10
570.5
 20
48.0
 30
0.0
 11
570.5
 21
45.0
 31
0.0
  0
LINE
  8
L-ZISSEN
 10
570.5
 20
45.0
 30
0.0
 11
567.5
 21
45.0
 31
0.0
  0
LINE
  8
L-ZISSEN
 10
567.5
 20
25.0
 30
0.0
 11
567.5
 21
26.5
 31
0.0
  0
LINE
  8
L-ZISSEN
 10
570.5
 20
25.0
 30
0.0
 11
567.5
 21
25.0
 31
0.0
  0
LINE
  8
L-ZISSEN
 10
570.5
 20
22.0
 30
0.0
 11
570.5
 21
25.0
 31
0.0
  0
SOLID
  8
L-ZISSEN
 10
540.596285
 20
33.062074
 30
0.0
 11
541.19257
 21
33.360217
 31
0.0
 12
540.0
 22
35.0
 32
0.0
 13
540.0
 23
35.0
 33
0.0
  0
LINE
  8
L-ZISSEN
 10
540.894427
 20
33.211146
 30
0.0
 11
550.0
 21
15.0
 31
0.0
  0
LINE
  8
L-ZISSEN
 10
550.0
 20
15.0
 30
0.0
 11
552.0
 21
15.0
 31
0.0
  0
TEXT
  8
L-ZISSEN
 10
554.0
 20
12.75
 30
0.0
 40
4.5
  1
P.P
  0
LINE
  8
L-ZISSEN
 10
503.5
 20
113.0
 30
0.0
 11
476.5
 21
113.0
 31
0.0
  0
LINE
  8
L-ZISSEN
 10
503.5
 20
113.0
 30
0.0
 11
503.5
 21
91.0
 31
0.0
  0
LINE
  8
L-ZISSEN
 10
476.5
 20
113.0
 30
0.0
 11
476.5
 21
91.0
 31
0.0
  0
LINE
  8
L-ZISSEN
 10
504.5
 20
91.0
 30
0.0
 11
504.5
 21
87.0
 31
0.0
  0
LINE
  8
L-ZISSEN
 10
475.5
 20
91.0
 30
0.0
 11
475.5
 21
87.0
 31
0.0
  0
LINE
  8
L-ZISSEN
 10
504.5
 20
91.0
 30
0.0
 11
496.0
 21
91.0
 31
0.0
  0
SOLID
  8
L-ZISSEN
 10
490.726729
 20
85.107125
 30
0.0
 11
491.301352
 21
85.445138
 31
0.0
 12
490.0
 22
87.0
 32
0.0
 13
490.0
 23
87.0
 33
0.0
  0
LINE
  8
L-ZISSEN
 10
491.01404
 20
85.276132
 30
0.0
 11
500.0
 21
70.0
 31
0.0
  0
LINE
  8
L-ZISSEN
 10
500.0
 20
70.0
 30
0.0
 11
502.0
 21
70.0
 31
0.0
  0
TEXT
  8
L-ZISSEN
 10
504.0
 20
67.75
 30
0.0
 40
4.5
  1
P.P
  0
LINE
  8
L-ZISSEN
 10
484.0
 20
91.0
 30
0.0
 11
475.5
 21
91.0
 31
0.0
  0
CIRCLE
  8
L-ZISSEN
 10
400.0
 20
140.0
 30
0.0
 40
2.067
  0
TEXT
  8
L-ZISSEN
 10
140.0
 20
90.0
 30
0.0
 40
4.5
  1
Rc 1/4
  0
TEXT
  8
L-ZISSEN
 10
140.0
 20
80.0
 30
0.0
 40
4.5
  1
Rc 3/8
  0
SOLID
  8
L-ZISSEN
 10
183.31045
 20
112.879049
 30
0.0
 11
183.765329
 21
112.391678
 31
0.0
 12
185.0
 22
114.0
 32
0.0
 13
185.0
 23
114.0
 33
0.0
  0
LINE
  8
L-ZISSEN
 10
183.537889
 20
112.635363
 30
0.0
 11
170.0
 21
100.0
 31
0.0
  0
LINE
  8
L-ZISSEN
 10
170.0
 20
100.0
 30
0.0
 11
168.0
 21
100.0
 31
0.0
  0
TEXT
  8
L-ZISSEN
 10
136.0
 20
97.75
 30
0.0
 40
4.5
  1
"1" PORT
  0
TEXT
  8
L-ZISSEN
 10
118.0
 20
293.0
 30
0.0
 40
4.5
  1
02
  0
TEXT
  8
L-ZISSEN
 10
118.0
 20
287.0
 30
0.0
 40
4.5
  1
03J
  0
LINE
  8
L-ZISSEN
 10
334.7
 20
58.5
 30
0.0
 11
334.7
 21
41.5
 31
0.0
  0
LINE
  8
L-ZISSEN
 10
334.7
 20
41.5
 30
0.0
 11
331.7
 21
41.5
 31
0.0
  0
LINE
  8
L-ZISSEN
 10
334.7
 20
58.5
 30
0.0
 11
331.7
 21
58.5
 31
0.0
  0
LINE
  8
L-ZISSEN
 10
567.5
 20
43.5
 30
0.0
 11
567.5
 21
45.0
 31
0.0
  0
ENDSEC
  0
EOF
