  0
SECTION
  2
HEADER
  9
$ACADVER
  1
AC1006
  9
$INSBASE
 10
0.0
 20
0.0
 30
0.0
  9
$EXTMIN
 10
47.0
 20
10.0
  9
$EXTMAX
 10
885.0
 20
435.0
  9
$LIMMIN
 10
0.0
 20
0.0
  9
$LIMMAX
 10
841.0
 20
594.0
  9
$ORTHOMODE
 70
     0
  9
$REGENMODE
 70
     1
  9
$FILLMODE
 70
     1
  9
$QTEXTMODE
 70
     0
  9
$MIRRTEXT
 70
     1
  9
$DRAGMODE
 70
     2
  9
$LTSCALE
 40
1.0
  9
$OSMODE
 70
     0
  9
$ATTMODE
 70
     1
  9
$TEXTSIZE
 40
4.5
  9
$TRACEWID
 40
0.05
  9
$TEXTSTYLE
  7
STANDARD
  9
$CLAYER
  8
L-ZISSEN
  9
$CELTYPE
  6
BYLAYER
  9
$CECOLOR
 62
   256
  9
$DIMSCALE
 40
1.0
  9
$DIMASZ
 40
2.0
  9
$DIMEXO
 40
2.0
  9
$DIMDLI
 40
0.38
  9
$DIMRND
 40
0.0
  9
$DIMDLE
 40
1.0
  9
$DIMEXE
 40
2.0
  9
$DIMTP
 40
0.0
  9
$DIMTM
 40
0.0
  9
$DIMTXT
 40
4.5
  9
$DIMCEN
 40
0.09
  9
$DIMTSZ
 40
0.0
  9
$DIMTOL
 70
     0
  9
$DIMLIM
 70
     0
  9
$DIMTIH
 70
     0
  9
$DIMTOH
 70
     0
  9
$DIMSE1
 70
     0
  9
$DIMSE2
 70
     0
  9
$DIMTAD
 70
     1
  9
$DIMZIN
 70
     0
  9
$DIMBLK
  1

  9
$DIMASO
 70
     0
  9
$DIMSHO
 70
     0
  9
$DIMPOST
  1

  9
$DIMAPOST
  1

  9
$DIMALT
 70
     0
  9
$DIMALTD
 70
     2
  9
$DIMALTF
 40
25.4
  9
$DIMLFAC
 40
1.0
  9
$DIMTOFL
 70
     1
  9
$DIMTVP
 40
0.0
  9
$DIMTIX
 70
     1
  9
$DIMSOXD
 70
     0
  9
$DIMSAH
 70
     0
  9
$DIMBLK1
  1

  9
$DIMBLK2
  1

  9
$LUNITS
 70
     2
  9
$LUPREC
 70
     4
  9
$AXISMODE
 70
     0
  9
$AXISUNIT
 10
0.0
 20
0.0
  9
$SKETCHINC
 40
0.1
  9
$FILLETRAD
 40
0.0
  9
$AUNITS
 70
     0
  9
$AUPREC
 70
     0
  9
$MENU
  1
acad
  9
$ELEVATION
 40
0.0
  9
$THICKNESS
 40
0.0
  9
$LIMCHECK
 70
     0
  9
$BLIPMODE
 70
     1
  9
$CHAMFERA
 40
0.0
  9
$CHAMFERB
 40
0.0
  9
$SKPOLY
 70
     0
  9
$TDCREATE
 40
2449569.8061059029
  9
$TDUPDATE
 40
2449569.8061059029
  9
$TDINDWG
 40
0.0000000000
  9
$TDUSRTIMER
 40
0.0000000000
  9
$USRTIMER
 70
     1
  9
$ANGBASE
 50
0.0
  9
$ANGDIR
 70
     0
  9
$PDMODE
 70
     0
  9
$PDSIZE
 40
0.0
  9
$PLINEWID
 40
0.0
  9
$COORDS
 70
     2
  9
$SPLFRAME
 70
     0
  9
$SPLINETYPE
 70
     6
  9
$SPLINESEGS
 70
     8
  9
$ATTDIA
 70
     0
  9
$ATTREQ
 70
     1
  9
$HANDLING
 70
     0
  9
$HANDSEED
  5
0
  9
$SURFTAB1
 70
     6
  9
$SURFTAB2
 70
     6
  9
$SURFTYPE
 70
     6
  9
$SURFU
 70
     6
  9
$SURFV
 70
     6
  9
$FLATLAND
 70
     0
  9
$UCSNAME
  2

  9
$UCSORG
 10
0.0
 20
0.0
 30
0.0
  9
$UCSXDIR
 10
1.0
 20
0.0
 30
0.0
  9
$UCSYDIR
 10
0.0
 20
1.0
 30
0.0
  9
$USERI1
 70
     0
  9
$USERI2
 70
     0
  9
$USERI3
 70
     0
  9
$USERI4
 70
     0
  9
$USERI5
 70
     0
  9
$USERR1
 40
0.0
  9
$USERR2
 40
0.0
  9
$USERR3
 40
0.0
  9
$USERR4
 40
0.0
  9
$USERR5
 40
0.0
  9
$WORLDVIEW
 70
     1
  0
ENDSEC
  0
SECTION
  2
TABLES
  0
TABLE
  2
VPORT
 70
     2
  0
VPORT
  2
*ACTIVE
 70
     0
 10
0.0
 20
0.0
 11
1.0
 21
1.0
 12
476.455978
 22
307.649038
 13
0.0
 23
0.0
 14
5.0
 24
5.0
 15
0.0
 25
0.0
 16
0.0
 26
0.0
 36
1.0
 17
0.0
 27
0.0
 37
0.0
 40
615.298075
 41
1.5487
 42
50.0
 43
0.0
 44
0.0
 50
0.0
 51
0.0
 71
     0
 72
   100
 73
     1
 74
     0
 75
     0
 76
     0
 77
     0
 78
     0
  0
ENDTAB
  0
TABLE
  2
LTYPE
 70
     2
  0
LTYPE
  2
CONTINUOUS
 70
    64
  3
Solid line
 72
    65
 73
     0
 40
0.0
  0
LTYPE
  2
CENTER
 70
    64
  3
____ _ ____ _ ____ _ ____ _ 
 72
    65
 73
     4
 40
60.0
 49
45.0
 49
-5.0
 49
5.0
 49
-5.0
  0
ENDTAB
  0
TABLE
  2
LAYER
 70
     3
  0
LAYER
  2
0
 70
     0
 62
     7
  6
CONTINUOUS
  0
LAYER
  2
L-ZISSEN
 70
    64
 62
     7
  6
CONTINUOUS
  0
LAYER
  2
L-TYUSIN
 70
    64
 62
     1
  6
CENTER
  0
ENDTAB
  0
TABLE
  2
STYLE
 70
     1
  0
STYLE
  2
STANDARD
 70
    64
 40
0.0
 41
1.0
 50
0.0
 71
     0
 42
4.5
  3
TXT
  4

  0
ENDTAB
  0
TABLE
  2
VIEW
 70
     0
  0
ENDTAB
  0
TABLE
  2
UCS
 70
     0
  0
ENDTAB
  0
TABLE
  2
DWGMGR
 70
     0
  0
ENDTAB
  0
ENDSEC
  0
SECTION
  2
BLOCKS
  0
ENDSEC
  0
SECTION
  2
ENTITIES
  0
LINE
  8
L-TYUSIN
  6
CENTER
 62
     1
 10
199.0
 20
87.58758
 30
0.0
 11
199.0
 21
80.595698
 31
0.0
  0
LINE
  8
L-ZISSEN
 10
204.5
 20
117.5
 30
0.0
 11
204.5
 21
82.5
 31
0.0
  0
LINE
  8
L-TYUSIN
  6
CENTER
 62
     1
 10
168.0
 20
87.5
 30
0.0
 11
168.0
 21
78.5
 31
0.0
  0
LINE
  8
L-TYUSIN
  6
CENTER
 62
     1
 10
132.0
 20
87.5
 30
0.0
 11
132.0
 21
78.5
 31
0.0
  0
LINE
  8
L-TYUSIN
  6
CENTER
 62
     1
 10
161.5
 20
121.5
 30
0.0
 11
161.5
 21
112.5
 31
0.0
  0
LINE
  8
L-TYUSIN
  6
CENTER
 62
     1
 10
138.5
 20
121.5
 30
0.0
 11
138.5
 21
112.5
 31
0.0
  0
LINE
  8
L-TYUSIN
  6
CENTER
 62
     1
 10
150.0
 20
121.5
 30
0.0
 11
150.0
 21
78.5
 31
0.0
  0
LINE
  8
L-ZISSEN
 10
95.5
 20
82.5
 30
0.0
 11
204.5
 21
82.5
 31
0.0
  0
LINE
  8
L-ZISSEN
 10
95.5
 20
117.5
 30
0.0
 11
204.5
 21
117.5
 31
0.0
  0
LINE
  8
L-ZISSEN
 10
106.5
 20
117.5
 30
0.0
 11
106.5
 21
82.5
 31
0.0
  0
LINE
  8
L-TYUSIN
  6
CENTER
 62
     1
 10
47.0
 20
100.0
 30
0.0
 11
253.0
 21
100.0
 31
0.0
  0
LINE
  8
L-ZISSEN
 10
193.5
 20
117.5
 30
0.0
 11
193.5
 21
82.5
 31
0.0
  0
LINE
  8
L-TYUSIN
  6
CENTER
 62
     1
 10
135.9
 20
89.5
 30
0.0
 11
144.1
 21
89.5
 31
0.0
  0
LINE
  8
L-TYUSIN
  6
CENTER
 62
     1
 10
140.0
 20
93.6
 30
0.0
 11
140.0
 21
85.4
 31
0.0
  0
LINE
  8
L-TYUSIN
  6
CENTER
 62
     1
 10
160.0
 20
93.6
 30
0.0
 11
160.0
 21
85.4
 31
0.0
  0
CIRCLE
  8
L-ZISSEN
 10
140.0
 20
89.5
 30
0.0
 40
2.1
  0
CIRCLE
  8
L-ZISSEN
 10
160.0
 20
89.5
 30
0.0
 40
2.1
  0
LINE
  8
L-TYUSIN
  6
CENTER
 62
     1
 10
155.9
 20
89.5
 30
0.0
 11
164.1
 21
89.5
 31
0.0
  0
LINE
  8
L-ZISSEN
 10
758.2
 20
79.0
 30
0.0
 11
758.2
 21
65.7
 31
0.0
  0
LINE
  8
L-ZISSEN
 10
764.2
 20
79.0
 30
0.0
 11
764.2
 21
65.7
 31
0.0
  0
LINE
  8
L-ZISSEN
 10
764.2
 20
79.0
 30
0.0
 11
758.2
 21
79.0
 31
0.0
  0
LINE
  8
L-ZISSEN
 10
106.5
 20
213.2
 30
0.0
 11
106.5
 21
186.8
 31
0.0
  0
LINE
  8
L-TYUSIN
  6
CENTER
 62
     1
 10
47.0
 20
200.0
 30
0.0
 11
253.0
 21
200.0
 31
0.0
  0
LINE
  8
L-TYUSIN
  6
CENTER
 62
     1
 10
150.0
 20
218.0
 30
0.0
 11
150.0
 21
182.0
 31
0.0
  0
LINE
  8
L-ZISSEN
 10
193.5
 20
213.2
 30
0.0
 11
193.5
 21
186.8
 31
0.0
  0
LINE
  8
L-ZISSEN
 10
204.5
 20
213.2
 30
0.0
 11
204.5
 21
186.8
 31
0.0
  0
LINE
  8
L-ZISSEN
 10
95.5
 20
213.2
 30
0.0
 11
204.5
 21
213.2
 31
0.0
  0
LINE
  8
L-ZISSEN
 10
95.5
 20
186.8
 30
0.0
 11
204.5
 21
186.8
 31
0.0
  0
LINE
  8
L-ZISSEN
 10
141.2
 20
117.5
 30
0.0
 11
141.2
 21
114.0
 31
0.0
  0
LINE
  8
L-ZISSEN
 10
141.2
 20
114.0
 30
0.0
 11
148.8
 21
114.0
 31
0.0
  0
LINE
  8
L-ZISSEN
 10
148.8
 20
117.5
 30
0.0
 11
148.8
 21
114.0
 31
0.0
  0
LINE
  8
L-TYUSIN
  6
CENTER
 62
     1
 10
145.0
 20
195.0
 30
0.0
 11
145.0
 21
185.0
 31
0.0
  0
LINE
  8
L-TYUSIN
  6
CENTER
 62
     1
 10
140.0
 20
190.0
 30
0.0
 11
150.0
 21
190.0
 31
0.0
  0
ARC
  8
L-ZISSEN
 10
145.0
 20
190.0
 30
0.0
 40
3.8
 50
0.0
 51
180.0
  0
LINE
  8
L-ZISSEN
 10
141.2
 20
190.0
 30
0.0
 11
141.2
 21
186.8
 31
0.0
  0
LINE
  8
L-ZISSEN
 10
148.8
 20
190.0
 30
0.0
 11
148.8
 21
186.8
 31
0.0
  0
CIRCLE
  8
L-ZISSEN
 10
145.0
 20
190.0
 30
0.0
 40
2.15
  0
CIRCLE
  8
L-ZISSEN
 10
155.0
 20
210.0
 30
0.0
 40
2.15
  0
LINE
  8
L-ZISSEN
 10
151.2
 20
210.0
 30
0.0
 11
151.2
 21
213.2
 31
0.0
  0
LINE
  8
L-ZISSEN
 10
158.8
 20
210.0
 30
0.0
 11
158.8
 21
213.2
 31
0.0
  0
ARC
  8
L-ZISSEN
 10
155.0
 20
210.0
 30
0.0
 40
3.8
 50
180.0
 51
360.0
  0
LINE
  8
L-TYUSIN
  6
CENTER
 62
     1
 10
160.0
 20
210.0
 30
0.0
 11
150.0
 21
210.0
 31
0.0
  0
LINE
  8
L-TYUSIN
  6
CENTER
 62
     1
 10
155.0
 20
205.0
 30
0.0
 11
155.0
 21
215.0
 31
0.0
  0
LINE
  8
L-TYUSIN
  6
CENTER
 62
     1
 10
161.5
 20
210.0
 30
0.0
 11
161.5
 21
190.0
 31
0.0
  0
CIRCLE
  8
L-ZISSEN
 10
161.5
 20
200.0
 30
0.0
 40
5.7225
  0
CIRCLE
  8
L-ZISSEN
 10
138.5
 20
200.0
 30
0.0
 40
5.7225
  0
LINE
  8
L-TYUSIN
  6
CENTER
 62
     1
 10
138.5
 20
210.0
 30
0.0
 11
138.5
 21
190.0
 31
0.0
  0
CIRCLE
  8
L-ZISSEN
 10
150.0
 20
40.0
 30
0.0
 40
5.7225
  0
LINE
  8
L-TYUSIN
  6
CENTER
 62
     1
 10
155.0
 20
35.0
 30
0.0
 11
155.0
 21
25.0
 31
0.0
  0
LINE
  8
L-TYUSIN
  6
CENTER
 62
     1
 10
160.0
 20
30.0
 30
0.0
 11
150.0
 21
30.0
 31
0.0
  0
CIRCLE
  8
L-ZISSEN
 10
155.0
 20
30.0
 30
0.0
 40
2.15
  0
CIRCLE
  8
L-ZISSEN
 10
145.0
 20
50.0
 30
0.0
 40
2.15
  0
LINE
  8
L-TYUSIN
  6
CENTER
 62
     1
 10
140.0
 20
50.0
 30
0.0
 11
150.0
 21
50.0
 31
0.0
  0
LINE
  8
L-TYUSIN
  6
CENTER
 62
     1
 10
145.0
 20
45.0
 30
0.0
 11
145.0
 21
55.0
 31
0.0
  0
LINE
  8
L-ZISSEN
 10
95.5
 20
53.2
 30
0.0
 11
204.5
 21
53.2
 31
0.0
  0
LINE
  8
L-ZISSEN
 10
95.5
 20
26.8
 30
0.0
 11
204.5
 21
26.8
 31
0.0
  0
LINE
  8
L-ZISSEN
 10
204.5
 20
26.8
 30
0.0
 11
204.5
 21
53.2
 31
0.0
  0
LINE
  8
L-ZISSEN
 10
193.5
 20
26.8
 30
0.0
 11
193.5
 21
53.2
 31
0.0
  0
LINE
  8
L-TYUSIN
  6
CENTER
 62
     1
 10
150.0
 20
22.0
 30
0.0
 11
150.0
 21
58.0
 31
0.0
  0
LINE
  8
L-TYUSIN
  6
CENTER
 62
     1
 10
47.0
 20
40.0
 30
0.0
 11
253.0
 21
40.0
 31
0.0
  0
LINE
  8
L-ZISSEN
 10
106.5
 20
26.8
 30
0.0
 11
106.5
 21
53.2
 31
0.0
  0
LINE
  8
L-TYUSIN
  6
CENTER
 62
     1
 10
168.0
 20
28.5
 30
0.0
 11
168.0
 21
42.5
 31
0.0
  0
LINE
  8
L-TYUSIN
  6
CENTER
 62
     1
 10
161.0
 20
35.5
 30
0.0
 11
175.0
 21
35.5
 31
0.0
  0
CIRCLE
  8
L-ZISSEN
 10
168.0
 20
35.5
 30
0.0
 40
4.283
  0
CIRCLE
  8
L-ZISSEN
 10
132.0
 20
44.5
 30
0.0
 40
4.283
  0
LINE
  8
L-TYUSIN
  6
CENTER
 62
     1
 10
132.0
 20
51.5
 30
0.0
 11
132.0
 21
37.5
 31
0.0
  0
LINE
  8
L-TYUSIN
  6
CENTER
 62
     1
 10
139.0
 20
44.5
 30
0.0
 11
125.0
 21
44.5
 31
0.0
  0
LINE
  8
L-TYUSIN
  6
CENTER
 62
     1
 10
199.0
 20
44.0
 30
0.0
 11
199.0
 21
36.0
 31
0.0
  0
CIRCLE
  8
L-ZISSEN
 10
199.0
 20
40.0
 30
0.0
 40
2.067
  0
LINE
  8
L-ZISSEN
 10
761.2
 20
77.0
 30
0.0
 11
761.2
 21
79.0
 31
0.0
  0
LINE
  8
L-ZISSEN
 10
767.0
 20
75.5
 30
0.0
 11
796.0
 21
75.5
 31
0.0
  0
LINE
  8
L-ZISSEN
 10
793.0
 20
34.3
 30
0.0
 11
793.0
 21
69.5
 31
0.0
  0
LINE
  8
L-ZISSEN
 10
796.0
 20
69.5
 30
0.0
 11
796.0
 21
107.5
 31
0.0
  0
LINE
  8
L-ZISSEN
 10
796.0
 20
69.5
 30
0.0
 11
793.0
 21
69.5
 31
0.0
  0
LINE
  8
L-ZISSEN
 10
767.0
 20
34.3
 30
0.0
 11
767.0
 21
107.5
 31
0.0
  0
LINE
  8
L-ZISSEN
 10
767.0
 20
65.7
 30
0.0
 11
756.0
 21
65.7
 31
0.0
  0
LINE
  8
L-ZISSEN
 10
796.0
 20
74.0
 30
0.0
 11
767.0
 21
74.0
 31
0.0
  0
LINE
  8
L-ZISSEN
 10
235.75
 20
147.556621
 30
0.0
 11
237.25
 21
147.869204
 31
0.0
  0
LINE
  8
L-ZISSEN
 10
233.5
 20
119.0
 30
0.0
 11
233.5
 21
124.0
 31
0.0
  0
LINE
  8
L-ZISSEN
 10
239.631019
 20
124.0
 30
0.0
 11
233.5
 21
124.0
 31
0.0
  0
LINE
  8
L-ZISSEN
 10
239.5
 20
130.0
 30
0.0
 11
233.5
 21
130.0
 31
0.0
  0
LINE
  8
L-ZISSEN
 10
233.5
 20
124.0
 30
0.0
 11
233.5
 21
130.0
 31
0.0
  0
LINE
  8
L-ZISSEN
 10
239.5
 20
119.0
 30
0.0
 11
239.5
 21
130.0
 31
0.0
  0
LINE
  8
L-ZISSEN
 10
240.43883
 20
119.252968
 30
0.0
 11
240.997944
 21
129.921496
 31
0.0
  0
LINE
  8
L-ZISSEN
 10
239.944246
 20
129.976718
 30
0.0
 11
240.997944
 21
129.921496
 31
0.0
  0
LINE
  8
L-ZISSEN
 10
239.5
 20
121.5
 30
0.0
 11
239.631019
 21
124.0
 31
0.0
  0
LINE
  8
L-ZISSEN
 10
239.709631
 20
125.5
 30
0.0
 11
239.5
 21
125.5
 31
0.0
  0
LINE
  8
L-ZISSEN
 10
239.709631
 20
125.5
 30
0.0
 11
239.944246
 21
129.976718
 31
0.0
  0
LINE
  8
L-ZISSEN
 10
235.75
 20
130.0
 30
0.0
 11
235.75
 21
147.556621
 31
0.0
  0
LINE
  8
L-ZISSEN
 10
237.25
 20
130.0
 30
0.0
 11
237.25
 21
147.869204
 31
0.0
  0
LINE
  8
L-ZISSEN
 10
240.43883
 20
119.252968
 30
0.0
 11
239.5
 21
119.30217
 31
0.0
  0
LINE
  8
L-ZISSEN
 10
235.75
 20
149.621068
 30
0.0
 11
237.25
 21
149.93365
 31
0.0
  0
LINE
  8
L-ZISSEN
 10
235.75
 20
149.621068
 30
0.0
 11
235.75
 21
159.230308
 31
0.0
  0
LINE
  8
L-ZISSEN
 10
237.25
 20
149.93365
 30
0.0
 11
237.25
 21
159.230308
 31
0.0
  0
LINE
  8
L-ZISSEN
 10
235.75
 20
159.230308
 30
0.0
 11
237.25
 21
159.230308
 31
0.0
  0
LINE
  8
L-ZISSEN
 10
241.5
 20
119.0
 30
0.0
 11
225.5
 21
119.0
 31
0.0
  0
LINE
  8
L-ZISSEN
 10
241.5
 20
84.3
 30
0.0
 11
241.5
 21
119.0
 31
0.0
  0
LINE
  8
L-ZISSEN
 10
246.0
 20
115.7
 30
0.0
 11
204.5
 21
115.7
 31
0.0
  0
LINE
  8
L-ZISSEN
 10
246.0
 20
84.3
 30
0.0
 11
204.5
 21
84.3
 31
0.0
  0
LINE
  8
L-ZISSEN
 10
248.0
 20
85.454701
 30
0.0
 11
248.0
 21
114.545299
 31
0.0
  0
LINE
  8
L-ZISSEN
 10
215.5
 20
84.3
 30
0.0
 11
215.5
 21
115.7
 31
0.0
  0
LINE
  8
L-ZISSEN
 10
212.3
 20
116.0
 30
0.0
 11
207.1
 21
116.0
 31
0.0
  0
LINE
  8
L-ZISSEN
 10
506.2
 20
77.0
 30
0.0
 11
506.2
 21
79.0
 31
0.0
  0
LINE
  8
L-ZISSEN
 10
509.2
 20
79.0
 30
0.0
 11
503.2
 21
79.0
 31
0.0
  0
LINE
  8
L-ZISSEN
 10
509.2
 20
79.0
 30
0.0
 11
509.2
 21
65.7
 31
0.0
  0
LINE
  8
L-ZISSEN
 10
503.2
 20
79.0
 30
0.0
 11
503.2
 21
65.7
 31
0.0
  0
LINE
  8
L-ZISSEN
 10
215.5
 20
28.6
 30
0.0
 11
215.5
 21
51.4
 31
0.0
  0
LINE
  8
L-ZISSEN
 10
241.5
 20
28.6
 30
0.0
 11
241.5
 21
51.4
 31
0.0
  0
LINE
  8
L-ZISSEN
 10
246.0
 20
51.4
 30
0.0
 11
204.5
 21
51.4
 31
0.0
  0
LINE
  8
L-ZISSEN
 10
246.0
 20
28.6
 30
0.0
 11
204.5
 21
28.6
 31
0.0
  0
LINE
  8
L-ZISSEN
 10
767.0
 20
285.5
 30
0.0
 11
796.0
 21
285.5
 31
0.0
  0
LINE
  8
L-ZISSEN
 10
793.0
 20
244.3
 30
0.0
 11
793.0
 21
279.5
 31
0.0
  0
LINE
  8
L-ZISSEN
 10
796.0
 20
279.5
 30
0.0
 11
796.0
 21
317.5
 31
0.0
  0
LINE
  8
L-ZISSEN
 10
796.0
 20
279.5
 30
0.0
 11
793.0
 21
279.5
 31
0.0
  0
LINE
  8
L-ZISSEN
 10
797.5
 20
275.7
 30
0.0
 11
793.0
 21
275.7
 31
0.0
  0
LINE
  8
L-ZISSEN
 10
797.5
 20
244.3
 30
0.0
 11
756.0
 21
244.3
 31
0.0
  0
LINE
  8
L-ZISSEN
 10
767.0
 20
244.3
 30
0.0
 11
767.0
 21
317.5
 31
0.0
  0
LINE
  8
L-ZISSEN
 10
767.0
 20
275.7
 30
0.0
 11
756.0
 21
275.7
 31
0.0
  0
LINE
  8
L-ZISSEN
 10
796.0
 20
284.0
 30
0.0
 11
767.0
 21
284.0
 31
0.0
  0
LINE
  8
L-ZISSEN
 10
246.0
 20
188.6
 30
0.0
 11
204.5
 21
188.6
 31
0.0
  0
LINE
  8
L-ZISSEN
 10
246.0
 20
211.4
 30
0.0
 11
204.5
 21
211.4
 31
0.0
  0
LINE
  8
L-ZISSEN
 10
215.5
 20
188.6
 30
0.0
 11
215.5
 21
211.4
 31
0.0
  0
LINE
  8
L-ZISSEN
 10
241.5
 20
188.6
 30
0.0
 11
241.5
 21
211.4
 31
0.0
  0
LINE
  8
L-ZISSEN
 10
248.0
 20
189.754701
 30
0.0
 11
248.0
 21
210.245299
 31
0.0
  0
LINE
  8
L-ZISSEN
 10
223.5
 20
191.0
 30
0.0
 11
223.5
 21
209.0
 31
0.0
  0
LINE
  8
L-ZISSEN
 10
223.5
 20
209.0
 30
0.0
 11
241.5
 21
209.0
 31
0.0
  0
LINE
  8
L-ZISSEN
 10
223.5
 20
191.0
 30
0.0
 11
241.5
 21
191.0
 31
0.0
  0
LINE
  8
L-ZISSEN
 10
233.5
 20
205.0
 30
0.0
 11
240.997944
 21
205.0
 31
0.0
  0
LINE
  8
L-ZISSEN
 10
240.997944
 20
195.0
 30
0.0
 11
233.5
 21
195.0
 31
0.0
  0
LINE
  8
L-ZISSEN
 10
233.5
 20
195.0
 30
0.0
 11
233.5
 21
205.0
 31
0.0
  0
LINE
  8
L-TYUSIN
  6
CENTER
 62
     1
 10
272.0
 20
100.0
 30
0.0
 11
308.0
 21
100.0
 31
0.0
  0
LINE
  8
L-TYUSIN
  6
CENTER
 62
     1
 10
290.0
 20
135.0
 30
0.0
 11
290.0
 21
79.3
 31
0.0
  0
LINE
  8
L-ZISSEN
 10
301.4
 20
84.3
 30
0.0
 11
278.6
 21
84.3
 31
0.0
  0
LINE
  8
L-ZISSEN
 10
301.4
 20
115.7
 30
0.0
 11
278.6
 21
115.7
 31
0.0
  0
LINE
  8
L-ZISSEN
 10
278.6
 20
115.7
 30
0.0
 11
278.6
 21
84.3
 31
0.0
  0
LINE
  8
L-ZISSEN
 10
301.4
 20
115.7
 30
0.0
 11
301.4
 21
84.3
 31
0.0
  0
LINE
  8
L-ZISSEN
 10
299.0
 20
119.0
 30
0.0
 11
281.0
 21
119.0
 31
0.0
  0
LINE
  8
L-ZISSEN
 10
281.0
 20
119.0
 30
0.0
 11
281.0
 21
115.7
 31
0.0
  0
LINE
  8
L-ZISSEN
 10
299.0
 20
119.0
 30
0.0
 11
299.0
 21
115.7
 31
0.0
  0
LINE
  8
L-ZISSEN
 10
295.0
 20
130.0
 30
0.0
 11
285.0
 21
130.0
 31
0.0
  0
LINE
  8
L-ZISSEN
 10
285.0
 20
130.0
 30
0.0
 11
285.0
 21
119.0
 31
0.0
  0
LINE
  8
L-ZISSEN
 10
295.0
 20
130.0
 30
0.0
 11
295.0
 21
119.0
 31
0.0
  0
LINE
  8
L-ZISSEN
 10
295.0
 20
124.0
 30
0.0
 11
285.0
 21
124.0
 31
0.0
  0
LINE
  8
L-ZISSEN
 10
286.75
 20
159.230308
 30
0.0
 11
288.25
 21
159.230308
 31
0.0
  0
LINE
  8
L-ZISSEN
 10
288.25
 20
149.93365
 30
0.0
 11
288.25
 21
159.230308
 31
0.0
  0
LINE
  8
L-ZISSEN
 10
286.75
 20
149.621068
 30
0.0
 11
286.75
 21
159.230308
 31
0.0
  0
LINE
  8
L-ZISSEN
 10
286.75
 20
149.621068
 30
0.0
 11
288.25
 21
149.93365
 31
0.0
  0
LINE
  8
L-ZISSEN
 10
288.25
 20
130.0
 30
0.0
 11
288.25
 21
147.869204
 31
0.0
  0
LINE
  8
L-ZISSEN
 10
286.75
 20
130.0
 30
0.0
 11
286.75
 21
147.556621
 31
0.0
  0
LINE
  8
L-ZISSEN
 10
286.75
 20
147.556621
 30
0.0
 11
288.25
 21
147.869204
 31
0.0
  0
LINE
  8
L-ZISSEN
 10
291.75
 20
147.556621
 30
0.0
 11
293.25
 21
147.869204
 31
0.0
  0
LINE
  8
L-ZISSEN
 10
291.75
 20
130.0
 30
0.0
 11
291.75
 21
147.556621
 31
0.0
  0
LINE
  8
L-ZISSEN
 10
293.25
 20
130.0
 30
0.0
 11
293.25
 21
147.869204
 31
0.0
  0
LINE
  8
L-ZISSEN
 10
291.75
 20
149.621068
 30
0.0
 11
293.25
 21
149.93365
 31
0.0
  0
LINE
  8
L-ZISSEN
 10
291.75
 20
149.621068
 30
0.0
 11
291.75
 21
159.230308
 31
0.0
  0
LINE
  8
L-ZISSEN
 10
293.25
 20
149.93365
 30
0.0
 11
293.25
 21
159.230308
 31
0.0
  0
LINE
  8
L-ZISSEN
 10
291.75
 20
159.230308
 30
0.0
 11
293.25
 21
159.230308
 31
0.0
  0
LINE
  8
L-ZISSEN
 10
276.8
 20
82.5
 30
0.0
 11
303.2
 21
82.5
 31
0.0
  0
LINE
  8
L-ZISSEN
 10
276.8
 20
117.5
 30
0.0
 11
281.0
 21
117.5
 31
0.0
  0
LINE
  8
L-ZISSEN
 10
276.8
 20
82.5
 30
0.0
 11
276.8
 21
117.5
 31
0.0
  0
LINE
  8
L-ZISSEN
 10
303.2
 20
82.5
 30
0.0
 11
303.2
 21
117.5
 31
0.0
  0
LINE
  8
L-ZISSEN
 10
299.0
 20
117.5
 30
0.0
 11
303.2
 21
117.5
 31
0.0
  0
LINE
  8
L-ZISSEN
 10
767.0
 20
138.6
 30
0.0
 11
767.0
 21
161.4
 31
0.0
  0
CIRCLE
  8
L-ZISSEN
 10
761.2
 20
150.0
 30
0.0
 40
3.0
  0
LINE
  8
L-ZISSEN
 10
761.2
 20
153.0
 30
0.0
 11
761.2
 21
147.0
 31
0.0
  0
LINE
  8
L-ZISSEN
 10
866.4
 20
67.5
 30
0.0
 11
868.2
 21
67.5
 31
0.0
  0
LINE
  8
L-ZISSEN
 10
868.2
 20
32.5
 30
0.0
 11
868.2
 21
67.5
 31
0.0
  0
LINE
  8
L-ZISSEN
 10
841.8
 20
32.5
 30
0.0
 11
841.8
 21
67.5
 31
0.0
  0
LINE
  8
L-ZISSEN
 10
841.8
 20
67.5
 30
0.0
 11
843.6
 21
67.5
 31
0.0
  0
LINE
  8
L-ZISSEN
 10
841.8
 20
32.5
 30
0.0
 11
868.2
 21
32.5
 31
0.0
  0
LINE
  8
L-ZISSEN
 10
866.4
 20
107.5
 30
0.0
 11
866.4
 21
34.3
 31
0.0
  0
LINE
  8
L-ZISSEN
 10
843.6
 20
107.5
 30
0.0
 11
843.6
 21
34.3
 31
0.0
  0
LINE
  8
L-ZISSEN
 10
866.4
 20
65.7
 30
0.0
 11
843.6
 21
65.7
 31
0.0
  0
LINE
  8
L-ZISSEN
 10
866.4
 20
34.3
 30
0.0
 11
843.6
 21
34.3
 31
0.0
  0
LINE
  8
L-TYUSIN
  6
CENTER
 62
     1
 10
855.0
 20
112.5
 30
0.0
 11
855.0
 21
29.3
 31
0.0
  0
LINE
  8
L-TYUSIN
  6
CENTER
 62
     1
 10
837.0
 20
50.0
 30
0.0
 11
873.0
 21
50.0
 31
0.0
  0
LINE
  8
L-ZISSEN
 10
843.6
 20
107.5
 30
0.0
 11
866.4
 21
107.5
 31
0.0
  0
LINE
  8
L-ZISSEN
 10
843.6
 20
75.5
 30
0.0
 11
866.4
 21
75.5
 31
0.0
  0
LINE
  8
L-ZISSEN
 10
866.4
 20
74.0
 30
0.0
 11
843.6
 21
74.0
 31
0.0
  0
LINE
  8
L-ZISSEN
 10
866.4
 20
69.5
 30
0.0
 11
843.6
 21
69.5
 31
0.0
  0
CIRCLE
  8
L-ZISSEN
 10
855.0
 20
98.5
 30
0.0
 40
5.0
  0
LINE
  8
L-ZISSEN
 10
506.2
 20
153.0
 30
0.0
 11
506.2
 21
147.0
 31
0.0
  0
CIRCLE
  8
L-ZISSEN
 10
506.2
 20
150.0
 30
0.0
 40
3.0
  0
LINE
  8
L-ZISSEN
 10
866.4
 20
279.5
 30
0.0
 11
843.6
 21
279.5
 31
0.0
  0
LINE
  8
L-ZISSEN
 10
866.4
 20
284.0
 30
0.0
 11
843.6
 21
284.0
 31
0.0
  0
LINE
  8
L-ZISSEN
 10
843.6
 20
285.5
 30
0.0
 11
866.4
 21
285.5
 31
0.0
  0
LINE
  8
L-TYUSIN
  6
CENTER
 62
     1
 10
837.0
 20
260.0
 30
0.0
 11
873.0
 21
260.0
 31
0.0
  0
LINE
  8
L-TYUSIN
  6
CENTER
 62
     1
 10
855.0
 20
322.5
 30
0.0
 11
855.0
 21
239.3
 31
0.0
  0
LINE
  8
L-ZISSEN
 10
866.4
 20
244.3
 30
0.0
 11
843.6
 21
244.3
 31
0.0
  0
LINE
  8
L-ZISSEN
 10
866.4
 20
275.7
 30
0.0
 11
843.6
 21
275.7
 31
0.0
  0
LINE
  8
L-ZISSEN
 10
843.6
 20
317.5
 30
0.0
 11
843.6
 21
244.3
 31
0.0
  0
LINE
  8
L-ZISSEN
 10
866.4
 20
317.5
 30
0.0
 11
866.4
 21
244.3
 31
0.0
  0
LINE
  8
L-ZISSEN
 10
841.8
 20
242.5
 30
0.0
 11
868.2
 21
242.5
 31
0.0
  0
LINE
  8
L-ZISSEN
 10
841.8
 20
277.5
 30
0.0
 11
843.6
 21
277.5
 31
0.0
  0
LINE
  8
L-ZISSEN
 10
841.8
 20
242.5
 30
0.0
 11
841.8
 21
277.5
 31
0.0
  0
LINE
  8
L-ZISSEN
 10
868.2
 20
242.5
 30
0.0
 11
868.2
 21
277.5
 31
0.0
  0
LINE
  8
L-ZISSEN
 10
866.4
 20
277.5
 30
0.0
 11
868.2
 21
277.5
 31
0.0
  0
LINE
  8
L-ZISSEN
 10
797.5
 20
348.6
 30
0.0
 11
756.0
 21
348.6
 31
0.0
  0
LINE
  8
L-ZISSEN
 10
797.5
 20
371.4
 30
0.0
 11
756.0
 21
371.4
 31
0.0
  0
LINE
  8
L-ZISSEN
 10
767.0
 20
348.6
 30
0.0
 11
767.0
 21
371.4
 31
0.0
  0
LINE
  8
L-TYUSIN
 10
885.0
 20
225.0
 30
0.0
 11
330.0
 21
225.0
 31
0.0
  0
LINE
  8
L-TYUSIN
 10
570.0
 20
15.0
 30
0.0
 11
570.0
 21
435.0
 31
0.0
  0
LINE
  8
L-TYUSIN
 10
330.0
 20
15.0
 30
0.0
 11
330.0
 21
225.0
 31
0.0
  0
TEXT
  8
L-ZISSEN
 10
55.0
 20
255.0
 30
0.0
 40
4.5
  1
MODEL NO. : 501-200-3008
  0
SOLID
  8
L-ZISSEN
 10
150.9891
 20
80.730031
 30
0.0
 11
151.50968
 21
81.146494
 31
0.0
 12
150.0
 22
82.5
 32
0.0
 13
150.0
 23
82.5
 33
0.0
  0
LINE
  8
L-ZISSEN
 10
151.24939
 20
80.938262
 30
0.0
 11
160.0
 21
70.0
 31
0.0
  0
LINE
  8
L-ZISSEN
 10
160.0
 20
70.0
 30
0.0
 11
162.0
 21
70.0
 31
0.0
  0
TEXT
  8
L-ZISSEN
 10
164.0
 20
67.75
 30
0.0
 40
4.5
  1
P.P
  0
TEXT
  8
L-ZISSEN
 10
340.0
 20
205.0
 30
0.0
 40
4.5
  1
MODEL NO. : 501-200-3018
  0
TEXT
  8
L-ZISSEN
 10
340.0
 20
215.0
 30
0.0
 40
4.5
  1
LOCK TYPE MANUAL OPERATION HANDLE
  0
TEXT
  8
L-ZISSEN
 10
580.0
 20
195.0
 30
0.0
 40
4.5
  1
MODEL NO. : 501-200-3014
  0
TEXT
  8
L-ZISSEN
 10
580.0
 20
205.0
 30
0.0
 40
4.5
  1
LOCK TYPE MANUAL OPERATION HANDLE
  0
TEXT
  8
L-ZISSEN
 10
580.0
 20
215.0
 30
0.0
 40
4.5
  1
DIN TERMINAL CONNECTION
  0
TEXT
  8
L-ZISSEN
 10
580.0
 20
425.0
 30
0.0
 40
4.5
  1
DIN TERMINAL CONNECTION
  0
TEXT
  8
L-ZISSEN
 10
580.0
 20
415.0
 30
0.0
 40
4.5
  1
MODEL NO. : 501-200-3004
  0
SOLID
  8
L-ZISSEN
 10
150.743161
 20
198.113516
 30
0.0
 11
151.314822
 21
198.456513
 31
0.0
 12
150.0
 22
200.0
 32
0.0
 13
150.0
 23
200.0
 33
0.0
  0
LINE
  8
L-ZISSEN
 10
151.028992
 20
198.285014
 30
0.0
 11
165.0
 21
175.0
 31
0.0
  0
LINE
  8
L-ZISSEN
 10
165.0
 20
175.0
 30
0.0
 11
167.0
 21
175.0
 31
0.0
  0
TEXT
  8
L-ZISSEN
 10
169.0
 20
172.75
 30
0.0
 40
4.5
  1
P.P
  0
SOLID
  8
L-ZISSEN
 10
290.9891
 20
80.730031
 30
0.0
 11
291.50968
 21
81.146494
 31
0.0
 12
290.0
 22
82.5
 32
0.0
 13
290.0
 23
82.5
 33
0.0
  0
LINE
  8
L-ZISSEN
 10
291.24939
 20
80.938262
 30
0.0
 11
300.0
 21
70.0
 31
0.0
  0
LINE
  8
L-ZISSEN
 10
300.0
 20
70.0
 30
0.0
 11
302.0
 21
70.0
 31
0.0
  0
TEXT
  8
L-ZISSEN
 10
304.0
 20
67.75
 30
0.0
 40
4.5
  1
P.P
  0
SOLID
  8
L-ZISSEN
 10
856.4
 20
31.033333
 30
0.0
 11
856.8
 21
31.566667
 31
0.0
 12
855.0
 22
32.5
 32
0.0
 13
855.0
 23
32.5
 33
0.0
  0
LINE
  8
L-ZISSEN
 10
856.6
 20
31.3
 30
0.0
 11
865.0
 21
25.0
 31
0.0
  0
LINE
  8
L-ZISSEN
 10
865.0
 20
25.0
 30
0.0
 11
867.0
 21
25.0
 31
0.0
  0
TEXT
  8
L-ZISSEN
 10
869.0
 20
22.75
 30
0.0
 40
4.5
  1
P.P
  0
TEXT
  8
L-ZISSEN
 10
869.0
 20
232.75
 30
0.0
 40
4.5
  1
P.P
  0
LINE
  8
L-ZISSEN
 10
865.0
 20
235.0
 30
0.0
 11
867.0
 21
235.0
 31
0.0
  0
LINE
  8
L-ZISSEN
 10
856.6
 20
241.3
 30
0.0
 11
865.0
 21
235.0
 31
0.0
  0
SOLID
  8
L-ZISSEN
 10
856.4
 20
241.033333
 30
0.0
 11
856.8
 21
241.566667
 31
0.0
 12
855.0
 22
242.5
 32
0.0
 13
855.0
 23
242.5
 33
0.0
  0
LINE
  8
L-ZISSEN
 10
84.5
 20
84.3
 30
0.0
 11
84.5
 21
115.7
 31
0.0
  0
LINE
  8
L-ZISSEN
 10
54.0
 20
84.3
 30
0.0
 11
95.5
 21
84.3
 31
0.0
  0
LINE
  8
L-ZISSEN
 10
54.0
 20
115.7
 30
0.0
 11
95.5
 21
115.7
 31
0.0
  0
LINE
  8
L-ZISSEN
 10
58.5
 20
84.3
 30
0.0
 11
58.5
 21
119.0
 31
0.0
  0
LINE
  8
L-ZISSEN
 10
64.25
 20
159.230308
 30
0.0
 11
62.75
 21
159.230308
 31
0.0
  0
LINE
  8
L-ZISSEN
 10
62.75
 20
149.93365
 30
0.0
 11
62.75
 21
159.230308
 31
0.0
  0
LINE
  8
L-ZISSEN
 10
64.25
 20
149.621068
 30
0.0
 11
64.25
 21
159.230308
 31
0.0
  0
LINE
  8
L-ZISSEN
 10
64.25
 20
149.621068
 30
0.0
 11
62.75
 21
149.93365
 31
0.0
  0
LINE
  8
L-ZISSEN
 10
59.56117
 20
119.252968
 30
0.0
 11
60.5
 21
119.30217
 31
0.0
  0
LINE
  8
L-ZISSEN
 10
62.75
 20
130.0
 30
0.0
 11
62.75
 21
147.869204
 31
0.0
  0
LINE
  8
L-ZISSEN
 10
64.25
 20
130.0
 30
0.0
 11
64.25
 21
147.556621
 31
0.0
  0
LINE
  8
L-ZISSEN
 10
60.290369
 20
125.5
 30
0.0
 11
60.055754
 21
129.976718
 31
0.0
  0
LINE
  8
L-ZISSEN
 10
60.290369
 20
125.5
 30
0.0
 11
60.5
 21
125.5
 31
0.0
  0
LINE
  8
L-ZISSEN
 10
60.5
 20
121.5
 30
0.0
 11
60.368981
 21
124.0
 31
0.0
  0
LINE
  8
L-ZISSEN
 10
60.055754
 20
129.976718
 30
0.0
 11
59.002056
 21
129.921496
 31
0.0
  0
LINE
  8
L-ZISSEN
 10
59.56117
 20
119.252968
 30
0.0
 11
59.002056
 21
129.921496
 31
0.0
  0
LINE
  8
L-ZISSEN
 10
60.5
 20
119.0
 30
0.0
 11
60.5
 21
130.0
 31
0.0
  0
LINE
  8
L-ZISSEN
 10
66.5
 20
124.0
 30
0.0
 11
66.5
 21
130.0
 31
0.0
  0
LINE
  8
L-ZISSEN
 10
60.5
 20
130.0
 30
0.0
 11
66.5
 21
130.0
 31
0.0
  0
LINE
  8
L-ZISSEN
 10
60.368981
 20
124.0
 30
0.0
 11
66.5
 21
124.0
 31
0.0
  0
LINE
  8
L-ZISSEN
 10
66.5
 20
119.0
 30
0.0
 11
66.5
 21
124.0
 31
0.0
  0
LINE
  8
L-ZISSEN
 10
64.25
 20
147.556621
 30
0.0
 11
62.75
 21
147.869204
 31
0.0
  0
LINE
  8
L-ZISSEN
 10
95.5
 20
117.5
 30
0.0
 11
95.5
 21
82.5
 31
0.0
  0
LINE
  8
L-TYUSIN
  6
CENTER
 62
     1
 10
101.0
 20
87.58758
 30
0.0
 11
101.0
 21
80.595698
 31
0.0
  0
CIRCLE
  8
L-ZISSEN
 10
855.0
 20
98.5
 30
0.0
 40
9.0
  0
LINE
  8
L-ZISSEN
 10
767.0
 20
317.5
 30
0.0
 11
808.0
 21
317.5
 31
0.0
  0
LINE
  8
L-ZISSEN
 10
812.8
 20
299.5
 30
0.0
 11
818.0
 21
299.5
 31
0.0
  0
LINE
  8
L-ZISSEN
 10
812.8
 20
317.5
 30
0.0
 11
818.0
 21
317.5
 31
0.0
  0
CIRCLE
  8
L-ZISSEN
 10
855.0
 20
308.5
 30
0.0
 40
9.0
  0
CIRCLE
  8
L-ZISSEN
 10
855.0
 20
308.5
 30
0.0
 40
5.0
  0
LINE
  8
L-ZISSEN
 10
843.6
 20
317.5
 30
0.0
 11
866.4
 21
317.5
 31
0.0
  0
LINE
  8
L-ZISSEN
 10
818.0
 20
317.5
 30
0.0
 11
818.0
 21
299.5
 31
0.0
  0
LINE
  8
L-ZISSEN
 10
808.0
 20
317.5
 30
0.0
 11
808.0
 21
299.5
 31
0.0
  0
LINE
  8
L-ZISSEN
 10
796.0
 20
299.5
 30
0.0
 11
808.0
 21
299.5
 31
0.0
  0
LINE
  8
L-ZISSEN
 10
812.8
 20
317.5
 30
0.0
 11
812.8
 21
299.5
 31
0.0
  0
LINE
  8
L-ZISSEN
 10
812.8
 20
315.4
 30
0.0
 11
808.0
 21
315.4
 31
0.0
  0
LINE
  8
L-ZISSEN
 10
812.8
 20
301.6
 30
0.0
 11
808.0
 21
301.6
 31
0.0
  0
LINE
  8
L-ZISSEN
 10
796.0
 20
369.0
 30
0.0
 11
808.0
 21
369.0
 31
0.0
  0
LINE
  8
L-ZISSEN
 10
796.0
 20
351.0
 30
0.0
 11
808.0
 21
351.0
 31
0.0
  0
LINE
  8
L-ZISSEN
 10
796.0
 20
348.6
 30
0.0
 11
796.0
 21
371.4
 31
0.0
  0
LINE
  8
L-ZISSEN
 10
799.5
 20
349.754701
 30
0.0
 11
799.5
 21
351.0
 31
0.0
  0
LINE
  8
L-ZISSEN
 10
76.5
 20
191.0
 30
0.0
 11
58.5
 21
191.0
 31
0.0
  0
LINE
  8
L-ZISSEN
 10
76.5
 20
209.0
 30
0.0
 11
58.5
 21
209.0
 31
0.0
  0
LINE
  8
L-ZISSEN
 10
76.5
 20
191.0
 30
0.0
 11
76.5
 21
209.0
 31
0.0
  0
LINE
  8
L-ZISSEN
 10
58.5
 20
188.6
 30
0.0
 11
58.5
 21
211.4
 31
0.0
  0
LINE
  8
L-ZISSEN
 10
84.5
 20
188.6
 30
0.0
 11
84.5
 21
211.4
 31
0.0
  0
LINE
  8
L-ZISSEN
 10
54.0
 20
211.4
 30
0.0
 11
95.5
 21
211.4
 31
0.0
  0
LINE
  8
L-ZISSEN
 10
54.0
 20
188.6
 30
0.0
 11
95.5
 21
188.6
 31
0.0
  0
LINE
  8
L-ZISSEN
 10
95.5
 20
213.2
 30
0.0
 11
95.5
 21
186.8
 31
0.0
  0
LINE
  8
L-ZISSEN
 10
54.0
 20
28.6
 30
0.0
 11
95.5
 21
28.6
 31
0.0
  0
LINE
  8
L-ZISSEN
 10
54.0
 20
51.4
 30
0.0
 11
95.5
 21
51.4
 31
0.0
  0
LINE
  8
L-ZISSEN
 10
58.5
 20
28.6
 30
0.0
 11
58.5
 21
51.4
 31
0.0
  0
LINE
  8
L-ZISSEN
 10
84.5
 20
28.6
 30
0.0
 11
84.5
 21
51.4
 31
0.0
  0
CIRCLE
  8
L-ZISSEN
 10
101.0
 20
40.0
 30
0.0
 40
2.067
  0
LINE
  8
L-TYUSIN
  6
CENTER
 62
     1
 10
101.0
 20
44.0
 30
0.0
 11
101.0
 21
36.0
 31
0.0
  0
LINE
  8
L-ZISSEN
 10
95.5
 20
26.8
 30
0.0
 11
95.5
 21
53.2
 31
0.0
  0
CIRCLE
  8
L-ZISSEN
 10
386.8
 20
150.0
 30
0.0
 40
3.0
  0
LINE
  8
L-ZISSEN
 10
386.8
 20
153.0
 30
0.0
 11
386.8
 21
147.0
 31
0.0
  0
LINE
  8
L-ZISSEN
 10
389.8
 20
79.0
 30
0.0
 11
389.8
 21
65.7
 31
0.0
  0
LINE
  8
L-ZISSEN
 10
383.8
 20
79.0
 30
0.0
 11
383.8
 21
65.7
 31
0.0
  0
LINE
  8
L-ZISSEN
 10
383.8
 20
79.0
 30
0.0
 11
389.8
 21
79.0
 31
0.0
  0
LINE
  8
L-ZISSEN
 10
386.8
 20
77.0
 30
0.0
 11
386.8
 21
79.0
 31
0.0
  0
LINE
  8
L-ZISSEN
 10
641.8
 20
153.0
 30
0.0
 11
641.8
 21
147.0
 31
0.0
  0
CIRCLE
  8
L-ZISSEN
 10
641.8
 20
150.0
 30
0.0
 40
3.0
  0
LINE
  8
L-ZISSEN
 10
636.0
 20
138.6
 30
0.0
 11
636.0
 21
161.4
 31
0.0
  0
LINE
  8
L-ZISSEN
 10
607.0
 20
74.0
 30
0.0
 11
636.0
 21
74.0
 31
0.0
  0
LINE
  8
L-ZISSEN
 10
636.0
 20
65.7
 30
0.0
 11
647.0
 21
65.7
 31
0.0
  0
LINE
  8
L-ZISSEN
 10
636.0
 20
34.3
 30
0.0
 11
636.0
 21
107.5
 31
0.0
  0
LINE
  8
L-ZISSEN
 10
607.0
 20
69.5
 30
0.0
 11
610.0
 21
69.5
 31
0.0
  0
LINE
  8
L-ZISSEN
 10
607.0
 20
69.5
 30
0.0
 11
607.0
 21
107.5
 31
0.0
  0
LINE
  8
L-ZISSEN
 10
610.0
 20
34.3
 30
0.0
 11
610.0
 21
69.5
 31
0.0
  0
LINE
  8
L-ZISSEN
 10
636.0
 20
75.5
 30
0.0
 11
607.0
 21
75.5
 31
0.0
  0
LINE
  8
L-ZISSEN
 10
641.8
 20
77.0
 30
0.0
 11
641.8
 21
79.0
 31
0.0
  0
LINE
  8
L-ZISSEN
 10
638.8
 20
79.0
 30
0.0
 11
644.8
 21
79.0
 31
0.0
  0
LINE
  8
L-ZISSEN
 10
638.8
 20
79.0
 30
0.0
 11
638.8
 21
65.7
 31
0.0
  0
LINE
  8
L-ZISSEN
 10
644.8
 20
79.0
 30
0.0
 11
644.8
 21
65.7
 31
0.0
  0
LINE
  8
L-ZISSEN
 10
636.0
 20
348.6
 30
0.0
 11
636.0
 21
371.4
 31
0.0
  0
LINE
  8
L-ZISSEN
 10
605.5
 20
371.4
 30
0.0
 11
647.0
 21
371.4
 31
0.0
  0
LINE
  8
L-ZISSEN
 10
605.5
 20
348.6
 30
0.0
 11
647.0
 21
348.6
 31
0.0
  0
LINE
  8
L-ZISSEN
 10
607.0
 20
284.0
 30
0.0
 11
636.0
 21
284.0
 31
0.0
  0
LINE
  8
L-ZISSEN
 10
636.0
 20
275.7
 30
0.0
 11
647.0
 21
275.7
 31
0.0
  0
LINE
  8
L-ZISSEN
 10
636.0
 20
244.3
 30
0.0
 11
636.0
 21
317.5
 31
0.0
  0
LINE
  8
L-ZISSEN
 10
605.5
 20
244.3
 30
0.0
 11
647.0
 21
244.3
 31
0.0
  0
LINE
  8
L-ZISSEN
 10
605.5
 20
275.7
 30
0.0
 11
610.0
 21
275.7
 31
0.0
  0
LINE
  8
L-ZISSEN
 10
607.0
 20
279.5
 30
0.0
 11
610.0
 21
279.5
 31
0.0
  0
LINE
  8
L-ZISSEN
 10
607.0
 20
279.5
 30
0.0
 11
607.0
 21
317.5
 31
0.0
  0
LINE
  8
L-ZISSEN
 10
610.0
 20
244.3
 30
0.0
 11
610.0
 21
279.5
 31
0.0
  0
LINE
  8
L-ZISSEN
 10
636.0
 20
285.5
 30
0.0
 11
607.0
 21
285.5
 31
0.0
  0
LINE
  8
L-ZISSEN
 10
590.2
 20
301.6
 30
0.0
 11
595.0
 21
301.6
 31
0.0
  0
LINE
  8
L-ZISSEN
 10
590.2
 20
315.4
 30
0.0
 11
595.0
 21
315.4
 31
0.0
  0
LINE
  8
L-ZISSEN
 10
590.2
 20
317.5
 30
0.0
 11
590.2
 21
299.5
 31
0.0
  0
LINE
  8
L-ZISSEN
 10
607.0
 20
299.5
 30
0.0
 11
595.0
 21
299.5
 31
0.0
  0
LINE
  8
L-ZISSEN
 10
595.0
 20
317.5
 30
0.0
 11
595.0
 21
299.5
 31
0.0
  0
LINE
  8
L-ZISSEN
 10
585.0
 20
317.5
 30
0.0
 11
585.0
 21
299.5
 31
0.0
  0
LINE
  8
L-ZISSEN
 10
590.2
 20
317.5
 30
0.0
 11
585.0
 21
317.5
 31
0.0
  0
LINE
  8
L-ZISSEN
 10
590.2
 20
299.5
 30
0.0
 11
585.0
 21
299.5
 31
0.0
  0
LINE
  8
L-ZISSEN
 10
636.0
 20
317.5
 30
0.0
 11
595.0
 21
317.5
 31
0.0
  0
LINE
  8
L-ZISSEN
 10
603.5
 20
349.754701
 30
0.0
 11
603.5
 21
351.0
 31
0.0
  0
LINE
  8
L-ZISSEN
 10
607.0
 20
348.6
 30
0.0
 11
607.0
 21
371.4
 31
0.0
  0
LINE
  8
L-ZISSEN
 10
603.5
 20
369.0
 30
0.0
 11
603.5
 21
370.245299
 31
0.0
  0
LINE
  8
L-ZISSEN
 10
607.0
 20
351.0
 30
0.0
 11
595.0
 21
351.0
 31
0.0
  0
LINE
  8
L-ZISSEN
 10
607.0
 20
369.0
 30
0.0
 11
595.0
 21
369.0
 31
0.0
  0
LINE
  8
L-ZISSEN
 10
796.0
 20
138.6
 30
0.0
 11
796.0
 21
161.4
 31
0.0
  0
LINE
  8
L-ZISSEN
 10
796.0
 20
141.0
 30
0.0
 11
808.0
 21
141.0
 31
0.0
  0
LINE
  8
L-ZISSEN
 10
796.0
 20
159.0
 30
0.0
 11
808.0
 21
159.0
 31
0.0
  0
LINE
  8
L-ZISSEN
 10
607.0
 20
159.0
 30
0.0
 11
595.0
 21
159.0
 31
0.0
  0
LINE
  8
L-ZISSEN
 10
607.0
 20
141.0
 30
0.0
 11
595.0
 21
141.0
 31
0.0
  0
LINE
  8
L-ZISSEN
 10
607.0
 20
138.6
 30
0.0
 11
607.0
 21
161.4
 31
0.0
  0
LINE
  8
L-ZISSEN
 10
636.0
 20
107.5
 30
0.0
 11
595.0
 21
107.5
 31
0.0
  0
LINE
  8
L-ZISSEN
 10
590.2
 20
89.5
 30
0.0
 11
585.0
 21
89.5
 31
0.0
  0
LINE
  8
L-ZISSEN
 10
590.2
 20
107.5
 30
0.0
 11
585.0
 21
107.5
 31
0.0
  0
LINE
  8
L-ZISSEN
 10
585.0
 20
107.5
 30
0.0
 11
585.0
 21
89.5
 31
0.0
  0
LINE
  8
L-ZISSEN
 10
595.0
 20
107.5
 30
0.0
 11
595.0
 21
89.5
 31
0.0
  0
LINE
  8
L-ZISSEN
 10
607.0
 20
89.5
 30
0.0
 11
595.0
 21
89.5
 31
0.0
  0
LINE
  8
L-ZISSEN
 10
590.2
 20
107.5
 30
0.0
 11
590.2
 21
89.5
 31
0.0
  0
LINE
  8
L-ZISSEN
 10
590.2
 20
105.4
 30
0.0
 11
595.0
 21
105.4
 31
0.0
  0
LINE
  8
L-ZISSEN
 10
590.2
 20
91.6
 30
0.0
 11
595.0
 21
91.6
 31
0.0
  0
LINE
  8
L-ZISSEN
 10
812.8
 20
91.6
 30
0.0
 11
808.0
 21
91.6
 31
0.0
  0
LINE
  8
L-ZISSEN
 10
812.8
 20
105.4
 30
0.0
 11
808.0
 21
105.4
 31
0.0
  0
LINE
  8
L-ZISSEN
 10
812.8
 20
107.5
 30
0.0
 11
812.8
 21
89.5
 31
0.0
  0
LINE
  8
L-ZISSEN
 10
796.0
 20
89.5
 30
0.0
 11
808.0
 21
89.5
 31
0.0
  0
LINE
  8
L-ZISSEN
 10
808.0
 20
107.5
 30
0.0
 11
808.0
 21
89.5
 31
0.0
  0
LINE
  8
L-ZISSEN
 10
818.0
 20
107.5
 30
0.0
 11
818.0
 21
89.5
 31
0.0
  0
LINE
  8
L-ZISSEN
 10
812.8
 20
107.5
 30
0.0
 11
818.0
 21
107.5
 31
0.0
  0
LINE
  8
L-ZISSEN
 10
812.8
 20
89.5
 30
0.0
 11
818.0
 21
89.5
 31
0.0
  0
LINE
  8
L-ZISSEN
 10
767.0
 20
107.5
 30
0.0
 11
808.0
 21
107.5
 31
0.0
  0
SOLID
  8
L-ZISSEN
 10
447.9
 20
31.033333
 30
0.0
 11
448.3
 21
31.566667
 31
0.0
 12
446.5
 22
32.5
 32
0.0
 13
446.5
 23
32.5
 33
0.0
  0
LINE
  8
L-ZISSEN
 10
448.1
 20
31.3
 30
0.0
 11
456.5
 21
25.0
 31
0.0
  0
LINE
  8
L-ZISSEN
 10
456.5
 20
25.0
 30
0.0
 11
458.5
 21
25.0
 31
0.0
  0
TEXT
  8
L-ZISSEN
 10
460.5
 20
22.75
 30
0.0
 40
4.5
  1
P.P
  0
SOLID
  8
L-ZISSEN
 10
447.096285
 20
148.062074
 30
0.0
 11
447.69257
 21
148.360217
 31
0.0
 12
446.5
 22
150.0
 32
0.0
 13
446.5
 23
150.0
 33
0.0
  0
LINE
  8
L-ZISSEN
 10
447.394427
 20
148.211146
 30
0.0
 11
456.5
 21
130.0
 31
0.0
  0
LINE
  8
L-ZISSEN
 10
456.5
 20
130.0
 30
0.0
 11
458.5
 21
130.0
 31
0.0
  0
TEXT
  8
L-ZISSEN
 10
460.5
 20
127.75
 30
0.0
 40
4.5
  1
P.P
  0
SOLID
  8
L-ZISSEN
 10
703.139783
 20
31.30743
 30
0.0
 11
703.437926
 21
31.903715
 31
0.0
 12
701.5
 22
32.5
 32
0.0
 13
701.5
 23
32.5
 33
0.0
  0
LINE
  8
L-ZISSEN
 10
703.288854
 20
31.605573
 30
0.0
 11
716.5
 21
25.0
 31
0.0
  0
LINE
  8
L-ZISSEN
 10
716.5
 20
25.0
 30
0.0
 11
718.5
 21
25.0
 31
0.0
  0
TEXT
  8
L-ZISSEN
 10
720.5
 20
22.75
 30
0.0
 40
4.5
  1
P.P
  0
SOLID
  8
L-ZISSEN
 10
702.433333
 20
148.2
 30
0.0
 11
702.966667
 21
148.6
 31
0.0
 12
701.5
 22
150.0
 32
0.0
 13
701.5
 23
150.0
 33
0.0
  0
LINE
  8
L-ZISSEN
 10
702.7
 20
148.4
 30
0.0
 11
716.5
 21
130.0
 31
0.0
  0
LINE
  8
L-ZISSEN
 10
716.5
 20
130.0
 30
0.0
 11
718.5
 21
130.0
 31
0.0
  0
TEXT
  8
L-ZISSEN
 10
720.5
 20
127.75
 30
0.0
 40
4.5
  1
P.P
  0
TEXT
  8
L-ZISSEN
 10
720.5
 20
337.75
 30
0.0
 40
4.5
  1
P.P
  0
LINE
  8
L-ZISSEN
 10
716.5
 20
340.0
 30
0.0
 11
718.5
 21
340.0
 31
0.0
  0
LINE
  8
L-ZISSEN
 10
702.7
 20
358.4
 30
0.0
 11
716.5
 21
340.0
 31
0.0
  0
SOLID
  8
L-ZISSEN
 10
702.433333
 20
358.2
 30
0.0
 11
702.966667
 21
358.6
 31
0.0
 12
701.5
 22
360.0
 32
0.0
 13
701.5
 23
360.0
 33
0.0
  0
TEXT
  8
L-ZISSEN
 10
720.5
 20
232.75
 30
0.0
 40
4.5
  1
P.P
  0
LINE
  8
L-ZISSEN
 10
716.5
 20
235.0
 30
0.0
 11
718.5
 21
235.0
 31
0.0
  0
LINE
  8
L-ZISSEN
 10
703.288854
 20
241.605573
 30
0.0
 11
716.5
 21
235.0
 31
0.0
  0
SOLID
  8
L-ZISSEN
 10
703.139783
 20
241.30743
 30
0.0
 11
703.437926
 21
241.903715
 31
0.0
 12
701.5
 22
242.5
 32
0.0
 13
701.5
 23
242.5
 33
0.0
  0
LINE
  8
L-ZISSEN
 10
175.0
 20
117.5
 30
0.0
 11
175.0
 21
82.5
 31
0.0
  0
LINE
  8
L-ZISSEN
 10
175.0
 20
26.8
 30
0.0
 11
175.0
 21
53.2
 31
0.0
  0
LINE
  8
L-ZISSEN
 10
175.0
 20
213.2
 30
0.0
 11
175.0
 21
186.8
 31
0.0
  0
LINE
  8
L-ZISSEN
 10
125.0
 20
213.2
 30
0.0
 11
125.0
 21
186.8
 31
0.0
  0
LINE
  8
L-ZISSEN
 10
125.0
 20
117.5
 30
0.0
 11
125.0
 21
82.5
 31
0.0
  0
LINE
  8
L-ZISSEN
 10
125.0
 20
26.8
 30
0.0
 11
125.0
 21
53.2
 31
0.0
  0
TEXT
  8
L-ZISSEN
 10
103.0
 20
245.0
 30
0.0
 40
4.5
  1
501-200-4008
  0
TEXT
  8
L-ZISSEN
 10
103.0
 20
235.0
 30
0.0
 40
4.5
  1
501-200-5008
  0
TEXT
  8
L-ZISSEN
 10
388.0
 20
195.0
 30
0.0
 40
4.5
  1
501-200-4018
  0
TEXT
  8
L-ZISSEN
 10
388.0
 20
185.0
 30
0.0
 40
4.5
  1
501-200-5018
  0
TEXT
  8
L-ZISSEN
 10
628.0
 20
185.0
 30
0.0
 40
4.5
  1
501-200-4014
  0
TEXT
  8
L-ZISSEN
 10
628.0
 20
175.0
 30
0.0
 40
4.5
  1
501-200-5014
  0
TEXT
  8
L-ZISSEN
 10
628.0
 20
405.0
 30
0.0
 40
4.5
  1
501-200-4004
  0
TEXT
  8
L-ZISSEN
 10
628.0
 20
395.0
 30
0.0
 40
4.5
  1
501-200-5004
  0
TEXT
  8
L-ZISSEN
 10
105.0
 20
10.0
 30
0.0
 40
4.5
  1
Rc 1/4
  0
SOLID
  8
L-ZISSEN
 10
148.533333
 20
38.6
 30
0.0
 11
149.066667
 21
38.2
 31
0.0
 12
150.0
 22
40.0
 32
0.0
 13
150.0
 23
40.0
 33
0.0
  0
LINE
  8
L-ZISSEN
 10
148.8
 20
38.4
 30
0.0
 11
135.0
 21
20.0
 31
0.0
  0
LINE
  8
L-ZISSEN
 10
135.0
 20
20.0
 30
0.0
 11
133.0
 21
20.0
 31
0.0
  0
TEXT
  8
L-ZISSEN
 10
101.0
 20
17.75
 30
0.0
 40
4.5
  1
"1" PORT
  0
CIRCLE
  8
L-ZISSEN
 10
209.7
 20
200.0
 30
0.0
 40
2.6
  0
LINE
  8
L-ZISSEN
 10
212.3
 20
116.0
 30
0.0
 11
212.3
 21
115.7
 31
0.0
  0
LINE
  8
L-ZISSEN
 10
207.1
 20
116.0
 30
0.0
 11
207.1
 21
115.7
 31
0.0
  0
LINE
  8
L-ZISSEN
 10
92.9
 20
116.0
 30
0.0
 11
92.9
 21
115.7
 31
0.0
  0
LINE
  8
L-ZISSEN
 10
87.7
 20
116.0
 30
0.0
 11
87.7
 21
115.7
 31
0.0
  0
LINE
  8
L-ZISSEN
 10
87.7
 20
116.0
 30
0.0
 11
92.9
 21
116.0
 31
0.0
  0
CIRCLE
  8
L-ZISSEN
 10
90.3
 20
200.0
 30
0.0
 40
2.6
  0
LINE
  8
L-ZISSEN
 10
225.5
 20
119.0
 30
0.0
 11
223.5
 21
115.7
 31
0.0
  0
LINE
  8
L-ZISSEN
 10
239.5
 20
195.0
 30
0.0
 11
239.5
 21
205.0
 31
0.0
  0
LINE
  8
L-ZISSEN
 10
240.997944
 20
195.0
 30
0.0
 11
240.997944
 21
205.0
 31
0.0
  0
LINE
  8
L-ZISSEN
 10
239.944246
 20
195.0
 30
0.0
 11
239.944246
 21
205.0
 31
0.0
  0
CIRCLE
  8
L-ZISSEN
 10
236.5
 20
202.5
 30
0.0
 40
0.75
  0
CIRCLE
  8
L-ZISSEN
 10
236.5
 20
197.5
 30
0.0
 40
0.75
  0
LINE
  8
L-ZISSEN
 10
246.0
 20
188.6
 30
0.0
 11
246.0
 21
211.4
 31
0.0
  0
LINE
  8
L-ZISSEN
 10
246.0
 20
188.6
 30
0.0
 11
248.0
 21
189.754701
 31
0.0
  0
LINE
  8
L-ZISSEN
 10
246.0
 20
211.4
 30
0.0
 11
248.0
 21
210.245299
 31
0.0
  0
LINE
  8
L-ZISSEN
 10
54.0
 20
211.4
 30
0.0
 11
52.0
 21
210.245299
 31
0.0
  0
LINE
  8
L-ZISSEN
 10
54.0
 20
188.6
 30
0.0
 11
52.0
 21
189.754701
 31
0.0
  0
LINE
  8
L-ZISSEN
 10
54.0
 20
188.6
 30
0.0
 11
54.0
 21
211.4
 31
0.0
  0
LINE
  8
L-ZISSEN
 10
52.0
 20
189.754701
 30
0.0
 11
52.0
 21
210.245299
 31
0.0
  0
CIRCLE
  8
L-ZISSEN
 10
63.5
 20
197.5
 30
0.0
 40
0.75
  0
CIRCLE
  8
L-ZISSEN
 10
63.5
 20
202.5
 30
0.0
 40
0.75
  0
LINE
  8
L-ZISSEN
 10
60.055754
 20
195.0
 30
0.0
 11
60.055754
 21
205.0
 31
0.0
  0
LINE
  8
L-ZISSEN
 10
59.002056
 20
195.0
 30
0.0
 11
59.002056
 21
205.0
 31
0.0
  0
LINE
  8
L-ZISSEN
 10
60.5
 20
195.0
 30
0.0
 11
60.5
 21
205.0
 31
0.0
  0
LINE
  8
L-ZISSEN
 10
66.5
 20
195.0
 30
0.0
 11
66.5
 21
205.0
 31
0.0
  0
LINE
  8
L-ZISSEN
 10
59.002056
 20
195.0
 30
0.0
 11
66.5
 21
195.0
 31
0.0
  0
LINE
  8
L-ZISSEN
 10
66.5
 20
205.0
 30
0.0
 11
59.002056
 21
205.0
 31
0.0
  0
LINE
  8
L-ZISSEN
 10
246.0
 20
84.3
 30
0.0
 11
246.0
 21
115.7
 31
0.0
  0
LINE
  8
L-ZISSEN
 10
246.0
 20
115.7
 30
0.0
 11
248.0
 21
114.545299
 31
0.0
  0
LINE
  8
L-ZISSEN
 10
246.0
 20
84.3
 30
0.0
 11
248.0
 21
85.454701
 31
0.0
  0
LINE
  8
L-ZISSEN
 10
54.0
 20
84.3
 30
0.0
 11
52.0
 21
85.454701
 31
0.0
  0
LINE
  8
L-ZISSEN
 10
54.0
 20
115.7
 30
0.0
 11
52.0
 21
114.545299
 31
0.0
  0
LINE
  8
L-ZISSEN
 10
54.0
 20
84.3
 30
0.0
 11
54.0
 21
115.7
 31
0.0
  0
LINE
  8
L-ZISSEN
 10
52.0
 20
85.454701
 30
0.0
 11
52.0
 21
114.545299
 31
0.0
  0
LINE
  8
L-ZISSEN
 10
58.5
 20
119.0
 30
0.0
 11
74.5
 21
119.0
 31
0.0
  0
LINE
  8
L-ZISSEN
 10
74.5
 20
119.0
 30
0.0
 11
76.5
 21
115.7
 31
0.0
  0
LINE
  8
L-ZISSEN
 10
246.0
 20
51.4
 30
0.0
 11
248.0
 21
50.245299
 31
0.0
  0
LINE
  8
L-ZISSEN
 10
246.0
 20
28.6
 30
0.0
 11
248.0
 21
29.754701
 31
0.0
  0
LINE
  8
L-ZISSEN
 10
246.0
 20
28.6
 30
0.0
 11
246.0
 21
51.4
 31
0.0
  0
LINE
  8
L-ZISSEN
 10
248.0
 20
29.754701
 30
0.0
 11
248.0
 21
50.245299
 31
0.0
  0
LINE
  8
L-ZISSEN
 10
52.0
 20
29.754701
 30
0.0
 11
52.0
 21
50.245299
 31
0.0
  0
LINE
  8
L-ZISSEN
 10
54.0
 20
28.6
 30
0.0
 11
54.0
 21
51.4
 31
0.0
  0
LINE
  8
L-ZISSEN
 10
54.0
 20
28.6
 30
0.0
 11
52.0
 21
29.754701
 31
0.0
  0
LINE
  8
L-ZISSEN
 10
54.0
 20
51.4
 30
0.0
 11
52.0
 21
50.245299
 31
0.0
  0
CIRCLE
  8
L-ZISSEN
 10
641.8
 20
360.0
 30
0.0
 40
2.6
  0
CIRCLE
  8
L-ZISSEN
 10
761.2
 20
360.0
 30
0.0
 40
2.6
  0
LINE
  8
L-ZISSEN
 10
797.5
 20
371.4
 30
0.0
 11
799.5
 21
370.245299
 31
0.0
  0
LINE
  8
L-ZISSEN
 10
797.5
 20
348.6
 30
0.0
 11
799.5
 21
349.754701
 31
0.0
  0
LINE
  8
L-ZISSEN
 10
797.5
 20
348.6
 30
0.0
 11
797.5
 21
351.0
 31
0.0
  0
LINE
  8
L-ZISSEN
 10
605.5
 20
348.6
 30
0.0
 11
605.5
 21
351.0
 31
0.0
  0
LINE
  8
L-ZISSEN
 10
605.5
 20
348.6
 30
0.0
 11
603.5
 21
349.754701
 31
0.0
  0
LINE
  8
L-ZISSEN
 10
605.5
 20
371.4
 30
0.0
 11
603.5
 21
370.245299
 31
0.0
  0
LINE
  8
L-ZISSEN
 10
605.5
 20
369.0
 30
0.0
 11
605.5
 21
371.4
 31
0.0
  0
LINE
  8
L-ZISSEN
 10
799.5
 20
369.0
 30
0.0
 11
799.5
 21
370.245299
 31
0.0
  0
LINE
  8
L-ZISSEN
 10
797.5
 20
369.0
 30
0.0
 11
797.5
 21
371.4
 31
0.0
  0
LINE
  8
L-ZISSEN
 10
758.6
 20
276.0
 30
0.0
 11
758.6
 21
275.7
 31
0.0
  0
LINE
  8
L-ZISSEN
 10
763.8
 20
276.0
 30
0.0
 11
763.8
 21
275.7
 31
0.0
  0
LINE
  8
L-ZISSEN
 10
763.8
 20
276.0
 30
0.0
 11
758.6
 21
276.0
 31
0.0
  0
LINE
  8
L-ZISSEN
 10
797.5
 20
244.3
 30
0.0
 11
799.5
 21
245.454701
 31
0.0
  0
LINE
  8
L-ZISSEN
 10
797.5
 20
275.7
 30
0.0
 11
799.5
 21
274.545299
 31
0.0
  0
LINE
  8
L-ZISSEN
 10
797.5
 20
244.3
 30
0.0
 11
797.5
 21
275.7
 31
0.0
  0
LINE
  8
L-ZISSEN
 10
799.5
 20
245.454701
 30
0.0
 11
799.5
 21
274.545299
 31
0.0
  0
LINE
  8
L-ZISSEN
 10
603.5
 20
245.454701
 30
0.0
 11
603.5
 21
274.545299
 31
0.0
  0
LINE
  8
L-ZISSEN
 10
605.5
 20
244.3
 30
0.0
 11
605.5
 21
275.7
 31
0.0
  0
LINE
  8
L-ZISSEN
 10
605.5
 20
275.7
 30
0.0
 11
603.5
 21
274.545299
 31
0.0
  0
LINE
  8
L-ZISSEN
 10
605.5
 20
244.3
 30
0.0
 11
603.5
 21
245.454701
 31
0.0
  0
LINE
  8
L-ZISSEN
 10
639.2
 20
276.0
 30
0.0
 11
644.4
 21
276.0
 31
0.0
  0
LINE
  8
L-ZISSEN
 10
639.2
 20
276.0
 30
0.0
 11
639.2
 21
275.7
 31
0.0
  0
LINE
  8
L-ZISSEN
 10
644.4
 20
276.0
 30
0.0
 11
644.4
 21
275.7
 31
0.0
  0
LINE
  8
L-ZISSEN
 10
797.5
 20
34.3
 30
0.0
 11
756.0
 21
34.3
 31
0.0
  0
LINE
  8
L-ZISSEN
 10
799.5
 20
35.454701
 30
0.0
 11
799.5
 21
64.545299
 31
0.0
  0
LINE
  8
L-ZISSEN
 10
797.5
 20
34.3
 30
0.0
 11
797.5
 21
65.7
 31
0.0
  0
LINE
  8
L-ZISSEN
 10
797.5
 20
65.7
 30
0.0
 11
799.5
 21
64.545299
 31
0.0
  0
LINE
  8
L-ZISSEN
 10
797.5
 20
34.3
 30
0.0
 11
799.5
 21
35.454701
 31
0.0
  0
LINE
  8
L-ZISSEN
 10
797.5
 20
65.7
 30
0.0
 11
793.0
 21
65.7
 31
0.0
  0
LINE
  8
L-ZISSEN
 10
605.5
 20
34.3
 30
0.0
 11
647.0
 21
34.3
 31
0.0
  0
LINE
  8
L-ZISSEN
 10
605.5
 20
34.3
 30
0.0
 11
603.5
 21
35.454701
 31
0.0
  0
LINE
  8
L-ZISSEN
 10
605.5
 20
65.7
 30
0.0
 11
603.5
 21
64.545299
 31
0.0
  0
LINE
  8
L-ZISSEN
 10
605.5
 20
34.3
 30
0.0
 11
605.5
 21
65.7
 31
0.0
  0
LINE
  8
L-ZISSEN
 10
603.5
 20
35.454701
 30
0.0
 11
603.5
 21
64.545299
 31
0.0
  0
LINE
  8
L-ZISSEN
 10
605.5
 20
65.7
 30
0.0
 11
610.0
 21
65.7
 31
0.0
  0
LINE
  8
L-ZISSEN
 10
605.5
 20
138.6
 30
0.0
 11
603.5
 21
139.754701
 31
0.0
  0
LINE
  8
L-ZISSEN
 10
605.5
 20
138.6
 30
0.0
 11
605.5
 21
141.0
 31
0.0
  0
LINE
  8
L-ZISSEN
 10
603.5
 20
139.754701
 30
0.0
 11
603.5
 21
141.0
 31
0.0
  0
LINE
  8
L-ZISSEN
 10
605.5
 20
159.0
 30
0.0
 11
605.5
 21
161.4
 31
0.0
  0
LINE
  8
L-ZISSEN
 10
605.5
 20
161.4
 30
0.0
 11
603.5
 21
160.245299
 31
0.0
  0
LINE
  8
L-ZISSEN
 10
603.5
 20
159.0
 30
0.0
 11
603.5
 21
160.245299
 31
0.0
  0
LINE
  8
L-ZISSEN
 10
797.5
 20
159.0
 30
0.0
 11
797.5
 21
161.4
 31
0.0
  0
LINE
  8
L-ZISSEN
 10
799.5
 20
159.0
 30
0.0
 11
799.5
 21
160.245299
 31
0.0
  0
LINE
  8
L-ZISSEN
 10
797.5
 20
161.4
 30
0.0
 11
799.5
 21
160.245299
 31
0.0
  0
LINE
  8
L-ZISSEN
 10
797.5
 20
138.6
 30
0.0
 11
797.5
 21
141.0
 31
0.0
  0
LINE
  8
L-ZISSEN
 10
797.5
 20
138.6
 30
0.0
 11
799.5
 21
139.754701
 31
0.0
  0
LINE
  8
L-ZISSEN
 10
799.5
 20
139.754701
 30
0.0
 11
799.5
 21
141.0
 31
0.0
  0
LINE
  8
L-ZISSEN
 10
605.5
 20
138.6
 30
0.0
 11
647.0
 21
138.6
 31
0.0
  0
LINE
  8
L-ZISSEN
 10
605.5
 20
161.4
 30
0.0
 11
647.0
 21
161.4
 31
0.0
  0
LINE
  8
L-ZISSEN
 10
797.5
 20
161.4
 30
0.0
 11
756.0
 21
161.4
 31
0.0
  0
LINE
  8
L-ZISSEN
 10
797.5
 20
138.6
 30
0.0
 11
756.0
 21
138.6
 31
0.0
  0
LINE
  8
L-ZISSEN
 10
590.2
 20
143.1
 30
0.0
 11
595.0
 21
143.1
 31
0.0
  0
LINE
  8
L-ZISSEN
 10
590.2
 20
156.9
 30
0.0
 11
595.0
 21
156.9
 31
0.0
  0
LINE
  8
L-ZISSEN
 10
590.2
 20
159.0
 30
0.0
 11
590.2
 21
141.0
 31
0.0
  0
LINE
  8
L-ZISSEN
 10
595.0
 20
159.0
 30
0.0
 11
595.0
 21
141.0
 31
0.0
  0
LINE
  8
L-ZISSEN
 10
585.0
 20
159.0
 30
0.0
 11
585.0
 21
141.0
 31
0.0
  0
LINE
  8
L-ZISSEN
 10
590.2
 20
159.0
 30
0.0
 11
585.0
 21
159.0
 31
0.0
  0
LINE
  8
L-ZISSEN
 10
590.2
 20
141.0
 30
0.0
 11
585.0
 21
141.0
 31
0.0
  0
LINE
  8
L-ZISSEN
 10
812.8
 20
141.0
 30
0.0
 11
818.0
 21
141.0
 31
0.0
  0
LINE
  8
L-ZISSEN
 10
812.8
 20
159.0
 30
0.0
 11
818.0
 21
159.0
 31
0.0
  0
LINE
  8
L-ZISSEN
 10
818.0
 20
159.0
 30
0.0
 11
818.0
 21
141.0
 31
0.0
  0
LINE
  8
L-ZISSEN
 10
808.0
 20
159.0
 30
0.0
 11
808.0
 21
141.0
 31
0.0
  0
LINE
  8
L-ZISSEN
 10
812.8
 20
159.0
 30
0.0
 11
812.8
 21
141.0
 31
0.0
  0
LINE
  8
L-ZISSEN
 10
812.8
 20
156.9
 30
0.0
 11
808.0
 21
156.9
 31
0.0
  0
LINE
  8
L-ZISSEN
 10
812.8
 20
143.1
 30
0.0
 11
808.0
 21
143.1
 31
0.0
  0
LINE
  8
L-ZISSEN
 10
812.8
 20
353.1
 30
0.0
 11
808.0
 21
353.1
 31
0.0
  0
LINE
  8
L-ZISSEN
 10
812.8
 20
366.9
 30
0.0
 11
808.0
 21
366.9
 31
0.0
  0
LINE
  8
L-ZISSEN
 10
812.8
 20
369.0
 30
0.0
 11
812.8
 21
351.0
 31
0.0
  0
LINE
  8
L-ZISSEN
 10
808.0
 20
369.0
 30
0.0
 11
808.0
 21
351.0
 31
0.0
  0
LINE
  8
L-ZISSEN
 10
818.0
 20
369.0
 30
0.0
 11
818.0
 21
351.0
 31
0.0
  0
LINE
  8
L-ZISSEN
 10
812.8
 20
369.0
 30
0.0
 11
818.0
 21
369.0
 31
0.0
  0
LINE
  8
L-ZISSEN
 10
812.8
 20
351.0
 30
0.0
 11
818.0
 21
351.0
 31
0.0
  0
LINE
  8
L-ZISSEN
 10
590.2
 20
351.0
 30
0.0
 11
585.0
 21
351.0
 31
0.0
  0
LINE
  8
L-ZISSEN
 10
590.2
 20
369.0
 30
0.0
 11
585.0
 21
369.0
 31
0.0
  0
LINE
  8
L-ZISSEN
 10
585.0
 20
369.0
 30
0.0
 11
585.0
 21
351.0
 31
0.0
  0
LINE
  8
L-ZISSEN
 10
595.0
 20
369.0
 30
0.0
 11
595.0
 21
351.0
 31
0.0
  0
LINE
  8
L-ZISSEN
 10
590.2
 20
369.0
 30
0.0
 11
590.2
 21
351.0
 31
0.0
  0
LINE
  8
L-ZISSEN
 10
590.2
 20
366.9
 30
0.0
 11
595.0
 21
366.9
 31
0.0
  0
LINE
  8
L-ZISSEN
 10
590.2
 20
353.1
 30
0.0
 11
595.0
 21
353.1
 31
0.0
  0
ENDSEC
  0
EOF
