  0
SECTION
  2
HEADER
  9
$ACADVER
  1
AC1006
  9
$INSBASE
 10
0.0
 20
0.0
 30
0.0
  9
$EXTMIN
 10
13.0
 20
20.0
  9
$EXTMAX
 10
1315.0
 20
760.0
  9
$LIMMIN
 10
0.0
 20
0.0
  9
$LIMMAX
 10
1189.0
 20
841.0
  9
$ORTHOMODE
 70
     0
  9
$REGENMODE
 70
     1
  9
$FILLMODE
 70
     1
  9
$QTEXTMODE
 70
     0
  9
$MIRRTEXT
 70
     1
  9
$DRAGMODE
 70
     2
  9
$LTSCALE
 40
1.0
  9
$OSMODE
 70
     0
  9
$ATTMODE
 70
     1
  9
$TEXTSIZE
 40
4.5
  9
$TRACEWID
 40
0.05
  9
$TEXTSTYLE
  7
STANDARD
  9
$CLAYER
  8
L-ZISSEN
  9
$CELTYPE
  6
BYLAYER
  9
$CECOLOR
 62
   256
  9
$DIMSCALE
 40
1.0
  9
$DIMASZ
 40
2.0
  9
$DIMEXO
 40
1.0
  9
$DIMDLI
 40
0.38
  9
$DIMRND
 40
0.0
  9
$DIMDLE
 40
1.0
  9
$DIMEXE
 40
1.0
  9
$DIMTP
 40
0.0
  9
$DIMTM
 40
0.0
  9
$DIMTXT
 40
4.5
  9
$DIMCEN
 40
0.09
  9
$DIMTSZ
 40
0.0
  9
$DIMTOL
 70
     0
  9
$DIMLIM
 70
     0
  9
$DIMTIH
 70
     0
  9
$DIMTOH
 70
     0
  9
$DIMSE1
 70
     0
  9
$DIMSE2
 70
     0
  9
$DIMTAD
 70
     1
  9
$DIMZIN
 70
     0
  9
$DIMBLK
  1

  9
$DIMASO
 70
     0
  9
$DIMSHO
 70
     0
  9
$DIMPOST
  1

  9
$DIMAPOST
  1

  9
$DIMALT
 70
     0
  9
$DIMALTD
 70
     2
  9
$DIMALTF
 40
25.4
  9
$DIMLFAC
 40
1.0
  9
$DIMTOFL
 70
     1
  9
$DIMTVP
 40
0.0
  9
$DIMTIX
 70
     1
  9
$DIMSOXD
 70
     0
  9
$DIMSAH
 70
     0
  9
$DIMBLK1
  1

  9
$DIMBLK2
  1

  9
$LUNITS
 70
     2
  9
$LUPREC
 70
     4
  9
$AXISMODE
 70
     0
  9
$AXISUNIT
 10
0.0
 20
0.0
  9
$SKETCHINC
 40
0.1
  9
$FILLETRAD
 40
5.0
  9
$AUNITS
 70
     0
  9
$AUPREC
 70
     0
  9
$MENU
  1
acad
  9
$ELEVATION
 40
0.0
  9
$THICKNESS
 40
0.0
  9
$LIMCHECK
 70
     0
  9
$BLIPMODE
 70
     1
  9
$CHAMFERA
 40
0.0
  9
$CHAMFERB
 40
0.0
  9
$SKPOLY
 70
     0
  9
$TDCREATE
 40
2449251.4954335648
  9
$TDUPDATE
 40
2449251.4954335648
  9
$TDINDWG
 40
0.0000000000
  9
$TDUSRTIMER
 40
0.0000000000
  9
$USRTIMER
 70
     1
  9
$ANGBASE
 50
0.0
  9
$ANGDIR
 70
     0
  9
$PDMODE
 70
     0
  9
$PDSIZE
 40
0.0
  9
$PLINEWID
 40
0.0
  9
$COORDS
 70
     2
  9
$SPLFRAME
 70
     0
  9
$SPLINETYPE
 70
     6
  9
$SPLINESEGS
 70
     8
  9
$ATTDIA
 70
     0
  9
$ATTREQ
 70
     1
  9
$HANDLING
 70
     0
  9
$HANDSEED
  5
0
  9
$SURFTAB1
 70
     6
  9
$SURFTAB2
 70
     6
  9
$SURFTYPE
 70
     6
  9
$SURFU
 70
     6
  9
$SURFV
 70
     6
  9
$FLATLAND
 70
     0
  9
$UCSNAME
  2

  9
$UCSORG
 10
0.0
 20
0.0
 30
0.0
  9
$UCSXDIR
 10
1.0
 20
0.0
 30
0.0
  9
$UCSYDIR
 10
0.0
 20
1.0
 30
0.0
  9
$USERI1
 70
     0
  9
$USERI2
 70
     0
  9
$USERI3
 70
     0
  9
$USERI4
 70
     0
  9
$USERI5
 70
     0
  9
$USERR1
 40
0.0
  9
$USERR2
 40
0.0
  9
$USERR3
 40
0.0
  9
$USERR4
 40
0.0
  9
$USERR5
 40
0.0
  9
$WORLDVIEW
 70
     1
  0
ENDSEC
  0
SECTION
  2
TABLES
  0
TABLE
  2
VPORT
 70
     2
  0
VPORT
  2
*ACTIVE
 70
     0
 10
0.0
 20
0.0
 11
1.0
 21
1.0
 12
674.578245
 22
435.577173
 13
0.0
 23
0.0
 14
5.0
 24
5.0
 15
0.0
 25
0.0
 16
0.0
 26
0.0
 36
1.0
 17
0.0
 27
0.0
 37
0.0
 40
871.154346
 41
1.5487
 42
50.0
 43
0.0
 44
0.0
 50
0.0
 51
0.0
 71
     0
 72
   100
 73
     1
 74
     0
 75
     0
 76
     0
 77
     0
 78
     0
  0
ENDTAB
  0
TABLE
  2
LTYPE
 70
     2
  0
LTYPE
  2
CONTINUOUS
 70
    64
  3
Solid line
 72
    65
 73
     0
 40
0.0
  0
LTYPE
  2
CENTER
 70
    64
  3
____ _ ____ _ ____ _ ____ _ 
 72
    65
 73
     4
 40
60.0
 49
45.0
 49
-5.0
 49
5.0
 49
-5.0
  0
ENDTAB
  0
TABLE
  2
LAYER
 70
     3
  0
LAYER
  2
0
 70
     0
 62
     7
  6
CONTINUOUS
  0
LAYER
  2
L-ZISSEN
 70
    64
 62
     7
  6
CONTINUOUS
  0
LAYER
  2
L-TYUSIN
 70
    64
 62
     1
  6
CENTER
  0
ENDTAB
  0
TABLE
  2
STYLE
 70
     1
  0
STYLE
  2
STANDARD
 70
    64
 40
0.0
 41
1.0
 50
0.0
 71
     0
 42
4.5
  3
TXT
  4

  0
ENDTAB
  0
TABLE
  2
VIEW
 70
     0
  0
ENDTAB
  0
TABLE
  2
UCS
 70
     0
  0
ENDTAB
  0
TABLE
  2
DWGMGR
 70
     0
  0
ENDTAB
  0
ENDSEC
  0
SECTION
  2
BLOCKS
  0
ENDSEC
  0
SECTION
  2
ENTITIES
  0
LINE
  8
L-ZISSEN
  6
CONTINUOUS
 62
     7
 10
477.5
 20
107.0
 30
0.0
 11
485.0
 21
107.0
 31
0.0
  0
LINE
  8
L-ZISSEN
  6
CONTINUOUS
 62
     7
 10
477.5
 20
107.0
 30
0.0
 11
477.5
 21
117.0
 31
0.0
  0
LINE
  8
L-ZISSEN
  6
CONTINUOUS
 62
     7
 10
477.5
 20
117.0
 30
0.0
 11
485.0
 21
117.0
 31
0.0
  0
LINE
  8
L-ZISSEN
  6
CONTINUOUS
 62
     7
 10
477.5
 20
151.0
 30
0.0
 11
485.0
 21
151.0
 31
0.0
  0
LINE
  8
L-ZISSEN
  6
CONTINUOUS
 62
     7
 10
477.5
 20
161.0
 30
0.0
 11
477.5
 21
151.0
 31
0.0
  0
LINE
  8
L-ZISSEN
  6
CONTINUOUS
 62
     7
 10
477.5
 20
161.0
 30
0.0
 11
485.0
 21
161.0
 31
0.0
  0
LINE
  8
L-TYUSIN
  6
CENTER
 62
     1
 10
648.8
 20
134.0
 30
0.0
 11
662.0
 21
134.0
 31
0.0
  0
LINE
  8
L-ZISSEN
  6
CONTINUOUS
 62
     7
 10
498.0
 20
133.0
 30
0.0
 11
632.0
 21
133.0
 31
0.0
  0
LINE
  8
L-ZISSEN
  6
CONTINUOUS
 62
     7
 10
557.0
 20
55.5
 30
0.0
 11
557.0
 21
67.0
 31
0.0
  0
ARC
  8
L-ZISSEN
  6
CONTINUOUS
 62
     7
 10
551.0
 20
74.0
 30
0.0
 40
5.0
 50
203.578178
 51
336.421822
  0
ARC
  8
L-ZISSEN
  6
CONTINUOUS
 62
     7
 10
551.0
 20
126.0
 30
0.0
 40
5.0
 50
23.578178
 51
156.421822
  0
LINE
  8
L-ZISSEN
  6
CONTINUOUS
 62
     7
 10
573.0
 20
55.5
 30
0.0
 11
573.0
 21
67.0
 31
0.0
  0
ARC
  8
L-ZISSEN
  6
CONTINUOUS
 62
     7
 10
579.0
 20
74.0
 30
0.0
 40
5.0
 50
203.578178
 51
336.421822
  0
ARC
  8
L-ZISSEN
  6
CONTINUOUS
 62
     7
 10
579.0
 20
126.0
 30
0.0
 40
5.0
 50
23.578178
 51
156.421822
  0
LINE
  8
L-ZISSEN
  6
CONTINUOUS
 62
     7
 10
653.8
 20
162.0
 30
0.0
 11
653.8
 21
106.0
 31
0.0
  0
LINE
  8
L-ZISSEN
  6
CONTINUOUS
 62
     7
 10
485.0
 20
106.0
 30
0.0
 11
501.0
 21
106.0
 31
0.0
  0
LINE
  8
L-ZISSEN
  6
CONTINUOUS
 62
     7
 10
485.0
 20
162.0
 30
0.0
 11
657.0
 21
162.0
 31
0.0
  0
LINE
  8
L-ZISSEN
  6
CONTINUOUS
 62
     7
 10
470.0
 20
156.5
 30
0.0
 11
477.5
 21
156.5
 31
0.0
  0
LINE
  8
L-ZISSEN
  6
CONTINUOUS
 62
     7
 10
470.0
 20
111.5
 30
0.0
 11
470.0
 21
156.5
 31
0.0
  0
LINE
  8
L-ZISSEN
  6
CONTINUOUS
 62
     7
 10
470.0
 20
111.5
 30
0.0
 11
477.5
 21
111.5
 31
0.0
  0
LINE
  8
L-ZISSEN
  6
CONTINUOUS
 62
     7
 10
485.0
 20
162.0
 30
0.0
 11
485.0
 21
106.0
 31
0.0
  0
LINE
  8
L-ZISSEN
  6
CONTINUOUS
 62
     7
 10
480.0
 20
117.0
 30
0.0
 11
480.0
 21
151.0
 31
0.0
  0
LINE
  8
L-ZISSEN
  6
CONTINUOUS
 62
     7
 10
557.0
 20
55.5
 30
0.0
 11
501.0
 21
55.5
 31
0.0
  0
LINE
  8
L-ZISSEN
  6
CONTINUOUS
 62
     7
 10
546.0
 20
52.5
 30
0.0
 11
512.0
 21
52.5
 31
0.0
  0
LINE
  8
L-ZISSEN
  6
CONTINUOUS
 62
     7
 10
560.0
 20
162.0
 30
0.0
 11
560.0
 21
133.0
 31
0.0
  0
LINE
  8
L-ZISSEN
  6
CONTINUOUS
 62
     7
 10
498.0
 20
162.0
 30
0.0
 11
498.0
 21
133.0
 31
0.0
  0
CIRCLE
  8
L-ZISSEN
  6
CONTINUOUS
 62
     7
 10
507.0
 20
74.0
 30
0.0
 40
5.0
  0
CIRCLE
  8
L-ZISSEN
  6
CONTINUOUS
 62
     7
 10
507.0
 20
126.0
 30
0.0
 40
5.0
  0
LINE
  8
L-ZISSEN
  6
CONTINUOUS
 62
     7
 10
536.5
 20
162.0
 30
0.0
 11
536.5
 21
157.0
 31
0.0
  0
LINE
  8
L-ZISSEN
  6
CONTINUOUS
 62
     7
 10
536.5
 20
157.0
 30
0.0
 11
534.0
 21
147.0
 31
0.0
  0
LINE
  8
L-ZISSEN
  6
CONTINUOUS
 62
     7
 10
521.5
 20
157.0
 30
0.0
 11
524.0
 21
147.0
 31
0.0
  0
LINE
  8
L-ZISSEN
  6
CONTINUOUS
 62
     7
 10
521.5
 20
162.0
 30
0.0
 11
521.5
 21
157.0
 31
0.0
  0
LINE
  8
L-ZISSEN
  6
CONTINUOUS
 62
     7
 10
498.0
 20
157.0
 30
0.0
 11
560.0
 21
157.0
 31
0.0
  0
LINE
  8
L-ZISSEN
  6
CONTINUOUS
 62
     7
 10
501.0
 20
55.5
 30
0.0
 11
501.0
 21
133.0
 31
0.0
  0
LINE
  8
L-ZISSEN
  6
CONTINUOUS
 62
     7
 10
501.0
 20
60.0
 30
0.0
 11
557.0
 21
60.0
 31
0.0
  0
LINE
  8
L-ZISSEN
  6
CONTINUOUS
 62
     7
 10
632.0
 20
157.0
 30
0.0
 11
570.0
 21
157.0
 31
0.0
  0
LINE
  8
L-ZISSEN
  6
CONTINUOUS
 62
     7
 10
565.0
 20
193.6
 30
0.0
 11
565.0
 21
133.0
 31
0.0
  0
LINE
  8
L-ZISSEN
  6
CONTINUOUS
 62
     7
 10
596.0
 20
134.230304
 30
0.0
 11
596.0
 21
147.0
 31
0.0
  0
LINE
  8
L-ZISSEN
  6
CONTINUOUS
 62
     7
 10
608.5
 20
162.0
 30
0.0
 11
608.5
 21
157.0
 31
0.0
  0
LINE
  8
L-ZISSEN
  6
CONTINUOUS
 62
     7
 10
608.5
 20
157.0
 30
0.0
 11
606.0
 21
147.0
 31
0.0
  0
LINE
  8
L-ZISSEN
  6
CONTINUOUS
 62
     7
 10
593.5
 20
157.0
 30
0.0
 11
596.0
 21
147.0
 31
0.0
  0
LINE
  8
L-ZISSEN
  6
CONTINUOUS
 62
     7
 10
593.5
 20
162.0
 30
0.0
 11
593.5
 21
157.0
 31
0.0
  0
LINE
  8
L-ZISSEN
  6
CONTINUOUS
 62
     7
 10
629.0
 20
55.5
 30
0.0
 11
629.0
 21
133.0
 31
0.0
  0
CIRCLE
  8
L-ZISSEN
  6
CONTINUOUS
 62
     7
 10
623.0
 20
126.0
 30
0.0
 40
5.0
  0
CIRCLE
  8
L-ZISSEN
  6
CONTINUOUS
 62
     7
 10
623.0
 20
74.0
 30
0.0
 40
5.0
  0
LINE
  8
L-ZISSEN
  6
CONTINUOUS
 62
     7
 10
632.0
 20
162.0
 30
0.0
 11
632.0
 21
133.0
 31
0.0
  0
LINE
  8
L-ZISSEN
  6
CONTINUOUS
 62
     7
 10
570.0
 20
162.0
 30
0.0
 11
570.0
 21
133.0
 31
0.0
  0
LINE
  8
L-ZISSEN
  6
CONTINUOUS
 62
     7
 10
584.0
 20
52.5
 30
0.0
 11
618.0
 21
52.5
 31
0.0
  0
LINE
  8
L-ZISSEN
  6
CONTINUOUS
 62
     7
 10
573.0
 20
55.5
 30
0.0
 11
629.0
 21
55.5
 31
0.0
  0
LINE
  8
L-ZISSEN
  6
CONTINUOUS
 62
     7
 10
628.0
 20
48.0
 30
0.0
 11
618.0
 21
48.0
 31
0.0
  0
LINE
  8
L-ZISSEN
  6
CONTINUOUS
 62
     7
 10
628.0
 20
48.0
 30
0.0
 11
628.0
 21
55.5
 31
0.0
  0
LINE
  8
L-TYUSIN
  6
CENTER
 62
     1
 10
535.0
 20
100.0
 30
0.0
 11
595.0
 21
100.0
 31
0.0
  0
LINE
  8
L-ZISSEN
  6
CONTINUOUS
 62
     7
 10
629.0
 20
106.0
 30
0.0
 11
657.0
 21
106.0
 31
0.0
  0
LINE
  8
L-ZISSEN
  6
CONTINUOUS
 62
     7
 10
657.0
 20
106.0
 30
0.0
 11
657.0
 21
162.0
 31
0.0
  0
LINE
  8
L-TYUSIN
  6
CENTER
 62
     1
 10
498.0
 20
134.0
 30
0.0
 11
465.0
 21
134.0
 31
0.0
  0
LINE
  8
L-ZISSEN
 10
606.0
 20
134.230304
 30
0.0
 11
596.0
 21
134.230304
 31
0.0
  0
LINE
  8
L-ZISSEN
  6
CONTINUOUS
 62
     7
 10
606.0
 20
134.230304
 30
0.0
 11
606.0
 21
147.0
 31
0.0
  0
LINE
  8
L-ZISSEN
  6
CONTINUOUS
 62
     7
 10
524.0
 20
134.230304
 30
0.0
 11
524.0
 21
147.0
 31
0.0
  0
LINE
  8
L-ZISSEN
  6
CONTINUOUS
 62
     7
 10
534.0
 20
134.230304
 30
0.0
 11
534.0
 21
147.0
 31
0.0
  0
LINE
  8
L-ZISSEN
 10
534.0
 20
134.230304
 30
0.0
 11
524.0
 21
134.230304
 31
0.0
  0
LINE
  8
L-ZISSEN
  6
CONTINUOUS
 62
     7
 10
501.0
 20
67.0
 30
0.0
 11
629.0
 21
67.0
 31
0.0
  0
LINE
  8
L-ZISSEN
  6
CONTINUOUS
 62
     7
 10
573.0
 20
60.0
 30
0.0
 11
629.0
 21
60.0
 31
0.0
  0
LINE
  8
L-ZISSEN
  6
CONTINUOUS
 62
     7
 10
618.0
 20
48.0
 30
0.0
 11
618.0
 21
55.5
 31
0.0
  0
LINE
  8
L-ZISSEN
  6
CONTINUOUS
 62
     7
 10
574.0
 20
48.0
 30
0.0
 11
574.0
 21
55.5
 31
0.0
  0
LINE
  8
L-ZISSEN
  6
CONTINUOUS
 62
     7
 10
584.0
 20
48.0
 30
0.0
 11
584.0
 21
55.5
 31
0.0
  0
LINE
  8
L-ZISSEN
  6
CONTINUOUS
 62
     7
 10
584.0
 20
48.0
 30
0.0
 11
574.0
 21
48.0
 31
0.0
  0
LINE
  8
L-ZISSEN
  6
CONTINUOUS
 62
     7
 10
512.0
 20
48.0
 30
0.0
 11
502.0
 21
48.0
 31
0.0
  0
LINE
  8
L-ZISSEN
  6
CONTINUOUS
 62
     7
 10
512.0
 20
48.0
 30
0.0
 11
512.0
 21
55.5
 31
0.0
  0
LINE
  8
L-ZISSEN
  6
CONTINUOUS
 62
     7
 10
502.0
 20
48.0
 30
0.0
 11
502.0
 21
55.5
 31
0.0
  0
LINE
  8
L-ZISSEN
  6
CONTINUOUS
 62
     7
 10
546.0
 20
48.0
 30
0.0
 11
546.0
 21
55.5
 31
0.0
  0
LINE
  8
L-ZISSEN
  6
CONTINUOUS
 62
     7
 10
556.0
 20
48.0
 30
0.0
 11
556.0
 21
55.5
 31
0.0
  0
LINE
  8
L-ZISSEN
  6
CONTINUOUS
 62
     7
 10
556.0
 20
48.0
 30
0.0
 11
546.0
 21
48.0
 31
0.0
  0
LINE
  8
L-ZISSEN
 10
637.0
 20
193.6
 30
0.0
 11
493.0
 21
193.6
 31
0.0
  0
LINE
  8
L-TYUSIN
  6
CENTER
 62
     1
 10
565.0
 20
216.6
 30
0.0
 11
565.0
 21
62.0
 31
0.0
  0
LINE
  8
L-ZISSEN
 10
637.0
 20
211.6
 30
0.0
 11
493.0
 21
211.6
 31
0.0
  0
LINE
  8
L-TYUSIN
  6
CENTER
 62
     1
 10
94.0
 20
130.0
 30
0.0
 11
94.0
 21
70.0
 31
0.0
  0
LINE
  8
L-TYUSIN
  6
CENTER
 62
     1
 10
166.0
 20
130.0
 30
0.0
 11
166.0
 21
70.0
 31
0.0
  0
LINE
  8
L-TYUSIN
  6
CENTER
 62
     1
 10
130.0
 20
217.0
 30
0.0
 11
130.0
 21
62.0
 31
0.0
  0
LINE
  8
L-TYUSIN
  6
CENTER
 62
     1
 10
340.0
 20
216.6
 30
0.0
 11
340.0
 21
46.0
 31
0.0
  0
LINE
  8
L-ZISSEN
 10
301.0
 20
211.6
 30
0.0
 11
301.0
 21
157.0
 31
0.0
  0
LINE
  8
L-ZISSEN
 10
301.0
 20
193.6
 30
0.0
 11
382.0
 21
193.6
 31
0.0
  0
LINE
  8
L-ZISSEN
 10
382.0
 20
193.6
 30
0.0
 11
382.0
 21
211.6
 31
0.0
  0
LINE
  8
L-ZISSEN
 10
382.0
 20
211.6
 30
0.0
 11
301.0
 21
211.6
 31
0.0
  0
LINE
  8
L-TYUSIN
  6
CENTER
 62
     1
 10
396.5
 20
126.0
 30
0.0
 11
396.5
 21
142.0
 31
0.0
  0
LINE
  8
L-TYUSIN
  6
CENTER
 62
     1
 10
408.5
 20
134.0
 30
0.0
 11
384.5
 21
134.0
 31
0.0
  0
LINE
  8
L-ZISSEN
 10
379.0
 20
193.6
 30
0.0
 11
379.0
 21
157.0
 31
0.0
  0
LINE
  8
L-ZISSEN
  6
CONTINUOUS
 62
     7
 10
376.5
 20
134.230304
 30
0.0
 11
376.5
 21
147.669873
 31
0.0
  0
LINE
  8
L-ZISSEN
  6
CONTINUOUS
 62
     7
 10
379.0
 20
157.0
 30
0.0
 11
376.5
 21
147.669873
 31
0.0
  0
LINE
  8
L-ZISSEN
 10
373.0
 20
134.230304
 30
0.0
 11
376.5
 21
134.230304
 31
0.0
  0
LINE
  8
L-ZISSEN
 10
307.0
 20
134.230304
 30
0.0
 11
303.5
 21
134.230304
 31
0.0
  0
LINE
  8
L-ZISSEN
  6
CONTINUOUS
 62
     7
 10
410.5
 20
73.0
 30
0.0
 11
403.0
 21
73.0
 31
0.0
  0
LINE
  8
L-ZISSEN
  6
CONTINUOUS
 62
     7
 10
410.5
 20
83.0
 30
0.0
 11
403.0
 21
83.0
 31
0.0
  0
LINE
  8
L-ZISSEN
  6
CONTINUOUS
 62
     7
 10
410.5
 20
73.0
 30
0.0
 11
410.5
 21
83.0
 31
0.0
  0
LINE
  8
L-ZISSEN
  6
CONTINUOUS
 62
     7
 10
410.5
 20
117.0
 30
0.0
 11
403.0
 21
117.0
 31
0.0
  0
LINE
  8
L-ZISSEN
  6
CONTINUOUS
 62
     7
 10
410.5
 20
127.0
 30
0.0
 11
410.5
 21
117.0
 31
0.0
  0
LINE
  8
L-ZISSEN
  6
CONTINUOUS
 62
     7
 10
410.5
 20
127.0
 30
0.0
 11
403.0
 21
127.0
 31
0.0
  0
LINE
  8
L-ZISSEN
  6
CONTINUOUS
 62
     7
 10
388.5
 20
131.0
 30
0.0
 11
381.0
 21
131.0
 31
0.0
  0
LINE
  8
L-ZISSEN
  6
CONTINUOUS
 62
     7
 10
388.5
 20
131.0
 30
0.0
 11
388.5
 21
121.0
 31
0.0
  0
LINE
  8
L-ZISSEN
  6
CONTINUOUS
 62
     7
 10
291.5
 20
69.0
 30
0.0
 11
299.0
 21
69.0
 31
0.0
  0
LINE
  8
L-ZISSEN
  6
CONTINUOUS
 62
     7
 10
291.5
 20
69.0
 30
0.0
 11
291.5
 21
79.0
 31
0.0
  0
LINE
  8
L-ZISSEN
  6
CONTINUOUS
 62
     7
 10
284.0
 20
77.5
 30
0.0
 11
291.5
 21
77.5
 31
0.0
  0
LINE
  8
L-ZISSEN
  6
CONTINUOUS
 62
     7
 10
367.0
 20
48.0
 30
0.0
 11
367.0
 21
55.5
 31
0.0
  0
LINE
  8
L-ZISSEN
  6
CONTINUOUS
 62
     7
 10
357.0
 20
48.0
 30
0.0
 11
367.0
 21
48.0
 31
0.0
  0
LINE
  8
L-ZISSEN
  6
CONTINUOUS
 62
     7
 10
357.0
 20
48.0
 30
0.0
 11
357.0
 21
55.5
 31
0.0
  0
LINE
  8
L-TYUSIN
  6
CENTER
 62
     1
 10
279.0
 20
100.0
 30
0.0
 11
423.0
 21
100.0
 31
0.0
  0
LINE
  8
L-TYUSIN
  6
CENTER
 62
     1
 10
370.0
 20
134.0
 30
0.0
 11
310.0
 21
134.0
 31
0.0
  0
LINE
  8
L-ZISSEN
  6
CONTINUOUS
 62
     7
 10
415.0
 20
162.0
 30
0.0
 11
265.0
 21
162.0
 31
0.0
  0
LINE
  8
L-ZISSEN
  6
CONTINUOUS
 62
     7
 10
313.0
 20
48.0
 30
0.0
 11
313.0
 21
55.5
 31
0.0
  0
LINE
  8
L-ZISSEN
  6
CONTINUOUS
 62
     7
 10
313.0
 20
48.0
 30
0.0
 11
323.0
 21
48.0
 31
0.0
  0
LINE
  8
L-ZISSEN
  6
CONTINUOUS
 62
     7
 10
323.0
 20
48.0
 30
0.0
 11
323.0
 21
55.5
 31
0.0
  0
LINE
  8
L-ZISSEN
  6
CONTINUOUS
 62
     7
 10
323.0
 20
52.5
 30
0.0
 11
357.0
 21
52.5
 31
0.0
  0
LINE
  8
L-ZISSEN
  6
CONTINUOUS
 62
     7
 10
312.0
 20
55.5
 30
0.0
 11
368.0
 21
55.5
 31
0.0
  0
CIRCLE
  8
L-ZISSEN
  6
CONTINUOUS
 62
     7
 10
366.0
 20
112.0
 30
0.0
 40
5.0
  0
CIRCLE
  8
L-ZISSEN
  6
CONTINUOUS
 62
     7
 10
314.0
 20
112.0
 30
0.0
 40
5.0
  0
CIRCLE
  8
L-ZISSEN
  6
CONTINUOUS
 62
     7
 10
366.0
 20
156.0
 30
0.0
 40
5.0
  0
LINE
  8
L-ZISSEN
  6
CONTINUOUS
 62
     7
 10
299.0
 20
133.0
 30
0.0
 11
307.0
 21
133.0
 31
0.0
  0
LINE
  8
L-ZISSEN
  6
CONTINUOUS
 62
     7
 10
284.0
 20
77.5
 30
0.0
 11
284.0
 21
122.5
 31
0.0
  0
LINE
  8
L-ZISSEN
  6
CONTINUOUS
 62
     7
 10
299.0
 20
67.0
 30
0.0
 11
299.0
 21
133.0
 31
0.0
  0
LINE
  8
L-ZISSEN
  6
CONTINUOUS
 62
     7
 10
291.5
 20
131.0
 30
0.0
 11
291.5
 21
121.0
 31
0.0
  0
LINE
  8
L-ZISSEN
  6
CONTINUOUS
 62
     7
 10
291.5
 20
131.0
 30
0.0
 11
299.0
 21
131.0
 31
0.0
  0
CIRCLE
  8
L-ZISSEN
  6
CONTINUOUS
 62
     7
 10
314.0
 20
156.0
 30
0.0
 40
5.0
  0
CIRCLE
  8
L-ZISSEN
  6
CONTINUOUS
 62
     7
 10
340.0
 20
134.0
 30
0.0
 40
22.5
  0
LINE
  8
L-ZISSEN
  6
CONTINUOUS
 62
     7
 10
307.0
 20
162.0
 30
0.0
 11
307.0
 21
67.0
 31
0.0
  0
LINE
  8
L-ZISSEN
  6
CONTINUOUS
 62
     7
 10
373.0
 20
162.0
 30
0.0
 11
373.0
 21
67.0
 31
0.0
  0
LINE
  8
L-ZISSEN
  6
CONTINUOUS
 62
     7
 10
307.0
 20
106.0
 30
0.0
 11
373.0
 21
106.0
 31
0.0
  0
LINE
  8
L-ZISSEN
  6
CONTINUOUS
 62
     7
 10
312.0
 20
67.0
 30
0.0
 11
299.0
 21
67.0
 31
0.0
  0
LINE
  8
L-ZISSEN
  6
CONTINUOUS
 62
     7
 10
312.0
 20
55.5
 30
0.0
 11
312.0
 21
67.0
 31
0.0
  0
LINE
  8
L-ZISSEN
  6
CONTINUOUS
 62
     7
 10
301.0
 20
157.0
 30
0.0
 11
303.5
 21
147.669873
 31
0.0
  0
LINE
  8
L-ZISSEN
  6
CONTINUOUS
 62
     7
 10
303.5
 20
134.230304
 30
0.0
 11
303.5
 21
147.669873
 31
0.0
  0
LINE
  8
L-ZISSEN
  6
CONTINUOUS
 62
     7
 10
381.0
 20
67.0
 30
0.0
 11
368.0
 21
67.0
 31
0.0
  0
LINE
  8
L-ZISSEN
  6
CONTINUOUS
 62
     7
 10
368.0
 20
55.5
 30
0.0
 11
368.0
 21
67.0
 31
0.0
  0
LINE
  8
L-ZISSEN
  6
CONTINUOUS
 62
     7
 10
312.0
 20
60.0
 30
0.0
 11
368.0
 21
60.0
 31
0.0
  0
LINE
  8
L-ZISSEN
  6
CONTINUOUS
 62
     7
 10
395.0
 20
72.0
 30
0.0
 11
395.0
 21
128.0
 31
0.0
  0
LINE
  8
L-ZISSEN
  6
CONTINUOUS
 62
     7
 10
381.0
 20
67.0
 30
0.0
 11
381.0
 21
133.0
 31
0.0
  0
LINE
  8
L-ZISSEN
  6
CONTINUOUS
 62
     7
 10
403.0
 20
72.0
 30
0.0
 11
388.5
 21
72.0
 31
0.0
  0
LINE
  8
L-ZISSEN
  6
CONTINUOUS
 62
     7
 10
403.0
 20
128.0
 30
0.0
 11
388.5
 21
128.0
 31
0.0
  0
LINE
  8
L-ZISSEN
  6
CONTINUOUS
 62
     7
 10
394.279056
 20
121.0
 30
0.0
 11
388.5
 21
121.0
 31
0.0
  0
LINE
  8
L-ZISSEN
  6
CONTINUOUS
 62
     7
 10
381.0
 20
133.0
 30
0.0
 11
373.0
 21
133.0
 31
0.0
  0
LINE
  8
L-ZISSEN
  6
CONTINUOUS
 62
     7
 10
388.5
 20
69.0
 30
0.0
 11
388.5
 21
79.0
 31
0.0
  0
LINE
  8
L-ZISSEN
  6
CONTINUOUS
 62
     7
 10
388.5
 20
69.0
 30
0.0
 11
381.0
 21
69.0
 31
0.0
  0
LINE
  8
L-ZISSEN
  6
CONTINUOUS
 62
     7
 10
418.0
 20
122.5
 30
0.0
 11
410.5
 21
122.5
 31
0.0
  0
LINE
  8
L-ZISSEN
  6
CONTINUOUS
 62
     7
 10
418.0
 20
77.5
 30
0.0
 11
418.0
 21
122.5
 31
0.0
  0
LINE
  8
L-ZISSEN
  6
CONTINUOUS
 62
     7
 10
418.0
 20
77.5
 30
0.0
 11
410.5
 21
77.5
 31
0.0
  0
LINE
  8
L-ZISSEN
  6
CONTINUOUS
 62
     7
 10
403.0
 20
128.0
 30
0.0
 11
403.0
 21
72.0
 31
0.0
  0
LINE
  8
L-ZISSEN
  6
CONTINUOUS
 62
     7
 10
415.0
 20
162.0
 30
0.0
 11
415.0
 21
122.5
 31
0.0
  0
ARC
  8
L-ZISSEN
  6
CONTINUOUS
 62
     7
 10
401.0
 20
134.0
 30
0.0
 40
4.5
 50
270.0
 51
90.0
  0
LINE
  8
L-ZISSEN
  6
CONTINUOUS
 62
     7
 10
392.0
 20
129.5
 30
0.0
 11
401.0
 21
129.5
 31
0.0
  0
LINE
  8
L-ZISSEN
  6
CONTINUOUS
 62
     7
 10
392.0
 20
138.5
 30
0.0
 11
401.0
 21
138.5
 31
0.0
  0
LINE
  8
L-ZISSEN
  6
CONTINUOUS
 62
     7
 10
265.0
 20
106.0
 30
0.0
 11
284.0
 21
106.0
 31
0.0
  0
LINE
  8
L-ZISSEN
  6
CONTINUOUS
 62
     7
 10
265.0
 20
162.0
 30
0.0
 11
265.0
 21
106.0
 31
0.0
  0
ARC
  8
L-ZISSEN
  6
CONTINUOUS
 62
     7
 10
392.0
 20
134.0
 30
0.0
 40
4.5
 50
90.0
 51
270.0
  0
ARC
  8
L-ZISSEN
  6
CONTINUOUS
 62
     7
 10
288.0
 20
134.0
 30
0.0
 40
4.5
 50
270.0
 51
90.0
  0
LINE
  8
L-ZISSEN
  6
CONTINUOUS
 62
     7
 10
288.0
 20
138.5
 30
0.0
 11
279.0
 21
138.5
 31
0.0
  0
LINE
  8
L-ZISSEN
  6
CONTINUOUS
 62
     7
 10
288.0
 20
129.5
 30
0.0
 11
279.0
 21
129.5
 31
0.0
  0
ARC
  8
L-ZISSEN
  6
CONTINUOUS
 62
     7
 10
279.0
 20
134.0
 30
0.0
 40
4.5
 50
90.0
 51
270.0
  0
LINE
  8
L-TYUSIN
  6
CENTER
 62
     1
 10
283.5
 20
126.0
 30
0.0
 11
283.5
 21
142.0
 31
0.0
  0
LINE
  8
L-TYUSIN
  6
CENTER
 62
     1
 10
271.5
 20
134.0
 30
0.0
 11
295.5
 21
134.0
 31
0.0
  0
LINE
  8
L-ZISSEN
  6
CONTINUOUS
 62
     7
 10
378.2
 20
154.014359
 30
0.0
 11
378.2
 21
133.0
 31
0.0
  0
LINE
  8
L-ZISSEN
  6
CONTINUOUS
 62
     7
 10
301.8
 20
154.014359
 30
0.0
 11
301.8
 21
133.0
 31
0.0
  0
LINE
  8
L-ZISSEN
  6
CONTINUOUS
 62
     7
 10
139.0
 20
48.0
 30
0.0
 11
149.0
 21
48.0
 31
0.0
  0
LINE
  8
L-ZISSEN
  6
CONTINUOUS
 62
     7
 10
139.0
 20
48.0
 30
0.0
 11
139.0
 21
55.5
 31
0.0
  0
LINE
  8
L-ZISSEN
  6
CONTINUOUS
 62
     7
 10
149.0
 20
48.0
 30
0.0
 11
149.0
 21
55.5
 31
0.0
  0
LINE
  8
L-ZISSEN
  6
CONTINUOUS
 62
     7
 10
193.0
 20
48.0
 30
0.0
 11
193.0
 21
55.5
 31
0.0
  0
LINE
  8
L-ZISSEN
  6
CONTINUOUS
 62
     7
 10
183.0
 20
48.0
 30
0.0
 11
183.0
 21
55.5
 31
0.0
  0
LINE
  8
L-ZISSEN
  6
CONTINUOUS
 62
     7
 10
183.0
 20
48.0
 30
0.0
 11
193.0
 21
48.0
 31
0.0
  0
LINE
  8
L-ZISSEN
  6
CONTINUOUS
 62
     7
 10
111.0
 20
48.0
 30
0.0
 11
121.0
 21
48.0
 31
0.0
  0
LINE
  8
L-ZISSEN
  6
CONTINUOUS
 62
     7
 10
111.0
 20
48.0
 30
0.0
 11
111.0
 21
55.5
 31
0.0
  0
LINE
  8
L-ZISSEN
  6
CONTINUOUS
 62
     7
 10
121.0
 20
48.0
 30
0.0
 11
121.0
 21
55.5
 31
0.0
  0
LINE
  8
L-ZISSEN
  6
CONTINUOUS
 62
     7
 10
77.0
 20
48.0
 30
0.0
 11
77.0
 21
55.5
 31
0.0
  0
LINE
  8
L-ZISSEN
  6
CONTINUOUS
 62
     7
 10
122.0
 20
60.0
 30
0.0
 11
66.0
 21
60.0
 31
0.0
  0
LINE
  8
L-ZISSEN
  6
CONTINUOUS
 62
     7
 10
194.0
 20
67.0
 30
0.0
 11
66.0
 21
67.0
 31
0.0
  0
LINE
  8
L-ZISSEN
 10
161.0
 20
134.230304
 30
0.0
 11
171.0
 21
134.230304
 31
0.0
  0
LINE
  8
L-ZISSEN
  6
CONTINUOUS
 62
     7
 10
161.0
 20
134.230304
 30
0.0
 11
161.0
 21
147.0
 31
0.0
  0
LINE
  8
L-ZISSEN
  6
CONTINUOUS
 62
     7
 10
171.0
 20
134.230304
 30
0.0
 11
171.0
 21
147.0
 31
0.0
  0
LINE
  8
L-ZISSEN
  6
CONTINUOUS
 62
     7
 10
89.0
 20
134.230304
 30
0.0
 11
89.0
 21
147.0
 31
0.0
  0
LINE
  8
L-ZISSEN
 10
89.0
 20
134.230304
 30
0.0
 11
99.0
 21
134.230304
 31
0.0
  0
LINE
  8
L-TYUSIN
  6
CENTER
 62
     1
 10
197.0
 20
134.0
 30
0.0
 11
230.0
 21
134.0
 31
0.0
  0
LINE
  8
L-ZISSEN
  6
CONTINUOUS
 62
     7
 10
38.0
 20
106.0
 30
0.0
 11
38.0
 21
162.0
 31
0.0
  0
LINE
  8
L-ZISSEN
  6
CONTINUOUS
 62
     7
 10
66.0
 20
106.0
 30
0.0
 11
38.0
 21
106.0
 31
0.0
  0
LINE
  8
L-TYUSIN
  6
CENTER
 62
     1
 10
196.0
 20
100.0
 30
0.0
 11
136.0
 21
100.0
 31
0.0
  0
LINE
  8
L-ZISSEN
  6
CONTINUOUS
 62
     7
 10
67.0
 20
48.0
 30
0.0
 11
67.0
 21
55.5
 31
0.0
  0
LINE
  8
L-ZISSEN
  6
CONTINUOUS
 62
     7
 10
67.0
 20
48.0
 30
0.0
 11
77.0
 21
48.0
 31
0.0
  0
LINE
  8
L-ZISSEN
  6
CONTINUOUS
 62
     7
 10
122.0
 20
55.5
 30
0.0
 11
66.0
 21
55.5
 31
0.0
  0
LINE
  8
L-ZISSEN
  6
CONTINUOUS
 62
     7
 10
111.0
 20
52.5
 30
0.0
 11
77.0
 21
52.5
 31
0.0
  0
LINE
  8
L-ZISSEN
  6
CONTINUOUS
 62
     7
 10
125.0
 20
162.0
 30
0.0
 11
125.0
 21
133.0
 31
0.0
  0
LINE
  8
L-ZISSEN
  6
CONTINUOUS
 62
     7
 10
63.0
 20
162.0
 30
0.0
 11
63.0
 21
133.0
 31
0.0
  0
CIRCLE
  8
L-ZISSEN
  6
CONTINUOUS
 62
     7
 10
72.0
 20
74.0
 30
0.0
 40
5.0
  0
CIRCLE
  8
L-ZISSEN
  6
CONTINUOUS
 62
     7
 10
72.0
 20
126.0
 30
0.0
 40
5.0
  0
LINE
  8
L-ZISSEN
  6
CONTINUOUS
 62
     7
 10
66.0
 20
55.5
 30
0.0
 11
66.0
 21
133.0
 31
0.0
  0
LINE
  8
L-ZISSEN
  6
CONTINUOUS
 62
     7
 10
101.5
 20
162.0
 30
0.0
 11
101.5
 21
157.0
 31
0.0
  0
LINE
  8
L-ZISSEN
  6
CONTINUOUS
 62
     7
 10
101.5
 20
157.0
 30
0.0
 11
99.0
 21
147.0
 31
0.0
  0
LINE
  8
L-ZISSEN
  6
CONTINUOUS
 62
     7
 10
86.5
 20
157.0
 30
0.0
 11
89.0
 21
147.0
 31
0.0
  0
LINE
  8
L-ZISSEN
  6
CONTINUOUS
 62
     7
 10
86.5
 20
162.0
 30
0.0
 11
86.5
 21
157.0
 31
0.0
  0
LINE
  8
L-ZISSEN
  6
CONTINUOUS
 62
     7
 10
99.0
 20
134.230304
 30
0.0
 11
99.0
 21
147.0
 31
0.0
  0
LINE
  8
L-ZISSEN
  6
CONTINUOUS
 62
     7
 10
130.0
 20
193.6
 30
0.0
 11
130.0
 21
106.0
 31
0.0
  0
LINE
  8
L-ZISSEN
  6
CONTINUOUS
 62
     7
 10
63.0
 20
157.0
 30
0.0
 11
125.0
 21
157.0
 31
0.0
  0
LINE
  8
L-ZISSEN
  6
CONTINUOUS
 62
     7
 10
194.0
 20
60.0
 30
0.0
 11
138.0
 21
60.0
 31
0.0
  0
LINE
  8
L-ZISSEN
  6
CONTINUOUS
 62
     7
 10
194.0
 20
55.5
 30
0.0
 11
194.0
 21
133.0
 31
0.0
  0
LINE
  8
L-ZISSEN
  6
CONTINUOUS
 62
     7
 10
197.0
 20
157.0
 30
0.0
 11
135.0
 21
157.0
 31
0.0
  0
LINE
  8
L-ZISSEN
  6
CONTINUOUS
 62
     7
 10
173.5
 20
162.0
 30
0.0
 11
173.5
 21
157.0
 31
0.0
  0
LINE
  8
L-ZISSEN
  6
CONTINUOUS
 62
     7
 10
173.5
 20
157.0
 30
0.0
 11
171.0
 21
147.0
 31
0.0
  0
LINE
  8
L-ZISSEN
  6
CONTINUOUS
 62
     7
 10
158.5
 20
157.0
 30
0.0
 11
161.0
 21
147.0
 31
0.0
  0
LINE
  8
L-ZISSEN
  6
CONTINUOUS
 62
     7
 10
158.5
 20
162.0
 30
0.0
 11
158.5
 21
157.0
 31
0.0
  0
LINE
  8
L-ZISSEN
  6
CONTINUOUS
 62
     7
 10
197.0
 20
133.0
 30
0.0
 11
135.0
 21
133.0
 31
0.0
  0
CIRCLE
  8
L-ZISSEN
  6
CONTINUOUS
 62
     7
 10
188.0
 20
126.0
 30
0.0
 40
5.0
  0
CIRCLE
  8
L-ZISSEN
  6
CONTINUOUS
 62
     7
 10
188.0
 20
74.0
 30
0.0
 40
5.0
  0
LINE
  8
L-ZISSEN
  6
CONTINUOUS
 62
     7
 10
197.0
 20
162.0
 30
0.0
 11
197.0
 21
133.0
 31
0.0
  0
LINE
  8
L-ZISSEN
  6
CONTINUOUS
 62
     7
 10
135.0
 20
162.0
 30
0.0
 11
135.0
 21
133.0
 31
0.0
  0
LINE
  8
L-ZISSEN
  6
CONTINUOUS
 62
     7
 10
149.0
 20
52.5
 30
0.0
 11
183.0
 21
52.5
 31
0.0
  0
LINE
  8
L-ZISSEN
  6
CONTINUOUS
 62
     7
 10
138.0
 20
55.5
 30
0.0
 11
194.0
 21
55.5
 31
0.0
  0
LINE
  8
L-ZISSEN
  6
CONTINUOUS
 62
     7
 10
210.0
 20
162.0
 30
0.0
 11
210.0
 21
106.0
 31
0.0
  0
LINE
  8
L-ZISSEN
  6
CONTINUOUS
 62
     7
 10
225.0
 20
111.5
 30
0.0
 11
217.5
 21
111.5
 31
0.0
  0
LINE
  8
L-ZISSEN
  6
CONTINUOUS
 62
     7
 10
225.0
 20
111.5
 30
0.0
 11
225.0
 21
156.5
 31
0.0
  0
LINE
  8
L-ZISSEN
  6
CONTINUOUS
 62
     7
 10
225.0
 20
156.5
 30
0.0
 11
217.5
 21
156.5
 31
0.0
  0
LINE
  8
L-ZISSEN
  6
CONTINUOUS
 62
     7
 10
210.0
 20
162.0
 30
0.0
 11
38.0
 21
162.0
 31
0.0
  0
LINE
  8
L-ZISSEN
  6
CONTINUOUS
 62
     7
 10
210.0
 20
106.0
 30
0.0
 11
194.0
 21
106.0
 31
0.0
  0
LINE
  8
L-ZISSEN
  6
CONTINUOUS
 62
     7
 10
41.2
 20
162.0
 30
0.0
 11
41.2
 21
106.0
 31
0.0
  0
CIRCLE
  8
L-ZISSEN
  6
CONTINUOUS
 62
     7
 10
94.0
 20
100.0
 30
0.0
 40
22.5
  0
CIRCLE
  8
L-ZISSEN
  6
CONTINUOUS
 62
     7
 10
166.0
 20
100.0
 30
0.0
 40
22.5
  0
CIRCLE
  8
L-ZISSEN
  6
CONTINUOUS
 62
     7
 10
116.0
 20
126.0
 30
0.0
 40
5.0
  0
CIRCLE
  8
L-ZISSEN
  6
CONTINUOUS
 62
     7
 10
116.0
 20
74.0
 30
0.0
 40
5.0
  0
LINE
  8
L-ZISSEN
  6
CONTINUOUS
 62
     7
 10
122.0
 20
55.5
 30
0.0
 11
122.0
 21
133.0
 31
0.0
  0
CIRCLE
  8
L-ZISSEN
  6
CONTINUOUS
 62
     7
 10
144.0
 20
74.0
 30
0.0
 40
5.0
  0
LINE
  8
L-ZISSEN
  6
CONTINUOUS
 62
     7
 10
138.0
 20
55.5
 30
0.0
 11
138.0
 21
133.0
 31
0.0
  0
LINE
  8
L-ZISSEN
  6
CONTINUOUS
 62
     7
 10
122.0
 20
106.0
 30
0.0
 11
138.0
 21
106.0
 31
0.0
  0
LINE
  8
L-ZISSEN
  6
CONTINUOUS
 62
     7
 10
125.0
 20
133.0
 30
0.0
 11
63.0
 21
133.0
 31
0.0
  0
LINE
  8
L-TYUSIN
  6
CENTER
 62
     1
 10
46.2
 20
134.0
 30
0.0
 11
33.0
 21
134.0
 31
0.0
  0
LINE
  8
L-ZISSEN
  6
CONTINUOUS
 62
     7
 10
217.5
 20
161.0
 30
0.0
 11
210.0
 21
161.0
 31
0.0
  0
LINE
  8
L-ZISSEN
  6
CONTINUOUS
 62
     7
 10
217.5
 20
161.0
 30
0.0
 11
217.5
 21
151.0
 31
0.0
  0
LINE
  8
L-ZISSEN
  6
CONTINUOUS
 62
     7
 10
217.5
 20
151.0
 30
0.0
 11
210.0
 21
151.0
 31
0.0
  0
LINE
  8
L-ZISSEN
  6
CONTINUOUS
 62
     7
 10
217.5
 20
117.0
 30
0.0
 11
210.0
 21
117.0
 31
0.0
  0
LINE
  8
L-ZISSEN
  6
CONTINUOUS
 62
     7
 10
217.5
 20
107.0
 30
0.0
 11
217.5
 21
117.0
 31
0.0
  0
LINE
  8
L-ZISSEN
  6
CONTINUOUS
 62
     7
 10
217.5
 20
107.0
 30
0.0
 11
210.0
 21
107.0
 31
0.0
  0
LINE
  8
L-ZISSEN
 10
637.0
 20
211.6
 30
0.0
 11
637.0
 21
106.0
 31
0.0
  0
LINE
  8
L-ZISSEN
 10
493.0
 20
211.6
 30
0.0
 11
493.0
 21
106.0
 31
0.0
  0
LINE
  8
L-ZISSEN
 10
202.0
 20
211.6
 30
0.0
 11
58.0
 21
211.6
 31
0.0
  0
LINE
  8
L-ZISSEN
 10
202.0
 20
193.6
 30
0.0
 11
58.0
 21
193.6
 31
0.0
  0
LINE
  8
L-ZISSEN
 10
202.0
 20
211.6
 30
0.0
 11
202.0
 21
106.0
 31
0.0
  0
LINE
  8
L-ZISSEN
 10
58.0
 20
211.6
 30
0.0
 11
58.0
 21
106.0
 31
0.0
  0
CIRCLE
  8
L-ZISSEN
  6
CONTINUOUS
 62
     7
 10
539.0
 20
78.0
 30
0.0
 40
5.0
  0
CIRCLE
  8
L-ZISSEN
  6
CONTINUOUS
 62
     7
 10
591.0
 20
78.0
 30
0.0
 40
5.0
  0
CIRCLE
  8
L-ZISSEN
  6
CONTINUOUS
 62
     7
 10
565.0
 20
100.0
 30
0.0
 40
22.5
  0
CIRCLE
  8
L-ZISSEN
  6
CONTINUOUS
 62
     7
 10
591.0
 20
122.0
 30
0.0
 40
5.0
  0
CIRCLE
  8
L-ZISSEN
  6
CONTINUOUS
 62
     7
 10
539.0
 20
122.0
 30
0.0
 40
5.0
  0
LINE
  8
L-ZISSEN
  6
CONTINUOUS
 62
     7
 10
598.0
 20
128.0
 30
0.0
 11
598.0
 21
72.0
 31
0.0
  0
LINE
  8
L-ZISSEN
  6
CONTINUOUS
 62
     7
 10
532.0
 20
128.0
 30
0.0
 11
598.0
 21
128.0
 31
0.0
  0
LINE
  8
L-ZISSEN
  6
CONTINUOUS
 62
     7
 10
532.0
 20
72.0
 30
0.0
 11
598.0
 21
72.0
 31
0.0
  0
LINE
  8
L-ZISSEN
  6
CONTINUOUS
 62
     7
 10
532.0
 20
128.0
 30
0.0
 11
532.0
 21
72.0
 31
0.0
  0
CIRCLE
  8
L-ZISSEN
 10
565.0
 20
100.0
 30
0.0
 40
15.1455
  0
CIRCLE
  8
L-ZISSEN
 10
340.0
 20
134.0
 30
0.0
 40
15.1455
  0
CIRCLE
  8
L-ZISSEN
 10
166.0
 20
100.0
 30
0.0
 40
15.1455
  0
CIRCLE
  8
L-ZISSEN
 10
94.0
 20
100.0
 30
0.0
 40
15.1455
  0
LINE
  8
L-ZISSEN
  6
CONTINUOUS
 62
     7
 10
532.0
 20
79.0
 30
0.0
 11
514.0
 21
79.0
 31
0.0
  0
LINE
  8
L-ZISSEN
  6
CONTINUOUS
 62
     7
 10
532.0
 20
121.0
 30
0.0
 11
514.0
 21
121.0
 31
0.0
  0
LINE
  8
L-ZISSEN
 10
509.0
 20
84.0
 30
0.0
 11
509.0
 21
116.0
 31
0.0
  0
ARC
  8
L-ZISSEN
 10
514.0
 20
116.0
 30
0.0
 40
5.0
 50
90.0
 51
180.0
  0
ARC
  8
L-ZISSEN
 10
514.0
 20
84.0
 30
0.0
 40
5.0
 50
180.0
 51
270.0
  0
LINE
  8
L-ZISSEN
  6
CONTINUOUS
 62
     7
 10
598.0
 20
79.0
 30
0.0
 11
616.0
 21
79.0
 31
0.0
  0
ARC
  8
L-ZISSEN
 10
616.0
 20
84.0
 30
0.0
 40
5.0
 50
270.0
 51
0.0
  0
LINE
  8
L-ZISSEN
 10
621.0
 20
84.0
 30
0.0
 11
621.0
 21
116.0
 31
0.0
  0
ARC
  8
L-ZISSEN
 10
616.0
 20
116.0
 30
0.0
 40
5.0
 50
0.0
 51
90.0
  0
LINE
  8
L-ZISSEN
  6
CONTINUOUS
 62
     7
 10
598.0
 20
121.0
 30
0.0
 11
616.0
 21
121.0
 31
0.0
  0
LINE
  8
L-ZISSEN
  6
CONTINUOUS
 62
     7
 10
291.5
 20
79.0
 30
0.0
 11
299.0
 21
79.0
 31
0.0
  0
LINE
  8
L-ZISSEN
  6
CONTINUOUS
 62
     7
 10
291.5
 20
121.0
 30
0.0
 11
299.0
 21
121.0
 31
0.0
  0
LINE
  8
L-ZISSEN
  6
CONTINUOUS
 62
     7
 10
284.0
 20
122.5
 30
0.0
 11
291.5
 21
122.5
 31
0.0
  0
LINE
  8
L-ZISSEN
  6
CONTINUOUS
 62
     7
 10
388.5
 20
121.0
 30
0.0
 11
381.0
 21
121.0
 31
0.0
  0
LINE
  8
L-ZISSEN
  6
CONTINUOUS
 62
     7
 10
388.5
 20
79.0
 30
0.0
 11
381.0
 21
79.0
 31
0.0
  0
LINE
  8
L-ZISSEN
  6
CONTINUOUS
 62
     7
 10
394.279056
 20
79.0
 30
0.0
 11
388.5
 21
79.0
 31
0.0
  0
CIRCLE
  8
L-ZISSEN
  6
CONTINUOUS
 62
     7
 10
144.0
 20
126.0
 30
0.0
 40
5.0
  0
TEXT
  8
L-ZISSEN
 10
45.0
 20
440.0
 30
0.0
 40
4.5
  1
MODEL NO. : 468- 00-30BM
  0
LINE
  8
L-ZISSEN
 10
382.0
 20
278.0
 30
0.0
 11
301.0
 21
278.0
 31
0.0
  0
LINE
  8
L-ZISSEN
 10
382.0
 20
422.0
 30
0.0
 11
301.0
 21
422.0
 31
0.0
  0
LINE
  8
L-TYUSIN
  6
CENTER
 62
     1
 10
340.0
 20
430.2
 30
0.0
 11
340.0
 21
250.0
 31
0.0
  0
LINE
  8
L-TYUSIN
  6
CENTER
 62
     1
 10
296.0
 20
350.0
 30
0.0
 11
423.0
 21
350.0
 31
0.0
  0
LINE
  8
L-ZISSEN
  6
CONTINUOUS
 62
     7
 10
309.0
 20
262.5
 30
0.0
 11
309.0
 21
270.0
 31
0.0
  0
LINE
  8
L-ZISSEN
  6
CONTINUOUS
 62
     7
 10
309.0
 20
262.5
 30
0.0
 11
319.0
 21
262.5
 31
0.0
  0
LINE
  8
L-ZISSEN
  6
CONTINUOUS
 62
     7
 10
317.5
 20
255.0
 30
0.0
 11
317.5
 21
262.5
 31
0.0
  0
LINE
  8
L-ZISSEN
  6
CONTINUOUS
 62
     7
 10
373.0
 20
270.0
 30
0.0
 11
373.0
 21
278.0
 31
0.0
  0
LINE
  8
L-ZISSEN
  6
CONTINUOUS
 62
     7
 10
362.5
 20
255.0
 30
0.0
 11
362.5
 21
262.5
 31
0.0
  0
LINE
  8
L-ZISSEN
  6
CONTINUOUS
 62
     7
 10
317.5
 20
255.0
 30
0.0
 11
362.5
 21
255.0
 31
0.0
  0
LINE
  8
L-ZISSEN
  6
CONTINUOUS
 62
     7
 10
319.5
 20
270.0
 30
0.0
 11
373.0
 21
270.0
 31
0.0
  0
LINE
  8
L-ZISSEN
  6
CONTINUOUS
 62
     7
 10
372.0
 20
270.0
 30
0.0
 11
307.0
 21
270.0
 31
0.0
  0
LINE
  8
L-ZISSEN
  6
CONTINUOUS
 62
     7
 10
371.0
 20
262.5
 30
0.0
 11
361.0
 21
262.5
 31
0.0
  0
LINE
  8
L-ZISSEN
  6
CONTINUOUS
 62
     7
 10
371.0
 20
262.5
 30
0.0
 11
371.0
 21
270.0
 31
0.0
  0
LINE
  8
L-ZISSEN
  6
CONTINUOUS
 62
     7
 10
307.0
 20
278.0
 30
0.0
 11
307.0
 21
270.0
 31
0.0
  0
LINE
  8
L-TYUSIN
  6
CENTER
 62
     1
 10
279.0
 20
314.0
 30
0.0
 11
306.0
 21
314.0
 31
0.0
  0
LINE
  8
L-ZISSEN
  6
CONTINUOUS
 62
     7
 10
284.0
 20
291.5
 30
0.0
 11
291.5
 21
291.5
 31
0.0
  0
LINE
  8
L-ZISSEN
  6
CONTINUOUS
 62
     7
 10
284.0
 20
291.5
 30
0.0
 11
284.0
 21
336.5
 31
0.0
  0
LINE
  8
L-ZISSEN
  6
CONTINUOUS
 62
     7
 10
284.0
 20
336.5
 30
0.0
 11
291.5
 21
336.5
 31
0.0
  0
LINE
  8
L-TYUSIN
  6
CENTER
 62
     1
 10
279.0
 20
386.0
 30
0.0
 11
306.0
 21
386.0
 31
0.0
  0
LINE
  8
L-ZISSEN
 10
415.0
 20
438.8
 30
0.0
 11
378.2
 21
438.8
 31
0.0
  0
LINE
  8
L-ZISSEN
 10
415.0
 20
442.0
 30
0.0
 11
375.0
 21
442.0
 31
0.0
  0
LINE
  8
L-ZISSEN
 10
265.0
 20
438.8
 30
0.0
 11
265.0
 21
442.0
 31
0.0
  0
LINE
  8
L-ZISSEN
 10
415.0
 20
438.8
 30
0.0
 11
415.0
 21
442.0
 31
0.0
  0
LINE
  8
L-ZISSEN
 10
378.2
 20
422.0
 30
0.0
 11
378.2
 21
438.8
 31
0.0
  0
LINE
  8
L-ZISSEN
 10
375.0
 20
425.2
 30
0.0
 11
375.0
 21
442.0
 31
0.0
  0
LINE
  8
L-ZISSEN
 10
375.0
 20
425.2
 30
0.0
 11
305.0
 21
425.2
 31
0.0
  0
LINE
  8
L-ZISSEN
 10
305.0
 20
425.2
 30
0.0
 11
305.0
 21
442.0
 31
0.0
  0
LINE
  8
L-ZISSEN
 10
265.0
 20
442.0
 30
0.0
 11
305.0
 21
442.0
 31
0.0
  0
LINE
  8
L-ZISSEN
 10
265.0
 20
438.8
 30
0.0
 11
301.8
 21
438.8
 31
0.0
  0
LINE
  8
L-ZISSEN
 10
301.8
 20
422.0
 30
0.0
 11
301.8
 21
438.8
 31
0.0
  0
LINE
  8
L-ZISSEN
  6
CONTINUOUS
 62
     7
 10
371.0
 20
432.7
 30
0.0
 11
371.0
 21
425.2
 31
0.0
  0
LINE
  8
L-ZISSEN
  6
CONTINUOUS
 62
     7
 10
371.0
 20
432.7
 30
0.0
 11
361.0
 21
432.7
 31
0.0
  0
LINE
  8
L-ZISSEN
  6
CONTINUOUS
 62
     7
 10
361.0
 20
432.7
 30
0.0
 11
361.0
 21
425.2
 31
0.0
  0
LINE
  8
L-ZISSEN
  6
CONTINUOUS
 62
     7
 10
319.0
 20
432.7
 30
0.0
 11
319.0
 21
425.2
 31
0.0
  0
LINE
  8
L-ZISSEN
  6
CONTINUOUS
 62
     7
 10
309.0
 20
432.7
 30
0.0
 11
319.0
 21
432.7
 31
0.0
  0
LINE
  8
L-ZISSEN
  6
CONTINUOUS
 62
     7
 10
309.0
 20
432.7
 30
0.0
 11
309.0
 21
425.2
 31
0.0
  0
LINE
  8
L-TYUSIN
  6
CENTER
 62
     1
 10
283.5
 20
433.8
 30
0.0
 11
283.5
 21
447.0
 31
0.0
  0
LINE
  8
L-TYUSIN
  6
CENTER
 62
     1
 10
396.5
 20
433.8
 30
0.0
 11
396.5
 21
447.0
 31
0.0
  0
LINE
  8
L-ZISSEN
  6
CONTINUOUS
 62
     7
 10
319.0
 20
262.5
 30
0.0
 11
319.0
 21
270.0
 31
0.0
  0
LINE
  8
L-ZISSEN
  6
CONTINUOUS
 62
     7
 10
361.0
 20
262.5
 30
0.0
 11
361.0
 21
270.0
 31
0.0
  0
LINE
  8
L-TYUSIN
  6
CENTER
 62
     1
 10
848.5
 20
134.0
 30
0.0
 11
824.5
 21
134.0
 31
0.0
  0
LINE
  8
L-TYUSIN
  6
CENTER
 62
     1
 10
836.5
 20
126.0
 30
0.0
 11
836.5
 21
142.0
 31
0.0
  0
ARC
  8
L-ZISSEN
  6
CONTINUOUS
 62
     7
 10
841.0
 20
134.0
 30
0.0
 40
4.5
 50
270.0
 51
90.0
  0
LINE
  8
L-ZISSEN
  6
CONTINUOUS
 62
     7
 10
832.0
 20
129.5
 30
0.0
 11
841.0
 21
129.5
 31
0.0
  0
LINE
  8
L-ZISSEN
  6
CONTINUOUS
 62
     7
 10
832.0
 20
138.5
 30
0.0
 11
841.0
 21
138.5
 31
0.0
  0
ARC
  8
L-ZISSEN
  6
CONTINUOUS
 62
     7
 10
832.0
 20
134.0
 30
0.0
 40
4.5
 50
90.0
 51
270.0
  0
ARC
  8
L-ZISSEN
  6
CONTINUOUS
 62
     7
 10
728.0
 20
134.0
 30
0.0
 40
4.5
 50
270.0
 51
90.0
  0
LINE
  8
L-ZISSEN
  6
CONTINUOUS
 62
     7
 10
728.0
 20
138.5
 30
0.0
 11
719.0
 21
138.5
 31
0.0
  0
LINE
  8
L-ZISSEN
  6
CONTINUOUS
 62
     7
 10
728.0
 20
129.5
 30
0.0
 11
719.0
 21
129.5
 31
0.0
  0
ARC
  8
L-ZISSEN
  6
CONTINUOUS
 62
     7
 10
719.0
 20
134.0
 30
0.0
 40
4.5
 50
90.0
 51
270.0
  0
LINE
  8
L-TYUSIN
  6
CENTER
 62
     1
 10
711.5
 20
134.0
 30
0.0
 11
735.5
 21
134.0
 31
0.0
  0
LINE
  8
L-TYUSIN
  6
CENTER
 62
     1
 10
723.5
 20
126.0
 30
0.0
 11
723.5
 21
142.0
 31
0.0
  0
LINE
  8
L-ZISSEN
 10
745.0
 20
106.0
 30
0.0
 11
745.0
 21
162.0
 31
0.0
  0
LINE
  8
L-ZISSEN
 10
815.0
 20
106.0
 30
0.0
 11
815.0
 21
162.0
 31
0.0
  0
LINE
  8
L-ZISSEN
  6
CONTINUOUS
 62
     7
 10
725.720944
 20
79.0
 30
0.0
 11
731.5
 21
79.0
 31
0.0
  0
LINE
  8
L-ZISSEN
  6
CONTINUOUS
 62
     7
 10
731.5
 20
79.0
 30
0.0
 11
739.0
 21
79.0
 31
0.0
  0
LINE
  8
L-ZISSEN
  6
CONTINUOUS
 62
     7
 10
828.5
 20
79.0
 30
0.0
 11
821.0
 21
79.0
 31
0.0
  0
LINE
  8
L-ZISSEN
  6
CONTINUOUS
 62
     7
 10
855.0
 20
162.0
 30
0.0
 11
855.0
 21
106.0
 31
0.0
  0
LINE
  8
L-ZISSEN
  6
CONTINUOUS
 62
     7
 10
855.0
 20
106.0
 30
0.0
 11
705.0
 21
106.0
 31
0.0
  0
LINE
  8
L-ZISSEN
  6
CONTINUOUS
 62
     7
 10
705.0
 20
162.0
 30
0.0
 11
705.0
 21
106.0
 31
0.0
  0
LINE
  8
L-ZISSEN
  6
CONTINUOUS
 62
     7
 10
717.0
 20
106.0
 30
0.0
 11
717.0
 21
72.0
 31
0.0
  0
LINE
  8
L-ZISSEN
  6
CONTINUOUS
 62
     7
 10
702.0
 20
77.5
 30
0.0
 11
709.5
 21
77.5
 31
0.0
  0
LINE
  8
L-ZISSEN
  6
CONTINUOUS
 62
     7
 10
702.0
 20
77.5
 30
0.0
 11
702.0
 21
122.5
 31
0.0
  0
LINE
  8
L-ZISSEN
  6
CONTINUOUS
 62
     7
 10
702.0
 20
122.5
 30
0.0
 11
705.0
 21
122.5
 31
0.0
  0
LINE
  8
L-ZISSEN
  6
CONTINUOUS
 62
     7
 10
731.5
 20
69.0
 30
0.0
 11
739.0
 21
69.0
 31
0.0
  0
LINE
  8
L-ZISSEN
  6
CONTINUOUS
 62
     7
 10
731.5
 20
69.0
 30
0.0
 11
731.5
 21
79.0
 31
0.0
  0
LINE
  8
L-ZISSEN
  6
CONTINUOUS
 62
     7
 10
717.0
 20
72.0
 30
0.0
 11
731.5
 21
72.0
 31
0.0
  0
LINE
  8
L-ZISSEN
  6
CONTINUOUS
 62
     7
 10
739.0
 20
67.0
 30
0.0
 11
739.0
 21
106.0
 31
0.0
  0
LINE
  8
L-ZISSEN
  6
CONTINUOUS
 62
     7
 10
725.0
 20
72.0
 30
0.0
 11
725.0
 21
106.0
 31
0.0
  0
LINE
  8
L-ZISSEN
  6
CONTINUOUS
 62
     7
 10
808.0
 20
60.0
 30
0.0
 11
752.0
 21
60.0
 31
0.0
  0
LINE
  8
L-ZISSEN
  6
CONTINUOUS
 62
     7
 10
752.0
 20
55.5
 30
0.0
 11
752.0
 21
67.0
 31
0.0
  0
LINE
  8
L-ZISSEN
  6
CONTINUOUS
 62
     7
 10
739.0
 20
67.0
 30
0.0
 11
752.0
 21
67.0
 31
0.0
  0
LINE
  8
L-ZISSEN
  6
CONTINUOUS
 62
     7
 10
808.0
 20
55.5
 30
0.0
 11
808.0
 21
67.0
 31
0.0
  0
LINE
  8
L-ZISSEN
  6
CONTINUOUS
 62
     7
 10
808.0
 20
67.0
 30
0.0
 11
821.0
 21
67.0
 31
0.0
  0
LINE
  8
L-ZISSEN
  6
CONTINUOUS
 62
     7
 10
747.0
 20
106.0
 30
0.0
 11
747.0
 21
67.0
 31
0.0
  0
CIRCLE
  8
L-ZISSEN
  6
CONTINUOUS
 62
     7
 10
806.0
 20
156.0
 30
0.0
 40
5.0
  0
LINE
  8
L-ZISSEN
  6
CONTINUOUS
 62
     7
 10
821.0
 20
67.0
 30
0.0
 11
821.0
 21
106.0
 31
0.0
  0
LINE
  8
L-ZISSEN
  6
CONTINUOUS
 62
     7
 10
836.0
 20
77.5
 30
0.0
 11
836.0
 21
106.0
 31
0.0
  0
CIRCLE
  8
L-ZISSEN
  6
CONTINUOUS
 62
     7
 10
754.0
 20
156.0
 30
0.0
 40
5.0
  0
CIRCLE
  8
L-ZISSEN
  6
CONTINUOUS
 62
     7
 10
806.0
 20
112.0
 30
0.0
 40
5.0
  0
CIRCLE
  8
L-ZISSEN
  6
CONTINUOUS
 62
     7
 10
754.0
 20
112.0
 30
0.0
 40
5.0
  0
LINE
  8
L-ZISSEN
  6
CONTINUOUS
 62
     7
 10
808.0
 20
55.5
 30
0.0
 11
752.0
 21
55.5
 31
0.0
  0
LINE
  8
L-ZISSEN
  6
CONTINUOUS
 62
     7
 10
797.0
 20
52.5
 30
0.0
 11
763.0
 21
52.5
 31
0.0
  0
LINE
  8
L-ZISSEN
  6
CONTINUOUS
 62
     7
 10
797.0
 20
48.0
 30
0.0
 11
797.0
 21
55.5
 31
0.0
  0
LINE
  8
L-ZISSEN
  6
CONTINUOUS
 62
     7
 10
807.0
 20
48.0
 30
0.0
 11
797.0
 21
48.0
 31
0.0
  0
LINE
  8
L-ZISSEN
  6
CONTINUOUS
 62
     7
 10
807.0
 20
48.0
 30
0.0
 11
807.0
 21
55.5
 31
0.0
  0
LINE
  8
L-ZISSEN
  6
CONTINUOUS
 62
     7
 10
705.0
 20
162.0
 30
0.0
 11
855.0
 21
162.0
 31
0.0
  0
LINE
  8
L-TYUSIN
  6
CENTER
 62
     1
 10
841.0
 20
100.0
 30
0.0
 11
697.0
 21
100.0
 31
0.0
  0
LINE
  8
L-ZISSEN
  6
CONTINUOUS
 62
     7
 10
763.0
 20
48.0
 30
0.0
 11
763.0
 21
55.5
 31
0.0
  0
LINE
  8
L-ZISSEN
  6
CONTINUOUS
 62
     7
 10
763.0
 20
48.0
 30
0.0
 11
753.0
 21
48.0
 31
0.0
  0
LINE
  8
L-ZISSEN
  6
CONTINUOUS
 62
     7
 10
753.0
 20
48.0
 30
0.0
 11
753.0
 21
55.5
 31
0.0
  0
LINE
  8
L-ZISSEN
  6
CONTINUOUS
 62
     7
 10
836.0
 20
77.5
 30
0.0
 11
828.5
 21
77.5
 31
0.0
  0
LINE
  8
L-ZISSEN
  6
CONTINUOUS
 62
     7
 10
828.5
 20
69.0
 30
0.0
 11
828.5
 21
79.0
 31
0.0
  0
LINE
  8
L-ZISSEN
  6
CONTINUOUS
 62
     7
 10
828.5
 20
69.0
 30
0.0
 11
821.0
 21
69.0
 31
0.0
  0
LINE
  8
L-ZISSEN
  6
CONTINUOUS
 62
     7
 10
709.5
 20
73.0
 30
0.0
 11
709.5
 21
83.0
 31
0.0
  0
LINE
  8
L-ZISSEN
  6
CONTINUOUS
 62
     7
 10
709.5
 20
83.0
 30
0.0
 11
717.0
 21
83.0
 31
0.0
  0
LINE
  8
L-ZISSEN
  6
CONTINUOUS
 62
     7
 10
709.5
 20
73.0
 30
0.0
 11
717.0
 21
73.0
 31
0.0
  0
LINE
  8
L-TYUSIN
  6
CENTER
 62
     1
 10
780.0
 20
216.6
 30
0.0
 11
780.0
 21
46.0
 31
0.0
  0
LINE
  8
L-ZISSEN
  6
CONTINUOUS
 62
     7
 10
813.0
 20
106.0
 30
0.0
 11
813.0
 21
67.0
 31
0.0
  0
LINE
  8
L-ZISSEN
  6
CONTINUOUS
 62
     7
 10
291.5
 20
287.0
 30
0.0
 11
291.5
 21
297.0
 31
0.0
  0
LINE
  8
L-ZISSEN
  6
CONTINUOUS
 62
     7
 10
291.5
 20
287.0
 30
0.0
 11
299.0
 21
287.0
 31
0.0
  0
LINE
  8
L-ZISSEN
  6
CONTINUOUS
 62
     7
 10
291.5
 20
297.0
 30
0.0
 11
299.0
 21
297.0
 31
0.0
  0
LINE
  8
L-ZISSEN
  6
CONTINUOUS
 62
     7
 10
294.0
 20
297.0
 30
0.0
 11
294.0
 21
331.0
 31
0.0
  0
LINE
  8
L-ZISSEN
  6
CONTINUOUS
 62
     7
 10
291.5
 20
331.0
 30
0.0
 11
299.0
 21
331.0
 31
0.0
  0
LINE
  8
L-ZISSEN
  6
CONTINUOUS
 62
     7
 10
291.5
 20
341.0
 30
0.0
 11
299.0
 21
341.0
 31
0.0
  0
LINE
  8
L-ZISSEN
  6
CONTINUOUS
 62
     7
 10
291.5
 20
341.0
 30
0.0
 11
291.5
 21
331.0
 31
0.0
  0
LINE
  8
L-ZISSEN
  6
CONTINUOUS
 62
     7
 10
299.0
 20
342.0
 30
0.0
 11
301.0
 21
342.0
 31
0.0
  0
LINE
  8
L-ZISSEN
  6
CONTINUOUS
 62
     7
 10
299.0
 20
342.0
 30
0.0
 11
299.0
 21
286.0
 31
0.0
  0
LINE
  8
L-ZISSEN
  6
CONTINUOUS
 62
     7
 10
299.0
 20
286.0
 30
0.0
 11
301.0
 21
286.0
 31
0.0
  0
LINE
  8
L-ZISSEN
  6
CONTINUOUS
 62
     7
 10
299.0
 20
358.0
 30
0.0
 11
299.0
 21
414.0
 31
0.0
  0
LINE
  8
L-ZISSEN
  6
CONTINUOUS
 62
     7
 10
299.0
 20
358.0
 30
0.0
 11
301.0
 21
358.0
 31
0.0
  0
LINE
  8
L-ZISSEN
  6
CONTINUOUS
 62
     7
 10
291.5
 20
359.0
 30
0.0
 11
291.5
 21
369.0
 31
0.0
  0
LINE
  8
L-ZISSEN
  6
CONTINUOUS
 62
     7
 10
291.5
 20
359.0
 30
0.0
 11
299.0
 21
359.0
 31
0.0
  0
LINE
  8
L-ZISSEN
  6
CONTINUOUS
 62
     7
 10
291.5
 20
369.0
 30
0.0
 11
299.0
 21
369.0
 31
0.0
  0
LINE
  8
L-ZISSEN
  6
CONTINUOUS
 62
     7
 10
294.0
 20
403.0
 30
0.0
 11
294.0
 21
369.0
 31
0.0
  0
LINE
  8
L-ZISSEN
  6
CONTINUOUS
 62
     7
 10
291.5
 20
403.0
 30
0.0
 11
299.0
 21
403.0
 31
0.0
  0
LINE
  8
L-ZISSEN
  6
CONTINUOUS
 62
     7
 10
291.5
 20
413.0
 30
0.0
 11
299.0
 21
413.0
 31
0.0
  0
LINE
  8
L-ZISSEN
  6
CONTINUOUS
 62
     7
 10
291.5
 20
413.0
 30
0.0
 11
291.5
 21
403.0
 31
0.0
  0
LINE
  8
L-ZISSEN
  6
CONTINUOUS
 62
     7
 10
284.0
 20
363.5
 30
0.0
 11
291.5
 21
363.5
 31
0.0
  0
LINE
  8
L-ZISSEN
  6
CONTINUOUS
 62
     7
 10
284.0
 20
408.5
 30
0.0
 11
284.0
 21
363.5
 31
0.0
  0
LINE
  8
L-ZISSEN
  6
CONTINUOUS
 62
     7
 10
284.0
 20
408.5
 30
0.0
 11
291.5
 21
408.5
 31
0.0
  0
LINE
  8
L-ZISSEN
  6
CONTINUOUS
 62
     7
 10
299.0
 20
414.0
 30
0.0
 11
301.0
 21
414.0
 31
0.0
  0
LINE
  8
L-ZISSEN
  6
CONTINUOUS
 62
     7
 10
382.0
 20
317.0
 30
0.0
 11
403.0
 21
317.0
 31
0.0
  0
LINE
  8
L-ZISSEN
  6
CONTINUOUS
 62
     7
 10
403.0
 20
383.0
 30
0.0
 11
382.0
 21
383.0
 31
0.0
  0
LINE
  8
L-ZISSEN
 10
382.732051
 20
297.0
 30
0.0
 11
394.279056
 21
317.0
 31
0.0
  0
LINE
  8
L-ZISSEN
 10
382.732051
 20
403.0
 30
0.0
 11
394.279056
 21
383.0
 31
0.0
  0
LINE
  8
L-ZISSEN
  6
CONTINUOUS
 62
     7
 10
388.5
 20
403.0
 30
0.0
 11
382.0
 21
403.0
 31
0.0
  0
LINE
  8
L-ZISSEN
  6
CONTINUOUS
 62
     7
 10
388.5
 20
413.0
 30
0.0
 11
388.5
 21
403.0
 31
0.0
  0
LINE
  8
L-ZISSEN
  6
CONTINUOUS
 62
     7
 10
388.5
 20
413.0
 30
0.0
 11
382.0
 21
413.0
 31
0.0
  0
LINE
  8
L-ZISSEN
  6
CONTINUOUS
 62
     7
 10
388.5
 20
287.0
 30
0.0
 11
382.0
 21
287.0
 31
0.0
  0
LINE
  8
L-ZISSEN
  6
CONTINUOUS
 62
     7
 10
388.5
 20
287.0
 30
0.0
 11
388.5
 21
297.0
 31
0.0
  0
LINE
  8
L-ZISSEN
  6
CONTINUOUS
 62
     7
 10
388.5
 20
297.0
 30
0.0
 11
382.0
 21
297.0
 31
0.0
  0
LINE
  8
L-ZISSEN
  6
CONTINUOUS
 62
     7
 10
395.0
 20
383.0
 30
0.0
 11
395.0
 21
317.0
 31
0.0
  0
LINE
  8
L-ZISSEN
  6
CONTINUOUS
 62
     7
 10
403.0
 20
317.0
 30
0.0
 11
403.0
 21
383.0
 31
0.0
  0
CIRCLE
  8
L-ZISSEN
  6
CONTINUOUS
 62
     7
 10
362.0
 20
292.0
 30
0.0
 40
5.0
  0
CIRCLE
  8
L-ZISSEN
  6
CONTINUOUS
 62
     7
 10
318.0
 20
292.0
 30
0.0
 40
5.0
  0
CIRCLE
  8
L-ZISSEN
  6
CONTINUOUS
 62
     7
 10
318.0
 20
408.0
 30
0.0
 40
5.0
  0
CIRCLE
  8
L-ZISSEN
  6
CONTINUOUS
 62
     7
 10
362.0
 20
408.0
 30
0.0
 40
5.0
  0
CIRCLE
  8
L-ZISSEN
  6
CONTINUOUS
 62
     7
 10
318.0
 20
336.0
 30
0.0
 40
5.0
  0
CIRCLE
  8
L-ZISSEN
  6
CONTINUOUS
 62
     7
 10
362.0
 20
336.0
 30
0.0
 40
5.0
  0
CIRCLE
  8
L-ZISSEN
  6
CONTINUOUS
 62
     7
 10
362.0
 20
364.0
 30
0.0
 40
5.0
  0
CIRCLE
  8
L-ZISSEN
  6
CONTINUOUS
 62
     7
 10
318.0
 20
364.0
 30
0.0
 40
5.0
  0
LINE
  8
L-ZISSEN
  6
CONTINUOUS
 62
     7
 10
410.5
 20
329.0
 30
0.0
 11
403.0
 21
329.0
 31
0.0
  0
LINE
  8
L-ZISSEN
  6
CONTINUOUS
 62
     7
 10
410.5
 20
319.0
 30
0.0
 11
410.5
 21
329.0
 31
0.0
  0
LINE
  8
L-ZISSEN
  6
CONTINUOUS
 62
     7
 10
410.5
 20
319.0
 30
0.0
 11
403.0
 21
319.0
 31
0.0
  0
LINE
  8
L-ZISSEN
  6
CONTINUOUS
 62
     7
 10
418.0
 20
327.5
 30
0.0
 11
410.5
 21
327.5
 31
0.0
  0
LINE
  8
L-ZISSEN
  6
CONTINUOUS
 62
     7
 10
418.0
 20
327.5
 30
0.0
 11
418.0
 21
372.5
 31
0.0
  0
LINE
  8
L-ZISSEN
  6
CONTINUOUS
 62
     7
 10
418.0
 20
372.5
 30
0.0
 11
410.5
 21
372.5
 31
0.0
  0
LINE
  8
L-ZISSEN
  6
CONTINUOUS
 62
     7
 10
410.5
 20
381.0
 30
0.0
 11
410.5
 21
371.0
 31
0.0
  0
LINE
  8
L-ZISSEN
  6
CONTINUOUS
 62
     7
 10
410.5
 20
381.0
 30
0.0
 11
403.0
 21
381.0
 31
0.0
  0
LINE
  8
L-ZISSEN
  6
CONTINUOUS
 62
     7
 10
410.5
 20
371.0
 30
0.0
 11
403.0
 21
371.0
 31
0.0
  0
LINE
  8
L-ZISSEN
  6
CONTINUOUS
 62
     7
 10
388.5
 20
331.0
 30
0.0
 11
382.0
 21
331.0
 31
0.0
  0
LINE
  8
L-ZISSEN
  6
CONTINUOUS
 62
     7
 10
388.5
 20
341.0
 30
0.0
 11
382.0
 21
341.0
 31
0.0
  0
LINE
  8
L-ZISSEN
  6
CONTINUOUS
 62
     7
 10
388.5
 20
331.0
 30
0.0
 11
388.5
 21
341.0
 31
0.0
  0
LINE
  8
L-ZISSEN
  6
CONTINUOUS
 62
     7
 10
388.5
 20
369.0
 30
0.0
 11
388.5
 21
359.0
 31
0.0
  0
LINE
  8
L-TYUSIN
  6
CENTER
 62
     1
 10
393.5
 20
364.0
 30
0.0
 11
376.0
 21
364.0
 31
0.0
  0
LINE
  8
L-ZISSEN
  6
CONTINUOUS
 62
     7
 10
388.5
 20
359.0
 30
0.0
 11
382.0
 21
359.0
 31
0.0
  0
LINE
  8
L-ZISSEN
  6
CONTINUOUS
 62
     7
 10
388.5
 20
369.0
 30
0.0
 11
382.0
 21
369.0
 31
0.0
  0
LINE
  8
L-TYUSIN
  6
CENTER
 62
     1
 10
591.0
 20
211.6
 30
0.0
 11
591.0
 21
197.6
 31
0.0
  0
LINE
  8
L-TYUSIN
 10
598.0
 20
204.6
 30
0.0
 11
584.0
 21
204.6
 31
0.0
  0
CIRCLE
  8
L-ZISSEN
 10
591.0
 20
204.6
 30
0.0
 40
4.283
  0
CIRCLE
  8
L-ZISSEN
 10
613.0
 20
200.6
 30
0.0
 40
4.283
  0
LINE
  8
L-TYUSIN
 10
620.0
 20
200.6
 30
0.0
 11
606.0
 21
200.6
 31
0.0
  0
LINE
  8
L-TYUSIN
  6
CENTER
 62
     1
 10
613.0
 20
207.6
 30
0.0
 11
613.0
 21
193.6
 31
0.0
  0
LINE
  8
L-TYUSIN
  6
CENTER
 62
     1
 10
541.0
 20
207.6
 30
0.0
 11
541.0
 21
193.6
 31
0.0
  0
LINE
  8
L-TYUSIN
 10
548.0
 20
200.6
 30
0.0
 11
534.0
 21
200.6
 31
0.0
  0
CIRCLE
  8
L-ZISSEN
 10
541.0
 20
200.6
 30
0.0
 40
4.283
  0
LINE
  8
L-TYUSIN
  6
CENTER
 62
     1
 10
519.0
 20
211.6
 30
0.0
 11
519.0
 21
197.6
 31
0.0
  0
LINE
  8
L-TYUSIN
 10
526.0
 20
204.6
 30
0.0
 11
512.0
 21
204.6
 31
0.0
  0
CIRCLE
  8
L-ZISSEN
 10
519.0
 20
204.6
 30
0.0
 40
4.283
  0
LINE
  8
L-TYUSIN
 10
387.0
 20
204.6
 30
0.0
 11
377.0
 21
204.6
 31
0.0
  0
LINE
  8
L-TYUSIN
 10
387.0
 20
200.6
 30
0.0
 11
377.0
 21
200.6
 31
0.0
  0
LINE
  8
L-ZISSEN
 10
819.0
 20
211.6
 30
0.0
 11
819.0
 21
162.0
 31
0.0
  0
LINE
  8
L-ZISSEN
 10
741.0
 20
193.6
 30
0.0
 11
741.0
 21
162.0
 31
0.0
  0
LINE
  8
L-TYUSIN
 10
733.0
 20
200.6
 30
0.0
 11
743.0
 21
200.6
 31
0.0
  0
LINE
  8
L-TYUSIN
 10
733.0
 20
204.6
 30
0.0
 11
743.0
 21
204.6
 31
0.0
  0
LINE
  8
L-ZISSEN
 10
738.0
 20
211.6
 30
0.0
 11
819.0
 21
211.6
 31
0.0
  0
LINE
  8
L-ZISSEN
 10
738.0
 20
193.6
 30
0.0
 11
738.0
 21
211.6
 31
0.0
  0
LINE
  8
L-ZISSEN
 10
819.0
 20
193.6
 30
0.0
 11
738.0
 21
193.6
 31
0.0
  0
LINE
  8
L-ZISSEN
 10
301.0
 20
278.0
 30
0.0
 11
301.0
 21
422.0
 31
0.0
  0
LINE
  8
L-ZISSEN
 10
382.0
 20
278.0
 30
0.0
 11
382.0
 21
422.0
 31
0.0
  0
LINE
  8
L-TYUSIN
  6
CENTER
 62
     1
 10
377.0
 20
376.0
 30
0.0
 11
387.0
 21
376.0
 31
0.0
  0
LINE
  8
L-TYUSIN
  6
CENTER
 62
     1
 10
377.0
 20
326.0
 30
0.0
 11
387.0
 21
326.0
 31
0.0
  0
LINE
  8
L-TYUSIN
  6
CENTER
 62
     1
 10
377.0
 20
398.0
 30
0.0
 11
387.0
 21
398.0
 31
0.0
  0
LINE
  8
L-TYUSIN
  6
CENTER
 62
     1
 10
377.0
 20
304.0
 30
0.0
 11
387.0
 21
304.0
 31
0.0
  0
LINE
  8
L-TYUSIN
  6
CENTER
 62
     1
 10
124.0
 20
100.0
 30
0.0
 11
64.0
 21
100.0
 31
0.0
  0
SOLID
  8
L-ZISSEN
 10
419.279135
 20
98.426811
 30
0.0
 11
419.720216
 21
98.926703
 31
0.0
 12
418.0
 22
100.0
 32
0.0
 13
418.0
 23
100.0
 33
0.0
  0
LINE
  8
L-ZISSEN
 10
419.499676
 20
98.676757
 30
0.0
 11
435.0
 21
85.0
 31
0.0
  0
LINE
  8
L-ZISSEN
 10
435.0
 20
85.0
 30
0.0
 11
437.0
 21
85.0
 31
0.0
  0
TEXT
  8
L-ZISSEN
 10
439.0
 20
82.75
 30
0.0
 40
4.5
  1
IN
  0
TEXT
  8
L-ZISSEN
 10
440.0
 20
75.0
 30
0.0
 40
4.5
  1
Rc 1/2
  0
TEXT
  8
L-ZISSEN
 10
440.0
 20
65.0
 30
0.0
 40
4.5
  1
Rc 3/4
  0
TEXT
  8
L-ZISSEN
 10
440.0
 20
55.0
 30
0.0
 40
4.5
  1
Rc 1
  0
TEXT
  8
L-ZISSEN
 10
440.0
 20
45.0
 30
0.0
 40
4.5
  1
Rc 1-1/4
  0
TEXT
  8
L-ZISSEN
 10
111.0
 20
451.0
 30
0.0
 40
4.5
  1
4
  0
TEXT
  8
L-ZISSEN
 10
111.0
 20
444.0
 30
0.0
 40
4.5
  1
6
  0
TEXT
  8
L-ZISSEN
 10
111.0
 20
437.0
 30
0.0
 40
4.5
  1
8
  0
TEXT
  8
L-ZISSEN
 10
111.0
 20
430.0
 30
0.0
 40
4.5
  1
A
  0
ENDSEC
  0
EOF
