  0
SECTION
  2
HEADER
  9
$ACADVER
  1
AC1006
  9
$INSBASE
 10
0.0
 20
0.0
 30
0.0
  9
$EXTMIN
 10
23.0
 20
32.75
  9
$EXTMAX
 10
1325.0
 20
770.0
  9
$LIMMIN
 10
0.0
 20
0.0
  9
$LIMMAX
 10
1189.0
 20
841.0
  9
$ORTHOMODE
 70
     0
  9
$REGENMODE
 70
     1
  9
$FILLMODE
 70
     1
  9
$QTEXTMODE
 70
     0
  9
$MIRRTEXT
 70
     1
  9
$DRAGMODE
 70
     2
  9
$LTSCALE
 40
1.0
  9
$OSMODE
 70
     0
  9
$ATTMODE
 70
     1
  9
$TEXTSIZE
 40
4.5
  9
$TRACEWID
 40
0.05
  9
$TEXTSTYLE
  7
STANDARD
  9
$CLAYER
  8
L-ZISSEN
  9
$CELTYPE
  6
BYLAYER
  9
$CECOLOR
 62
   256
  9
$DIMSCALE
 40
1.0
  9
$DIMASZ
 40
2.0
  9
$DIMEXO
 40
1.0
  9
$DIMDLI
 40
0.38
  9
$DIMRND
 40
0.0
  9
$DIMDLE
 40
1.0
  9
$DIMEXE
 40
1.0
  9
$DIMTP
 40
0.0
  9
$DIMTM
 40
0.0
  9
$DIMTXT
 40
4.5
  9
$DIMCEN
 40
0.09
  9
$DIMTSZ
 40
0.0
  9
$DIMTOL
 70
     0
  9
$DIMLIM
 70
     0
  9
$DIMTIH
 70
     0
  9
$DIMTOH
 70
     0
  9
$DIMSE1
 70
     0
  9
$DIMSE2
 70
     0
  9
$DIMTAD
 70
     1
  9
$DIMZIN
 70
     0
  9
$DIMBLK
  1

  9
$DIMASO
 70
     0
  9
$DIMSHO
 70
     0
  9
$DIMPOST
  1

  9
$DIMAPOST
  1

  9
$DIMALT
 70
     0
  9
$DIMALTD
 70
     2
  9
$DIMALTF
 40
25.4
  9
$DIMLFAC
 40
1.0
  9
$DIMTOFL
 70
     1
  9
$DIMTVP
 40
0.0
  9
$DIMTIX
 70
     1
  9
$DIMSOXD
 70
     0
  9
$DIMSAH
 70
     0
  9
$DIMBLK1
  1

  9
$DIMBLK2
  1

  9
$LUNITS
 70
     2
  9
$LUPREC
 70
     4
  9
$AXISMODE
 70
     0
  9
$AXISUNIT
 10
0.0
 20
0.0
  9
$SKETCHINC
 40
0.1
  9
$FILLETRAD
 40
5.0
  9
$AUNITS
 70
     0
  9
$AUPREC
 70
     0
  9
$MENU
  1
acad
  9
$ELEVATION
 40
0.0
  9
$THICKNESS
 40
0.0
  9
$LIMCHECK
 70
     0
  9
$BLIPMODE
 70
     1
  9
$CHAMFERA
 40
0.0
  9
$CHAMFERB
 40
0.0
  9
$SKPOLY
 70
     0
  9
$TDCREATE
 40
2449251.4873810187
  9
$TDUPDATE
 40
2449251.4873810187
  9
$TDINDWG
 40
0.0000000000
  9
$TDUSRTIMER
 40
0.0000000000
  9
$USRTIMER
 70
     1
  9
$ANGBASE
 50
0.0
  9
$ANGDIR
 70
     0
  9
$PDMODE
 70
     0
  9
$PDSIZE
 40
0.0
  9
$PLINEWID
 40
0.0
  9
$COORDS
 70
     2
  9
$SPLFRAME
 70
     0
  9
$SPLINETYPE
 70
     6
  9
$SPLINESEGS
 70
     8
  9
$ATTDIA
 70
     0
  9
$ATTREQ
 70
     1
  9
$HANDLING
 70
     0
  9
$HANDSEED
  5
0
  9
$SURFTAB1
 70
     6
  9
$SURFTAB2
 70
     6
  9
$SURFTYPE
 70
     6
  9
$SURFU
 70
     6
  9
$SURFV
 70
     6
  9
$FLATLAND
 70
     0
  9
$UCSNAME
  2

  9
$UCSORG
 10
0.0
 20
0.0
 30
0.0
  9
$UCSXDIR
 10
1.0
 20
0.0
 30
0.0
  9
$UCSYDIR
 10
0.0
 20
1.0
 30
0.0
  9
$USERI1
 70
     0
  9
$USERI2
 70
     0
  9
$USERI3
 70
     0
  9
$USERI4
 70
     0
  9
$USERI5
 70
     0
  9
$USERR1
 40
0.0
  9
$USERR2
 40
0.0
  9
$USERR3
 40
0.0
  9
$USERR4
 40
0.0
  9
$USERR5
 40
0.0
  9
$WORLDVIEW
 70
     1
  0
ENDSEC
  0
SECTION
  2
TABLES
  0
TABLE
  2
VPORT
 70
     2
  0
VPORT
  2
*ACTIVE
 70
     0
 10
0.0
 20
0.0
 11
1.0
 21
1.0
 12
674.578245
 22
435.577173
 13
0.0
 23
0.0
 14
5.0
 24
5.0
 15
0.0
 25
0.0
 16
0.0
 26
0.0
 36
1.0
 17
0.0
 27
0.0
 37
0.0
 40
871.154346
 41
1.5487
 42
50.0
 43
0.0
 44
0.0
 50
0.0
 51
0.0
 71
     0
 72
   100
 73
     1
 74
     0
 75
     0
 76
     0
 77
     0
 78
     0
  0
ENDTAB
  0
TABLE
  2
LTYPE
 70
     2
  0
LTYPE
  2
CONTINUOUS
 70
    64
  3
Solid line
 72
    65
 73
     0
 40
0.0
  0
LTYPE
  2
CENTER
 70
    64
  3
____ _ ____ _ ____ _ ____ _ 
 72
    65
 73
     4
 40
60.0
 49
45.0
 49
-5.0
 49
5.0
 49
-5.0
  0
ENDTAB
  0
TABLE
  2
LAYER
 70
     3
  0
LAYER
  2
0
 70
     0
 62
     7
  6
CONTINUOUS
  0
LAYER
  2
L-ZISSEN
 70
    64
 62
     7
  6
CONTINUOUS
  0
LAYER
  2
L-TYUSIN
 70
    64
 62
     1
  6
CENTER
  0
ENDTAB
  0
TABLE
  2
STYLE
 70
     1
  0
STYLE
  2
STANDARD
 70
    64
 40
0.0
 41
1.0
 50
0.0
 71
     0
 42
4.5
  3
TXT
  4

  0
ENDTAB
  0
TABLE
  2
VIEW
 70
     0
  0
ENDTAB
  0
TABLE
  2
UCS
 70
     0
  0
ENDTAB
  0
TABLE
  2
DWGMGR
 70
     0
  0
ENDTAB
  0
ENDSEC
  0
SECTION
  2
BLOCKS
  0
ENDSEC
  0
SECTION
  2
ENTITIES
  0
LINE
  8
L-ZISSEN
  6
CONTINUOUS
 62
     7
 10
527.5
 20
107.0
 30
0.0
 11
535.0
 21
107.0
 31
0.0
  0
LINE
  8
L-ZISSEN
  6
CONTINUOUS
 62
     7
 10
527.5
 20
107.0
 30
0.0
 11
527.5
 21
117.0
 31
0.0
  0
LINE
  8
L-ZISSEN
  6
CONTINUOUS
 62
     7
 10
527.5
 20
117.0
 30
0.0
 11
535.0
 21
117.0
 31
0.0
  0
LINE
  8
L-ZISSEN
  6
CONTINUOUS
 62
     7
 10
527.5
 20
151.0
 30
0.0
 11
535.0
 21
151.0
 31
0.0
  0
LINE
  8
L-ZISSEN
  6
CONTINUOUS
 62
     7
 10
527.5
 20
161.0
 30
0.0
 11
527.5
 21
151.0
 31
0.0
  0
LINE
  8
L-ZISSEN
  6
CONTINUOUS
 62
     7
 10
527.5
 20
161.0
 30
0.0
 11
535.0
 21
161.0
 31
0.0
  0
LINE
  8
L-TYUSIN
  6
CENTER
 62
     1
 10
698.8
 20
134.0
 30
0.0
 11
712.0
 21
134.0
 31
0.0
  0
LINE
  8
L-ZISSEN
  6
CONTINUOUS
 62
     7
 10
548.0
 20
133.0
 30
0.0
 11
682.0
 21
133.0
 31
0.0
  0
LINE
  8
L-ZISSEN
  6
CONTINUOUS
 62
     7
 10
607.0
 20
55.5
 30
0.0
 11
607.0
 21
67.0
 31
0.0
  0
ARC
  8
L-ZISSEN
  6
CONTINUOUS
 62
     7
 10
601.0
 20
74.0
 30
0.0
 40
5.0
 50
203.578178
 51
336.421822
  0
ARC
  8
L-ZISSEN
  6
CONTINUOUS
 62
     7
 10
601.0
 20
126.0
 30
0.0
 40
5.0
 50
23.578178
 51
156.421822
  0
LINE
  8
L-ZISSEN
  6
CONTINUOUS
 62
     7
 10
623.0
 20
55.5
 30
0.0
 11
623.0
 21
67.0
 31
0.0
  0
ARC
  8
L-ZISSEN
  6
CONTINUOUS
 62
     7
 10
629.0
 20
74.0
 30
0.0
 40
5.0
 50
203.578178
 51
336.421822
  0
ARC
  8
L-ZISSEN
  6
CONTINUOUS
 62
     7
 10
629.0
 20
126.0
 30
0.0
 40
5.0
 50
23.578178
 51
156.421822
  0
LINE
  8
L-ZISSEN
  6
CONTINUOUS
 62
     7
 10
703.8
 20
162.0
 30
0.0
 11
703.8
 21
106.0
 31
0.0
  0
LINE
  8
L-ZISSEN
  6
CONTINUOUS
 62
     7
 10
535.0
 20
106.0
 30
0.0
 11
551.0
 21
106.0
 31
0.0
  0
LINE
  8
L-ZISSEN
  6
CONTINUOUS
 62
     7
 10
535.0
 20
162.0
 30
0.0
 11
707.0
 21
162.0
 31
0.0
  0
LINE
  8
L-ZISSEN
  6
CONTINUOUS
 62
     7
 10
520.0
 20
156.5
 30
0.0
 11
527.5
 21
156.5
 31
0.0
  0
LINE
  8
L-ZISSEN
  6
CONTINUOUS
 62
     7
 10
520.0
 20
111.5
 30
0.0
 11
520.0
 21
156.5
 31
0.0
  0
LINE
  8
L-ZISSEN
  6
CONTINUOUS
 62
     7
 10
520.0
 20
111.5
 30
0.0
 11
527.5
 21
111.5
 31
0.0
  0
LINE
  8
L-ZISSEN
  6
CONTINUOUS
 62
     7
 10
535.0
 20
162.0
 30
0.0
 11
535.0
 21
106.0
 31
0.0
  0
LINE
  8
L-ZISSEN
  6
CONTINUOUS
 62
     7
 10
530.0
 20
117.0
 30
0.0
 11
530.0
 21
151.0
 31
0.0
  0
LINE
  8
L-ZISSEN
  6
CONTINUOUS
 62
     7
 10
607.0
 20
55.5
 30
0.0
 11
551.0
 21
55.5
 31
0.0
  0
LINE
  8
L-ZISSEN
  6
CONTINUOUS
 62
     7
 10
596.0
 20
52.5
 30
0.0
 11
562.0
 21
52.5
 31
0.0
  0
LINE
  8
L-ZISSEN
  6
CONTINUOUS
 62
     7
 10
610.0
 20
162.0
 30
0.0
 11
610.0
 21
133.0
 31
0.0
  0
LINE
  8
L-ZISSEN
  6
CONTINUOUS
 62
     7
 10
548.0
 20
162.0
 30
0.0
 11
548.0
 21
133.0
 31
0.0
  0
CIRCLE
  8
L-ZISSEN
  6
CONTINUOUS
 62
     7
 10
557.0
 20
74.0
 30
0.0
 40
5.0
  0
CIRCLE
  8
L-ZISSEN
  6
CONTINUOUS
 62
     7
 10
557.0
 20
126.0
 30
0.0
 40
5.0
  0
LINE
  8
L-ZISSEN
  6
CONTINUOUS
 62
     7
 10
586.5
 20
162.0
 30
0.0
 11
586.5
 21
157.0
 31
0.0
  0
LINE
  8
L-ZISSEN
  6
CONTINUOUS
 62
     7
 10
586.5
 20
157.0
 30
0.0
 11
584.0
 21
147.0
 31
0.0
  0
LINE
  8
L-ZISSEN
  6
CONTINUOUS
 62
     7
 10
571.5
 20
157.0
 30
0.0
 11
574.0
 21
147.0
 31
0.0
  0
LINE
  8
L-ZISSEN
  6
CONTINUOUS
 62
     7
 10
571.5
 20
162.0
 30
0.0
 11
571.5
 21
157.0
 31
0.0
  0
LINE
  8
L-ZISSEN
  6
CONTINUOUS
 62
     7
 10
548.0
 20
157.0
 30
0.0
 11
610.0
 21
157.0
 31
0.0
  0
LINE
  8
L-ZISSEN
  6
CONTINUOUS
 62
     7
 10
551.0
 20
55.5
 30
0.0
 11
551.0
 21
133.0
 31
0.0
  0
LINE
  8
L-ZISSEN
  6
CONTINUOUS
 62
     7
 10
551.0
 20
60.0
 30
0.0
 11
607.0
 21
60.0
 31
0.0
  0
LINE
  8
L-ZISSEN
  6
CONTINUOUS
 62
     7
 10
682.0
 20
157.0
 30
0.0
 11
620.0
 21
157.0
 31
0.0
  0
LINE
  8
L-ZISSEN
  6
CONTINUOUS
 62
     7
 10
615.0
 20
162.0
 30
0.0
 11
615.0
 21
133.0
 31
0.0
  0
LINE
  8
L-ZISSEN
  6
CONTINUOUS
 62
     7
 10
646.0
 20
134.230304
 30
0.0
 11
646.0
 21
147.0
 31
0.0
  0
LINE
  8
L-ZISSEN
  6
CONTINUOUS
 62
     7
 10
658.5
 20
162.0
 30
0.0
 11
658.5
 21
157.0
 31
0.0
  0
LINE
  8
L-ZISSEN
  6
CONTINUOUS
 62
     7
 10
658.5
 20
157.0
 30
0.0
 11
656.0
 21
147.0
 31
0.0
  0
LINE
  8
L-ZISSEN
  6
CONTINUOUS
 62
     7
 10
643.5
 20
157.0
 30
0.0
 11
646.0
 21
147.0
 31
0.0
  0
LINE
  8
L-ZISSEN
  6
CONTINUOUS
 62
     7
 10
643.5
 20
162.0
 30
0.0
 11
643.5
 21
157.0
 31
0.0
  0
LINE
  8
L-ZISSEN
  6
CONTINUOUS
 62
     7
 10
679.0
 20
55.5
 30
0.0
 11
679.0
 21
133.0
 31
0.0
  0
CIRCLE
  8
L-ZISSEN
  6
CONTINUOUS
 62
     7
 10
673.0
 20
126.0
 30
0.0
 40
5.0
  0
CIRCLE
  8
L-ZISSEN
  6
CONTINUOUS
 62
     7
 10
673.0
 20
74.0
 30
0.0
 40
5.0
  0
LINE
  8
L-ZISSEN
  6
CONTINUOUS
 62
     7
 10
682.0
 20
162.0
 30
0.0
 11
682.0
 21
133.0
 31
0.0
  0
LINE
  8
L-ZISSEN
  6
CONTINUOUS
 62
     7
 10
620.0
 20
162.0
 30
0.0
 11
620.0
 21
133.0
 31
0.0
  0
LINE
  8
L-ZISSEN
  6
CONTINUOUS
 62
     7
 10
634.0
 20
52.5
 30
0.0
 11
668.0
 21
52.5
 31
0.0
  0
LINE
  8
L-ZISSEN
  6
CONTINUOUS
 62
     7
 10
623.0
 20
55.5
 30
0.0
 11
679.0
 21
55.5
 31
0.0
  0
LINE
  8
L-ZISSEN
  6
CONTINUOUS
 62
     7
 10
678.0
 20
48.0
 30
0.0
 11
668.0
 21
48.0
 31
0.0
  0
LINE
  8
L-ZISSEN
  6
CONTINUOUS
 62
     7
 10
678.0
 20
48.0
 30
0.0
 11
678.0
 21
55.5
 31
0.0
  0
LINE
  8
L-TYUSIN
  6
CENTER
 62
     1
 10
585.0
 20
100.0
 30
0.0
 11
645.0
 21
100.0
 31
0.0
  0
LINE
  8
L-ZISSEN
  6
CONTINUOUS
 62
     7
 10
679.0
 20
106.0
 30
0.0
 11
707.0
 21
106.0
 31
0.0
  0
LINE
  8
L-ZISSEN
  6
CONTINUOUS
 62
     7
 10
707.0
 20
106.0
 30
0.0
 11
707.0
 21
162.0
 31
0.0
  0
LINE
  8
L-TYUSIN
  6
CENTER
 62
     1
 10
548.0
 20
134.0
 30
0.0
 11
515.0
 21
134.0
 31
0.0
  0
LINE
  8
L-ZISSEN
 10
656.0
 20
134.230304
 30
0.0
 11
646.0
 21
134.230304
 31
0.0
  0
LINE
  8
L-ZISSEN
  6
CONTINUOUS
 62
     7
 10
656.0
 20
134.230304
 30
0.0
 11
656.0
 21
147.0
 31
0.0
  0
LINE
  8
L-ZISSEN
  6
CONTINUOUS
 62
     7
 10
574.0
 20
134.230304
 30
0.0
 11
574.0
 21
147.0
 31
0.0
  0
LINE
  8
L-ZISSEN
  6
CONTINUOUS
 62
     7
 10
584.0
 20
134.230304
 30
0.0
 11
584.0
 21
147.0
 31
0.0
  0
LINE
  8
L-ZISSEN
 10
584.0
 20
134.230304
 30
0.0
 11
574.0
 21
134.230304
 31
0.0
  0
LINE
  8
L-ZISSEN
  6
CONTINUOUS
 62
     7
 10
551.0
 20
67.0
 30
0.0
 11
679.0
 21
67.0
 31
0.0
  0
LINE
  8
L-ZISSEN
  6
CONTINUOUS
 62
     7
 10
623.0
 20
60.0
 30
0.0
 11
679.0
 21
60.0
 31
0.0
  0
LINE
  8
L-ZISSEN
  6
CONTINUOUS
 62
     7
 10
668.0
 20
48.0
 30
0.0
 11
668.0
 21
55.5
 31
0.0
  0
LINE
  8
L-ZISSEN
  6
CONTINUOUS
 62
     7
 10
624.0
 20
48.0
 30
0.0
 11
624.0
 21
55.5
 31
0.0
  0
LINE
  8
L-ZISSEN
  6
CONTINUOUS
 62
     7
 10
634.0
 20
48.0
 30
0.0
 11
634.0
 21
55.5
 31
0.0
  0
LINE
  8
L-ZISSEN
  6
CONTINUOUS
 62
     7
 10
634.0
 20
48.0
 30
0.0
 11
624.0
 21
48.0
 31
0.0
  0
LINE
  8
L-ZISSEN
  6
CONTINUOUS
 62
     7
 10
562.0
 20
48.0
 30
0.0
 11
552.0
 21
48.0
 31
0.0
  0
LINE
  8
L-ZISSEN
  6
CONTINUOUS
 62
     7
 10
562.0
 20
48.0
 30
0.0
 11
562.0
 21
55.5
 31
0.0
  0
LINE
  8
L-ZISSEN
  6
CONTINUOUS
 62
     7
 10
552.0
 20
48.0
 30
0.0
 11
552.0
 21
55.5
 31
0.0
  0
LINE
  8
L-ZISSEN
  6
CONTINUOUS
 62
     7
 10
596.0
 20
48.0
 30
0.0
 11
596.0
 21
55.5
 31
0.0
  0
LINE
  8
L-ZISSEN
  6
CONTINUOUS
 62
     7
 10
606.0
 20
48.0
 30
0.0
 11
606.0
 21
55.5
 31
0.0
  0
LINE
  8
L-ZISSEN
  6
CONTINUOUS
 62
     7
 10
606.0
 20
48.0
 30
0.0
 11
596.0
 21
48.0
 31
0.0
  0
LINE
  8
L-TYUSIN
  6
CENTER
 62
     1
 10
615.0
 20
194.0
 30
0.0
 11
615.0
 21
62.0
 31
0.0
  0
LINE
  8
L-TYUSIN
 10
625.0
 20
173.0
 30
0.0
 11
605.0
 21
173.0
 31
0.0
  0
LINE
  8
L-TYUSIN
  6
CENTER
 62
     1
 10
134.0
 20
130.0
 30
0.0
 11
134.0
 21
70.0
 31
0.0
  0
LINE
  8
L-TYUSIN
  6
CENTER
 62
     1
 10
206.0
 20
130.0
 30
0.0
 11
206.0
 21
70.0
 31
0.0
  0
LINE
  8
L-TYUSIN
  6
CENTER
 62
     1
 10
170.0
 20
194.0
 30
0.0
 11
170.0
 21
62.0
 31
0.0
  0
LINE
  8
L-TYUSIN
  6
CENTER
 62
     1
 10
380.0
 20
194.0
 30
0.0
 11
380.0
 21
47.5
 31
0.0
  0
LINE
  8
L-ZISSEN
 10
341.0
 20
189.0
 30
0.0
 11
341.0
 21
157.0
 31
0.0
  0
LINE
  8
L-TYUSIN
  6
CENTER
 62
     1
 10
436.5
 20
126.0
 30
0.0
 11
436.5
 21
142.0
 31
0.0
  0
LINE
  8
L-TYUSIN
  6
CENTER
 62
     1
 10
448.5
 20
134.0
 30
0.0
 11
424.5
 21
134.0
 31
0.0
  0
LINE
  8
L-ZISSEN
 10
419.0
 20
189.0
 30
0.0
 11
419.0
 21
157.0
 31
0.0
  0
LINE
  8
L-ZISSEN
  6
CONTINUOUS
 62
     7
 10
416.5
 20
134.230304
 30
0.0
 11
416.5
 21
147.669873
 31
0.0
  0
LINE
  8
L-ZISSEN
  6
CONTINUOUS
 62
     7
 10
419.0
 20
157.0
 30
0.0
 11
416.5
 21
147.669873
 31
0.0
  0
LINE
  8
L-ZISSEN
 10
413.0
 20
134.230304
 30
0.0
 11
416.5
 21
134.230304
 31
0.0
  0
LINE
  8
L-ZISSEN
 10
347.0
 20
134.230304
 30
0.0
 11
343.5
 21
134.230304
 31
0.0
  0
LINE
  8
L-ZISSEN
  6
CONTINUOUS
 62
     7
 10
450.5
 20
73.0
 30
0.0
 11
443.0
 21
73.0
 31
0.0
  0
LINE
  8
L-ZISSEN
  6
CONTINUOUS
 62
     7
 10
450.5
 20
83.0
 30
0.0
 11
443.0
 21
83.0
 31
0.0
  0
LINE
  8
L-ZISSEN
  6
CONTINUOUS
 62
     7
 10
450.5
 20
73.0
 30
0.0
 11
450.5
 21
83.0
 31
0.0
  0
LINE
  8
L-ZISSEN
  6
CONTINUOUS
 62
     7
 10
450.5
 20
117.0
 30
0.0
 11
443.0
 21
117.0
 31
0.0
  0
LINE
  8
L-ZISSEN
  6
CONTINUOUS
 62
     7
 10
450.5
 20
127.0
 30
0.0
 11
450.5
 21
117.0
 31
0.0
  0
LINE
  8
L-ZISSEN
  6
CONTINUOUS
 62
     7
 10
450.5
 20
127.0
 30
0.0
 11
443.0
 21
127.0
 31
0.0
  0
LINE
  8
L-ZISSEN
  6
CONTINUOUS
 62
     7
 10
428.5
 20
131.0
 30
0.0
 11
421.0
 21
131.0
 31
0.0
  0
LINE
  8
L-ZISSEN
  6
CONTINUOUS
 62
     7
 10
428.5
 20
131.0
 30
0.0
 11
428.5
 21
121.0
 31
0.0
  0
LINE
  8
L-ZISSEN
  6
CONTINUOUS
 62
     7
 10
331.5
 20
69.0
 30
0.0
 11
339.0
 21
69.0
 31
0.0
  0
LINE
  8
L-ZISSEN
  6
CONTINUOUS
 62
     7
 10
331.5
 20
69.0
 30
0.0
 11
331.5
 21
79.0
 31
0.0
  0
LINE
  8
L-ZISSEN
  6
CONTINUOUS
 62
     7
 10
324.0
 20
77.5
 30
0.0
 11
331.5
 21
77.5
 31
0.0
  0
LINE
  8
L-ZISSEN
  6
CONTINUOUS
 62
     7
 10
407.0
 20
48.0
 30
0.0
 11
407.0
 21
55.5
 31
0.0
  0
LINE
  8
L-ZISSEN
  6
CONTINUOUS
 62
     7
 10
397.0
 20
48.0
 30
0.0
 11
407.0
 21
48.0
 31
0.0
  0
LINE
  8
L-ZISSEN
  6
CONTINUOUS
 62
     7
 10
397.0
 20
48.0
 30
0.0
 11
397.0
 21
55.5
 31
0.0
  0
LINE
  8
L-TYUSIN
  6
CENTER
 62
     1
 10
319.0
 20
100.0
 30
0.0
 11
463.0
 21
100.0
 31
0.0
  0
LINE
  8
L-TYUSIN
  6
CENTER
 62
     1
 10
410.0
 20
134.0
 30
0.0
 11
350.0
 21
134.0
 31
0.0
  0
LINE
  8
L-ZISSEN
  6
CONTINUOUS
 62
     7
 10
455.0
 20
162.0
 30
0.0
 11
305.0
 21
162.0
 31
0.0
  0
LINE
  8
L-ZISSEN
  6
CONTINUOUS
 62
     7
 10
353.0
 20
48.0
 30
0.0
 11
353.0
 21
55.5
 31
0.0
  0
LINE
  8
L-ZISSEN
  6
CONTINUOUS
 62
     7
 10
353.0
 20
48.0
 30
0.0
 11
363.0
 21
48.0
 31
0.0
  0
LINE
  8
L-ZISSEN
  6
CONTINUOUS
 62
     7
 10
363.0
 20
48.0
 30
0.0
 11
363.0
 21
55.5
 31
0.0
  0
LINE
  8
L-ZISSEN
  6
CONTINUOUS
 62
     7
 10
363.0
 20
52.5
 30
0.0
 11
397.0
 21
52.5
 31
0.0
  0
LINE
  8
L-ZISSEN
  6
CONTINUOUS
 62
     7
 10
352.0
 20
55.5
 30
0.0
 11
408.0
 21
55.5
 31
0.0
  0
CIRCLE
  8
L-ZISSEN
  6
CONTINUOUS
 62
     7
 10
406.0
 20
112.0
 30
0.0
 40
5.0
  0
CIRCLE
  8
L-ZISSEN
  6
CONTINUOUS
 62
     7
 10
354.0
 20
112.0
 30
0.0
 40
5.0
  0
CIRCLE
  8
L-ZISSEN
  6
CONTINUOUS
 62
     7
 10
406.0
 20
156.0
 30
0.0
 40
5.0
  0
LINE
  8
L-ZISSEN
  6
CONTINUOUS
 62
     7
 10
339.0
 20
133.0
 30
0.0
 11
347.0
 21
133.0
 31
0.0
  0
LINE
  8
L-ZISSEN
  6
CONTINUOUS
 62
     7
 10
324.0
 20
77.5
 30
0.0
 11
324.0
 21
122.5
 31
0.0
  0
LINE
  8
L-ZISSEN
  6
CONTINUOUS
 62
     7
 10
339.0
 20
67.0
 30
0.0
 11
339.0
 21
133.0
 31
0.0
  0
LINE
  8
L-ZISSEN
  6
CONTINUOUS
 62
     7
 10
331.5
 20
131.0
 30
0.0
 11
331.5
 21
121.0
 31
0.0
  0
LINE
  8
L-ZISSEN
  6
CONTINUOUS
 62
     7
 10
331.5
 20
131.0
 30
0.0
 11
339.0
 21
131.0
 31
0.0
  0
CIRCLE
  8
L-ZISSEN
  6
CONTINUOUS
 62
     7
 10
354.0
 20
156.0
 30
0.0
 40
5.0
  0
CIRCLE
  8
L-ZISSEN
  6
CONTINUOUS
 62
     7
 10
380.0
 20
134.0
 30
0.0
 40
22.5
  0
LINE
  8
L-ZISSEN
  6
CONTINUOUS
 62
     7
 10
347.0
 20
178.0
 30
0.0
 11
347.0
 21
67.0
 31
0.0
  0
LINE
  8
L-ZISSEN
  6
CONTINUOUS
 62
     7
 10
413.0
 20
162.0
 30
0.0
 11
413.0
 21
67.0
 31
0.0
  0
LINE
  8
L-ZISSEN
  6
CONTINUOUS
 62
     7
 10
347.0
 20
106.0
 30
0.0
 11
413.0
 21
106.0
 31
0.0
  0
LINE
  8
L-ZISSEN
  6
CONTINUOUS
 62
     7
 10
352.0
 20
67.0
 30
0.0
 11
339.0
 21
67.0
 31
0.0
  0
LINE
  8
L-ZISSEN
  6
CONTINUOUS
 62
     7
 10
352.0
 20
55.5
 30
0.0
 11
352.0
 21
67.0
 31
0.0
  0
LINE
  8
L-ZISSEN
  6
CONTINUOUS
 62
     7
 10
341.0
 20
157.0
 30
0.0
 11
343.5
 21
147.669873
 31
0.0
  0
LINE
  8
L-ZISSEN
  6
CONTINUOUS
 62
     7
 10
343.5
 20
134.230304
 30
0.0
 11
343.5
 21
147.669873
 31
0.0
  0
LINE
  8
L-ZISSEN
  6
CONTINUOUS
 62
     7
 10
421.0
 20
67.0
 30
0.0
 11
408.0
 21
67.0
 31
0.0
  0
LINE
  8
L-ZISSEN
  6
CONTINUOUS
 62
     7
 10
408.0
 20
55.5
 30
0.0
 11
408.0
 21
67.0
 31
0.0
  0
LINE
  8
L-ZISSEN
  6
CONTINUOUS
 62
     7
 10
352.0
 20
60.0
 30
0.0
 11
408.0
 21
60.0
 31
0.0
  0
LINE
  8
L-ZISSEN
  6
CONTINUOUS
 62
     7
 10
435.0
 20
72.0
 30
0.0
 11
435.0
 21
128.0
 31
0.0
  0
LINE
  8
L-ZISSEN
  6
CONTINUOUS
 62
     7
 10
421.0
 20
67.0
 30
0.0
 11
421.0
 21
133.0
 31
0.0
  0
LINE
  8
L-ZISSEN
  6
CONTINUOUS
 62
     7
 10
443.0
 20
72.0
 30
0.0
 11
428.5
 21
72.0
 31
0.0
  0
LINE
  8
L-ZISSEN
  6
CONTINUOUS
 62
     7
 10
443.0
 20
128.0
 30
0.0
 11
428.5
 21
128.0
 31
0.0
  0
LINE
  8
L-ZISSEN
  6
CONTINUOUS
 62
     7
 10
434.279056
 20
121.0
 30
0.0
 11
428.5
 21
121.0
 31
0.0
  0
LINE
  8
L-ZISSEN
  6
CONTINUOUS
 62
     7
 10
421.0
 20
133.0
 30
0.0
 11
413.0
 21
133.0
 31
0.0
  0
LINE
  8
L-ZISSEN
  6
CONTINUOUS
 62
     7
 10
428.5
 20
69.0
 30
0.0
 11
428.5
 21
79.0
 31
0.0
  0
LINE
  8
L-ZISSEN
  6
CONTINUOUS
 62
     7
 10
428.5
 20
69.0
 30
0.0
 11
421.0
 21
69.0
 31
0.0
  0
LINE
  8
L-ZISSEN
  6
CONTINUOUS
 62
     7
 10
458.0
 20
122.5
 30
0.0
 11
450.5
 21
122.5
 31
0.0
  0
LINE
  8
L-ZISSEN
  6
CONTINUOUS
 62
     7
 10
458.0
 20
77.5
 30
0.0
 11
458.0
 21
122.5
 31
0.0
  0
LINE
  8
L-ZISSEN
  6
CONTINUOUS
 62
     7
 10
458.0
 20
77.5
 30
0.0
 11
450.5
 21
77.5
 31
0.0
  0
LINE
  8
L-ZISSEN
  6
CONTINUOUS
 62
     7
 10
443.0
 20
128.0
 30
0.0
 11
443.0
 21
72.0
 31
0.0
  0
LINE
  8
L-ZISSEN
  6
CONTINUOUS
 62
     7
 10
455.0
 20
162.0
 30
0.0
 11
455.0
 21
122.5
 31
0.0
  0
ARC
  8
L-ZISSEN
  6
CONTINUOUS
 62
     7
 10
441.0
 20
134.0
 30
0.0
 40
4.5
 50
270.0
 51
90.0
  0
LINE
  8
L-ZISSEN
  6
CONTINUOUS
 62
     7
 10
432.0
 20
129.5
 30
0.0
 11
441.0
 21
129.5
 31
0.0
  0
LINE
  8
L-ZISSEN
  6
CONTINUOUS
 62
     7
 10
432.0
 20
138.5
 30
0.0
 11
441.0
 21
138.5
 31
0.0
  0
LINE
  8
L-ZISSEN
  6
CONTINUOUS
 62
     7
 10
305.0
 20
106.0
 30
0.0
 11
324.0
 21
106.0
 31
0.0
  0
LINE
  8
L-ZISSEN
  6
CONTINUOUS
 62
     7
 10
305.0
 20
162.0
 30
0.0
 11
305.0
 21
106.0
 31
0.0
  0
ARC
  8
L-ZISSEN
  6
CONTINUOUS
 62
     7
 10
432.0
 20
134.0
 30
0.0
 40
4.5
 50
90.0
 51
270.0
  0
ARC
  8
L-ZISSEN
  6
CONTINUOUS
 62
     7
 10
328.0
 20
134.0
 30
0.0
 40
4.5
 50
270.0
 51
90.0
  0
LINE
  8
L-ZISSEN
  6
CONTINUOUS
 62
     7
 10
328.0
 20
138.5
 30
0.0
 11
319.0
 21
138.5
 31
0.0
  0
LINE
  8
L-ZISSEN
  6
CONTINUOUS
 62
     7
 10
328.0
 20
129.5
 30
0.0
 11
319.0
 21
129.5
 31
0.0
  0
ARC
  8
L-ZISSEN
  6
CONTINUOUS
 62
     7
 10
319.0
 20
134.0
 30
0.0
 40
4.5
 50
90.0
 51
270.0
  0
LINE
  8
L-TYUSIN
  6
CENTER
 62
     1
 10
323.5
 20
126.0
 30
0.0
 11
323.5
 21
142.0
 31
0.0
  0
LINE
  8
L-TYUSIN
  6
CENTER
 62
     1
 10
311.5
 20
134.0
 30
0.0
 11
335.5
 21
134.0
 31
0.0
  0
LINE
  8
L-ZISSEN
  6
CONTINUOUS
 62
     7
 10
418.2
 20
154.014359
 30
0.0
 11
418.2
 21
133.0
 31
0.0
  0
LINE
  8
L-ZISSEN
  6
CONTINUOUS
 62
     7
 10
341.8
 20
154.014359
 30
0.0
 11
341.8
 21
133.0
 31
0.0
  0
LINE
  8
L-ZISSEN
  6
CONTINUOUS
 62
     7
 10
179.0
 20
48.0
 30
0.0
 11
189.0
 21
48.0
 31
0.0
  0
LINE
  8
L-ZISSEN
  6
CONTINUOUS
 62
     7
 10
179.0
 20
48.0
 30
0.0
 11
179.0
 21
55.5
 31
0.0
  0
LINE
  8
L-ZISSEN
  6
CONTINUOUS
 62
     7
 10
189.0
 20
48.0
 30
0.0
 11
189.0
 21
55.5
 31
0.0
  0
LINE
  8
L-ZISSEN
  6
CONTINUOUS
 62
     7
 10
233.0
 20
48.0
 30
0.0
 11
233.0
 21
55.5
 31
0.0
  0
LINE
  8
L-ZISSEN
  6
CONTINUOUS
 62
     7
 10
223.0
 20
48.0
 30
0.0
 11
223.0
 21
55.5
 31
0.0
  0
LINE
  8
L-ZISSEN
  6
CONTINUOUS
 62
     7
 10
223.0
 20
48.0
 30
0.0
 11
233.0
 21
48.0
 31
0.0
  0
LINE
  8
L-ZISSEN
  6
CONTINUOUS
 62
     7
 10
151.0
 20
48.0
 30
0.0
 11
161.0
 21
48.0
 31
0.0
  0
LINE
  8
L-ZISSEN
  6
CONTINUOUS
 62
     7
 10
151.0
 20
48.0
 30
0.0
 11
151.0
 21
55.5
 31
0.0
  0
LINE
  8
L-ZISSEN
  6
CONTINUOUS
 62
     7
 10
161.0
 20
48.0
 30
0.0
 11
161.0
 21
55.5
 31
0.0
  0
LINE
  8
L-ZISSEN
  6
CONTINUOUS
 62
     7
 10
117.0
 20
48.0
 30
0.0
 11
117.0
 21
55.5
 31
0.0
  0
LINE
  8
L-ZISSEN
  6
CONTINUOUS
 62
     7
 10
162.0
 20
60.0
 30
0.0
 11
106.0
 21
60.0
 31
0.0
  0
LINE
  8
L-ZISSEN
  6
CONTINUOUS
 62
     7
 10
234.0
 20
67.0
 30
0.0
 11
106.0
 21
67.0
 31
0.0
  0
LINE
  8
L-ZISSEN
 10
201.0
 20
134.230304
 30
0.0
 11
211.0
 21
134.230304
 31
0.0
  0
LINE
  8
L-ZISSEN
  6
CONTINUOUS
 62
     7
 10
201.0
 20
134.230304
 30
0.0
 11
201.0
 21
147.0
 31
0.0
  0
LINE
  8
L-ZISSEN
  6
CONTINUOUS
 62
     7
 10
211.0
 20
134.230304
 30
0.0
 11
211.0
 21
147.0
 31
0.0
  0
LINE
  8
L-ZISSEN
  6
CONTINUOUS
 62
     7
 10
129.0
 20
134.230304
 30
0.0
 11
129.0
 21
147.0
 31
0.0
  0
LINE
  8
L-ZISSEN
 10
129.0
 20
134.230304
 30
0.0
 11
139.0
 21
134.230304
 31
0.0
  0
LINE
  8
L-TYUSIN
  6
CENTER
 62
     1
 10
237.0
 20
134.0
 30
0.0
 11
270.0
 21
134.0
 31
0.0
  0
LINE
  8
L-ZISSEN
  6
CONTINUOUS
 62
     7
 10
78.0
 20
106.0
 30
0.0
 11
78.0
 21
162.0
 31
0.0
  0
LINE
  8
L-ZISSEN
  6
CONTINUOUS
 62
     7
 10
106.0
 20
106.0
 30
0.0
 11
78.0
 21
106.0
 31
0.0
  0
LINE
  8
L-TYUSIN
  6
CENTER
 62
     1
 10
236.0
 20
100.0
 30
0.0
 11
176.0
 21
100.0
 31
0.0
  0
LINE
  8
L-ZISSEN
  6
CONTINUOUS
 62
     7
 10
107.0
 20
48.0
 30
0.0
 11
107.0
 21
55.5
 31
0.0
  0
LINE
  8
L-ZISSEN
  6
CONTINUOUS
 62
     7
 10
107.0
 20
48.0
 30
0.0
 11
117.0
 21
48.0
 31
0.0
  0
LINE
  8
L-ZISSEN
  6
CONTINUOUS
 62
     7
 10
162.0
 20
55.5
 30
0.0
 11
106.0
 21
55.5
 31
0.0
  0
LINE
  8
L-ZISSEN
  6
CONTINUOUS
 62
     7
 10
151.0
 20
52.5
 30
0.0
 11
117.0
 21
52.5
 31
0.0
  0
LINE
  8
L-ZISSEN
  6
CONTINUOUS
 62
     7
 10
165.0
 20
162.0
 30
0.0
 11
165.0
 21
133.0
 31
0.0
  0
LINE
  8
L-ZISSEN
  6
CONTINUOUS
 62
     7
 10
103.0
 20
162.0
 30
0.0
 11
103.0
 21
133.0
 31
0.0
  0
CIRCLE
  8
L-ZISSEN
  6
CONTINUOUS
 62
     7
 10
112.0
 20
74.0
 30
0.0
 40
5.0
  0
CIRCLE
  8
L-ZISSEN
  6
CONTINUOUS
 62
     7
 10
112.0
 20
126.0
 30
0.0
 40
5.0
  0
LINE
  8
L-ZISSEN
  6
CONTINUOUS
 62
     7
 10
106.0
 20
55.5
 30
0.0
 11
106.0
 21
133.0
 31
0.0
  0
LINE
  8
L-ZISSEN
  6
CONTINUOUS
 62
     7
 10
141.5
 20
162.0
 30
0.0
 11
141.5
 21
157.0
 31
0.0
  0
LINE
  8
L-ZISSEN
  6
CONTINUOUS
 62
     7
 10
141.5
 20
157.0
 30
0.0
 11
139.0
 21
147.0
 31
0.0
  0
LINE
  8
L-ZISSEN
  6
CONTINUOUS
 62
     7
 10
126.5
 20
157.0
 30
0.0
 11
129.0
 21
147.0
 31
0.0
  0
LINE
  8
L-ZISSEN
  6
CONTINUOUS
 62
     7
 10
126.5
 20
178.0
 30
0.0
 11
126.5
 21
157.0
 31
0.0
  0
LINE
  8
L-ZISSEN
  6
CONTINUOUS
 62
     7
 10
139.0
 20
134.230304
 30
0.0
 11
139.0
 21
147.0
 31
0.0
  0
LINE
  8
L-ZISSEN
  6
CONTINUOUS
 62
     7
 10
170.0
 20
162.0
 30
0.0
 11
170.0
 21
106.0
 31
0.0
  0
LINE
  8
L-ZISSEN
  6
CONTINUOUS
 62
     7
 10
103.0
 20
157.0
 30
0.0
 11
165.0
 21
157.0
 31
0.0
  0
LINE
  8
L-ZISSEN
  6
CONTINUOUS
 62
     7
 10
234.0
 20
60.0
 30
0.0
 11
178.0
 21
60.0
 31
0.0
  0
LINE
  8
L-ZISSEN
  6
CONTINUOUS
 62
     7
 10
234.0
 20
55.5
 30
0.0
 11
234.0
 21
133.0
 31
0.0
  0
LINE
  8
L-ZISSEN
  6
CONTINUOUS
 62
     7
 10
237.0
 20
157.0
 30
0.0
 11
175.0
 21
157.0
 31
0.0
  0
LINE
  8
L-ZISSEN
  6
CONTINUOUS
 62
     7
 10
213.5
 20
178.0
 30
0.0
 11
213.5
 21
157.0
 31
0.0
  0
LINE
  8
L-ZISSEN
  6
CONTINUOUS
 62
     7
 10
213.5
 20
157.0
 30
0.0
 11
211.0
 21
147.0
 31
0.0
  0
LINE
  8
L-ZISSEN
  6
CONTINUOUS
 62
     7
 10
198.5
 20
157.0
 30
0.0
 11
201.0
 21
147.0
 31
0.0
  0
LINE
  8
L-ZISSEN
  6
CONTINUOUS
 62
     7
 10
198.5
 20
162.0
 30
0.0
 11
198.5
 21
157.0
 31
0.0
  0
LINE
  8
L-ZISSEN
  6
CONTINUOUS
 62
     7
 10
237.0
 20
133.0
 30
0.0
 11
175.0
 21
133.0
 31
0.0
  0
CIRCLE
  8
L-ZISSEN
  6
CONTINUOUS
 62
     7
 10
228.0
 20
126.0
 30
0.0
 40
5.0
  0
CIRCLE
  8
L-ZISSEN
  6
CONTINUOUS
 62
     7
 10
228.0
 20
74.0
 30
0.0
 40
5.0
  0
LINE
  8
L-ZISSEN
  6
CONTINUOUS
 62
     7
 10
237.0
 20
162.0
 30
0.0
 11
237.0
 21
133.0
 31
0.0
  0
LINE
  8
L-ZISSEN
  6
CONTINUOUS
 62
     7
 10
175.0
 20
162.0
 30
0.0
 11
175.0
 21
133.0
 31
0.0
  0
LINE
  8
L-ZISSEN
  6
CONTINUOUS
 62
     7
 10
189.0
 20
52.5
 30
0.0
 11
223.0
 21
52.5
 31
0.0
  0
LINE
  8
L-ZISSEN
  6
CONTINUOUS
 62
     7
 10
178.0
 20
55.5
 30
0.0
 11
234.0
 21
55.5
 31
0.0
  0
LINE
  8
L-ZISSEN
  6
CONTINUOUS
 62
     7
 10
250.0
 20
162.0
 30
0.0
 11
250.0
 21
106.0
 31
0.0
  0
LINE
  8
L-ZISSEN
  6
CONTINUOUS
 62
     7
 10
265.0
 20
111.5
 30
0.0
 11
257.5
 21
111.5
 31
0.0
  0
LINE
  8
L-ZISSEN
  6
CONTINUOUS
 62
     7
 10
265.0
 20
111.5
 30
0.0
 11
265.0
 21
156.5
 31
0.0
  0
LINE
  8
L-ZISSEN
  6
CONTINUOUS
 62
     7
 10
265.0
 20
156.5
 30
0.0
 11
257.5
 21
156.5
 31
0.0
  0
LINE
  8
L-ZISSEN
  6
CONTINUOUS
 62
     7
 10
250.0
 20
162.0
 30
0.0
 11
78.0
 21
162.0
 31
0.0
  0
LINE
  8
L-ZISSEN
  6
CONTINUOUS
 62
     7
 10
250.0
 20
106.0
 30
0.0
 11
234.0
 21
106.0
 31
0.0
  0
LINE
  8
L-ZISSEN
  6
CONTINUOUS
 62
     7
 10
81.2
 20
162.0
 30
0.0
 11
81.2
 21
106.0
 31
0.0
  0
CIRCLE
  8
L-ZISSEN
  6
CONTINUOUS
 62
     7
 10
134.0
 20
100.0
 30
0.0
 40
22.5
  0
CIRCLE
  8
L-ZISSEN
  6
CONTINUOUS
 62
     7
 10
206.0
 20
100.0
 30
0.0
 40
22.5
  0
CIRCLE
  8
L-ZISSEN
  6
CONTINUOUS
 62
     7
 10
156.0
 20
126.0
 30
0.0
 40
5.0
  0
CIRCLE
  8
L-ZISSEN
  6
CONTINUOUS
 62
     7
 10
156.0
 20
74.0
 30
0.0
 40
5.0
  0
LINE
  8
L-ZISSEN
  6
CONTINUOUS
 62
     7
 10
162.0
 20
55.5
 30
0.0
 11
162.0
 21
133.0
 31
0.0
  0
CIRCLE
  8
L-ZISSEN
  6
CONTINUOUS
 62
     7
 10
184.0
 20
74.0
 30
0.0
 40
5.0
  0
LINE
  8
L-ZISSEN
  6
CONTINUOUS
 62
     7
 10
178.0
 20
55.5
 30
0.0
 11
178.0
 21
133.0
 31
0.0
  0
LINE
  8
L-ZISSEN
  6
CONTINUOUS
 62
     7
 10
162.0
 20
106.0
 30
0.0
 11
178.0
 21
106.0
 31
0.0
  0
LINE
  8
L-ZISSEN
  6
CONTINUOUS
 62
     7
 10
165.0
 20
133.0
 30
0.0
 11
103.0
 21
133.0
 31
0.0
  0
LINE
  8
L-TYUSIN
  6
CENTER
 62
     1
 10
86.2
 20
134.0
 30
0.0
 11
73.0
 21
134.0
 31
0.0
  0
LINE
  8
L-ZISSEN
  6
CONTINUOUS
 62
     7
 10
257.5
 20
161.0
 30
0.0
 11
250.0
 21
161.0
 31
0.0
  0
LINE
  8
L-ZISSEN
  6
CONTINUOUS
 62
     7
 10
257.5
 20
161.0
 30
0.0
 11
257.5
 21
151.0
 31
0.0
  0
LINE
  8
L-ZISSEN
  6
CONTINUOUS
 62
     7
 10
257.5
 20
151.0
 30
0.0
 11
250.0
 21
151.0
 31
0.0
  0
LINE
  8
L-ZISSEN
  6
CONTINUOUS
 62
     7
 10
257.5
 20
117.0
 30
0.0
 11
250.0
 21
117.0
 31
0.0
  0
LINE
  8
L-ZISSEN
  6
CONTINUOUS
 62
     7
 10
257.5
 20
107.0
 30
0.0
 11
257.5
 21
117.0
 31
0.0
  0
LINE
  8
L-ZISSEN
  6
CONTINUOUS
 62
     7
 10
257.5
 20
107.0
 30
0.0
 11
250.0
 21
107.0
 31
0.0
  0
LINE
  8
L-ZISSEN
 10
687.0
 20
178.0
 30
0.0
 11
687.0
 21
106.0
 31
0.0
  0
LINE
  8
L-ZISSEN
 10
543.0
 20
178.0
 30
0.0
 11
543.0
 21
106.0
 31
0.0
  0
CIRCLE
  8
L-ZISSEN
 10
615.0
 20
173.0
 30
0.0
 40
4.283
  0
LINE
  8
L-ZISSEN
 10
242.0
 20
178.0
 30
0.0
 11
242.0
 21
106.0
 31
0.0
  0
LINE
  8
L-ZISSEN
 10
98.0
 20
178.0
 30
0.0
 11
98.0
 21
106.0
 31
0.0
  0
CIRCLE
  8
L-ZISSEN
  6
CONTINUOUS
 62
     7
 10
589.0
 20
78.0
 30
0.0
 40
5.0
  0
CIRCLE
  8
L-ZISSEN
  6
CONTINUOUS
 62
     7
 10
641.0
 20
78.0
 30
0.0
 40
5.0
  0
CIRCLE
  8
L-ZISSEN
  6
CONTINUOUS
 62
     7
 10
615.0
 20
100.0
 30
0.0
 40
22.5
  0
CIRCLE
  8
L-ZISSEN
  6
CONTINUOUS
 62
     7
 10
641.0
 20
122.0
 30
0.0
 40
5.0
  0
CIRCLE
  8
L-ZISSEN
  6
CONTINUOUS
 62
     7
 10
589.0
 20
122.0
 30
0.0
 40
5.0
  0
LINE
  8
L-ZISSEN
  6
CONTINUOUS
 62
     7
 10
648.0
 20
128.0
 30
0.0
 11
648.0
 21
72.0
 31
0.0
  0
LINE
  8
L-ZISSEN
  6
CONTINUOUS
 62
     7
 10
582.0
 20
128.0
 30
0.0
 11
648.0
 21
128.0
 31
0.0
  0
LINE
  8
L-ZISSEN
  6
CONTINUOUS
 62
     7
 10
582.0
 20
72.0
 30
0.0
 11
648.0
 21
72.0
 31
0.0
  0
LINE
  8
L-ZISSEN
  6
CONTINUOUS
 62
     7
 10
582.0
 20
128.0
 30
0.0
 11
582.0
 21
72.0
 31
0.0
  0
CIRCLE
  8
L-ZISSEN
 10
615.0
 20
100.0
 30
0.0
 40
15.1455
  0
CIRCLE
  8
L-ZISSEN
 10
380.0
 20
134.0
 30
0.0
 40
15.1455
  0
CIRCLE
  8
L-ZISSEN
 10
206.0
 20
100.0
 30
0.0
 40
15.1455
  0
CIRCLE
  8
L-ZISSEN
 10
134.0
 20
100.0
 30
0.0
 40
15.1455
  0
LINE
  8
L-ZISSEN
  6
CONTINUOUS
 62
     7
 10
582.0
 20
79.0
 30
0.0
 11
564.0
 21
79.0
 31
0.0
  0
LINE
  8
L-ZISSEN
  6
CONTINUOUS
 62
     7
 10
582.0
 20
121.0
 30
0.0
 11
564.0
 21
121.0
 31
0.0
  0
LINE
  8
L-ZISSEN
 10
559.0
 20
84.0
 30
0.0
 11
559.0
 21
116.0
 31
0.0
  0
ARC
  8
L-ZISSEN
 10
564.0
 20
116.0
 30
0.0
 40
5.0
 50
90.0
 51
180.0
  0
ARC
  8
L-ZISSEN
 10
564.0
 20
84.0
 30
0.0
 40
5.0
 50
180.0
 51
270.0
  0
LINE
  8
L-ZISSEN
  6
CONTINUOUS
 62
     7
 10
648.0
 20
79.0
 30
0.0
 11
666.0
 21
79.0
 31
0.0
  0
ARC
  8
L-ZISSEN
 10
666.0
 20
84.0
 30
0.0
 40
5.0
 50
270.0
 51
0.0
  0
LINE
  8
L-ZISSEN
 10
671.0
 20
84.0
 30
0.0
 11
671.0
 21
116.0
 31
0.0
  0
ARC
  8
L-ZISSEN
 10
666.0
 20
116.0
 30
0.0
 40
5.0
 50
0.0
 51
90.0
  0
LINE
  8
L-ZISSEN
  6
CONTINUOUS
 62
     7
 10
648.0
 20
121.0
 30
0.0
 11
666.0
 21
121.0
 31
0.0
  0
LINE
  8
L-ZISSEN
 10
419.0
 20
265.6
 30
0.0
 11
347.0
 21
265.6
 31
0.0
  0
LINE
  8
L-ZISSEN
 10
419.0
 20
409.6
 30
0.0
 11
341.8
 21
409.6
 31
0.0
  0
LINE
  8
L-TYUSIN
  6
CENTER
 62
     1
 10
380.0
 20
417.8
 30
0.0
 11
380.0
 21
237.6
 31
0.0
  0
LINE
  8
L-TYUSIN
  6
CENTER
 62
     1
 10
336.0
 20
337.6
 30
0.0
 11
463.0
 21
337.6
 31
0.0
  0
LINE
  8
L-ZISSEN
  6
CONTINUOUS
 62
     7
 10
349.0
 20
250.1
 30
0.0
 11
349.0
 21
257.6
 31
0.0
  0
LINE
  8
L-ZISSEN
  6
CONTINUOUS
 62
     7
 10
349.0
 20
250.1
 30
0.0
 11
359.0
 21
250.1
 31
0.0
  0
LINE
  8
L-ZISSEN
  6
CONTINUOUS
 62
     7
 10
357.5
 20
242.6
 30
0.0
 11
357.5
 21
250.1
 31
0.0
  0
LINE
  8
L-ZISSEN
  6
CONTINUOUS
 62
     7
 10
413.0
 20
257.6
 30
0.0
 11
413.0
 21
265.6
 31
0.0
  0
LINE
  8
L-ZISSEN
  6
CONTINUOUS
 62
     7
 10
402.5
 20
242.6
 30
0.0
 11
402.5
 21
250.1
 31
0.0
  0
LINE
  8
L-ZISSEN
  6
CONTINUOUS
 62
     7
 10
357.5
 20
242.6
 30
0.0
 11
402.5
 21
242.6
 31
0.0
  0
LINE
  8
L-ZISSEN
  6
CONTINUOUS
 62
     7
 10
359.5
 20
257.6
 30
0.0
 11
413.0
 21
257.6
 31
0.0
  0
LINE
  8
L-ZISSEN
  6
CONTINUOUS
 62
     7
 10
412.0
 20
257.6
 30
0.0
 11
347.0
 21
257.6
 31
0.0
  0
LINE
  8
L-ZISSEN
  6
CONTINUOUS
 62
     7
 10
411.0
 20
250.1
 30
0.0
 11
401.0
 21
250.1
 31
0.0
  0
LINE
  8
L-ZISSEN
  6
CONTINUOUS
 62
     7
 10
411.0
 20
250.1
 30
0.0
 11
411.0
 21
257.6
 31
0.0
  0
LINE
  8
L-ZISSEN
  6
CONTINUOUS
 62
     7
 10
347.0
 20
265.6
 30
0.0
 11
347.0
 21
257.6
 31
0.0
  0
LINE
  8
L-TYUSIN
  6
CENTER
 62
     1
 10
319.0
 20
301.6
 30
0.0
 11
344.0
 21
301.6
 31
0.0
  0
LINE
  8
L-ZISSEN
  6
CONTINUOUS
 62
     7
 10
324.0
 20
279.1
 30
0.0
 11
331.5
 21
279.1
 31
0.0
  0
LINE
  8
L-ZISSEN
  6
CONTINUOUS
 62
     7
 10
324.0
 20
279.1
 30
0.0
 11
324.0
 21
324.1
 31
0.0
  0
LINE
  8
L-ZISSEN
  6
CONTINUOUS
 62
     7
 10
324.0
 20
324.1
 30
0.0
 11
331.5
 21
324.1
 31
0.0
  0
LINE
  8
L-TYUSIN
  6
CENTER
 62
     1
 10
319.0
 20
373.6
 30
0.0
 11
344.0
 21
373.6
 31
0.0
  0
LINE
  8
L-ZISSEN
 10
455.0
 20
426.4
 30
0.0
 11
418.2
 21
426.4
 31
0.0
  0
LINE
  8
L-ZISSEN
 10
455.0
 20
429.6
 30
0.0
 11
415.0
 21
429.6
 31
0.0
  0
LINE
  8
L-ZISSEN
 10
305.0
 20
426.4
 30
0.0
 11
305.0
 21
429.6
 31
0.0
  0
LINE
  8
L-ZISSEN
 10
455.0
 20
426.4
 30
0.0
 11
455.0
 21
429.6
 31
0.0
  0
LINE
  8
L-ZISSEN
 10
418.2
 20
409.6
 30
0.0
 11
418.2
 21
426.4
 31
0.0
  0
LINE
  8
L-ZISSEN
 10
415.0
 20
412.8
 30
0.0
 11
415.0
 21
429.6
 31
0.0
  0
LINE
  8
L-ZISSEN
 10
415.0
 20
412.8
 30
0.0
 11
345.0
 21
412.8
 31
0.0
  0
LINE
  8
L-ZISSEN
 10
345.0
 20
412.8
 30
0.0
 11
345.0
 21
429.6
 31
0.0
  0
LINE
  8
L-ZISSEN
 10
305.0
 20
429.6
 30
0.0
 11
345.0
 21
429.6
 31
0.0
  0
LINE
  8
L-ZISSEN
 10
305.0
 20
426.4
 30
0.0
 11
341.8
 21
426.4
 31
0.0
  0
LINE
  8
L-ZISSEN
 10
341.8
 20
409.6
 30
0.0
 11
341.8
 21
426.4
 31
0.0
  0
LINE
  8
L-ZISSEN
  6
CONTINUOUS
 62
     7
 10
411.0
 20
420.3
 30
0.0
 11
411.0
 21
412.8
 31
0.0
  0
LINE
  8
L-ZISSEN
  6
CONTINUOUS
 62
     7
 10
411.0
 20
420.3
 30
0.0
 11
401.0
 21
420.3
 31
0.0
  0
LINE
  8
L-ZISSEN
  6
CONTINUOUS
 62
     7
 10
401.0
 20
420.3
 30
0.0
 11
401.0
 21
412.8
 31
0.0
  0
LINE
  8
L-ZISSEN
  6
CONTINUOUS
 62
     7
 10
359.0
 20
420.3
 30
0.0
 11
359.0
 21
412.8
 31
0.0
  0
LINE
  8
L-ZISSEN
  6
CONTINUOUS
 62
     7
 10
349.0
 20
420.3
 30
0.0
 11
359.0
 21
420.3
 31
0.0
  0
LINE
  8
L-ZISSEN
  6
CONTINUOUS
 62
     7
 10
349.0
 20
420.3
 30
0.0
 11
349.0
 21
412.8
 31
0.0
  0
LINE
  8
L-TYUSIN
  6
CENTER
 62
     1
 10
323.5
 20
421.4
 30
0.0
 11
323.5
 21
434.6
 31
0.0
  0
LINE
  8
L-TYUSIN
  6
CENTER
 62
     1
 10
436.5
 20
421.4
 30
0.0
 11
436.5
 21
434.6
 31
0.0
  0
LINE
  8
L-ZISSEN
  6
CONTINUOUS
 62
     7
 10
331.5
 20
79.0
 30
0.0
 11
339.0
 21
79.0
 31
0.0
  0
LINE
  8
L-ZISSEN
  6
CONTINUOUS
 62
     7
 10
331.5
 20
121.0
 30
0.0
 11
339.0
 21
121.0
 31
0.0
  0
LINE
  8
L-ZISSEN
  6
CONTINUOUS
 62
     7
 10
324.0
 20
122.5
 30
0.0
 11
331.5
 21
122.5
 31
0.0
  0
LINE
  8
L-ZISSEN
  6
CONTINUOUS
 62
     7
 10
428.5
 20
121.0
 30
0.0
 11
421.0
 21
121.0
 31
0.0
  0
LINE
  8
L-ZISSEN
  6
CONTINUOUS
 62
     7
 10
428.5
 20
79.0
 30
0.0
 11
421.0
 21
79.0
 31
0.0
  0
LINE
  8
L-ZISSEN
  6
CONTINUOUS
 62
     7
 10
434.279056
 20
79.0
 30
0.0
 11
428.5
 21
79.0
 31
0.0
  0
LINE
  8
L-ZISSEN
  6
CONTINUOUS
 62
     7
 10
359.0
 20
250.1
 30
0.0
 11
359.0
 21
257.6
 31
0.0
  0
LINE
  8
L-ZISSEN
  6
CONTINUOUS
 62
     7
 10
401.0
 20
250.1
 30
0.0
 11
401.0
 21
257.6
 31
0.0
  0
CIRCLE
  8
L-ZISSEN
  6
CONTINUOUS
 62
     7
 10
184.0
 20
126.0
 30
0.0
 40
5.0
  0
TEXT
  8
L-ZISSEN
 10
100.0
 20
450.0
 30
0.0
 40
4.5
  1
MODEL NO. : 468- 00-10BM
  0
LINE
  8
L-TYUSIN
  6
CENTER
 62
     1
 10
888.5
 20
134.0
 30
0.0
 11
864.5
 21
134.0
 31
0.0
  0
LINE
  8
L-TYUSIN
  6
CENTER
 62
     1
 10
876.5
 20
126.0
 30
0.0
 11
876.5
 21
142.0
 31
0.0
  0
ARC
  8
L-ZISSEN
  6
CONTINUOUS
 62
     7
 10
881.0
 20
134.0
 30
0.0
 40
4.5
 50
270.0
 51
90.0
  0
LINE
  8
L-ZISSEN
  6
CONTINUOUS
 62
     7
 10
872.0
 20
129.5
 30
0.0
 11
881.0
 21
129.5
 31
0.0
  0
LINE
  8
L-ZISSEN
  6
CONTINUOUS
 62
     7
 10
872.0
 20
138.5
 30
0.0
 11
881.0
 21
138.5
 31
0.0
  0
ARC
  8
L-ZISSEN
  6
CONTINUOUS
 62
     7
 10
872.0
 20
134.0
 30
0.0
 40
4.5
 50
90.0
 51
270.0
  0
ARC
  8
L-ZISSEN
  6
CONTINUOUS
 62
     7
 10
768.0
 20
134.0
 30
0.0
 40
4.5
 50
270.0
 51
90.0
  0
LINE
  8
L-ZISSEN
  6
CONTINUOUS
 62
     7
 10
768.0
 20
138.5
 30
0.0
 11
759.0
 21
138.5
 31
0.0
  0
LINE
  8
L-ZISSEN
  6
CONTINUOUS
 62
     7
 10
768.0
 20
129.5
 30
0.0
 11
759.0
 21
129.5
 31
0.0
  0
ARC
  8
L-ZISSEN
  6
CONTINUOUS
 62
     7
 10
759.0
 20
134.0
 30
0.0
 40
4.5
 50
90.0
 51
270.0
  0
LINE
  8
L-TYUSIN
  6
CENTER
 62
     1
 10
751.5
 20
134.0
 30
0.0
 11
775.5
 21
134.0
 31
0.0
  0
LINE
  8
L-TYUSIN
  6
CENTER
 62
     1
 10
763.5
 20
126.0
 30
0.0
 11
763.5
 21
142.0
 31
0.0
  0
LINE
  8
L-ZISSEN
 10
785.0
 20
106.0
 30
0.0
 11
785.0
 21
162.0
 31
0.0
  0
LINE
  8
L-ZISSEN
 10
855.0
 20
106.0
 30
0.0
 11
855.0
 21
162.0
 31
0.0
  0
LINE
  8
L-ZISSEN
  6
CONTINUOUS
 62
     7
 10
196.5
 20
189.0
 30
0.0
 11
143.5
 21
189.0
 31
0.0
  0
LINE
  8
L-ZISSEN
  6
CONTINUOUS
 62
     7
 10
242.0
 20
178.0
 30
0.0
 11
196.5
 21
178.0
 31
0.0
  0
LINE
  8
L-ZISSEN
 10
143.5
 20
189.0
 30
0.0
 11
143.5
 21
178.0
 31
0.0
  0
LINE
  8
L-ZISSEN
 10
196.5
 20
189.0
 30
0.0
 11
196.5
 21
178.0
 31
0.0
  0
LINE
  8
L-ZISSEN
  6
CONTINUOUS
 62
     7
 10
143.5
 20
178.0
 30
0.0
 11
98.0
 21
178.0
 31
0.0
  0
LINE
  8
L-ZISSEN
  6
CONTINUOUS
 62
     7
 10
223.0
 20
185.5
 30
0.0
 11
233.0
 21
185.5
 31
0.0
  0
LINE
  8
L-ZISSEN
  6
CONTINUOUS
 62
     7
 10
223.0
 20
185.5
 30
0.0
 11
223.0
 21
178.0
 31
0.0
  0
LINE
  8
L-ZISSEN
  6
CONTINUOUS
 62
     7
 10
233.0
 20
185.5
 30
0.0
 11
233.0
 21
178.0
 31
0.0
  0
LINE
  8
L-ZISSEN
  6
CONTINUOUS
 62
     7
 10
107.0
 20
185.5
 30
0.0
 11
107.0
 21
178.0
 31
0.0
  0
LINE
  8
L-ZISSEN
  6
CONTINUOUS
 62
     7
 10
117.0
 20
185.5
 30
0.0
 11
117.0
 21
178.0
 31
0.0
  0
LINE
  8
L-ZISSEN
  6
CONTINUOUS
 62
     7
 10
117.0
 20
185.5
 30
0.0
 11
107.0
 21
185.5
 31
0.0
  0
LINE
  8
L-ZISSEN
 10
341.0
 20
178.0
 30
0.0
 11
419.0
 21
178.0
 31
0.0
  0
LINE
  8
L-ZISSEN
 10
341.0
 20
189.0
 30
0.0
 11
419.0
 21
189.0
 31
0.0
  0
LINE
  8
L-ZISSEN
 10
422.0
 20
183.0
 30
0.0
 11
422.0
 21
162.0
 31
0.0
  0
LINE
  8
L-TYUSIN
 10
417.0
 20
173.0
 30
0.0
 11
427.0
 21
173.0
 31
0.0
  0
LINE
  8
L-ZISSEN
 10
422.0
 20
183.0
 30
0.0
 11
419.0
 21
183.0
 31
0.0
  0
ARC
  8
L-ZISSEN
 10
615.0
 20
173.0
 30
0.0
 40
10.0
 50
0.0
 51
180.0
  0
LINE
  8
L-ZISSEN
 10
605.0
 20
173.0
 30
0.0
 11
605.0
 21
162.0
 31
0.0
  0
LINE
  8
L-ZISSEN
 10
625.0
 20
173.0
 30
0.0
 11
625.0
 21
162.0
 31
0.0
  0
LINE
  8
L-ZISSEN
  6
CONTINUOUS
 62
     7
 10
562.0
 20
185.5
 30
0.0
 11
552.0
 21
185.5
 31
0.0
  0
LINE
  8
L-ZISSEN
  6
CONTINUOUS
 62
     7
 10
562.0
 20
185.5
 30
0.0
 11
562.0
 21
178.0
 31
0.0
  0
LINE
  8
L-ZISSEN
  6
CONTINUOUS
 62
     7
 10
552.0
 20
185.5
 30
0.0
 11
552.0
 21
178.0
 31
0.0
  0
LINE
  8
L-ZISSEN
  6
CONTINUOUS
 62
     7
 10
588.5
 20
178.0
 30
0.0
 11
543.0
 21
178.0
 31
0.0
  0
LINE
  8
L-ZISSEN
 10
588.5
 20
189.0
 30
0.0
 11
588.5
 21
178.0
 31
0.0
  0
LINE
  8
L-ZISSEN
  6
CONTINUOUS
 62
     7
 10
641.5
 20
189.0
 30
0.0
 11
588.5
 21
189.0
 31
0.0
  0
LINE
  8
L-ZISSEN
 10
641.5
 20
189.0
 30
0.0
 11
641.5
 21
178.0
 31
0.0
  0
LINE
  8
L-ZISSEN
  6
CONTINUOUS
 62
     7
 10
687.0
 20
178.0
 30
0.0
 11
641.5
 21
178.0
 31
0.0
  0
LINE
  8
L-ZISSEN
  6
CONTINUOUS
 62
     7
 10
678.0
 20
185.5
 30
0.0
 11
678.0
 21
178.0
 31
0.0
  0
LINE
  8
L-ZISSEN
  6
CONTINUOUS
 62
     7
 10
668.0
 20
185.5
 30
0.0
 11
668.0
 21
178.0
 31
0.0
  0
LINE
  8
L-ZISSEN
  6
CONTINUOUS
 62
     7
 10
668.0
 20
185.5
 30
0.0
 11
678.0
 21
185.5
 31
0.0
  0
LINE
  8
L-ZISSEN
 10
778.0
 20
183.0
 30
0.0
 11
781.0
 21
183.0
 31
0.0
  0
LINE
  8
L-TYUSIN
 10
783.0
 20
173.0
 30
0.0
 11
773.0
 21
173.0
 31
0.0
  0
LINE
  8
L-ZISSEN
 10
778.0
 20
183.0
 30
0.0
 11
778.0
 21
162.0
 31
0.0
  0
LINE
  8
L-ZISSEN
 10
859.0
 20
178.0
 30
0.0
 11
781.0
 21
178.0
 31
0.0
  0
LINE
  8
L-ZISSEN
  6
CONTINUOUS
 62
     7
 10
765.720944
 20
79.0
 30
0.0
 11
771.5
 21
79.0
 31
0.0
  0
LINE
  8
L-ZISSEN
  6
CONTINUOUS
 62
     7
 10
771.5
 20
79.0
 30
0.0
 11
779.0
 21
79.0
 31
0.0
  0
LINE
  8
L-ZISSEN
  6
CONTINUOUS
 62
     7
 10
868.5
 20
79.0
 30
0.0
 11
861.0
 21
79.0
 31
0.0
  0
LINE
  8
L-ZISSEN
  6
CONTINUOUS
 62
     7
 10
895.0
 20
162.0
 30
0.0
 11
895.0
 21
106.0
 31
0.0
  0
LINE
  8
L-ZISSEN
  6
CONTINUOUS
 62
     7
 10
895.0
 20
106.0
 30
0.0
 11
745.0
 21
106.0
 31
0.0
  0
LINE
  8
L-ZISSEN
  6
CONTINUOUS
 62
     7
 10
745.0
 20
162.0
 30
0.0
 11
745.0
 21
106.0
 31
0.0
  0
LINE
  8
L-ZISSEN
  6
CONTINUOUS
 62
     7
 10
757.0
 20
106.0
 30
0.0
 11
757.0
 21
72.0
 31
0.0
  0
LINE
  8
L-ZISSEN
  6
CONTINUOUS
 62
     7
 10
742.0
 20
77.5
 30
0.0
 11
749.5
 21
77.5
 31
0.0
  0
LINE
  8
L-ZISSEN
  6
CONTINUOUS
 62
     7
 10
742.0
 20
77.5
 30
0.0
 11
742.0
 21
122.5
 31
0.0
  0
LINE
  8
L-ZISSEN
  6
CONTINUOUS
 62
     7
 10
742.0
 20
122.5
 30
0.0
 11
745.0
 21
122.5
 31
0.0
  0
LINE
  8
L-ZISSEN
  6
CONTINUOUS
 62
     7
 10
771.5
 20
69.0
 30
0.0
 11
779.0
 21
69.0
 31
0.0
  0
LINE
  8
L-ZISSEN
  6
CONTINUOUS
 62
     7
 10
771.5
 20
69.0
 30
0.0
 11
771.5
 21
79.0
 31
0.0
  0
LINE
  8
L-ZISSEN
  6
CONTINUOUS
 62
     7
 10
757.0
 20
72.0
 30
0.0
 11
771.5
 21
72.0
 31
0.0
  0
LINE
  8
L-ZISSEN
  6
CONTINUOUS
 62
     7
 10
779.0
 20
67.0
 30
0.0
 11
779.0
 21
106.0
 31
0.0
  0
LINE
  8
L-ZISSEN
  6
CONTINUOUS
 62
     7
 10
765.0
 20
72.0
 30
0.0
 11
765.0
 21
106.0
 31
0.0
  0
LINE
  8
L-ZISSEN
  6
CONTINUOUS
 62
     7
 10
848.0
 20
60.0
 30
0.0
 11
792.0
 21
60.0
 31
0.0
  0
LINE
  8
L-ZISSEN
  6
CONTINUOUS
 62
     7
 10
792.0
 20
55.5
 30
0.0
 11
792.0
 21
67.0
 31
0.0
  0
LINE
  8
L-ZISSEN
  6
CONTINUOUS
 62
     7
 10
779.0
 20
67.0
 30
0.0
 11
792.0
 21
67.0
 31
0.0
  0
LINE
  8
L-ZISSEN
  6
CONTINUOUS
 62
     7
 10
848.0
 20
55.5
 30
0.0
 11
848.0
 21
67.0
 31
0.0
  0
LINE
  8
L-ZISSEN
  6
CONTINUOUS
 62
     7
 10
848.0
 20
67.0
 30
0.0
 11
861.0
 21
67.0
 31
0.0
  0
LINE
  8
L-ZISSEN
  6
CONTINUOUS
 62
     7
 10
787.0
 20
106.0
 30
0.0
 11
787.0
 21
67.0
 31
0.0
  0
LINE
  8
L-ZISSEN
  6
CONTINUOUS
 62
     7
 10
853.0
 20
178.0
 30
0.0
 11
853.0
 21
162.0
 31
0.0
  0
CIRCLE
  8
L-ZISSEN
  6
CONTINUOUS
 62
     7
 10
846.0
 20
156.0
 30
0.0
 40
5.0
  0
LINE
  8
L-ZISSEN
  6
CONTINUOUS
 62
     7
 10
861.0
 20
67.0
 30
0.0
 11
861.0
 21
106.0
 31
0.0
  0
LINE
  8
L-ZISSEN
  6
CONTINUOUS
 62
     7
 10
876.0
 20
77.5
 30
0.0
 11
876.0
 21
106.0
 31
0.0
  0
CIRCLE
  8
L-ZISSEN
  6
CONTINUOUS
 62
     7
 10
794.0
 20
156.0
 30
0.0
 40
5.0
  0
CIRCLE
  8
L-ZISSEN
  6
CONTINUOUS
 62
     7
 10
846.0
 20
112.0
 30
0.0
 40
5.0
  0
CIRCLE
  8
L-ZISSEN
  6
CONTINUOUS
 62
     7
 10
794.0
 20
112.0
 30
0.0
 40
5.0
  0
LINE
  8
L-ZISSEN
  6
CONTINUOUS
 62
     7
 10
848.0
 20
55.5
 30
0.0
 11
792.0
 21
55.5
 31
0.0
  0
LINE
  8
L-ZISSEN
  6
CONTINUOUS
 62
     7
 10
837.0
 20
52.5
 30
0.0
 11
803.0
 21
52.5
 31
0.0
  0
LINE
  8
L-ZISSEN
  6
CONTINUOUS
 62
     7
 10
837.0
 20
48.0
 30
0.0
 11
837.0
 21
55.5
 31
0.0
  0
LINE
  8
L-ZISSEN
  6
CONTINUOUS
 62
     7
 10
847.0
 20
48.0
 30
0.0
 11
837.0
 21
48.0
 31
0.0
  0
LINE
  8
L-ZISSEN
  6
CONTINUOUS
 62
     7
 10
847.0
 20
48.0
 30
0.0
 11
847.0
 21
55.5
 31
0.0
  0
LINE
  8
L-ZISSEN
  6
CONTINUOUS
 62
     7
 10
745.0
 20
162.0
 30
0.0
 11
895.0
 21
162.0
 31
0.0
  0
LINE
  8
L-TYUSIN
  6
CENTER
 62
     1
 10
881.0
 20
100.0
 30
0.0
 11
737.0
 21
100.0
 31
0.0
  0
LINE
  8
L-ZISSEN
  6
CONTINUOUS
 62
     7
 10
803.0
 20
48.0
 30
0.0
 11
803.0
 21
55.5
 31
0.0
  0
LINE
  8
L-ZISSEN
  6
CONTINUOUS
 62
     7
 10
803.0
 20
48.0
 30
0.0
 11
793.0
 21
48.0
 31
0.0
  0
LINE
  8
L-ZISSEN
  6
CONTINUOUS
 62
     7
 10
793.0
 20
48.0
 30
0.0
 11
793.0
 21
55.5
 31
0.0
  0
LINE
  8
L-ZISSEN
  6
CONTINUOUS
 62
     7
 10
876.0
 20
77.5
 30
0.0
 11
868.5
 21
77.5
 31
0.0
  0
LINE
  8
L-ZISSEN
  6
CONTINUOUS
 62
     7
 10
868.5
 20
69.0
 30
0.0
 11
868.5
 21
79.0
 31
0.0
  0
LINE
  8
L-ZISSEN
  6
CONTINUOUS
 62
     7
 10
868.5
 20
69.0
 30
0.0
 11
861.0
 21
69.0
 31
0.0
  0
LINE
  8
L-ZISSEN
  6
CONTINUOUS
 62
     7
 10
749.5
 20
73.0
 30
0.0
 11
749.5
 21
83.0
 31
0.0
  0
LINE
  8
L-ZISSEN
  6
CONTINUOUS
 62
     7
 10
749.5
 20
83.0
 30
0.0
 11
757.0
 21
83.0
 31
0.0
  0
LINE
  8
L-ZISSEN
  6
CONTINUOUS
 62
     7
 10
749.5
 20
73.0
 30
0.0
 11
757.0
 21
73.0
 31
0.0
  0
LINE
  8
L-ZISSEN
 10
781.0
 20
189.0
 30
0.0
 11
781.0
 21
162.0
 31
0.0
  0
LINE
  8
L-ZISSEN
 10
859.0
 20
189.0
 30
0.0
 11
859.0
 21
162.0
 31
0.0
  0
LINE
  8
L-TYUSIN
  6
CENTER
 62
     1
 10
820.0
 20
194.0
 30
0.0
 11
820.0
 21
47.5
 31
0.0
  0
LINE
  8
L-ZISSEN
  6
CONTINUOUS
 62
     7
 10
853.0
 20
106.0
 30
0.0
 11
853.0
 21
67.0
 31
0.0
  0
LINE
  8
L-ZISSEN
 10
347.0
 20
265.6
 30
0.0
 11
347.0
 21
294.251531
 31
0.0
  0
LINE
  8
L-ZISSEN
 10
341.0
 20
301.6
 30
0.0
 11
341.0
 21
373.6
 31
0.0
  0
ARC
  8
L-ZISSEN
 10
348.5
 20
373.6
 30
0.0
 40
7.5
 50
101.536959
 51
180.0
  0
ARC
  8
L-ZISSEN
 10
348.5
 20
301.6
 30
0.0
 40
7.5
 50
180.0
 51
258.463041
  0
LINE
  8
L-ZISSEN
 10
347.0
 20
380.948469
 30
0.0
 11
347.0
 21
409.6
 31
0.0
  0
LINE
  8
L-ZISSEN
  6
CONTINUOUS
 62
     7
 10
331.5
 20
274.6
 30
0.0
 11
331.5
 21
284.6
 31
0.0
  0
LINE
  8
L-ZISSEN
  6
CONTINUOUS
 62
     7
 10
331.5
 20
274.6
 30
0.0
 11
339.0
 21
274.6
 31
0.0
  0
LINE
  8
L-ZISSEN
  6
CONTINUOUS
 62
     7
 10
331.5
 20
284.6
 30
0.0
 11
339.0
 21
284.6
 31
0.0
  0
LINE
  8
L-ZISSEN
  6
CONTINUOUS
 62
     7
 10
334.0
 20
284.6
 30
0.0
 11
334.0
 21
318.6
 31
0.0
  0
LINE
  8
L-ZISSEN
  6
CONTINUOUS
 62
     7
 10
331.5
 20
318.6
 30
0.0
 11
339.0
 21
318.6
 31
0.0
  0
LINE
  8
L-ZISSEN
  6
CONTINUOUS
 62
     7
 10
331.5
 20
328.6
 30
0.0
 11
339.0
 21
328.6
 31
0.0
  0
LINE
  8
L-ZISSEN
  6
CONTINUOUS
 62
     7
 10
331.5
 20
328.6
 30
0.0
 11
331.5
 21
318.6
 31
0.0
  0
LINE
  8
L-ZISSEN
  6
CONTINUOUS
 62
     7
 10
339.0
 20
329.6
 30
0.0
 11
341.0
 21
329.6
 31
0.0
  0
LINE
  8
L-ZISSEN
  6
CONTINUOUS
 62
     7
 10
339.0
 20
329.6
 30
0.0
 11
339.0
 21
273.6
 31
0.0
  0
LINE
  8
L-ZISSEN
  6
CONTINUOUS
 62
     7
 10
339.0
 20
273.6
 30
0.0
 11
347.0
 21
273.6
 31
0.0
  0
LINE
  8
L-ZISSEN
  6
CONTINUOUS
 62
     7
 10
339.0
 20
345.6
 30
0.0
 11
339.0
 21
401.6
 31
0.0
  0
LINE
  8
L-ZISSEN
  6
CONTINUOUS
 62
     7
 10
339.0
 20
345.6
 30
0.0
 11
341.0
 21
345.6
 31
0.0
  0
LINE
  8
L-ZISSEN
  6
CONTINUOUS
 62
     7
 10
331.5
 20
346.6
 30
0.0
 11
331.5
 21
356.6
 31
0.0
  0
LINE
  8
L-ZISSEN
  6
CONTINUOUS
 62
     7
 10
331.5
 20
346.6
 30
0.0
 11
339.0
 21
346.6
 31
0.0
  0
LINE
  8
L-ZISSEN
  6
CONTINUOUS
 62
     7
 10
331.5
 20
356.6
 30
0.0
 11
339.0
 21
356.6
 31
0.0
  0
LINE
  8
L-ZISSEN
  6
CONTINUOUS
 62
     7
 10
334.0
 20
390.6
 30
0.0
 11
334.0
 21
356.6
 31
0.0
  0
LINE
  8
L-ZISSEN
  6
CONTINUOUS
 62
     7
 10
331.5
 20
390.6
 30
0.0
 11
339.0
 21
390.6
 31
0.0
  0
LINE
  8
L-ZISSEN
  6
CONTINUOUS
 62
     7
 10
331.5
 20
400.6
 30
0.0
 11
339.0
 21
400.6
 31
0.0
  0
LINE
  8
L-ZISSEN
  6
CONTINUOUS
 62
     7
 10
331.5
 20
400.6
 30
0.0
 11
331.5
 21
390.6
 31
0.0
  0
LINE
  8
L-ZISSEN
  6
CONTINUOUS
 62
     7
 10
324.0
 20
351.1
 30
0.0
 11
331.5
 21
351.1
 31
0.0
  0
LINE
  8
L-ZISSEN
  6
CONTINUOUS
 62
     7
 10
324.0
 20
396.1
 30
0.0
 11
324.0
 21
351.1
 31
0.0
  0
LINE
  8
L-ZISSEN
  6
CONTINUOUS
 62
     7
 10
324.0
 20
396.1
 30
0.0
 11
331.5
 21
396.1
 31
0.0
  0
LINE
  8
L-ZISSEN
  6
CONTINUOUS
 62
     7
 10
339.0
 20
401.6
 30
0.0
 11
347.0
 21
401.6
 31
0.0
  0
LINE
  8
L-ZISSEN
 10
421.0
 20
401.6
 30
0.0
 11
419.0
 21
401.6
 31
0.0
  0
LINE
  8
L-ZISSEN
 10
421.0
 20
273.6
 30
0.0
 11
419.0
 21
273.6
 31
0.0
  0
LINE
  8
L-ZISSEN
  6
CONTINUOUS
 62
     7
 10
421.0
 20
304.6
 30
0.0
 11
443.0
 21
304.6
 31
0.0
  0
LINE
  8
L-ZISSEN
  6
CONTINUOUS
 62
     7
 10
443.0
 20
370.6
 30
0.0
 11
421.0
 21
370.6
 31
0.0
  0
LINE
  8
L-ZISSEN
 10
422.732051
 20
284.6
 30
0.0
 11
434.279056
 21
304.6
 31
0.0
  0
LINE
  8
L-ZISSEN
 10
422.732051
 20
390.6
 30
0.0
 11
434.279056
 21
370.6
 31
0.0
  0
LINE
  8
L-ZISSEN
  6
CONTINUOUS
 62
     7
 10
428.5
 20
390.6
 30
0.0
 11
421.0
 21
390.6
 31
0.0
  0
LINE
  8
L-ZISSEN
  6
CONTINUOUS
 62
     7
 10
428.5
 20
400.6
 30
0.0
 11
428.5
 21
390.6
 31
0.0
  0
LINE
  8
L-ZISSEN
  6
CONTINUOUS
 62
     7
 10
428.5
 20
400.6
 30
0.0
 11
421.0
 21
400.6
 31
0.0
  0
LINE
  8
L-ZISSEN
  6
CONTINUOUS
 62
     7
 10
428.5
 20
274.6
 30
0.0
 11
421.0
 21
274.6
 31
0.0
  0
LINE
  8
L-ZISSEN
  6
CONTINUOUS
 62
     7
 10
428.5
 20
274.6
 30
0.0
 11
428.5
 21
284.6
 31
0.0
  0
LINE
  8
L-ZISSEN
  6
CONTINUOUS
 62
     7
 10
428.5
 20
284.6
 30
0.0
 11
421.0
 21
284.6
 31
0.0
  0
LINE
  8
L-ZISSEN
 10
421.0
 20
273.6
 30
0.0
 11
421.0
 21
327.6
 31
0.0
  0
LINE
  8
L-ZISSEN
 10
419.0
 20
265.6
 30
0.0
 11
419.0
 21
409.6
 31
0.0
  0
LINE
  8
L-ZISSEN
  6
CONTINUOUS
 62
     7
 10
435.0
 20
370.6
 30
0.0
 11
435.0
 21
304.6
 31
0.0
  0
LINE
  8
L-ZISSEN
  6
CONTINUOUS
 62
     7
 10
443.0
 20
304.6
 30
0.0
 11
443.0
 21
370.6
 31
0.0
  0
CIRCLE
  8
L-ZISSEN
  6
CONTINUOUS
 62
     7
 10
402.0
 20
279.6
 30
0.0
 40
5.0
  0
LINE
  8
L-ZISSEN
  6
CONTINUOUS
 62
     7
 10
397.0
 20
185.5
 30
0.0
 11
397.0
 21
178.0
 31
0.0
  0
LINE
  8
L-ZISSEN
  6
CONTINUOUS
 62
     7
 10
407.0
 20
185.5
 30
0.0
 11
407.0
 21
178.0
 31
0.0
  0
LINE
  8
L-ZISSEN
  6
CONTINUOUS
 62
     7
 10
407.0
 20
185.5
 30
0.0
 11
397.0
 21
185.5
 31
0.0
  0
LINE
  8
L-ZISSEN
  6
CONTINUOUS
 62
     7
 10
363.0
 20
185.5
 30
0.0
 11
353.0
 21
185.5
 31
0.0
  0
LINE
  8
L-ZISSEN
  6
CONTINUOUS
 62
     7
 10
363.0
 20
185.5
 30
0.0
 11
363.0
 21
178.0
 31
0.0
  0
LINE
  8
L-ZISSEN
  6
CONTINUOUS
 62
     7
 10
353.0
 20
185.5
 30
0.0
 11
353.0
 21
178.0
 31
0.0
  0
LINE
  8
L-ZISSEN
 10
859.0
 20
189.0
 30
0.0
 11
781.0
 21
189.0
 31
0.0
  0
CIRCLE
  8
L-ZISSEN
  6
CONTINUOUS
 62
     7
 10
358.0
 20
279.6
 30
0.0
 40
5.0
  0
CIRCLE
  8
L-ZISSEN
  6
CONTINUOUS
 62
     7
 10
358.0
 20
395.6
 30
0.0
 40
5.0
  0
CIRCLE
  8
L-ZISSEN
  6
CONTINUOUS
 62
     7
 10
402.0
 20
395.6
 30
0.0
 40
5.0
  0
CIRCLE
  8
L-ZISSEN
  6
CONTINUOUS
 62
     7
 10
358.0
 20
323.6
 30
0.0
 40
5.0
  0
CIRCLE
  8
L-ZISSEN
  6
CONTINUOUS
 62
     7
 10
402.0
 20
323.6
 30
0.0
 40
5.0
  0
LINE
  8
L-ZISSEN
 10
419.0
 20
364.1
 30
0.0
 11
341.0
 21
364.1
 31
0.0
  0
LINE
  8
L-ZISSEN
 10
419.0
 20
311.1
 30
0.0
 11
341.0
 21
311.1
 31
0.0
  0
CIRCLE
  8
L-ZISSEN
  6
CONTINUOUS
 62
     7
 10
402.0
 20
351.6
 30
0.0
 40
5.0
  0
CIRCLE
  8
L-ZISSEN
  6
CONTINUOUS
 62
     7
 10
358.0
 20
351.6
 30
0.0
 40
5.0
  0
LINE
  8
L-ZISSEN
  6
CONTINUOUS
 62
     7
 10
450.5
 20
316.6
 30
0.0
 11
443.0
 21
316.6
 31
0.0
  0
LINE
  8
L-ZISSEN
  6
CONTINUOUS
 62
     7
 10
450.5
 20
306.6
 30
0.0
 11
450.5
 21
316.6
 31
0.0
  0
LINE
  8
L-ZISSEN
  6
CONTINUOUS
 62
     7
 10
450.5
 20
306.6
 30
0.0
 11
443.0
 21
306.6
 31
0.0
  0
LINE
  8
L-ZISSEN
  6
CONTINUOUS
 62
     7
 10
458.0
 20
315.1
 30
0.0
 11
450.5
 21
315.1
 31
0.0
  0
LINE
  8
L-ZISSEN
  6
CONTINUOUS
 62
     7
 10
458.0
 20
315.1
 30
0.0
 11
458.0
 21
360.1
 31
0.0
  0
LINE
  8
L-ZISSEN
  6
CONTINUOUS
 62
     7
 10
458.0
 20
360.1
 30
0.0
 11
450.5
 21
360.1
 31
0.0
  0
LINE
  8
L-ZISSEN
  6
CONTINUOUS
 62
     7
 10
450.5
 20
368.6
 30
0.0
 11
450.5
 21
358.6
 31
0.0
  0
LINE
  8
L-ZISSEN
  6
CONTINUOUS
 62
     7
 10
450.5
 20
368.6
 30
0.0
 11
443.0
 21
368.6
 31
0.0
  0
LINE
  8
L-ZISSEN
  6
CONTINUOUS
 62
     7
 10
450.5
 20
358.6
 30
0.0
 11
443.0
 21
358.6
 31
0.0
  0
LINE
  8
L-ZISSEN
  6
CONTINUOUS
 62
     7
 10
428.5
 20
318.6
 30
0.0
 11
421.0
 21
318.6
 31
0.0
  0
LINE
  8
L-ZISSEN
  6
CONTINUOUS
 62
     7
 10
428.5
 20
328.6
 30
0.0
 11
422.0
 21
328.6
 31
0.0
  0
LINE
  8
L-ZISSEN
  6
CONTINUOUS
 62
     7
 10
428.5
 20
318.6
 30
0.0
 11
428.5
 21
328.6
 31
0.0
  0
LINE
  8
L-ZISSEN
  6
CONTINUOUS
 62
     7
 10
428.5
 20
356.6
 30
0.0
 11
428.5
 21
346.6
 31
0.0
  0
LINE
  8
L-ZISSEN
  6
CONTINUOUS
 62
     7
 10
428.5
 20
346.6
 30
0.0
 11
422.0
 21
346.6
 31
0.0
  0
LINE
  8
L-ZISSEN
  6
CONTINUOUS
 62
     7
 10
428.5
 20
356.6
 30
0.0
 11
421.0
 21
356.6
 31
0.0
  0
LINE
  8
L-ZISSEN
  6
CONTINUOUS
 62
     7
 10
793.0
 20
185.5
 30
0.0
 11
793.0
 21
178.0
 31
0.0
  0
LINE
  8
L-ZISSEN
  6
CONTINUOUS
 62
     7
 10
803.0
 20
185.5
 30
0.0
 11
803.0
 21
178.0
 31
0.0
  0
LINE
  8
L-ZISSEN
  6
CONTINUOUS
 62
     7
 10
803.0
 20
185.5
 30
0.0
 11
793.0
 21
185.5
 31
0.0
  0
LINE
  8
L-ZISSEN
  6
CONTINUOUS
 62
     7
 10
847.0
 20
185.5
 30
0.0
 11
837.0
 21
185.5
 31
0.0
  0
LINE
  8
L-ZISSEN
  6
CONTINUOUS
 62
     7
 10
847.0
 20
185.5
 30
0.0
 11
847.0
 21
178.0
 31
0.0
  0
LINE
  8
L-ZISSEN
  6
CONTINUOUS
 62
     7
 10
837.0
 20
185.5
 30
0.0
 11
837.0
 21
178.0
 31
0.0
  0
LINE
  8
L-ZISSEN
 10
422.0
 20
347.6
 30
0.0
 11
422.0
 21
327.6
 31
0.0
  0
LINE
  8
L-ZISSEN
 10
422.0
 20
347.6
 30
0.0
 11
419.0
 21
347.6
 31
0.0
  0
LINE
  8
L-ZISSEN
 10
422.0
 20
327.6
 30
0.0
 11
419.0
 21
327.6
 31
0.0
  0
LINE
  8
L-ZISSEN
 10
421.0
 20
347.6
 30
0.0
 11
421.0
 21
401.6
 31
0.0
  0
LINE
  8
L-TYUSIN
  6
CENTER
 62
     1
 10
164.0
 20
100.0
 30
0.0
 11
104.0
 21
100.0
 31
0.0
  0
SOLID
  8
L-ZISSEN
 10
458.9891
 20
98.230031
 30
0.0
 11
459.50968
 21
98.646494
 31
0.0
 12
458.0
 22
100.0
 32
0.0
 13
458.0
 23
100.0
 33
0.0
  0
LINE
  8
L-ZISSEN
 10
459.24939
 20
98.438262
 30
0.0
 11
470.0
 21
85.0
 31
0.0
  0
LINE
  8
L-ZISSEN
 10
470.0
 20
85.0
 30
0.0
 11
472.0
 21
85.0
 31
0.0
  0
TEXT
  8
L-ZISSEN
 10
474.0
 20
82.75
 30
0.0
 40
4.5
  1
IN
  0
TEXT
  8
L-ZISSEN
 10
475.0
 20
75.0
 30
0.0
 40
4.5
  1
Rc 1/2
  0
TEXT
  8
L-ZISSEN
 10
475.0
 20
65.0
 30
0.0
 40
4.5
  1
Rc 3/4
  0
TEXT
  8
L-ZISSEN
 10
475.0
 20
55.0
 30
0.0
 40
4.5
  1
Rc 1
  0
TEXT
  8
L-ZISSEN
 10
475.0
 20
45.0
 30
0.0
 40
4.5
  1
Rc 1-1/4
  0
TEXT
  8
L-ZISSEN
 10
166.0
 20
460.0
 30
0.0
 40
4.5
  1
4
  0
TEXT
  8
L-ZISSEN
 10
166.0
 20
453.0
 30
0.0
 40
4.5
  1
6
  0
TEXT
  8
L-ZISSEN
 10
166.0
 20
446.0
 30
0.0
 40
4.5
  1
8
  0
TEXT
  8
L-ZISSEN
 10
166.0
 20
439.0
 30
0.0
 40
4.5
  1
A
  0
ENDSEC
  0
EOF
