  0
SECTION
  2
HEADER
  9
$ACADVER
  1
AC1012
  9
$DWGCODEPAGE
  3
dos932
  9
$INSBASE
 10
0.0
 20
0.0
 30
0.0
  9
$EXTMIN
 10
-11.98795147862256
 20
-26.99999999999988
 30
0.0
  9
$EXTMAX
 10
502.0000000000002
 20
375.751858282625
 30
0.0
  9
$LIMMIN
 10
0.0
 20
0.0
  9
$LIMMAX
 10
420.0
 20
297.0
  9
$ORTHOMODE
 70
     1
  9
$REGENMODE
 70
     1
  9
$FILLMODE
 70
     1
  9
$QTEXTMODE
 70
     0
  9
$MIRRTEXT
 70
     0
  9
$DRAGMODE
 70
     2
  9
$LTSCALE
 40
1.0
  9
$OSMODE
 70
   167
  9
$ATTMODE
 70
     1
  9
$TEXTSIZE
 40
4.5
  9
$TRACEWID
 40
0.05
  9
$TEXTSTYLE
  7
STANDARD
  9
$CLAYER
  8
L-SOUZOU
  9
$CELTYPE
  6
BYLAYER
  9
$CECOLOR
 62
   256
  9
$CELTSCALE
 40
1.0
  9
$DELOBJ
 70
     1
  9
$DISPSILH
 70
     0
  9
$DIMSCALE
 40
1.0
  9
$DIMASZ
 40
2.0
  9
$DIMEXO
 40
1.0
  9
$DIMDLI
 40
0.38
  9
$DIMRND
 40
0.0
  9
$DIMDLE
 40
0.0
  9
$DIMEXE
 40
1.0
  9
$DIMTP
 40
0.0
  9
$DIMTM
 40
0.0
  9
$DIMTXT
 40
2.799999999999999
  9
$DIMCEN
 40
0.09
  9
$DIMTSZ
 40
0.0
  9
$DIMTOL
 70
     0
  9
$DIMLIM
 70
     0
  9
$DIMTIH
 70
     0
  9
$DIMTOH
 70
     0
  9
$DIMSE1
 70
     0
  9
$DIMSE2
 70
     0
  9
$DIMTAD
 70
     1
  9
$DIMZIN
 70
     9
  9
$DIMBLK
  1

  9
$DIMASO
 70
     1
  9
$DIMSHO
 70
     0
  9
$DIMPOST
  1

  9
$DIMAPOST
  1

  9
$DIMALT
 70
     0
  9
$DIMALTD
 70
     2
  9
$DIMALTF
 40
25.4
  9
$DIMLFAC
 40
1.0
  9
$DIMTOFL
 70
     1
  9
$DIMTVP
 40
1.0
  9
$DIMTIX
 70
     1
  9
$DIMSOXD
 70
     0
  9
$DIMSAH
 70
     0
  9
$DIMBLK1
  1

  9
$DIMBLK2
  1

  9
$DIMSTYLE
  2
STANDARD
  9
$DIMCLRD
 70
     0
  9
$DIMCLRE
 70
     0
  9
$DIMCLRT
 70
     0
  9
$DIMTFAC
 40
1.0
  9
$DIMGAP
 40
1.0
  9
$DIMJUST
 70
     0
  9
$DIMSD1
 70
     0
  9
$DIMSD2
 70
     0
  9
$DIMTOLJ
 70
     1
  9
$DIMTZIN
 70
     0
  9
$DIMALTZ
 70
     0
  9
$DIMALTTZ
 70
     0
  9
$DIMFIT
 70
     3
  9
$DIMUPT
 70
     0
  9
$DIMUNIT
 70
     2
  9
$DIMDEC
 70
     4
  9
$DIMTDEC
 70
     4
  9
$DIMALTU
 70
     2
  9
$DIMALTTD
 70
     2
  9
$DIMTXSTY
  7
STANDARD
  9
$DIMAUNIT
 70
     0
  9
$LUNITS
 70
     2
  9
$LUPREC
 70
     4
  9
$SKETCHINC
 40
0.1
  9
$FILLETRAD
 40
1.0
  9
$AUNITS
 70
     0
  9
$AUPREC
 70
     0
  9
$MENU
  1
acad
  9
$ELEVATION
 40
0.0
  9
$PELEVATION
 40
0.0
  9
$THICKNESS
 40
0.0
  9
$LIMCHECK
 70
     0
  9
$BLIPMODE
 70
     0
  9
$CHAMFERA
 40
0.0
  9
$CHAMFERB
 40
0.0
  9
$CHAMFERC
 40
0.0
  9
$CHAMFERD
 40
0.0
  9
$SKPOLY
 70
     0
  9
$TDCREATE
 40
2449758.223911574
  9
$TDUPDATE
 40
2452118.441443865
  9
$TDINDWG
 40
10.3261944444
  9
$TDUSRTIMER
 40
10.3261944444
  9
$USRTIMER
 70
     1
  9
$ANGBASE
 50
0.0
  9
$ANGDIR
 70
     0
  9
$PDMODE
 70
     0
  9
$PDSIZE
 40
0.0
  9
$PLINEWID
 40
0.0
  9
$COORDS
 70
     2
  9
$SPLFRAME
 70
     0
  9
$SPLINETYPE
 70
     6
  9
$SPLINESEGS
 70
     8
  9
$ATTDIA
 70
     0
  9
$ATTREQ
 70
     1
  9
$HANDLING
 70
-16383
  9
$HANDSEED
  5
1FB
  9
$SURFTAB1
 70
     6
  9
$SURFTAB2
 70
     6
  9
$SURFTYPE
 70
     6
  9
$SURFU
 70
     6
  9
$SURFV
 70
     6
  9
$UCSNAME
  2

  9
$UCSORG
 10
0.0
 20
0.0
 30
0.0
  9
$UCSXDIR
 10
1.0
 20
0.0
 30
0.0
  9
$UCSYDIR
 10
0.0
 20
1.0
 30
0.0
  9
$PUCSNAME
  2

  9
$PUCSORG
 10
0.0
 20
0.0
 30
0.0
  9
$PUCSXDIR
 10
1.0
 20
0.0
 30
0.0
  9
$PUCSYDIR
 10
0.0
 20
1.0
 30
0.0
  9
$USERI1
 70
     0
  9
$USERI2
 70
     0
  9
$USERI3
 70
     0
  9
$USERI4
 70
     0
  9
$USERI5
 70
     0
  9
$USERR1
 40
0.0
  9
$USERR2
 40
0.0
  9
$USERR3
 40
0.0
  9
$USERR4
 40
0.0
  9
$USERR5
 40
0.0
  9
$WORLDVIEW
 70
     1
  9
$SHADEDGE
 70
     3
  9
$SHADEDIF
 70
    70
  9
$TILEMODE
 70
     1
  9
$MAXACTVP
 70
    16
  9
$PINSBASE
 10
0.0
 20
0.0
 30
0.0
  9
$PLIMCHECK
 70
     0
  9
$PEXTMIN
 10
1.12674994168319
 20
0.7847499828638993
 30
0.0
  9
$PEXTMAX
 10
10.14074947514871
 20
7.062749845775094
 30
0.0
  9
$PLIMMIN
 10
0.0
 20
0.0
  9
$PLIMMAX
 10
12.0
 20
9.0
  9
$UNITMODE
 70
     0
  9
$VISRETAIN
 70
     0
  9
$PLINEGEN
 70
     0
  9
$PSLTSCALE
 70
     0
  9
$TREEDEPTH
 70
  3020
  9
$PICKSTYLE
 70
     1
  9
$CMLSTYLE
  2
STANDARD
  9
$CMLJUST
 70
     0
  9
$CMLSCALE
 40
1.0
  9
$SAVEIMAGES
 70
     1
  0
ENDSEC
  0
SECTION
  2
CLASSES
  0
CLASS
  1
LWPOLYLINE
  2
AcDbPolyline
  3
AutoCAD 2000
 90
    32768
280
     0
281
     1
  0
CLASS
  1
HATCH
  2
AcDbHatch
  3
AutoCAD 2000
 90
    32768
280
     0
281
     1
  0
CLASS
  1
DICTIONARYVAR
  2
AcDbDictionaryVar
  3
AutoCAD 2000
 90
    32768
280
     0
281
     0
  0
CLASS
  1
OLE2FRAME
  2
AcDbOle2Frame
  3
AutoCAD 2000
 90
    32768
280
     0
281
     1
  0
CLASS
  1
ACDBDICTIONARYWDFLT
  2
AcDbDictionaryWithDefault
  3
AutoCAD 2000
 90
    32768
280
     0
281
     0
  0
CLASS
  1
ACDBPLACEHOLDER
  2
AcDbPlaceHolder
  3
AutoCAD 2000
 90
    32768
280
     0
281
     0
  0
CLASS
  1
LAYOUT
  2
AcDbLayout
  3
AutoCAD 2000
 90
    32768
280
     0
281
     0
  0
CLASS
  1
LONG_TRANSACTION
  2
AcDbLongTransaction
  3
AutoCAD 2000
 90
    32768
280
     0
281
     0
  0
CLASS
  1
LWPOLYLINE
  2
AcDbPolyline
  3
AutoCAD 2000
 90
    32768
280
     0
281
     1
  0
CLASS
  1
HATCH
  2
AcDbHatch
  3
AutoCAD 2000
 90
    32768
280
     0
281
     1
  0
CLASS
  1
XRECORD
  2
AcDbXrecord
  3
AutoCAD 2000
 90
    32768
280
     0
281
     0
  0
CLASS
  1
LONG_TRANSACTION
  2
AcDbLongTransaction
  3
AutoCAD 2000
 90
    32768
280
     0
281
     0
  0
CLASS
  1
LWPOLYLINE
  2
AcDbPolyline
  3
AutoCAD 2000
 90
    32768
280
     0
281
     1
  0
CLASS
  1
HATCH
  2
AcDbHatch
  3
AutoCAD 2000
 90
    32768
280
     0
281
     1
  0
CLASS
  1
XRECORD
  2
AcDbXrecord
  3
AutoCAD 2000
 90
    32768
280
     0
281
     0
  0
CLASS
  1
LONG_TRANSACTION
  2
AcDbLongTransaction
  3
AutoCAD 2000
 90
    32768
280
     0
281
     0
  0
CLASS
  1
LWPOLYLINE
  2
AcDbPolyline
  3
AutoCAD 2000
 90
    32768
280
     0
281
     1
  0
CLASS
  1
HATCH
  2
AcDbHatch
  3
AutoCAD 2000
 90
    32768
280
     0
281
     1
  0
CLASS
  1
XRECORD
  2
AcDbXrecord
  3
AutoCAD 2000
 90
    32768
280
     0
281
     0
  0
CLASS
  1
LONG_TRANSACTION
  2
AcDbLongTransaction
  3
AutoCAD 2000
 90
    32768
280
     0
281
     0
  0
CLASS
  1
LWPOLYLINE
  2
AcDbPolyline
  3
AutoCAD 2000
 90
    32768
280
     0
281
     1
  0
CLASS
  1
HATCH
  2
AcDbHatch
  3
AutoCAD 2000
 90
    32768
280
     0
281
     1
  0
CLASS
  1
XRECORD
  2
AcDbXrecord
  3
AutoCAD 2000
 90
    32768
280
     0
281
     0
  0
CLASS
  1
LONG_TRANSACTION
  2
AcDbLongTransaction
  3
AutoCAD 2000
 90
    32768
280
     0
281
     0
  0
CLASS
  1
LWPOLYLINE
  2
AcDbPolyline
  3
AutoCAD 2000
 90
    32768
280
     0
281
     1
  0
CLASS
  1
HATCH
  2
AcDbHatch
  3
AutoCAD 2000
 90
    32768
280
     0
281
     1
  0
CLASS
  1
XRECORD
  2
AcDbXrecord
  3
AutoCAD 2000
 90
    32768
280
     0
281
     0
  0
CLASS
  1
LONG_TRANSACTION
  2
AcDbLongTransaction
  3
AutoCAD 2000
 90
    32768
280
     0
281
     0
  0
CLASS
  1
LWPOLYLINE
  2
AcDbPolyline
  3
AutoCAD 2000
 90
    32768
280
     0
281
     1
  0
CLASS
  1
HATCH
  2
AcDbHatch
  3
AutoCAD 2000
 90
    32768
280
     0
281
     1
  0
CLASS
  1
XRECORD
  2
AcDbXrecord
  3
AutoCAD 2000
 90
    32768
280
     0
281
     0
  0
ENDSEC
  0
SECTION
  2
TABLES
  0
TABLE
  2
VPORT
  5
1E
330
0
100
AcDbSymbolTable
 70
     3
  0
VPORT
  5
1F8
330
1E
100
AcDbSymbolTableRecord
100
AcDbViewportTableRecord
  2
*ACTIVE
 70
     0
 10
0.0
 20
0.0
 11
1.0
 21
1.0
 12
260.3530894669797
 22
166.7999083881001
 13
0.0
 23
0.0
 14
1.0
 24
1.0
 15
0.0
 25
0.0
 16
0.0
 26
0.0
 36
1.0
 17
0.0
 27
0.0
 37
0.0
 40
456.9066067549186
 41
1.84990253411306
 42
50.0
 43
0.0
 44
0.0
 50
0.0
 51
0.0
 71
     0
 72
   100
 73
     1
 74
     0
 75
     0
 76
     0
 77
     0
 78
     0
  0
ENDTAB
  0
TABLE
  2
LTYPE
  5
19
330
0
100
AcDbSymbolTable
 70
     3
  0
LTYPE
  5
1A
330
19
100
AcDbSymbolTableRecord
100
AcDbLinetypeTableRecord
  2
BYBLOCK
 70
     0
  3

 72
    65
 73
     0
 40
0.0
  0
LTYPE
  5
1B
330
19
100
AcDbSymbolTableRecord
100
AcDbLinetypeTableRecord
  2
BYLAYER
 70
     0
  3

 72
    65
 73
     0
 40
0.0
  0
LTYPE
  5
B
330
19
100
AcDbSymbolTableRecord
100
AcDbLinetypeTableRecord
  2
CONTINUOUS
 70
     0
  3
Solid line
 72
    65
 73
     0
 40
0.0
  0
LTYPE
  5
32
330
19
100
AcDbSymbolTableRecord
100
AcDbLinetypeTableRecord
  2
CENTER
 70
     0
  3

 72
    65
 73
     4
 40
65.0
 49
50.0
 74
     0
 49
-5.0
 74
     0
 49
5.0
 74
     0
 49
-5.0
 74
     0
  0
LTYPE
  5
27
330
19
100
AcDbSymbolTableRecord
100
AcDbLinetypeTableRecord
  2
PHANTOM
 70
     0
  3
---- - - ---- - - ----
 72
    65
 73
     6
 40
10.6
 49
6.0
 74
     0
 49
-1.0
 74
     0
 49
0.8
 74
     0
 49
-1.0
 74
     0
 49
0.8
 74
     0
 49
-1.0
 74
     0
  0
ENDTAB
  0
TABLE
  2
LAYER
  5
15
330
0
100
AcDbSymbolTable
 70
     5
  0
LAYER
  5
6
330
15
100
AcDbSymbolTableRecord
100
AcDbLayerTableRecord
  2
0
 70
     0
 62
     7
  6
CONTINUOUS
  0
LAYER
  5
2B
330
15
100
AcDbSymbolTableRecord
100
AcDbLayerTableRecord
  2
L-ZISSEN
 70
     0
 62
     7
  6
CONTINUOUS
  0
LAYER
  5
31
330
15
100
AcDbSymbolTableRecord
100
AcDbLayerTableRecord
  2
L-TYUSIN
 70
     0
 62
     1
  6
CENTER
  0
LAYER
  5
120
330
15
100
AcDbSymbolTableRecord
100
AcDbLayerTableRecord
  2
DEFPOINTS
 70
     0
 62
     7
  6
CONTINUOUS
  0
LAYER
  5
26
330
15
100
AcDbSymbolTableRecord
100
AcDbLayerTableRecord
  2
L-SOUZOU
 70
     0
 62
     2
  6
PHANTOM
  0
ENDTAB
  0
TABLE
  2
STYLE
  5
16
330
0
100
AcDbSymbolTable
 70
     1
  0
STYLE
  5
17
330
16
100
AcDbSymbolTableRecord
100
AcDbTextStyleTableRecord
  2
STANDARD
 70
     0
 40
4.5
 41
0.8
 50
0.0
 71
     0
 42
4.5
  3
txt.shx
  4

  0
ENDTAB
  0
TABLE
  2
VIEW
  5
1C
330
0
100
AcDbSymbolTable
 70
     0
  0
ENDTAB
  0
TABLE
  2
UCS
  5
1D
330
0
100
AcDbSymbolTable
 70
     0
  0
ENDTAB
  0
TABLE
  2
APPID
  5
20
330
0
100
AcDbSymbolTable
 70
     1
  0
APPID
  5
A
330
20
100
AcDbSymbolTableRecord
100
AcDbRegAppTableRecord
  2
ACAD
 70
     0
  0
ENDTAB
  0
TABLE
  2
DIMSTYLE
  5
21
330
0
100
AcDbSymbolTable
 70
     1
  0
DIMSTYLE
105
29
330
21
100
AcDbSymbolTableRecord
100
AcDbDimStyleTableRecord
  2
STANDARD
 70
     0
  3

  4

  5

  6

  7

 40
1.0
 41
0.18
 42
0.0625
 43
0.38
 44
0.18
 45
0.0
 46
0.0
 47
0.0
 48
0.0
140
0.18
141
0.09
142
0.0
143
25.4
144
1.0
145
0.0
146
1.0
147
0.09
 71
     0
 72
     0
 73
     1
 74
     1
 75
     0
 76
     0
 77
     0
 78
     0
170
     0
171
     2
172
     0
173
     0
174
     0
175
     0
176
     0
177
     0
178
     0
270
     2
271
     4
272
     4
273
     2
274
     2
340
17
275
     0
280
     0
281
     0
282
     0
283
     1
284
     0
285
     0
286
     0
287
     3
288
     0
  0
ENDTAB
  0
TABLE
  2
BLOCK_RECORD
  5
1
330
0
100
AcDbSymbolTable
 70
     0
  0
BLOCK_RECORD
  5
2
102
{ACAD_XDICTIONARY
360
3
102
}
330
1
100
AcDbSymbolTableRecord
100
AcDbBlockTableRecord
  2
*MODEL_SPACE
  0
BLOCK_RECORD
  5
F
102
{ACAD_XDICTIONARY
360
10
102
}
330
1
100
AcDbSymbolTableRecord
100
AcDbBlockTableRecord
  2
*PAPER_SPACE
  0
ENDTAB
  0
ENDSEC
  0
SECTION
  2
BLOCKS
  0
BLOCK
  5
5
330
2
100
AcDbEntity
  8
0
100
AcDbBlockBegin
  2
*MODEL_SPACE
 70
     0
 10
0.0
 20
0.0
 30
0.0
  3
*MODEL_SPACE
  1

  0
ENDBLK
  5
C
330
2
100
AcDbEntity
  8
0
100
AcDbBlockEnd
  0
BLOCK
  5
12
330
F
100
AcDbEntity
 67
     1
  8
0
100
AcDbBlockBegin
  2
*PAPER_SPACE
 70
     0
 10
0.0
 20
0.0
 30
0.0
  3
*PAPER_SPACE
  1

  0
ENDBLK
  5
13
330
F
100
AcDbEntity
 67
     1
  8
0
100
AcDbBlockEnd
  0
ENDSEC
  0
SECTION
  2
ENTITIES
  0
LINE
  5
2A
330
2
100
AcDbEntity
  8
L-ZISSEN
100
AcDbLine
 10
300.9999999999999
 20
335.7518582826246
 30
0.0
 11
201.0
 21
335.751858282625
 31
0.0
  0
LINE
  5
2C
330
2
100
AcDbEntity
  8
L-ZISSEN
100
AcDbLine
 10
301.0000000000001
 20
375.7518582826246
 30
0.0
 11
201.0000000000001
 21
375.751858282625
 31
0.0
  0
LINE
  5
2D
330
2
100
AcDbEntity
  8
L-ZISSEN
100
AcDbLine
 10
200.9999999999997
 20
115.0000000000003
 30
0.0
 11
300.9999999999995
 21
115.0000000000002
 31
0.0
  0
LINE
  5
2E
330
2
100
AcDbEntity
  8
L-ZISSEN
100
AcDbLine
 10
300.9999999999998
 20
100.0000000000005
 30
0.0
 11
200.9999999999997
 21
100.0000000000001
 31
0.0
  0
LINE
  5
2F
330
2
100
AcDbEntity
  8
L-ZISSEN
100
AcDbLine
 10
201.0
 20
0.0
 30
0.0
 11
301.0
 21
0.0000000000004547
 31
0.0
  0
LINE
  5
30
330
2
100
AcDbEntity
  8
L-TYUSIN
100
AcDbLine
 10
210.9999999999996
 20
139.0000000000001
 30
0.0
 11
252.9999999999996
 21
139.0000000000001
 31
0.0
  0
LINE
  5
33
330
2
100
AcDbEntity
  8
L-ZISSEN
100
AcDbLine
 10
247.9999999999996
 20
116.5000000000002
 30
0.0
 11
215.9999999999996
 21
116.5000000000002
 31
0.0
  0
LINE
  5
34
330
2
100
AcDbEntity
  8
L-ZISSEN
100
AcDbLine
 10
215.9999999999996
 20
115.0000000000002
 30
0.0
 11
247.9999999999996
 21
115.0000000000002
 31
0.0
  0
LINE
  5
35
330
2
100
AcDbEntity
  8
L-ZISSEN
100
AcDbLine
 10
215.9999999999996
 20
164.5000000000002
 30
0.0
 11
247.9999999999996
 21
164.5000000000002
 31
0.0
  0
LINE
  5
36
330
2
100
AcDbEntity
  8
L-ZISSEN
100
AcDbLine
 10
247.9999999999996
 20
160.5000000000003
 30
0.0
 11
215.9999999999996
 21
160.5000000000003
 31
0.0
  0
LINE
  5
37
330
2
100
AcDbEntity
  8
L-ZISSEN
100
AcDbLine
 10
247.9999999999996
 20
168.5000000000004
 30
0.0
 11
241.4999999999996
 21
168.5000000000004
 31
0.0
  0
LINE
  5
38
330
2
100
AcDbEntity
  8
L-ZISSEN
100
AcDbLine
 10
218.2499999999996
 20
201.0000000000004
 30
0.0
 11
245.7499999999996
 21
201.0000000000004
 31
0.0
  0
LINE
  5
39
330
2
100
AcDbEntity
  8
L-ZISSEN
100
AcDbLine
 10
218.2500000000002
 20
262.3018582826259
 30
0.0
 11
245.7500000000002
 21
262.3018582826261
 31
0.0
  0
LINE
  5
3A
330
2
100
AcDbEntity
  8
L-ZISSEN
100
AcDbLine
 10
248.0000000000004
 20
254.151858282626
 30
0.0
 11
216.0000000000004
 21
254.1518582826263
 31
0.0
  0
LINE
  5
3B
330
2
100
AcDbEntity
  8
L-ZISSEN
100
AcDbLine
 10
246.5000000000005
 20
327.2518582826252
 30
0.0
 11
237.3821633529392
 21
327.2518582826253
 31
0.0
  0
LINE
  5
3C
330
2
100
AcDbEntity
  8
L-ZISSEN
100
AcDbLine
 10
238.2765371804361
 20
318.2518582826255
 30
0.0
 11
245.025500454054
 21
318.2518582826255
 31
0.0
  0
LINE
  5
3D
330
2
100
AcDbEntity
  8
L-ZISSEN
100
AcDbLine
 10
238.8124355652985
 20
316.2518582826257
 30
0.0
 11
246.0255004540541
 21
316.2518582826256
 31
0.0
  0
LINE
  5
3E
330
2
100
AcDbEntity
  8
L-ZISSEN
100
AcDbLine
 10
241.1500000000003
 20
306.2518582826255
 30
0.0
 11
248.0000000000004
 21
306.2518582826257
 31
0.0
  0
LINE
  5
3F
330
2
100
AcDbEntity
  8
L-ZISSEN
100
AcDbLine
 10
218.2500000000002
 20
289.8018582826261
 30
0.0
 11
245.7500000000002
 21
289.8018582826261
 31
0.0
  0
LINE
  5
40
330
2
100
AcDbEntity
  8
L-ZISSEN
100
AcDbLine
 10
243.2000000000002
 20
292.0518582826259
 30
0.0
 11
248.0000000000003
 21
292.0518582826259
 31
0.0
  0
LINE
  5
41
330
2
100
AcDbEntity
  8
L-ZISSEN
100
AcDbLine
 10
248.0000000000002
 20
299.5518582826257
 30
0.0
 11
243.2
 21
299.5518582826257
 31
0.0
  0
LINE
  5
42
330
2
100
AcDbEntity
  8
L-ZISSEN
100
AcDbLine
 10
243.2000000000001
 20
302.0518582826259
 30
0.0
 11
248.0000000000004
 21
302.0518582826261
 31
0.0
  0
LINE
  5
43
330
2
100
AcDbEntity
  8
L-ZISSEN
100
AcDbLine
 10
113.4499999999991
 20
201.0000000000002
 30
0.0
 11
113.4499999999993
 21
168.5000000000004
 31
0.0
  0
LINE
  5
44
330
2
100
AcDbEntity
  8
L-ZISSEN
100
AcDbLine
 10
85.94999999999885
 20
201.0
 30
0.0
 11
85.94999999999913
 21
168.5000000000001
 31
0.0
  0
LINE
  5
45
330
2
100
AcDbEntity
  8
L-TYUSIN
100
AcDbLine
 10
231.9999999999996
 20
206.0000000000003
 30
0.0
 11
231.9999999999996
 21
110.0000000000001
 31
0.0
  0
LINE
  5
46
330
2
100
AcDbEntity
  8
L-ZISSEN
100
AcDbLine
 10
218.2499999999996
 20
201.0000000000004
 30
0.0
 11
218.2499999999996
 21
168.5000000000004
 31
0.0
  0
LINE
  5
47
330
2
100
AcDbEntity
  8
L-ZISSEN
100
AcDbLine
 10
121.5999999999997
 20
117.5000000000002
 30
0.0
 11
76.19999999999947
 21
117.4999999999998
 31
0.0
  0
LINE
  5
48
330
2
100
AcDbEntity
  8
L-ZISSEN
100
AcDbLine
 10
115.6999999999993
 20
164.5000000000004
 30
0.0
 11
83.69999999999908
 21
164.5000000000001
 31
0.0
  0
LINE
  5
49
330
2
100
AcDbEntity
  8
L-ZISSEN
100
AcDbLine
 10
90.19999999999901
 20
168.5000000000001
 30
0.0
 11
83.69999999999903
 21
168.5000000000001
 31
0.0
  0
LINE
  5
4A
330
2
100
AcDbEntity
  8
L-ZISSEN
100
AcDbLine
 10
74.99999999999937
 20
100.0000000000002
 30
0.0
 11
75.00000000000028
 21
0.0000000000003411
 31
0.0
  0
LINE
  5
4B
330
2
100
AcDbEntity
  8
L-ZISSEN
100
AcDbLine
 10
0.0000000000002274
 20
104.9999999999999
 30
0.0
 11
0.0
 21
0.0
 31
0.0
  0
LINE
  5
4C
330
2
100
AcDbEntity
  8
L-ZISSEN
100
AcDbLine
 10
40.00000000000011
 20
-0.0000000000000568
 30
0.0
 11
39.99999999999926
 21
114.9999999999994
 31
0.0
  0
CIRCLE
  5
4D
330
2
100
AcDbEntity
  8
L-ZISSEN
100
AcDbCircle
 10
21.00000000000022
 20
57.99999999999977
 30
0.0
 40
12.06
  0
LINE
  5
4E
330
2
100
AcDbEntity
  8
L-TYUSIN
100
AcDbLine
 10
21.00000000000022
 20
74.89999999999975
 30
0.0
 11
21.00000000000022
 21
41.09999999999977
 31
0.0
  0
LINE
  5
4F
330
2
100
AcDbEntity
  8
L-ZISSEN
100
AcDbLine
 10
0.0
 20
0.0
 30
0.0
 11
75.00000000000023
 21
0.0
 31
0.0
  0
LINE
  5
50
330
2
100
AcDbEntity
  8
L-ZISSEN
100
AcDbLine
 10
40.00000000000023
 20
105.0
 30
0.0
 11
0.0000000000002274
 21
104.9999999999999
 31
0.0
  0
LINE
  5
51
330
2
100
AcDbEntity
  8
L-ZISSEN
100
AcDbLine
 10
75.49999999999972
 20
100.0000000000002
 30
0.0
 11
75.49999999999949
 21
114.9999999999999
 31
0.0
  0
LINE
  5
52
330
2
100
AcDbEntity
  8
L-ZISSEN
100
AcDbLine
 10
75.49999999999972
 20
100.0000000000002
 30
0.0
 11
39.99999999999937
 21
99.99999999999966
 31
0.0
  0
CIRCLE
  5
53
330
2
100
AcDbEntity
  8
L-ZISSEN
100
AcDbCircle
 10
21.00000000000022
 20
57.99999999999977
 30
0.0
 40
7.349999999999999
  0
LINE
  5
54
330
2
100
AcDbEntity
  8
L-TYUSIN
100
AcDbLine
 10
37.9000000000002
 20
57.99999999999989
 30
0.0
 11
4.10000000000025
 21
57.99999999999966
 31
0.0
  0
LINE
  5
55
330
2
100
AcDbEntity
  8
L-ZISSEN
100
AcDbLine
 10
69.49999999999874
 20
118.9999999999994
 30
0.0
 11
41.9999999999992
 21
118.9999999999994
 31
0.0
  0
LINE
  5
56
330
2
100
AcDbEntity
  8
L-ZISSEN
100
AcDbLine
 10
52.49999999999897
 20
144.486907039215
 30
0.0
 11
42.9999999999998
 21
144.2374553167923
 31
0.0
  0
LINE
  5
57
330
2
100
AcDbEntity
  8
L-ZISSEN
100
AcDbLine
 10
39.99999999999926
 20
114.9999999999994
 30
0.0
 11
75.49999999999949
 21
114.9999999999999
 31
0.0
  0
LINE
  5
58
330
2
100
AcDbEntity
  8
L-ZISSEN
100
AcDbLine
 10
42.99999999999989
 20
118.9999999999994
 30
0.0
 11
42.9999999999998
 21
144.2612126236897
 31
0.0
  0
LINE
  5
59
330
2
100
AcDbEntity
  8
L-ZISSEN
100
AcDbLine
 10
41.9999999999992
 20
118.9999999999994
 30
0.0
 11
41.99999999999926
 21
114.9999999999994
 31
0.0
  0
LINE
  5
5A
330
2
100
AcDbEntity
  8
L-ZISSEN
100
AcDbLine
 10
73.4999999999988
 20
162.9999999999998
 30
0.0
 11
73.49999999999926
 21
114.9999999999998
 31
0.0
  0
LINE
  5
5B
330
2
100
AcDbEntity
  8
L-ZISSEN
100
AcDbLine
 10
76.19999999999947
 20
116.4999999999998
 30
0.0
 11
76.19999999999908
 21
161.4999999999998
 31
0.0
  0
LINE
  5
5C
330
2
100
AcDbEntity
  8
L-ZISSEN
100
AcDbLine
 10
69.49999999999926
 20
162.9999999999997
 30
0.0
 11
69.49999999999926
 21
114.9999999999998
 31
0.0
  0
LINE
  5
5D
330
2
100
AcDbEntity
  8
L-ZISSEN
100
AcDbLine
 10
56.49999999999863
 20
122.5999999999995
 30
0.0
 11
49.49999999999852
 21
122.5999999999995
 31
0.0
  0
LINE
  5
5E
330
2
100
AcDbEntity
  8
L-ZISSEN
100
AcDbLine
 10
49.49999999999852
 20
122.5999999999995
 30
0.0
 11
49.49999999999852
 21
118.9999999999995
 31
0.0
  0
LINE
  5
5F
330
2
100
AcDbEntity
  8
L-ZISSEN
100
AcDbLine
 10
48.49999999999965
 20
118.9999999999995
 30
0.0
 11
48.49999999999972
 21
114.9999999999996
 31
0.0
  0
LINE
  5
60
330
2
100
AcDbEntity
  8
L-ZISSEN
100
AcDbLine
 10
56.49999999999863
 20
122.5999999999995
 30
0.0
 11
56.49999999999863
 21
118.9999999999995
 31
0.0
  0
LINE
  5
61
330
2
100
AcDbEntity
  8
L-ZISSEN
100
AcDbLine
 10
76.19999999999947
 20
116.4999999999998
 30
0.0
 11
73.49999999999923
 21
116.4999999999998
 31
0.0
  0
LINE
  5
62
330
2
100
AcDbEntity
  8
L-ZISSEN
100
AcDbLine
 10
73.4999999999988
 20
162.9999999999998
 30
0.0
 11
52.4999999999988
 21
162.9999999999996
 31
0.0
  0
LINE
  5
63
330
2
100
AcDbEntity
  8
L-ZISSEN
100
AcDbLine
 10
52.4999999999988
 20
162.9999999999996
 30
0.0
 11
52.49999999999897
 21
144.486907039215
 31
0.0
  0
LINE
  5
64
330
2
100
AcDbEntity
  8
L-ZISSEN
100
AcDbLine
 10
76.19999999999908
 20
161.4999999999998
 30
0.0
 11
73.49999999999884
 21
161.4999999999998
 31
0.0
  0
LINE
  5
65
330
2
100
AcDbEntity
  8
L-ZISSEN
100
AcDbLine
 10
83.69999999999908
 20
160.5000000000001
 30
0.0
 11
83.69999999999903
 21
168.5000000000001
 31
0.0
  0
LINE
  5
66
330
2
100
AcDbEntity
  8
L-ZISSEN
100
AcDbLine
 10
76.19999999999908
 20
160.5
 30
0.0
 11
83.69999999999908
 21
160.5000000000001
 31
0.0
  0
LINE
  5
67
330
2
100
AcDbEntity
  8
L-ZISSEN
100
AcDbLine
 10
200.9999999999997
 20
115.0000000000003
 30
0.0
 11
201.0
 21
0.0
 31
0.0
  0
LINE
  5
68
330
2
100
AcDbEntity
  8
L-ZISSEN
100
AcDbLine
 10
199.6984172530879
 20
55.98148679526957
 30
0.0
 11
188.9999999999998
 21
43.50000000000017
 31
0.0
  0
TEXT
  5
69
330
2
100
AcDbEntity
  8
L-ZISSEN
100
AcDbText
 10
159.3534191097969
 20
40.92864166769788
 30
0.0
 40
4.5
  1
"2"PORT
100
AcDbText
  0
TEXT
  5
6A
330
2
100
AcDbEntity
  8
L-ZISSEN
100
AcDbText
 10
160.3534191097969
 20
33.17864166769789
 30
0.0
 40
4.5
  1
Rc 3/8
100
AcDbText
  0
TEXT
  5
6B
330
2
100
AcDbEntity
  8
L-ZISSEN
100
AcDbText
 10
160.3534191097969
 20
13.17864166769789
 30
0.0
 40
4.5
  1
Rc 3/4
100
AcDbText
  0
TEXT
  5
6C
330
2
100
AcDbEntity
  8
L-ZISSEN
100
AcDbText
 10
160.3534191097969
 20
23.17864166769788
 30
0.0
 40
4.5
  1
Rc 1/2
100
AcDbText
  0
LINE
  5
6D
330
2
100
AcDbEntity
  8
L-TYUSIN
100
AcDbLine
 10
203.5000452915897
 20
13.5000048456684
 30
0.0
 11
220.5000452915897
 21
13.50000484566851
 31
0.0
  0
CIRCLE
  5
6E
330
2
100
AcDbEntity
  8
L-ZISSEN
100
AcDbCircle
 10
212.0000452915896
 20
13.50000484566845
 30
0.0
 40
5.5
  0
LINE
  5
6F
330
2
100
AcDbEntity
  8
L-TYUSIN
100
AcDbLine
 10
212.0000452915896
 20
22.00000484566845
 30
0.0
 11
212.0000452915897
 21
5.000004845668456
 31
0.0
  0
LINE
  5
70
330
2
100
AcDbEntity
  8
L-ZISSEN
100
AcDbLine
 10
128.4999999999993
 20
129.1850414176637
 30
0.0
 11
121.5999999999994
 21
129.1850414176637
 31
0.0
  0
LINE
  5
71
330
2
100
AcDbEntity
  8
L-ZISSEN
100
AcDbLine
 10
128.4999999999992
 20
148.814950570111
 30
0.0
 11
121.599999999999
 21
148.814950570111
 31
0.0
  0
LINE
  5
72
330
2
100
AcDbEntity
  8
L-ZISSEN
100
AcDbLine
 10
121.5999999999989
 20
160.5000000000004
 30
0.0
 11
121.5999999999997
 21
117.5000000000002
 31
0.0
  0
LINE
  5
73
330
2
100
AcDbEntity
  8
L-ZISSEN
100
AcDbLine
 10
90.19999999999908
 20
164.5000000000001
 30
0.0
 11
90.19999999999901
 21
168.5000000000001
 31
0.0
  0
LINE
  5
74
330
2
100
AcDbEntity
  8
L-ZISSEN
100
AcDbLine
 10
115.6999999999992
 20
168.5000000000004
 30
0.0
 11
109.1999999999992
 21
168.5000000000004
 31
0.0
  0
LINE
  5
75
330
2
100
AcDbEntity
  8
L-ZISSEN
100
AcDbLine
 10
109.1999999999993
 20
164.5000000000004
 30
0.0
 11
109.1999999999992
 21
168.5000000000004
 31
0.0
  0
LINE
  5
76
330
2
100
AcDbEntity
  8
L-ZISSEN
100
AcDbLine
 10
115.6999999999993
 20
160.5000000000003
 30
0.0
 11
115.6999999999992
 21
168.5000000000004
 31
0.0
  0
LINE
  5
77
330
2
100
AcDbEntity
  8
L-ZISSEN
100
AcDbLine
 10
115.6999999999993
 20
160.5000000000003
 30
0.0
 11
121.5999999999989
 21
160.5000000000004
 31
0.0
  0
LINE
  5
78
330
2
100
AcDbEntity
  8
L-ZISSEN
100
AcDbLine
 10
128.4999999999992
 20
148.814950570111
 30
0.0
 11
128.4999999999993
 21
129.1850414176637
 31
0.0
  0
ARC
  5
79
330
2
100
AcDbEntity
  8
L-ZISSEN
100
AcDbCircle
 10
128.4999999999992
 20
138.9999959938873
 30
0.0
 40
7.5
100
AcDbArc
 50
284.8351115819397
 51
75.16488841806126
  0
LINE
  5
7A
330
2
100
AcDbEntity
  8
L-ZISSEN
100
AcDbLine
 10
130.4202864369615
 20
131.7499959938873
 30
0.0
 11
128.4999999999993
 21
131.7499959938873
 31
0.0
  0
LINE
  5
7B
330
2
100
AcDbEntity
  8
L-ZISSEN
100
AcDbLine
 10
130.4202864369614
 20
146.2499959938873
 30
0.0
 11
128.4999999999992
 21
146.2499959938873
 31
0.0
  0
LINE
  5
7C
330
2
100
AcDbEntity
  8
L-TYUSIN
100
AcDbLine
 10
217.8999999999998
 20
57.99999999999915
 30
0.0
 11
184.0999999999999
 21
57.99999999999892
 31
0.0
  0
SOLID
  5
7D
330
2
100
AcDbEntity
  8
L-ZISSEN
100
AcDbTrace
 10
199.9515027872097
 20
55.76455633745093
 30
0.0
 11
199.4453317189661
 21
56.19841725308822
 31
0.0
 12
200.9999999999998
 22
57.50000000000017
 32
0.0
 13
200.9999999999998
 23
57.50000000000017
 33
0.0
  0
CIRCLE
  5
7E
330
2
100
AcDbEntity
  8
L-ZISSEN
100
AcDbCircle
 10
231.9999999999996
 20
139.0000000000001
 30
0.0
 40
10.00000000000002
  0
LINE
  5
7F
330
2
100
AcDbEntity
  8
L-ZISSEN
100
AcDbLine
 10
215.9999999999996
 20
168.5000000000004
 30
0.0
 11
215.9999999999996
 21
115.0000000000002
 31
0.0
  0
LINE
  5
80
330
2
100
AcDbEntity
  8
L-ZISSEN
100
AcDbLine
 10
222.4999999999996
 20
168.5000000000004
 30
0.0
 11
222.4999999999996
 21
164.5000000000004
 31
0.0
  0
LINE
  5
81
330
2
100
AcDbEntity
  8
L-ZISSEN
100
AcDbLine
 10
222.4999999999996
 20
168.5000000000004
 30
0.0
 11
215.9999999999996
 21
168.5000000000004
 31
0.0
  0
LINE
  5
82
330
2
100
AcDbEntity
  8
L-ZISSEN
100
AcDbLine
 10
241.4999999999996
 20
168.5000000000004
 30
0.0
 11
241.4999999999996
 21
164.5000000000004
 31
0.0
  0
LINE
  5
83
330
2
100
AcDbEntity
  8
L-TYUSIN
100
AcDbLine
 10
92.74999999999932
 20
189.8249999999998
 30
0.0
 11
48.74999999999909
 21
189.8249999999998
 31
0.0
  0
LINE
  5
84
330
2
100
AcDbEntity
  8
L-ZISSEN
100
AcDbLine
 10
70.74999999999931
 20
178.6499999999997
 30
0.0
 11
85.94999999999908
 21
178.6499999999998
 31
0.0
  0
LINE
  5
85
330
2
100
AcDbEntity
  8
L-ZISSEN
100
AcDbLine
 10
70.74999999999909
 20
200.9999999999998
 30
0.0
 11
85.94999999999885
 21
201.0
 31
0.0
  0
TEXT
  5
86
330
2
100
AcDbEntity
  8
L-ZISSEN
100
AcDbText
 10
-11.98795147862256
 20
359.9033592868772
 30
0.0
 40
4.5
  1
MODEL NO. : 354-400- 000
100
AcDbText
  0
LINE
  5
87
330
2
100
AcDbEntity
  8
L-ZISSEN
100
AcDbLine
 10
60.99999999999923
 20
179.0553448853968
 30
0.0
 11
65.99999999999932
 21
179.055344885397
 31
0.0
  0
LINE
  5
88
330
2
100
AcDbEntity
  8
L-ZISSEN
100
AcDbLine
 10
60.99999999999906
 20
200.9446551146025
 30
0.0
 11
65.99999999999909
 21
200.9446551146025
 31
0.0
  0
LINE
  5
89
330
2
100
AcDbEntity
  8
L-ZISSEN
100
AcDbLine
 10
60.99999999999906
 20
200.9446551146025
 30
0.0
 11
60.99999999999923
 21
179.0553448853968
 31
0.0
  0
LINE
  5
8A
330
2
100
AcDbEntity
  8
L-ZISSEN
100
AcDbLine
 10
65.99999999999909
 20
200.9446551146025
 30
0.0
 11
65.99999999999932
 21
179.055344885397
 31
0.0
  0
LINE
  5
8B
330
2
100
AcDbEntity
  8
L-ZISSEN
100
AcDbLine
 10
70.74999999999909
 20
200.9999999999998
 30
0.0
 11
70.74999999999931
 21
178.6499999999997
 31
0.0
  0
LINE
  5
8C
330
2
100
AcDbEntity
  8
L-ZISSEN
100
AcDbLine
 10
65.99999999999926
 20
180.6999999999999
 30
0.0
 11
70.74999999999926
 21
180.6999999999999
 31
0.0
  0
LINE
  5
8D
330
2
100
AcDbEntity
  8
L-ZISSEN
100
AcDbLine
 10
65.99999999999909
 20
198.9499999999996
 30
0.0
 11
70.74999999999909
 21
198.9499999999997
 31
0.0
  0
TEXT
  5
8E
330
2
100
AcDbEntity
  8
L-ZISSEN
100
AcDbText
 10
54.01204852137744
 20
352.9033592868772
 30
0.0
 40
4.5
  1
6
100
AcDbText
  0
TEXT
  5
8F
330
2
100
AcDbEntity
  8
L-ZISSEN
100
AcDbText
 10
70.16694837956584
 20
355.9033592868772
 30
0.0
 40
4.5
  1
P
100
AcDbText
  0
TEXT
  5
90
330
2
100
AcDbEntity
  8
L-ZISSEN
100
AcDbText
 10
54.01204852137744
 20
366.9033592868772
 30
0.0
 40
4.5
  1
3
100
AcDbText
  0
TEXT
  5
91
330
2
100
AcDbEntity
  8
L-ZISSEN
100
AcDbText
 10
70.16694837956584
 20
363.9033592868772
 30
0.0
 40
4.5
  1
C
100
AcDbText
  0
LINE
  5
92
330
2
100
AcDbEntity
  8
L-TYUSIN
100
AcDbLine
 10
232.3500000000003
 20
330.2518582826255
 30
0.0
 11
232.3500000000003
 21
234.4518582826253
 31
0.0
  0
LINE
  5
93
330
2
100
AcDbEntity
  8
L-ZISSEN
100
AcDbLine
 10
216.0000000000005
 20
254.1518582826263
 30
0.0
 11
216.0000000000002
 21
302.0518582826257
 31
0.0
  0
LINE
  5
94
330
2
100
AcDbEntity
  8
L-ZISSEN
100
AcDbLine
 10
220.8000000000001
 20
305.3018582826259
 30
0.0
 11
220.8000000000001
 21
289.8018582826261
 31
0.0
  0
LINE
  5
95
330
2
100
AcDbEntity
  8
L-ZISSEN
100
AcDbLine
 10
243.2
 20
305.3018582826259
 30
0.0
 11
243.2000000000002
 21
289.8018582826261
 31
0.0
  0
LINE
  5
96
330
2
100
AcDbEntity
  8
L-SOUZOU
100
AcDbLine
 10
128.649999999999
 20
178.6499999999997
 30
0.0
 11
113.4499999999993
 21
178.6499999999998
 31
0.0
  0
LINE
  5
97
330
2
100
AcDbEntity
  8
L-SOUZOU
100
AcDbLine
 10
113.4499999999991
 20
201.0000000000002
 30
0.0
 11
128.6499999999992
 21
200.9999999999998
 31
0.0
  0
CIRCLE
  5
98
330
2
100
AcDbEntity
  8
L-SOUZOU
100
AcDbCircle
 10
99.69999999999899
 20
190.0553500000001
 30
0.0
 40
10.94465
  0
LINE
  5
99
330
2
100
AcDbEntity
  8
L-ZISSEN
100
AcDbLine
 10
85.94999999999885
 20
201.0
 30
0.0
 11
113.4499999999991
 21
201.0000000000002
 31
0.0
  0
LINE
  5
9A
330
2
100
AcDbEntity
  8
L-SOUZOU
100
AcDbLine
 10
138.3999999999993
 20
200.9446551146025
 30
0.0
 11
138.3999999999991
 21
179.0553448853968
 31
0.0
  0
LINE
  5
9B
330
2
100
AcDbEntity
  8
L-SOUZOU
100
AcDbLine
 10
128.6499999999992
 20
200.9999999999998
 30
0.0
 11
128.649999999999
 21
178.6499999999997
 31
0.0
  0
LINE
  5
9C
330
2
100
AcDbEntity
  8
L-SOUZOU
100
AcDbLine
 10
133.3999999999992
 20
200.9446551146025
 30
0.0
 11
133.399999999999
 21
179.055344885397
 31
0.0
  0
LINE
  5
9D
330
2
100
AcDbEntity
  8
L-SOUZOU
100
AcDbLine
 10
138.3999999999991
 20
179.0553448853968
 30
0.0
 11
133.399999999999
 21
179.055344885397
 31
0.0
  0
LINE
  5
9E
330
2
100
AcDbEntity
  8
L-SOUZOU
100
AcDbLine
 10
133.3999999999991
 20
180.6999999999999
 30
0.0
 11
128.6499999999991
 21
180.6999999999999
 31
0.0
  0
LINE
  5
9F
330
2
100
AcDbEntity
  8
L-SOUZOU
100
AcDbLine
 10
138.3999999999993
 20
200.9446551146025
 30
0.0
 11
133.3999999999992
 21
200.9446551146025
 31
0.0
  0
LINE
  5
A0
330
2
100
AcDbEntity
  8
L-SOUZOU
100
AcDbLine
 10
133.3999999999992
 20
198.9499999999996
 30
0.0
 11
128.6499999999992
 21
198.9499999999997
 31
0.0
  0
LINE
  5
A1
330
2
100
AcDbEntity
  8
L-SOUZOU
100
AcDbLine
 10
222.5000000000016
 20
236.7518582826251
 30
0.0
 11
222.5000000000016
 21
242.0518582826251
 31
0.0
  0
LINE
  5
A2
330
2
100
AcDbEntity
  8
L-SOUZOU
100
AcDbLine
 10
241.5000000000016
 20
236.7518582826251
 30
0.0
 11
241.5000000000016
 21
242.0518582826251
 31
0.0
  0
LINE
  5
A3
330
2
100
AcDbEntity
  8
L-SOUZOU
100
AcDbLine
 10
218.2499999999996
 20
201.0000000000004
 30
0.0
 11
203.0499999999994
 21
201.0000000000001
 31
0.0
  0
LINE
  5
A4
330
2
100
AcDbEntity
  8
L-SOUZOU
100
AcDbLine
 10
203.0499999999996
 20
178.6499999999999
 30
0.0
 11
218.2499999999994
 21
178.65
 31
0.0
  0
LINE
  5
A5
330
2
100
AcDbEntity
  8
L-SOUZOU
100
AcDbLine
 10
193.2999999999994
 20
200.9446551146027
 30
0.0
 11
193.2999999999996
 21
179.0553448853971
 31
0.0
  0
LINE
  5
A6
330
2
100
AcDbEntity
  8
L-SOUZOU
100
AcDbLine
 10
203.0499999999994
 20
201.0000000000001
 30
0.0
 11
203.0499999999996
 21
178.6499999999999
 31
0.0
  0
LINE
  5
A7
330
2
100
AcDbEntity
  8
L-SOUZOU
100
AcDbLine
 10
198.2999999999994
 20
200.9446551146027
 30
0.0
 11
198.2999999999996
 21
179.0553448853972
 31
0.0
  0
LINE
  5
A8
330
2
100
AcDbEntity
  8
L-SOUZOU
100
AcDbLine
 10
193.2999999999996
 20
179.0553448853971
 30
0.0
 11
198.2999999999996
 21
179.0553448853972
 31
0.0
  0
LINE
  5
A9
330
2
100
AcDbEntity
  8
L-SOUZOU
100
AcDbLine
 10
198.2999999999996
 20
180.7000000000001
 30
0.0
 11
203.0499999999996
 21
180.7000000000001
 31
0.0
  0
LINE
  5
AA
330
2
100
AcDbEntity
  8
L-SOUZOU
100
AcDbLine
 10
193.2999999999994
 20
200.9446551146027
 30
0.0
 11
198.2999999999994
 21
200.9446551146027
 31
0.0
  0
LINE
  5
AB
330
2
100
AcDbEntity
  8
L-SOUZOU
100
AcDbLine
 10
198.2999999999994
 20
198.9499999999998
 30
0.0
 11
203.0499999999994
 21
198.9499999999999
 31
0.0
  0
CIRCLE
  5
AC
330
2
100
AcDbEntity
  8
L-SOUZOU
100
AcDbCircle
 10
231.9999999999996
 20
190.0553500000004
 30
0.0
 40
10.94465
  0
LINE
  5
AD
330
2
100
AcDbEntity
  8
L-SOUZOU
100
AcDbLine
 10
222.5000000000016
 20
236.7518582826251
 30
0.0
 11
241.5000000000016
 21
236.7518582826251
 31
0.0
  0
LINE
  5
AE
330
2
100
AcDbEntity
  8
L-SOUZOU
100
AcDbLine
 10
202.7499999999993
 20
264.8518582826247
 30
0.0
 11
216.0000000000004
 21
264.8518582826247
 31
0.0
  0
LINE
  5
AF
330
2
100
AcDbEntity
  8
L-SOUZOU
100
AcDbLine
 10
202.7499999999993
 20
287.2518582826248
 30
0.0
 11
216.0000000000002
 21
287.2518582826248
 31
0.0
  0
LINE
  5
B0
330
2
100
AcDbEntity
  8
L-SOUZOU
100
AcDbLine
 10
192.9999999999993
 20
285.5518582826245
 30
0.0
 11
192.9999999999993
 21
266.5518582826245
 31
0.0
  0
LINE
  5
B1
330
2
100
AcDbEntity
  8
L-SOUZOU
100
AcDbLine
 10
202.7499999999993
 20
287.2518582826248
 30
0.0
 11
202.7499999999993
 21
264.8518582826247
 31
0.0
  0
LINE
  5
B2
330
2
100
AcDbEntity
  8
L-SOUZOU
100
AcDbLine
 10
197.9999999999993
 20
285.5518582826245
 30
0.0
 11
197.9999999999993
 21
266.5518582826245
 31
0.0
  0
LINE
  5
B3
330
2
100
AcDbEntity
  8
L-SOUZOU
100
AcDbLine
 10
192.9999999999993
 20
266.5518582826245
 30
0.0
 11
197.9999999999993
 21
266.5518582826245
 31
0.0
  0
LINE
  5
B4
330
2
100
AcDbEntity
  8
L-SOUZOU
100
AcDbLine
 10
197.9999999999993
 20
266.9018582826245
 30
0.0
 11
202.7499999999993
 21
266.9018582826245
 31
0.0
  0
LINE
  5
B5
330
2
100
AcDbEntity
  8
L-SOUZOU
100
AcDbLine
 10
192.9999999999993
 20
285.5518582826245
 30
0.0
 11
197.9999999999993
 21
285.5518582826245
 31
0.0
  0
LINE
  5
B6
330
2
100
AcDbEntity
  8
L-SOUZOU
100
AcDbLine
 10
197.9999999999993
 20
285.2018582826246
 30
0.0
 11
202.7499999999993
 21
285.2018582826246
 31
0.0
  0
LINE
  5
B7
330
2
100
AcDbEntity
  8
L-ZISSEN
100
AcDbLine
 10
218.2500000000002
 20
289.8018582826261
 30
0.0
 11
218.2500000000002
 21
262.3018582826259
 31
0.0
  0
ARC
  5
B8
330
2
100
AcDbEntity
  8
L-ZISSEN
100
AcDbCircle
 10
231.9999959938875
 20
247.2518582826257
 30
0.0
 40
7.5
100
AcDbArc
 50
194.8351115819392
 51
345.1648884180607
  0
LINE
  5
B9
330
2
100
AcDbEntity
  8
L-ZISSEN
100
AcDbLine
 10
220.2500000000002
 20
262.3018582826259
 30
0.0
 11
243.7500000000002
 21
262.3018582826261
 31
0.0
  0
LINE
  5
BA
330
2
100
AcDbEntity
  8
L-ZISSEN
100
AcDbLine
 10
240.5000000000004
 20
247.2518582826257
 30
0.0
 11
223.4999959938873
 21
247.2518582826257
 31
0.0
  0
LINE
  5
BB
330
2
100
AcDbEntity
  8
L-ZISSEN
100
AcDbLine
 10
223.5000000000004
 20
247.2518582826257
 30
0.0
 11
223.5000000000004
 21
254.1518582826263
 31
0.0
  0
LINE
  5
BC
330
2
100
AcDbEntity
  8
L-SOUZOU
100
AcDbLine
 10
220.8000000000014
 20
246.8018582826251
 30
0.0
 11
220.8000000000014
 21
254.1518582826263
 31
0.0
  0
LINE
  5
BD
330
2
100
AcDbEntity
  8
L-SOUZOU
100
AcDbLine
 10
222.8500000000016
 20
242.0518582826251
 30
0.0
 11
222.8500000000016
 21
246.8018582826251
 31
0.0
  0
LINE
  5
BE
330
2
100
AcDbEntity
  8
L-SOUZOU
100
AcDbLine
 10
222.5000000000016
 20
242.0518582826251
 30
0.0
 11
222.8500000000016
 21
242.0518582826251
 31
0.0
  0
LINE
  5
BF
330
2
100
AcDbEntity
  8
L-ZISSEN
100
AcDbLine
 10
224.7499959938873
 20
245.3315718456635
 30
0.0
 11
224.7499959938873
 21
247.2518582826257
 31
0.0
  0
LINE
  5
C0
330
2
100
AcDbEntity
  8
L-SOUZOU
100
AcDbLine
 10
220.8000000000014
 20
246.8018582826251
 30
0.0
 11
222.8500000000016
 21
246.8018582826251
 31
0.0
  0
LINE
  5
C1
330
2
100
AcDbEntity
  8
L-ZISSEN
100
AcDbLine
 10
240.5000000000004
 20
247.2518582826257
 30
0.0
 11
240.5000000000004
 21
254.1518582826263
 31
0.0
  0
LINE
  5
C2
330
2
100
AcDbEntity
  8
L-SOUZOU
100
AcDbLine
 10
243.2000000000015
 20
246.8018582826251
 30
0.0
 11
243.2000000000015
 21
254.1518582826262
 31
0.0
  0
LINE
  5
C3
330
2
100
AcDbEntity
  8
L-SOUZOU
100
AcDbLine
 10
241.1500000000017
 20
242.0518582826251
 30
0.0
 11
241.1500000000017
 21
246.8018582826251
 31
0.0
  0
LINE
  5
C4
330
2
100
AcDbEntity
  8
L-SOUZOU
100
AcDbLine
 10
241.1500000000017
 20
242.0518582826251
 30
0.0
 11
241.5000000000016
 21
242.0518582826251
 31
0.0
  0
LINE
  5
C5
330
2
100
AcDbEntity
  8
L-ZISSEN
100
AcDbLine
 10
239.2499959938873
 20
245.3315718456635
 30
0.0
 11
239.2499959938873
 21
247.2518582826257
 31
0.0
  0
LINE
  5
C6
330
2
100
AcDbEntity
  8
L-SOUZOU
100
AcDbLine
 10
241.1500000000017
 20
246.8018582826251
 30
0.0
 11
243.2000000000015
 21
246.8018582826251
 31
0.0
  0
LINE
  5
C7
330
2
100
AcDbEntity
  8
L-ZISSEN
100
AcDbLine
 10
216.0000000000002
 20
292.0518582826259
 30
0.0
 11
220.8000000000001
 21
292.0518582826259
 31
0.0
  0
LINE
  5
C8
330
2
100
AcDbEntity
  8
L-ZISSEN
100
AcDbLine
 10
220.8000000000001
 20
299.5518582826257
 30
0.0
 11
216.0000000000002
 21
299.5518582826257
 31
0.0
  0
CIRCLE
  5
C9
330
2
100
AcDbEntity
  8
L-ZISSEN
100
AcDbCircle
 10
232.0000000000002
 20
276.0518582826259
 30
0.0
 40
3.25
  0
TEXT
  5
CA
330
2
100
AcDbEntity
  8
L-ZISSEN
100
AcDbText
 10
93.01204852137743
 20
348.0894772760827
 30
0.0
 40
4.5
  1
DC-24V
100
AcDbText
  0
TEXT
  5
CB
330
2
100
AcDbEntity
  8
L-ZISSEN
100
AcDbText
 10
93.01204852137743
 20
340.0894772760827
 30
0.0
 40
4.5
  1
DC-100V
100
AcDbText
  0
TEXT
  5
CC
330
2
100
AcDbEntity
  8
L-ZISSEN
100
AcDbText
 10
93.01204852137743
 20
355.9033592868772
 30
0.0
 40
4.5
  1
AC-200V
100
AcDbText
  0
TEXT
  5
CD
330
2
100
AcDbEntity
  8
L-ZISSEN
100
AcDbText
 10
93.01204852137743
 20
363.9033592868772
 30
0.0
 40
4.5
  1
AC-100V
100
AcDbText
  0
LINE
  5
CE
330
2
100
AcDbEntity
  8
L-ZISSEN
100
AcDbLine
 10
201.0
 20
300.2518582826251
 30
0.0
 11
201.0
 21
375.751858282625
 31
0.0
  0
LINE
  5
CF
330
2
100
AcDbEntity
  8
L-ZISSEN
100
AcDbLine
 10
201.0000000000001
 20
335.751858282625
 30
0.0
 11
201.0000000000001
 21
375.751858282625
 31
0.0
  0
LINE
  5
D0
330
2
100
AcDbEntity
  8
L-ZISSEN
100
AcDbLine
 10
201.0000000000003
 20
300.2518582826251
 30
0.0
 11
216.0000000000002
 21
300.2518582826251
 31
0.0
  0
LINE
  5
D1
330
2
100
AcDbEntity
  8
L-TYUSIN
100
AcDbLine
 10
217.8999999999999
 20
354.751858282625
 30
0.0
 11
184.1
 21
354.751858282625
 31
0.0
  0
CIRCLE
  5
D2
330
2
100
AcDbEntity
  8
L-ZISSEN
100
AcDbCircle
 10
206.0000000000002
 20
329.2518582826251
 30
0.0
 40
3.2
  0
LINE
  5
D3
330
2
100
AcDbEntity
  8
L-ZISSEN
100
AcDbLine
 10
226.4535086836131
 20
320.9764265391115
 30
0.0
 11
226.7625446832076
 21
333.7518582826251
 31
0.0
  0
LINE
  5
D4
330
2
100
AcDbEntity
  8
L-ZISSEN
100
AcDbLine
 10
237.5464913163873
 20
320.9764265391115
 30
0.0
 11
237.2374553167933
 21
333.7518582826251
 31
0.0
  0
LINE
  5
D5
330
2
100
AcDbEntity
  8
L-ZISSEN
100
AcDbLine
 10
220.8000000000001
 20
305.3018582826259
 30
0.0
 11
243.2
 21
305.3018582826259
 31
0.0
  0
LINE
  5
D6
330
2
100
AcDbEntity
  8
L-ZISSEN
100
AcDbLine
 10
222.5000000000002
 20
310.0518582826259
 30
0.0
 11
241.5000000000002
 21
310.0518582826259
 31
0.0
  0
LINE
  5
D7
330
2
100
AcDbEntity
  8
L-ZISSEN
100
AcDbLine
 10
222.5000000000002
 20
314.7518582826261
 30
0.0
 11
241.5000000000002
 21
314.7518582826261
 31
0.0
  0
LINE
  5
D8
330
2
100
AcDbEntity
  8
L-ZISSEN
100
AcDbLine
 10
217.5000000000004
 20
327.2518582826253
 30
0.0
 11
226.6178366470617
 21
327.2518582826253
 31
0.0
  0
LINE
  5
D9
330
2
100
AcDbEntity
  8
L-ZISSEN
100
AcDbLine
 10
218.9744995459463
 20
318.2518582826256
 30
0.0
 11
225.7234628195642
 21
318.2518582826257
 31
0.0
  0
LINE
  5
DA
330
2
100
AcDbEntity
  8
L-ZISSEN
100
AcDbLine
 10
218.7527473980086
 20
306.2518582826257
 30
0.0
 11
218.9744995459463
 21
318.2518582826256
 31
0.0
  0
LINE
  5
DB
330
2
100
AcDbEntity
  8
L-ZISSEN
100
AcDbLine
 10
217.5000000000005
 20
306.2518582826257
 30
0.0
 11
217.5000000000004
 21
327.2518582826253
 31
0.0
  0
LINE
  5
DC
330
2
100
AcDbEntity
  8
L-ZISSEN
100
AcDbLine
 10
222.8500000000001
 20
310.0518582826262
 30
0.0
 11
222.8500000000001
 21
305.3018582826259
 31
0.0
  0
LINE
  5
DD
330
2
100
AcDbEntity
  8
L-ZISSEN
100
AcDbLine
 10
216.0000000000004
 20
302.0518582826257
 30
0.0
 11
220.8000000000001
 21
302.0518582826257
 31
0.0
  0
LINE
  5
DE
330
2
100
AcDbEntity
  8
L-ZISSEN
100
AcDbLine
 10
216.0000000000004
 20
306.2518582826256
 30
0.0
 11
222.8500000000001
 21
306.251858282626
 31
0.0
  0
LINE
  5
DF
330
2
100
AcDbEntity
  8
L-ZISSEN
100
AcDbLine
 10
216.0000000000004
 20
302.0518582826257
 30
0.0
 11
216.0000000000004
 21
306.2518582826256
 31
0.0
  0
LINE
  5
E0
330
2
100
AcDbEntity
  8
L-ZISSEN
100
AcDbLine
 10
222.5000000000002
 20
314.7518582826261
 30
0.0
 11
222.5000000000002
 21
310.0518582826259
 31
0.0
  0
CIRCLE
  5
E1
330
2
100
AcDbEntity
  8
L-ZISSEN
100
AcDbCircle
 10
222.0000000000004
 20
322.7518582826253
 30
0.0
 40
2.25
  0
ARC
  5
E2
330
2
100
AcDbEntity
  8
L-ZISSEN
100
AcDbCircle
 10
232.0000000000004
 20
315.2518582826257
 30
0.0
 40
4.599999999999999
100
AcDbArc
 50
353.7496409967046
 51
186.2503590032957
  0
LINE
  5
E3
330
2
100
AcDbEntity
  8
L-ZISSEN
100
AcDbLine
 10
225.0000000000004
 20
315.5518582826257
 30
0.0
 11
226.8646099434099
 21
322.5106773277282
 31
0.0
  0
LINE
  5
E4
330
2
100
AcDbEntity
  8
L-ZISSEN
100
AcDbLine
 10
239.0000000000004
 20
315.5518582826257
 30
0.0
 11
237.1353900565909
 21
322.5106773277282
 31
0.0
  0
LINE
  5
E5
330
2
100
AcDbEntity
  8
L-ZISSEN
100
AcDbLine
 10
224.9834033805584
 20
314.7518582826261
 30
0.0
 11
225.0000000000004
 21
315.5518582826257
 31
0.0
  0
LINE
  5
E6
330
2
100
AcDbEntity
  8
L-ZISSEN
100
AcDbLine
 10
241.1500000000003
 20
310.0518582826259
 30
0.0
 11
241.1500000000003
 21
305.3018582826259
 31
0.0
  0
LINE
  5
E7
330
2
100
AcDbEntity
  8
L-ZISSEN
100
AcDbLine
 10
239.0165966194422
 20
314.7518582826261
 30
0.0
 11
239.0000000000004
 21
315.5518582826257
 31
0.0
  0
LINE
  5
E8
330
2
100
AcDbEntity
  8
L-ZISSEN
100
AcDbLine
 10
241.5000000000002
 20
314.7518582826261
 30
0.0
 11
241.5000000000002
 21
310.0518582826259
 31
0.0
  0
LINE
  5
E9
330
2
100
AcDbEntity
  8
L-ZISSEN
100
AcDbLine
 10
227.830535769699
 20
323.2518582826258
 30
0.0
 11
236.1694642303018
 21
323.2518582826258
 31
0.0
  0
ARC
  5
EA
330
2
100
AcDbEntity
  8
L-ZISSEN
100
AcDbCircle
 10
227.830535769699
 20
322.2518582826257
 30
0.0
 40
1.0
100
AcDbArc
 50
90.00000000000019
 51
165.0
  0
CIRCLE
  5
EB
330
2
100
AcDbEntity
  8
L-ZISSEN
100
AcDbCircle
 10
242.0000000000004
 20
322.7518582826253
 30
0.0
 40
2.25
  0
ARC
  5
EC
330
2
100
AcDbEntity
  8
L-ZISSEN
100
AcDbCircle
 10
236.1694642303018
 20
322.2518582826257
 30
0.0
 40
1.0
100
AcDbArc
 50
14.99999999999999
 51
89.99999999999998
  0
LINE
  5
ED
330
2
100
AcDbEntity
  8
L-ZISSEN
100
AcDbLine
 10
237.2374553167933
 20
333.7518582826251
 30
0.0
 11
226.7625446832076
 21
333.7518582826251
 31
0.0
  0
LINE
  5
EE
330
2
100
AcDbEntity
  8
L-TYUSIN
100
AcDbLine
 10
269.9999999999996
 20
206.0000000000003
 30
0.0
 11
269.9999999999996
 21
110.0000000000002
 31
0.0
  0
LINE
  5
EF
330
2
100
AcDbEntity
  8
L-TYUSIN
100
AcDbLine
 10
251.0
 20
-4.999999999999772
 30
0.0
 11
251.0
 21
205.2000000000004
 31
0.0
  0
LINE
  5
F0
330
2
100
AcDbEntity
  8
L-ZISSEN
100
AcDbLine
 10
245.7499999999996
 20
201.0000000000004
 30
0.0
 11
245.7499999999996
 21
168.5000000000004
 31
0.0
  0
LINE
  5
F1
330
2
100
AcDbEntity
  8
L-ZISSEN
100
AcDbLine
 10
256.2499999999996
 20
201.0000000000004
 30
0.0
 11
256.2499999999997
 21
168.5000000000005
 31
0.0
  0
LINE
  5
F2
330
2
100
AcDbEntity
  8
L-ZISSEN
100
AcDbLine
 10
283.7499999999996
 20
201.0000000000004
 30
0.0
 11
283.7499999999996
 21
168.5000000000005
 31
0.0
  0
LINE
  5
F3
330
2
100
AcDbEntity
  8
L-ZISSEN
100
AcDbLine
 10
388.5499999999993
 20
200.9999999999995
 30
0.0
 11
388.5499999999993
 21
168.4999999999997
 31
0.0
  0
LINE
  5
F4
330
2
100
AcDbEntity
  8
L-ZISSEN
100
AcDbLine
 10
416.0499999999996
 20
200.9999999999995
 30
0.0
 11
416.0499999999996
 21
168.4999999999997
 31
0.0
  0
LINE
  5
F5
330
2
100
AcDbEntity
  8
L-ZISSEN
100
AcDbLine
 10
380.3999999999995
 20
117.4999999999995
 30
0.0
 11
425.7999999999997
 21
117.4999999999994
 31
0.0
  0
LINE
  5
F6
330
2
100
AcDbEntity
  8
L-ZISSEN
100
AcDbLine
 10
386.2999999999995
 20
164.4999999999997
 30
0.0
 11
418.2999999999997
 21
164.4999999999997
 31
0.0
  0
LINE
  5
F7
330
2
100
AcDbEntity
  8
L-ZISSEN
100
AcDbLine
 10
301.0
 20
0.0000000000004547
 30
0.0
 11
300.9999999999998
 21
115.0000000000002
 31
0.0
  0
CIRCLE
  5
F8
330
2
100
AcDbEntity
  8
L-ZISSEN
100
AcDbCircle
 10
289.9999999999995
 20
50.50000000000079
 30
0.0
 40
5.5
  0
LINE
  5
F9
330
2
100
AcDbEntity
  8
L-TYUSIN
100
AcDbLine
 10
289.9999999999995
 20
59.0000000000008
 30
0.0
 11
289.9999999999995
 21
42.0000000000008
 31
0.0
  0
TEXT
  5
FA
330
2
100
AcDbEntity
  8
L-ZISSEN
100
AcDbText
 10
317.9999999999999
 20
-26.99999999999988
 30
0.0
 40
4.5
  1
Rc 3/4
100
AcDbText
  0
TEXT
  5
FB
330
2
100
AcDbEntity
  8
L-ZISSEN
100
AcDbText
 10
317.9999999999999
 20
-16.99999999999988
 30
0.0
 40
4.5
  1
Rc 1/2
100
AcDbText
  0
TEXT
  5
FC
330
2
100
AcDbEntity
  8
L-ZISSEN
100
AcDbText
 10
317.9999999999999
 20
-6.999999999999886
 30
0.0
 40
4.5
  1
Rc 3/8
100
AcDbText
  0
TEXT
  5
FD
330
2
100
AcDbEntity
  8
L-ZISSEN
100
AcDbText
 10
316.9999999999999
 20
0.7500000000001137
 30
0.0
 40
4.5
  1
"1"PORT
100
AcDbText
  0
LINE
  5
FE
330
2
100
AcDbEntity
  8
L-TYUSIN
100
AcDbLine
 10
317.8999999999999
 20
17.00000000000022
 30
0.0
 11
284.1
 21
17.0
 31
0.0
  0
LINE
  5
FF
330
2
100
AcDbEntity
  8
L-ZISSEN
100
AcDbLine
 10
302.3015827469118
 20
15.48148679526951
 30
0.0
 11
312.9999999999999
 21
3.000000000000113
 31
0.0
  0
SOLID
  5
100
330
2
100
AcDbEntity
  8
L-ZISSEN
100
AcDbTrace
 10
302.0484972127901
 20
15.26455633745086
 30
0.0
 11
302.5546682810337
 21
15.69841725308816
 31
0.0
 12
300.9999999999999
 22
17.00000000000011
 32
0.0
 13
300.9999999999999
 23
17.00000000000011
 33
0.0
  0
TEXT
  5
101
330
2
100
AcDbEntity
  8
L-ZISSEN
100
AcDbText
 10
300.5103565353697
 20
129.6745168308993
 30
0.0
 40
4.5
  1
AIR SUPPLY
100
AcDbText
  0
TEXT
  5
102
330
2
100
AcDbEntity
  8
L-ZISSEN
100
AcDbText
 10
300.5103565353697
 20
136.0346855621958
 30
0.0
 40
4.5
  1
EXTERNAL PILOT
100
AcDbText
  0
TEXT
  5
103
330
2
100
AcDbEntity
  8
L-ZISSEN
100
AcDbText
 10
317.9999999999999
 20
87.2809919997511
 30
0.0
 40
4.5
  1
Rc 3/4
100
AcDbText
  0
TEXT
  5
104
330
2
100
AcDbEntity
  8
L-ZISSEN
100
AcDbText
 10
316.9999999999999
 20
95.0309919997511
 30
0.0
 40
4.5
  1
"3"PORT
100
AcDbText
  0
LINE
  5
105
330
2
100
AcDbEntity
  8
L-ZISSEN
100
AcDbLine
 10
302.3015827469116
 20
109.0185132047301
 30
0.0
 11
312.9999999999997
 21
121.4999999999995
 31
0.0
  0
LINE
  5
106
330
2
100
AcDbEntity
  8
L-TYUSIN
100
AcDbLine
 10
281.4999999999995
 20
50.50000000000074
 30
0.0
 11
298.4999999999995
 21
50.50000000000085
 31
0.0
  0
LINE
  5
107
330
2
100
AcDbEntity
  8
L-TYUSIN
100
AcDbLine
 10
317.8999999999998
 20
82.00000000000025
 30
0.0
 11
284.0999999999999
 21
82.00000000000002
 31
0.0
  0
LINE
  5
108
330
2
100
AcDbEntity
  8
L-ZISSEN
100
AcDbLine
 10
302.3015827469119
 20
83.51851320473073
 30
0.0
 11
313.0
 21
96.00000000000015
 31
0.0
  0
LINE
  5
109
330
2
100
AcDbEntity
  8
L-TYUSIN
100
AcDbLine
 10
291.4427669905375
 20
107.4999999999995
 30
0.0
 11
310.557233009462
 21
107.4999999999995
 31
0.0
  0
SOLID
  5
10A
330
2
100
AcDbEntity
  8
L-ZISSEN
100
AcDbTrace
 10
302.0484972127902
 20
83.73544366254938
 30
0.0
 11
302.5546682810337
 21
83.30158274691209
 31
0.0
 12
301.0
 22
82.00000000000015
 32
0.0
 13
301.0
 23
82.00000000000015
 33
0.0
  0
SOLID
  5
10B
330
2
100
AcDbEntity
  8
L-ZISSEN
100
AcDbTrace
 10
302.0484972127899
 20
109.2354436625487
 30
0.0
 11
302.5546682810335
 21
108.8015827469114
 31
0.0
 12
300.9999999999998
 22
107.4999999999995
 32
0.0
 13
300.9999999999998
 23
107.4999999999995
 33
0.0
  0
LINE
  5
10C
330
2
100
AcDbEntity
  8
L-ZISSEN
100
AcDbLine
 10
285.9999999999996
 20
116.5000000000004
 30
0.0
 11
253.9999999999996
 21
116.5000000000004
 31
0.0
  0
LINE
  5
10D
330
2
100
AcDbEntity
  8
L-ZISSEN
100
AcDbLine
 10
253.9999999999996
 20
115.0000000000003
 30
0.0
 11
285.9999999999996
 21
115.0000000000003
 31
0.0
  0
LINE
  5
10E
330
2
100
AcDbEntity
  8
L-TYUSIN
100
AcDbLine
 10
248.9999999999996
 20
139.0000000000002
 30
0.0
 11
290.9999999999996
 21
139.0000000000002
 31
0.0
  0
LINE
  5
10F
330
2
100
AcDbEntity
  8
L-ZISSEN
100
AcDbLine
 10
253.9999999999996
 20
164.5000000000004
 30
0.0
 11
285.9999999999996
 21
164.5000000000004
 31
0.0
  0
LINE
  5
110
330
2
100
AcDbEntity
  8
L-ZISSEN
100
AcDbLine
 10
285.9999999999996
 20
160.5000000000005
 30
0.0
 11
253.9999999999996
 21
160.5000000000005
 31
0.0
  0
LINE
  5
111
330
2
100
AcDbEntity
  8
L-ZISSEN
100
AcDbLine
 10
285.9999999999996
 20
168.5000000000005
 30
0.0
 11
279.4999999999996
 21
168.5000000000005
 31
0.0
  0
LINE
  5
112
330
2
100
AcDbEntity
  8
L-ZISSEN
100
AcDbLine
 10
247.9999999999996
 20
168.5000000000004
 30
0.0
 11
247.9999999999996
 21
115.0000000000002
 31
0.0
  0
LINE
  5
113
330
2
100
AcDbEntity
  8
L-ZISSEN
100
AcDbLine
 10
253.9999999999996
 20
168.5000000000005
 30
0.0
 11
253.9999999999996
 21
115.0000000000003
 31
0.0
  0
CIRCLE
  5
114
330
2
100
AcDbEntity
  8
L-ZISSEN
100
AcDbCircle
 10
269.9999999999996
 20
139.0000000000002
 30
0.0
 40
10.00000000000002
  0
LINE
  5
115
330
2
100
AcDbEntity
  8
L-ZISSEN
100
AcDbLine
 10
260.4999999999996
 20
168.5000000000005
 30
0.0
 11
253.9999999999996
 21
168.5000000000005
 31
0.0
  0
LINE
  5
116
330
2
100
AcDbEntity
  8
L-ZISSEN
100
AcDbLine
 10
260.4999999999996
 20
168.5000000000005
 30
0.0
 11
260.4999999999996
 21
164.5000000000005
 31
0.0
  0
LINE
  5
117
330
2
100
AcDbEntity
  8
L-ZISSEN
100
AcDbLine
 10
279.4999999999996
 20
168.5000000000005
 30
0.0
 11
279.4999999999996
 21
164.5000000000005
 31
0.0
  0
LINE
  5
118
330
2
100
AcDbEntity
  8
L-ZISSEN
100
AcDbLine
 10
285.9999999999996
 20
168.5000000000005
 30
0.0
 11
285.9999999999996
 21
115.0000000000003
 31
0.0
  0
TEXT
  5
119
330
2
100
AcDbEntity
  8
L-ZISSEN
100
AcDbText
 10
300.5103565353697
 20
123.7560864857798
 30
0.0
 40
4.5
  1
Rc1/8
100
AcDbText
  0
LINE
  5
11A
330
2
100
AcDbEntity
  8
L-ZISSEN
100
AcDbLine
 10
373.4999999999997
 20
148.8149505701102
 30
0.0
 11
373.4999999999998
 21
129.1850414176629
 31
0.0
  0
LINE
  5
11B
330
2
100
AcDbEntity
  8
L-ZISSEN
100
AcDbLine
 10
380.3999999999998
 20
160.4999999999997
 30
0.0
 11
380.3999999999995
 21
117.4999999999995
 31
0.0
  0
ARC
  5
11C
330
2
100
AcDbEntity
  8
L-ZISSEN
100
AcDbCircle
 10
373.4999999999997
 20
138.9999959938865
 30
0.0
 40
7.5
100
AcDbArc
 50
104.8351115819392
 51
255.1648884180607
  0
LINE
  5
11D
330
2
100
AcDbEntity
  8
L-ZISSEN
100
AcDbLine
 10
373.4999999999998
 20
129.1850414176629
 30
0.0
 11
380.3999999999996
 21
129.1850414176629
 31
0.0
  0
LINE
  5
11E
330
2
100
AcDbEntity
  8
L-ZISSEN
100
AcDbLine
 10
371.5797135630375
 20
131.7499959938865
 30
0.0
 11
373.4999999999997
 21
131.7499959938865
 31
0.0
  0
POINT
  5
11F
330
2
100
AcDbEntity
  8
DEFPOINTS
  6
BYBLOCK
 62
     0
100
AcDbPoint
 10
365.9999999999997
 20
138.9999959938865
 30
0.0
  0
LINE
  5
121
330
2
100
AcDbEntity
  8
L-ZISSEN
100
AcDbLine
 10
386.2999999999995
 20
160.4999999999997
 30
0.0
 11
380.3999999999998
 21
160.4999999999997
 31
0.0
  0
LINE
  5
122
330
2
100
AcDbEntity
  8
L-ZISSEN
100
AcDbLine
 10
373.4999999999997
 20
148.8149505701102
 30
0.0
 11
380.3999999999998
 21
148.8149505701102
 31
0.0
  0
LINE
  5
123
330
2
100
AcDbEntity
  8
L-ZISSEN
100
AcDbLine
 10
371.5797135630375
 20
146.2499959938865
 30
0.0
 11
373.4999999999997
 21
146.2499959938865
 31
0.0
  0
LINE
  5
124
330
2
100
AcDbEntity
  8
L-ZISSEN
100
AcDbLine
 10
386.2999999999995
 20
160.4999999999997
 30
0.0
 11
386.2999999999995
 21
168.4999999999997
 31
0.0
  0
LINE
  5
125
330
2
100
AcDbEntity
  8
L-ZISSEN
100
AcDbLine
 10
392.7999999999995
 20
164.4999999999997
 30
0.0
 11
392.7999999999995
 21
168.4999999999997
 31
0.0
  0
LINE
  5
126
330
2
100
AcDbEntity
  8
L-ZISSEN
100
AcDbLine
 10
386.2999999999995
 20
168.4999999999997
 30
0.0
 11
392.7999999999995
 21
168.4999999999997
 31
0.0
  0
LINE
  5
127
330
2
100
AcDbEntity
  8
L-ZISSEN
100
AcDbLine
 10
462.0
 20
99.99999999999966
 30
0.0
 11
462.0
 21
0.0
 31
0.0
  0
LINE
  5
128
330
2
100
AcDbEntity
  8
L-ZISSEN
100
AcDbLine
 10
427.0
 20
99.99999999999989
 30
0.0
 11
427.0
 21
0.0
 31
0.0
  0
LINE
  5
129
330
2
100
AcDbEntity
  8
L-ZISSEN
100
AcDbLine
 10
502.0
 20
104.9999999999984
 30
0.0
 11
502.0000000000002
 21
-0.0000000000015348
 31
0.0
  0
LINE
  5
12A
330
2
100
AcDbEntity
  8
L-ZISSEN
100
AcDbLine
 10
427.0
 20
0.0
 30
0.0
 11
502.0000000000002
 21
0.0
 31
0.0
  0
CIRCLE
  5
12B
330
2
100
AcDbEntity
  8
L-ZISSEN
100
AcDbCircle
 10
481.0
 20
17.0
 30
0.0
 40
12.06
  0
LINE
  5
12C
330
2
100
AcDbEntity
  8
L-TYUSIN
100
AcDbLine
 10
497.9
 20
17.00000000000011
 30
0.0
 11
464.1
 21
16.99999999999988
 31
0.0
  0
CIRCLE
  5
12D
330
2
100
AcDbEntity
  8
L-ZISSEN
100
AcDbCircle
 10
481.0
 20
17.0
 30
0.0
 40
7.349999999999999
  0
LINE
  5
12E
330
2
100
AcDbEntity
  8
L-TYUSIN
100
AcDbLine
 10
481.0
 20
33.89999999999997
 30
0.0
 11
481.0
 21
0.0999999999999659
 31
0.0
  0
POINT
  5
12F
330
2
100
AcDbEntity
  8
DEFPOINTS
  6
BYBLOCK
 62
     0
100
AcDbPoint
 10
502.0000000000002
 20
0.0
 30
0.0
  0
CIRCLE
  5
130
330
2
100
AcDbEntity
  8
L-ZISSEN
100
AcDbCircle
 10
481.0
 20
82.00000000000002
 30
0.0
 40
12.06
  0
LINE
  5
131
330
2
100
AcDbEntity
  8
L-TYUSIN
100
AcDbLine
 10
497.9
 20
82.00000000000015
 30
0.0
 11
464.1
 21
81.99999999999992
 31
0.0
  0
LINE
  5
132
330
2
100
AcDbEntity
  8
L-ZISSEN
100
AcDbLine
 10
462.0
 20
104.9999999999984
 30
0.0
 11
502.0
 21
104.9999999999984
 31
0.0
  0
LINE
  5
133
330
2
100
AcDbEntity
  8
L-ZISSEN
100
AcDbLine
 10
426.4999999999997
 20
99.99999999999989
 30
0.0
 11
426.4999999999997
 21
114.9999999999996
 31
0.0
  0
LINE
  5
134
330
2
100
AcDbEntity
  8
L-TYUSIN
100
AcDbLine
 10
453.9999999999995
 20
97.94276699053757
 30
0.0
 11
453.9999999999995
 21
117.057233009462
 31
0.0
  0
LINE
  5
135
330
2
100
AcDbEntity
  8
L-ZISSEN
100
AcDbLine
 10
462.0
 20
99.99999999999966
 30
0.0
 11
462.0
 21
114.9999999999994
 31
0.0
  0
CIRCLE
  5
136
330
2
100
AcDbEntity
  8
L-ZISSEN
100
AcDbCircle
 10
453.9999999999995
 20
107.4999999999998
 30
0.0
 40
4.313083414307939
  0
LINE
  5
137
330
2
100
AcDbEntity
  8
L-ZISSEN
100
AcDbLine
 10
426.4999999999997
 20
99.99999999999989
 30
0.0
 11
462.0
 21
99.99999999999966
 31
0.0
  0
LINE
  5
138
330
2
100
AcDbEntity
  8
L-TYUSIN
100
AcDbLine
 10
444.4427669905373
 20
107.4999999999998
 30
0.0
 11
463.5572330094618
 21
107.4999999999998
 31
0.0
  0
LINE
  5
139
330
2
100
AcDbEntity
  8
L-TYUSIN
100
AcDbLine
 10
481.0
 20
98.9
 30
0.0
 11
481.0
 21
65.10000000000002
 31
0.0
  0
LINE
  5
13A
330
2
100
AcDbEntity
  8
L-ZISSEN
100
AcDbLine
 10
432.5000000000004
 20
118.9999999999994
 30
0.0
 11
460.0
 21
118.9999999999994
 31
0.0
  0
LINE
  5
13B
330
2
100
AcDbEntity
  8
L-ZISSEN
100
AcDbLine
 10
462.0
 20
114.9999999999994
 30
0.0
 11
426.4999999999997
 21
114.9999999999996
 31
0.0
  0
LINE
  5
13C
330
2
100
AcDbEntity
  8
L-ZISSEN
100
AcDbLine
 10
445.5000000000005
 20
122.5999999999995
 30
0.0
 11
452.5000000000006
 21
122.5999999999995
 31
0.0
  0
LINE
  5
13D
330
2
100
AcDbEntity
  8
L-ZISSEN
100
AcDbLine
 10
428.5
 20
162.9999999999995
 30
0.0
 11
448.5
 21
162.9999999999995
 31
0.0
  0
LINE
  5
13E
330
2
100
AcDbEntity
  8
L-ZISSEN
100
AcDbLine
 10
432.4999999999995
 20
162.9999999999995
 30
0.0
 11
432.5
 21
114.9999999999996
 31
0.0
  0
LINE
  5
13F
330
2
100
AcDbEntity
  8
L-ZISSEN
100
AcDbLine
 10
425.7999999999997
 20
116.4999999999994
 30
0.0
 11
425.7999999999997
 21
161.4999999999994
 31
0.0
  0
LINE
  5
140
330
2
100
AcDbEntity
  8
L-ZISSEN
100
AcDbLine
 10
428.5
 20
162.9999999999995
 30
0.0
 11
428.5
 21
114.9999999999994
 31
0.0
  0
LINE
  5
141
330
2
100
AcDbEntity
  8
L-ZISSEN
100
AcDbLine
 10
425.7999999999997
 20
116.4999999999994
 30
0.0
 11
428.5
 21
116.4999999999994
 31
0.0
  0
LINE
  5
142
330
2
100
AcDbEntity
  8
L-ZISSEN
100
AcDbLine
 10
445.5000000000005
 20
122.5999999999995
 30
0.0
 11
445.5000000000005
 21
118.9999999999995
 31
0.0
  0
LINE
  5
143
330
2
100
AcDbEntity
  8
L-ZISSEN
100
AcDbLine
 10
425.7999999999997
 20
160.4999999999997
 30
0.0
 11
418.2999999999997
 21
160.4999999999997
 31
0.0
  0
LINE
  5
144
330
2
100
AcDbEntity
  8
L-ZISSEN
100
AcDbLine
 10
411.7999999999997
 20
168.4999999999997
 30
0.0
 11
418.2999999999997
 21
168.4999999999997
 31
0.0
  0
LINE
  5
145
330
2
100
AcDbEntity
  8
L-ZISSEN
100
AcDbLine
 10
411.7999999999997
 20
164.4999999999997
 30
0.0
 11
411.7999999999997
 21
168.4999999999997
 31
0.0
  0
LINE
  5
146
330
2
100
AcDbEntity
  8
L-ZISSEN
100
AcDbLine
 10
418.2999999999997
 20
160.4999999999997
 30
0.0
 11
418.2999999999997
 21
168.4999999999997
 31
0.0
  0
LINE
  5
147
330
2
100
AcDbEntity
  8
L-ZISSEN
100
AcDbLine
 10
425.7999999999997
 20
161.4999999999994
 30
0.0
 11
428.5
 21
161.4999999999994
 31
0.0
  0
LINE
  5
148
330
2
100
AcDbEntity
  8
L-ZISSEN
100
AcDbLine
 10
458.9999999999993
 20
118.9999999999995
 30
0.0
 11
459.0261769483072
 21
144.2374553167923
 31
0.0
  0
LINE
  5
149
330
2
100
AcDbEntity
  8
L-ZISSEN
100
AcDbLine
 10
452.5000000000006
 20
122.5999999999995
 30
0.0
 11
452.5000000000006
 21
118.9999999999995
 31
0.0
  0
LINE
  5
14A
330
2
100
AcDbEntity
  8
L-ZISSEN
100
AcDbLine
 10
453.4999999999995
 20
118.9999999999994
 30
0.0
 11
453.4999999999995
 21
114.9999999999994
 31
0.0
  0
LINE
  5
14B
330
2
100
AcDbEntity
  8
L-ZISSEN
100
AcDbLine
 10
460.0
 20
118.9999999999994
 30
0.0
 11
460.0
 21
114.9999999999994
 31
0.0
  0
LINE
  5
14C
330
2
100
AcDbEntity
  8
L-ZISSEN
100
AcDbLine
 10
449.5
 20
161.9999999999994
 30
0.0
 11
449.5
 21
144.4869070392149
 31
0.0
  0
LINE
  5
14D
330
2
100
AcDbEntity
  8
L-ZISSEN
100
AcDbLine
 10
449.5
 20
144.4869070392149
 30
0.0
 11
459.0261769483072
 21
144.2374553167923
 31
0.0
  0
ARC
  5
14E
330
2
100
AcDbEntity
  8
L-ZISSEN
100
AcDbCircle
 10
448.5
 20
161.9999999999994
 30
0.0
 40
1.0
100
AcDbArc
 50
0.000000000000007
 51
90.0
  0
LINE
  5
14F
330
2
100
AcDbEntity
  8
L-ZISSEN
100
AcDbLine
 10
388.5499999999993
 20
200.9999999999995
 30
0.0
 11
416.0499999999996
 21
200.9999999999995
 31
0.0
  0
CIRCLE
  5
150
330
2
100
AcDbEntity
  8
L-SOUZOU
100
AcDbCircle
 10
402.2999999999995
 20
190.0553499999995
 30
0.0
 40
10.94465
  0
LINE
  5
151
330
2
100
AcDbEntity
  8
L-TYUSIN
100
AcDbLine
 10
270.3500000000001
 20
330.2518582826255
 30
0.0
 11
270.3500000000001
 21
234.4518582826253
 31
0.0
  0
LINE
  5
152
330
2
100
AcDbEntity
  8
L-ZISSEN
100
AcDbLine
 10
254.0000000000002
 20
255.1518582826261
 30
0.0
 11
254.0000000000005
 21
302.0518582826261
 31
0.0
  0
LINE
  5
153
330
2
100
AcDbEntity
  8
L-ZISSEN
100
AcDbLine
 10
248.0000000000004
 20
254.151858282626
 30
0.0
 11
248.0000000000002
 21
302.0518582826261
 31
0.0
  0
LINE
  5
154
330
2
100
AcDbEntity
  8
L-ZISSEN
100
AcDbLine
 10
258.8000000000007
 20
305.3018582826259
 30
0.0
 11
258.8000000000004
 21
289.8018582826261
 31
0.0
  0
LINE
  5
155
330
2
100
AcDbEntity
  8
L-ZISSEN
100
AcDbLine
 10
286.0000000000002
 20
255.1518582826263
 30
0.0
 11
286.0000000000005
 21
302.0518582826257
 31
0.0
  0
LINE
  5
156
330
2
100
AcDbEntity
  8
L-ZISSEN
100
AcDbLine
 10
281.2000000000005
 20
305.3018582826259
 30
0.0
 11
281.2000000000003
 21
289.8018582826261
 31
0.0
  0
LINE
  5
157
330
2
100
AcDbEntity
  8
L-SOUZOU
100
AcDbLine
 10
260.5000000000019
 20
236.7518582826251
 30
0.0
 11
260.5000000000019
 21
242.0518582826251
 31
0.0
  0
LINE
  5
158
330
2
100
AcDbEntity
  8
L-SOUZOU
100
AcDbLine
 10
279.5000000000019
 20
236.7518582826251
 30
0.0
 11
279.5000000000019
 21
242.0518582826251
 31
0.0
  0
LINE
  5
159
330
2
100
AcDbEntity
  8
L-SOUZOU
100
AcDbLine
 10
298.9499999999996
 20
178.6499999999999
 30
0.0
 11
283.7499999999998
 21
178.65
 31
0.0
  0
LINE
  5
15A
330
2
100
AcDbEntity
  8
L-SOUZOU
100
AcDbLine
 10
283.7499999999996
 20
201.0000000000004
 30
0.0
 11
298.9499999999998
 21
201.0000000000001
 31
0.0
  0
LINE
  5
15B
330
2
100
AcDbEntity
  8
L-ZISSEN
100
AcDbLine
 10
256.2499999999996
 20
201.0000000000004
 30
0.0
 11
283.7499999999996
 21
201.0000000000004
 31
0.0
  0
CIRCLE
  5
15C
330
2
100
AcDbEntity
  8
L-SOUZOU
100
AcDbCircle
 10
269.9999999999996
 20
190.0553500000004
 30
0.0
 40
10.94465
  0
LINE
  5
15D
330
2
100
AcDbEntity
  8
L-SOUZOU
100
AcDbLine
 10
260.5000000000019
 20
236.7518582826251
 30
0.0
 11
279.5000000000019
 21
236.7518582826251
 31
0.0
  0
LINE
  5
15E
330
2
100
AcDbEntity
  8
L-SOUZOU
100
AcDbLine
 10
308.6999999999997
 20
179.0553448853971
 30
0.0
 11
303.6999999999995
 21
179.0553448853972
 31
0.0
  0
LINE
  5
15F
330
2
100
AcDbEntity
  8
L-SOUZOU
100
AcDbLine
 10
308.6999999999998
 20
200.9446551146027
 30
0.0
 11
303.6999999999998
 21
200.9446551146027
 31
0.0
  0
LINE
  5
160
330
2
100
AcDbEntity
  8
L-SOUZOU
100
AcDbLine
 10
303.6999999999998
 20
200.9446551146027
 30
0.0
 11
303.6999999999995
 21
179.0553448853972
 31
0.0
  0
LINE
  5
161
330
2
100
AcDbEntity
  8
L-SOUZOU
100
AcDbLine
 10
298.9499999999998
 20
201.0000000000001
 30
0.0
 11
298.9499999999996
 21
178.6499999999999
 31
0.0
  0
LINE
  5
162
330
2
100
AcDbEntity
  8
L-SOUZOU
100
AcDbLine
 10
303.6999999999997
 20
180.7000000000001
 30
0.0
 11
298.9499999999996
 21
180.7000000000001
 31
0.0
  0
LINE
  5
163
330
2
100
AcDbEntity
  8
L-SOUZOU
100
AcDbLine
 10
303.6999999999998
 20
198.9499999999998
 30
0.0
 11
298.9499999999998
 21
198.9499999999999
 31
0.0
  0
LINE
  5
164
330
2
100
AcDbEntity
  8
L-SOUZOU
100
AcDbLine
 10
308.6999999999998
 20
200.9446551146027
 30
0.0
 11
308.6999999999997
 21
179.0553448853971
 31
0.0
  0
ARC
  5
165
330
2
100
AcDbEntity
  8
L-ZISSEN
100
AcDbCircle
 10
285.0000000000002
 20
255.1518582826263
 30
0.0
 40
1.0
100
AcDbArc
 50
270.0
 51
359.9999999999998
  0
LINE
  5
166
330
2
100
AcDbEntity
  8
L-ZISSEN
100
AcDbLine
 10
286.0000000000004
 20
292.0518582826259
 30
0.0
 11
281.2000000000005
 21
292.0518582826259
 31
0.0
  0
LINE
  5
167
330
2
100
AcDbEntity
  8
L-ZISSEN
100
AcDbLine
 10
281.2000000000005
 20
299.5518582826257
 30
0.0
 11
286.0000000000005
 21
299.5518582826257
 31
0.0
  0
LINE
  5
168
330
2
100
AcDbEntity
  8
L-ZISSEN
100
AcDbLine
 10
256.2500000000005
 20
289.8018582826261
 30
0.0
 11
256.2500000000005
 21
262.3018582826261
 31
0.0
  0
LINE
  5
169
330
2
100
AcDbEntity
  8
L-ZISSEN
100
AcDbLine
 10
245.7500000000002
 20
289.8018582826261
 30
0.0
 11
245.7500000000002
 21
262.3018582826261
 31
0.0
  0
LINE
  5
16A
330
2
100
AcDbEntity
  8
L-ZISSEN
100
AcDbLine
 10
283.7500000000004
 20
289.8018582826261
 30
0.0
 11
283.7500000000005
 21
262.301858282626
 31
0.0
  0
ARC
  5
16B
330
2
100
AcDbEntity
  8
L-ZISSEN
100
AcDbCircle
 10
270.0000040061132
 20
247.2518582826257
 30
0.0
 40
7.5
100
AcDbArc
 50
194.8351115819392
 51
345.1648884180607
  0
LINE
  5
16C
330
2
100
AcDbEntity
  8
L-ZISSEN
100
AcDbLine
 10
255.0000000000002
 20
254.151858282626
 30
0.0
 11
285.0000000000002
 21
254.1518582826263
 31
0.0
  0
LINE
  5
16D
330
2
100
AcDbEntity
  8
L-ZISSEN
100
AcDbLine
 10
261.5000000000002
 20
247.2518582826257
 30
0.0
 11
278.5000040061134
 21
247.2518582826257
 31
0.0
  0
LINE
  5
16E
330
2
100
AcDbEntity
  8
L-ZISSEN
100
AcDbLine
 10
283.7500000000005
 20
262.301858282626
 30
0.0
 11
256.2500000000005
 21
262.3018582826261
 31
0.0
  0
LINE
  5
16F
330
2
100
AcDbEntity
  8
L-SOUZOU
100
AcDbLine
 10
258.8000000000017
 20
246.8018582826251
 30
0.0
 11
258.8000000000016
 21
254.151858282626
 31
0.0
  0
LINE
  5
170
330
2
100
AcDbEntity
  8
L-ZISSEN
100
AcDbLine
 10
261.5000000000002
 20
247.2518582826257
 30
0.0
 11
261.5000000000002
 21
254.1518582826263
 31
0.0
  0
LINE
  5
171
330
2
100
AcDbEntity
  8
L-SOUZOU
100
AcDbLine
 10
260.8500000000018
 20
242.0518582826251
 30
0.0
 11
260.8500000000018
 21
246.8018582826251
 31
0.0
  0
LINE
  5
172
330
2
100
AcDbEntity
  8
L-SOUZOU
100
AcDbLine
 10
260.5000000000019
 20
242.0518582826251
 30
0.0
 11
260.8500000000019
 21
242.0518582826251
 31
0.0
  0
LINE
  5
173
330
2
100
AcDbEntity
  8
L-SOUZOU
100
AcDbLine
 10
258.8000000000017
 20
246.8018582826251
 30
0.0
 11
260.8500000000018
 21
246.8018582826251
 31
0.0
  0
ARC
  5
174
330
2
100
AcDbEntity
  8
L-ZISSEN
100
AcDbCircle
 10
262.2500040061134
 20
246.7518582826258
 30
0.0
 40
0.5
100
AcDbArc
 50
359.9999999999999
 51
90.00000000000003
  0
LINE
  5
175
330
2
100
AcDbEntity
  8
L-ZISSEN
100
AcDbLine
 10
262.7500040061134
 20
245.3315718456635
 30
0.0
 11
262.7500040061134
 21
246.7518582826258
 31
0.0
  0
ARC
  5
176
330
2
100
AcDbEntity
  8
L-ZISSEN
100
AcDbCircle
 10
255.0000000000002
 20
255.1518582826263
 30
0.0
 40
1.0
100
AcDbArc
 50
179.9999999999998
 51
270.0
  0
LINE
  5
177
330
2
100
AcDbEntity
  8
L-ZISSEN
100
AcDbLine
 10
278.5000000000002
 20
247.2518582826257
 30
0.0
 11
278.5000000000002
 21
254.1518582826263
 31
0.0
  0
LINE
  5
178
330
2
100
AcDbEntity
  8
L-SOUZOU
100
AcDbLine
 10
281.2000000000018
 20
246.8018582826251
 30
0.0
 11
281.2000000000018
 21
254.1518582826263
 31
0.0
  0
LINE
  5
179
330
2
100
AcDbEntity
  8
L-SOUZOU
100
AcDbLine
 10
279.150000000002
 20
242.0518582826251
 30
0.0
 11
279.150000000002
 21
246.8018582826251
 31
0.0
  0
LINE
  5
17A
330
2
100
AcDbEntity
  8
L-SOUZOU
100
AcDbLine
 10
279.5000000000019
 20
242.0518582826251
 30
0.0
 11
279.150000000002
 21
242.0518582826251
 31
0.0
  0
LINE
  5
17B
330
2
100
AcDbEntity
  8
L-SOUZOU
100
AcDbLine
 10
279.150000000002
 20
246.8018582826251
 30
0.0
 11
281.2000000000018
 21
246.8018582826251
 31
0.0
  0
ARC
  5
17C
330
2
100
AcDbEntity
  8
L-ZISSEN
100
AcDbCircle
 10
277.7500040061132
 20
246.7518582826258
 30
0.0
 40
0.5
100
AcDbArc
 50
90.00000000000003
 51
180.0
  0
LINE
  5
17D
330
2
100
AcDbEntity
  8
L-ZISSEN
100
AcDbLine
 10
277.2500040061134
 20
245.3315718456635
 30
0.0
 11
277.2500040061134
 21
246.7518582826258
 31
0.0
  0
LINE
  5
17E
330
2
100
AcDbEntity
  8
L-ZISSEN
100
AcDbLine
 10
283.7500000000004
 20
289.8018582826261
 30
0.0
 11
256.2500000000005
 21
289.8018582826261
 31
0.0
  0
LINE
  5
17F
330
2
100
AcDbEntity
  8
L-ZISSEN
100
AcDbLine
 10
258.8000000000004
 20
292.0518582826259
 30
0.0
 11
254.0000000000004
 21
292.0518582826259
 31
0.0
  0
LINE
  5
180
330
2
100
AcDbEntity
  8
L-ZISSEN
100
AcDbLine
 10
254.0000000000005
 20
299.5518582826257
 30
0.0
 11
258.8000000000007
 21
299.5518582826257
 31
0.0
  0
CIRCLE
  5
181
330
2
100
AcDbEntity
  8
L-ZISSEN
100
AcDbCircle
 10
270.0000000000005
 20
276.0518582826259
 30
0.0
 40
3.25
  0
LINE
  5
182
330
2
100
AcDbEntity
  8
L-SOUZOU
100
AcDbLine
 10
299.2500000000014
 20
287.2518582826248
 30
0.0
 11
299.2500000000014
 21
264.8518582826247
 31
0.0
  0
LINE
  5
183
330
2
100
AcDbEntity
  8
L-SOUZOU
100
AcDbLine
 10
304.0000000000014
 20
285.5518582826245
 30
0.0
 11
304.0000000000014
 21
266.5518582826245
 31
0.0
  0
LINE
  5
184
330
2
100
AcDbEntity
  8
L-SOUZOU
100
AcDbLine
 10
309.0000000000014
 20
285.5518582826245
 30
0.0
 11
309.0000000000014
 21
266.5518582826245
 31
0.0
  0
LINE
  5
185
330
2
100
AcDbEntity
  8
L-SOUZOU
100
AcDbLine
 10
309.0000000000014
 20
266.5518582826245
 30
0.0
 11
304.0000000000014
 21
266.5518582826245
 31
0.0
  0
LINE
  5
186
330
2
100
AcDbEntity
  8
L-SOUZOU
100
AcDbLine
 10
299.2500000000014
 20
264.8518582826247
 30
0.0
 11
286.0000000000003
 21
264.8518582826247
 31
0.0
  0
LINE
  5
187
330
2
100
AcDbEntity
  8
L-SOUZOU
100
AcDbLine
 10
304.0000000000014
 20
266.9018582826245
 30
0.0
 11
299.2500000000014
 21
266.9018582826245
 31
0.0
  0
LINE
  5
188
330
2
100
AcDbEntity
  8
L-SOUZOU
100
AcDbLine
 10
309.0000000000014
 20
285.5518582826245
 30
0.0
 11
304.0000000000014
 21
285.5518582826245
 31
0.0
  0
LINE
  5
189
330
2
100
AcDbEntity
  8
L-SOUZOU
100
AcDbLine
 10
299.2500000000014
 20
287.2518582826248
 30
0.0
 11
286.0000000000005
 21
287.2518582826248
 31
0.0
  0
LINE
  5
18A
330
2
100
AcDbEntity
  8
L-SOUZOU
100
AcDbLine
 10
304.0000000000014
 20
285.2018582826246
 30
0.0
 11
299.2500000000014
 21
285.2018582826246
 31
0.0
  0
LINE
  5
18B
330
2
100
AcDbEntity
  8
L-SOUZOU
100
AcDbLine
 10
363.5999999999997
 20
178.8803448853967
 30
0.0
 11
368.5999999999998
 21
178.8803448853967
 31
0.0
  0
LINE
  5
18C
330
2
100
AcDbEntity
  8
L-SOUZOU
100
AcDbLine
 10
363.5999999999997
 20
200.7696551146023
 30
0.0
 11
368.5999999999998
 21
200.7696551146023
 31
0.0
  0
LINE
  5
18D
330
2
100
AcDbEntity
  8
L-SOUZOU
100
AcDbLine
 10
363.5999999999997
 20
200.7696551146023
 30
0.0
 11
363.5999999999997
 21
178.8803448853967
 31
0.0
  0
LINE
  5
18E
330
2
100
AcDbEntity
  8
L-SOUZOU
100
AcDbLine
 10
373.3499999999998
 20
178.6499999999994
 30
0.0
 11
388.5499999999996
 21
178.6499999999994
 31
0.0
  0
LINE
  5
18F
330
2
100
AcDbEntity
  8
L-SOUZOU
100
AcDbLine
 10
373.3499999999998
 20
200.9999999999995
 30
0.0
 11
388.5499999999993
 21
200.9999999999995
 31
0.0
  0
LINE
  5
190
330
2
100
AcDbEntity
  8
L-SOUZOU
100
AcDbLine
 10
368.5999999999998
 20
200.7696551146023
 30
0.0
 11
368.5999999999998
 21
178.8803448853967
 31
0.0
  0
LINE
  5
191
330
2
100
AcDbEntity
  8
L-SOUZOU
100
AcDbLine
 10
373.3499999999998
 20
200.9999999999995
 30
0.0
 11
373.3499999999998
 21
178.6499999999994
 31
0.0
  0
LINE
  5
192
330
2
100
AcDbEntity
  8
L-SOUZOU
100
AcDbLine
 10
368.5999999999998
 20
180.6999999999996
 30
0.0
 11
373.3499999999998
 21
180.6999999999996
 31
0.0
  0
LINE
  5
193
330
2
100
AcDbEntity
  8
L-SOUZOU
100
AcDbLine
 10
368.5999999999998
 20
198.9499999999993
 30
0.0
 11
373.3499999999998
 21
198.9499999999993
 31
0.0
  0
LINE
  5
194
330
2
100
AcDbEntity
  8
L-ZISSEN
100
AcDbLine
 10
301.0000000000001
 20
300.251858282625
 30
0.0
 11
300.9999999999996
 21
375.7518582826246
 31
0.0
  0
LINE
  5
195
330
2
100
AcDbEntity
  8
L-ZISSEN
100
AcDbLine
 10
286.0000000000005
 20
302.0518582826257
 30
0.0
 11
281.2000000000005
 21
302.0518582826257
 31
0.0
  0
LINE
  5
196
330
2
100
AcDbEntity
  8
L-ZISSEN
100
AcDbLine
 10
286.0000000000003
 20
306.2518582826256
 30
0.0
 11
279.1500000000005
 21
306.251858282626
 31
0.0
  0
LINE
  5
197
330
2
100
AcDbEntity
  8
L-TYUSIN
100
AcDbLine
 10
284.0999999999997
 20
354.7518582826244
 30
0.0
 11
317.8999999999997
 21
354.7518582826244
 31
0.0
  0
LINE
  5
198
330
2
100
AcDbEntity
  8
L-ZISSEN
100
AcDbLine
 10
275.5464913163876
 20
320.9764265391115
 30
0.0
 11
275.2374553167931
 21
333.7518582826251
 31
0.0
  0
LINE
  5
199
330
2
100
AcDbEntity
  8
L-ZISSEN
100
AcDbLine
 10
264.4535086836134
 20
320.9764265391115
 30
0.0
 11
264.7625446832074
 21
333.7518582826251
 31
0.0
  0
LINE
  5
19A
330
2
100
AcDbEntity
  8
L-ZISSEN
100
AcDbLine
 10
260.5000000000005
 20
314.7518582826261
 30
0.0
 11
279.5000000000005
 21
314.7518582826261
 31
0.0
  0
LINE
  5
19B
330
2
100
AcDbEntity
  8
L-ZISSEN
100
AcDbLine
 10
281.2000000000005
 20
305.3018582826259
 30
0.0
 11
258.8000000000007
 21
305.3018582826259
 31
0.0
  0
LINE
  5
19C
330
2
100
AcDbEntity
  8
L-ZISSEN
100
AcDbLine
 10
279.5000000000005
 20
310.0518582826262
 30
0.0
 11
260.5000000000005
 21
310.0518582826259
 31
0.0
  0
ARC
  5
19D
330
2
100
AcDbEntity
  8
L-ZISSEN
100
AcDbCircle
 10
265.8305357696988
 20
322.2518582826257
 30
0.0
 40
1.0
100
AcDbArc
 50
90.00000000000003
 51
165.0
  0
LINE
  5
19E
330
2
100
AcDbEntity
  8
L-ZISSEN
100
AcDbLine
 10
256.7527473980089
 20
306.2518582826257
 30
0.0
 11
256.9744995459466
 21
318.2518582826256
 31
0.0
  0
LINE
  5
19F
330
2
100
AcDbEntity
  8
L-ZISSEN
100
AcDbLine
 10
246.2363587616382
 20
306.2518582826257
 30
0.0
 11
246.0255004540541
 21
316.2518582826256
 31
0.0
  0
LINE
  5
1A0
330
2
100
AcDbEntity
  8
L-ZISSEN
100
AcDbLine
 10
246.5000000000004
 20
306.2518582826257
 30
0.0
 11
246.5000000000005
 21
327.2518582826252
 31
0.0
  0
LINE
  5
1A1
330
2
100
AcDbEntity
  8
L-ZISSEN
100
AcDbLine
 10
255.5000000000002
 20
306.2518582826257
 30
0.0
 11
255.5000000000002
 21
327.2518582826251
 31
0.0
  0
LINE
  5
1A2
330
2
100
AcDbEntity
  8
L-ZISSEN
100
AcDbLine
 10
263.0000000000003
 20
315.5518582826257
 30
0.0
 11
264.8646099434098
 21
322.5106773277282
 31
0.0
  0
LINE
  5
1A3
330
2
100
AcDbEntity
  8
L-ZISSEN
100
AcDbLine
 10
260.8500000000004
 20
306.2518582826255
 30
0.0
 11
254.0000000000002
 21
306.2518582826257
 31
0.0
  0
LINE
  5
1A4
330
2
100
AcDbEntity
  8
L-ZISSEN
100
AcDbLine
 10
258.8000000000006
 20
302.0518582826259
 30
0.0
 11
254.0000000000002
 21
302.0518582826261
 31
0.0
  0
LINE
  5
1A5
330
2
100
AcDbEntity
  8
L-ZISSEN
100
AcDbLine
 10
248.0000000000002
 20
300.2518582826251
 30
0.0
 11
254.0000000000005
 21
300.2518582826251
 31
0.0
  0
LINE
  5
1A6
330
2
100
AcDbEntity
  8
L-ZISSEN
100
AcDbLine
 10
248.0000000000004
 20
302.0518582826261
 30
0.0
 11
248.0000000000004
 21
306.2518582826257
 31
0.0
  0
LINE
  5
1A7
330
2
100
AcDbEntity
  8
L-ZISSEN
100
AcDbLine
 10
254.0000000000002
 20
302.0518582826261
 30
0.0
 11
254.0000000000002
 21
306.2518582826257
 31
0.0
  0
LINE
  5
1A8
330
2
100
AcDbEntity
  8
L-ZISSEN
100
AcDbLine
 10
260.8500000000004
 20
310.0518582826259
 30
0.0
 11
260.8500000000004
 21
305.3018582826259
 31
0.0
  0
LINE
  5
1A9
330
2
100
AcDbEntity
  8
L-ZISSEN
100
AcDbLine
 10
260.5000000000005
 20
314.7518582826261
 30
0.0
 11
260.5000000000005
 21
310.0518582826259
 31
0.0
  0
LINE
  5
1AA
330
2
100
AcDbEntity
  8
L-ZISSEN
100
AcDbLine
 10
262.9834033805585
 20
314.7518582826261
 30
0.0
 11
263.0000000000003
 21
315.5518582826257
 31
0.0
  0
LINE
  5
1AB
330
2
100
AcDbEntity
  8
L-ZISSEN
100
AcDbLine
 10
245.0523538966162
 20
316.2525436326745
 30
0.0
 11
245.025500454054
 21
318.2518582826255
 31
0.0
  0
CIRCLE
  5
1AC
330
2
100
AcDbEntity
  8
L-ZISSEN
100
AcDbCircle
 10
260.0000000000002
 20
322.7518582826253
 30
0.0
 40
2.25
  0
LINE
  5
1AD
330
2
100
AcDbEntity
  8
L-ZISSEN
100
AcDbLine
 10
256.9744995459466
 20
318.2518582826256
 30
0.0
 11
263.7234628195645
 21
318.2518582826257
 31
0.0
  0
LINE
  5
1AE
330
2
100
AcDbEntity
  8
L-ZISSEN
100
AcDbLine
 10
255.5000000000002
 20
327.2518582826251
 30
0.0
 11
264.6178366470615
 21
327.2518582826253
 31
0.0
  0
LINE
  5
1AF
330
2
100
AcDbEntity
  8
L-ZISSEN
100
AcDbLine
 10
277.0000000000002
 20
315.5518582826257
 30
0.0
 11
275.1353900565908
 21
322.5106773277282
 31
0.0
  0
ARC
  5
1B0
330
2
100
AcDbEntity
  8
L-ZISSEN
100
AcDbCircle
 10
270.0000000000002
 20
315.2518582826257
 30
0.0
 40
4.599999999999999
100
AcDbArc
 50
353.7496409967042
 51
186.2503590032953
  0
LINE
  5
1B1
330
2
100
AcDbEntity
  8
L-ZISSEN
100
AcDbLine
 10
284.2363587616385
 20
306.2518582826257
 30
0.0
 11
284.0255004540543
 21
316.2518582826256
 31
0.0
  0
LINE
  5
1B2
330
2
100
AcDbEntity
  8
L-ZISSEN
100
AcDbLine
 10
284.5000000000002
 20
306.2518582826256
 30
0.0
 11
284.5000000000002
 21
327.2518582826253
 31
0.0
  0
LINE
  5
1B3
330
2
100
AcDbEntity
  8
L-ZISSEN
100
AcDbLine
 10
279.1500000000005
 20
310.0518582826262
 30
0.0
 11
279.1500000000005
 21
305.3018582826259
 31
0.0
  0
LINE
  5
1B4
330
2
100
AcDbEntity
  8
L-ZISSEN
100
AcDbLine
 10
279.5000000000005
 20
314.7518582826261
 30
0.0
 11
279.5000000000005
 21
310.0518582826259
 31
0.0
  0
LINE
  5
1B5
330
2
100
AcDbEntity
  8
L-ZISSEN
100
AcDbLine
 10
277.0165966194422
 20
314.7518582826261
 30
0.0
 11
277.0000000000002
 21
315.5518582826257
 31
0.0
  0
ARC
  5
1B6
330
2
100
AcDbEntity
  8
L-ZISSEN
100
AcDbCircle
 10
274.1694642303016
 20
322.2518582826257
 30
0.0
 40
1.0
100
AcDbArc
 50
14.99999999999999
 51
89.99999999999982
  0
LINE
  5
1B7
330
2
100
AcDbEntity
  8
L-ZISSEN
100
AcDbLine
 10
274.1694642303016
 20
323.2518582826258
 30
0.0
 11
265.8305357696988
 21
323.2518582826258
 31
0.0
  0
CIRCLE
  5
1B8
330
2
100
AcDbEntity
  8
L-ZISSEN
100
AcDbCircle
 10
280.0000000000002
 20
322.7518582826253
 30
0.0
 40
2.25
  0
LINE
  5
1B9
330
2
100
AcDbEntity
  8
L-ZISSEN
100
AcDbLine
 10
276.8124355652988
 20
316.2518582826257
 30
0.0
 11
284.0255004540543
 21
316.2518582826256
 31
0.0
  0
LINE
  5
1BA
330
2
100
AcDbEntity
  8
L-ZISSEN
100
AcDbLine
 10
276.2765371804364
 20
318.2518582826255
 30
0.0
 11
283.0255004540543
 21
318.2518582826255
 31
0.0
  0
LINE
  5
1BB
330
2
100
AcDbEntity
  8
L-ZISSEN
100
AcDbLine
 10
283.0523538966165
 20
316.2525436326745
 30
0.0
 11
283.0255004540543
 21
318.2518582826255
 31
0.0
  0
LINE
  5
1BC
330
2
100
AcDbEntity
  8
L-ZISSEN
100
AcDbLine
 10
284.5000000000002
 20
327.2518582826253
 30
0.0
 11
275.382163352939
 21
327.2518582826253
 31
0.0
  0
LINE
  5
1BD
330
2
100
AcDbEntity
  8
L-ZISSEN
100
AcDbLine
 10
264.7625446832074
 20
333.7518582826251
 30
0.0
 11
275.2374553167931
 21
333.7518582826251
 31
0.0
  0
LINE
  5
1BE
330
2
100
AcDbEntity
  8
L-ZISSEN
100
AcDbLine
 10
286.0000000000005
 20
300.2518582826251
 30
0.0
 11
301.0000000000002
 21
300.2518582826248
 31
0.0
  0
CIRCLE
  5
1BF
330
2
100
AcDbEntity
  8
L-ZISSEN
100
AcDbCircle
 10
296.0000000000002
 20
307.2518582826251
 30
0.0
 40
3.2
  0
LINE
  5
1C0
330
2
100
AcDbEntity
  8
L-ZISSEN
100
AcDbLine
 10
286.0000000000005
 20
302.0518582826257
 30
0.0
 11
286.0000000000003
 21
306.2518582826256
 31
0.0
  0
LINE
  5
1C1
330
2
100
AcDbEntity
  8
L-TYUSIN
100
AcDbLine
 10
453.2499999999995
 20
189.8249999999995
 30
0.0
 11
409.2499999999993
 21
189.8249999999995
 31
0.0
  0
LINE
  5
1C2
330
2
100
AcDbEntity
  8
L-ZISSEN
100
AcDbLine
 10
431.2499999999994
 20
178.6499999999994
 30
0.0
 11
416.0499999999996
 21
178.6499999999994
 31
0.0
  0
LINE
  5
1C3
330
2
100
AcDbEntity
  8
L-ZISSEN
100
AcDbLine
 10
431.2499999999994
 20
200.9999999999995
 30
0.0
 11
416.0499999999996
 21
200.9999999999995
 31
0.0
  0
LINE
  5
1C4
330
2
100
AcDbEntity
  8
L-ZISSEN
100
AcDbLine
 10
431.2499999999994
 20
200.9999999999995
 30
0.0
 11
431.2499999999994
 21
178.6499999999994
 31
0.0
  0
LINE
  5
1C5
330
2
100
AcDbEntity
  8
L-ZISSEN
100
AcDbLine
 10
435.9999999999994
 20
200.7696551146023
 30
0.0
 11
435.9999999999994
 21
178.8803448853967
 31
0.0
  0
LINE
  5
1C6
330
2
100
AcDbEntity
  8
L-ZISSEN
100
AcDbLine
 10
440.9999999999994
 20
200.7696551146023
 30
0.0
 11
440.9999999999994
 21
178.8803448853967
 31
0.0
  0
LINE
  5
1C7
330
2
100
AcDbEntity
  8
L-ZISSEN
100
AcDbLine
 10
435.9999999999994
 20
180.6999999999996
 30
0.0
 11
431.2499999999994
 21
180.6999999999996
 31
0.0
  0
LINE
  5
1C8
330
2
100
AcDbEntity
  8
L-ZISSEN
100
AcDbLine
 10
440.9999999999994
 20
178.8803448853967
 30
0.0
 11
435.9999999999994
 21
178.8803448853967
 31
0.0
  0
LINE
  5
1C9
330
2
100
AcDbEntity
  8
L-ZISSEN
100
AcDbLine
 10
435.9999999999994
 20
198.9499999999993
 30
0.0
 11
431.2499999999994
 21
198.9499999999993
 31
0.0
  0
LINE
  5
1CA
330
2
100
AcDbEntity
  8
L-ZISSEN
100
AcDbLine
 10
440.9999999999994
 20
200.7696551146023
 30
0.0
 11
435.9999999999994
 21
200.7696551146023
 31
0.0
  0
ENDSEC
  0
SECTION
  2
OBJECTS
  0
DICTIONARY
  5
9
330
0
100
AcDbDictionary
  3
ACAD_GROUP
350
23
  3
ACAD_LAYOUT
350
E
  3
ACAD_MLINESTYLE
350
24
  3
ACAD_PLOTSETTINGS
350
25
1001
ACAD
1000
TREAT_AS_HARD
1070
     0
  0
DICTIONARY
  5
3
330
2
100
AcDbDictionary
  3
ACAD_LAYOUTSELFREF
350
1F9
1001
ACAD
1000
TREAT_AS_HARD
1070
     1
  0
DICTIONARY
  5
10
330
F
100
AcDbDictionary
  3
ACAD_LAYOUTSELFREF
350
1FA
1001
ACAD
1000
TREAT_AS_HARD
1070
     1
  0
DICTIONARY
  5
23
102
{ACAD_REACTORS
330
9
102
}
330
9
100
AcDbDictionary
1001
ACAD
1000
TREAT_AS_HARD
1070
     0
  0
DICTIONARY
  5
E
102
{ACAD_REACTORS
330
9
102
}
330
9
100
AcDbDictionary
1001
ACAD
1000
TREAT_AS_HARD
1070
     0
  0
DICTIONARY
  5
24
102
{ACAD_REACTORS
330
9
102
}
330
9
100
AcDbDictionary
  3
STANDARD
350
28
1001
ACAD
1000
TREAT_AS_HARD
1070
     0
  0
DICTIONARY
  5
25
102
{ACAD_REACTORS
330
9
102
}
330
9
100
AcDbDictionary
1001
ACAD
1000
TREAT_AS_HARD
1070
     0
  0
XRECORD
  5
1F9
102
{ACAD_REACTORS
330
3
102
}
330
3
100
AcDbXrecord
340
2
  0
XRECORD
  5
1FA
102
{ACAD_REACTORS
330
10
102
}
330
10
100
AcDbXrecord
340
F
  0
MLINESTYLE
  5
28
102
{ACAD_REACTORS
330
24
102
}
330
24
100
AcDbMlineStyle
  2
STANDARD
 70
     0
  3

 62
     0
 51
90.0
 52
90.0
 71
     2
 49
0.5
 62
   256
  6
BYLAYER
 49
-0.5
 62
   256
  6
BYLAYER
  0
ENDSEC
  0
EOF
