  0
SECTION
  2
HEADER
  9
$ACADVER
  1
AC1006
  9
$INSBASE
 10
0.0
 20
0.0
 30
0.0
  9
$EXTMIN
 10
40.0
 20
10.0
  9
$EXTMAX
 10
508.0
 20
239.5
  9
$LIMMIN
 10
0.0
 20
0.0
  9
$LIMMAX
 10
594.0
 20
420.0
  9
$ORTHOMODE
 70
     0
  9
$REGENMODE
 70
     1
  9
$FILLMODE
 70
     1
  9
$QTEXTMODE
 70
     0
  9
$MIRRTEXT
 70
     1
  9
$DRAGMODE
 70
     2
  9
$LTSCALE
 40
1.0
  9
$OSMODE
 70
     0
  9
$ATTMODE
 70
     1
  9
$TEXTSIZE
 40
4.5
  9
$TRACEWID
 40
0.05
  9
$TEXTSTYLE
  7
STANDARD
  9
$CLAYER
  8
L-ZISSEN
  9
$CELTYPE
  6
BYLAYER
  9
$CECOLOR
 62
   256
  9
$DIMSCALE
 40
1.0
  9
$DIMASZ
 40
2.0
  9
$DIMEXO
 40
1.0
  9
$DIMDLI
 40
0.38
  9
$DIMRND
 40
0.0
  9
$DIMDLE
 40
1.0
  9
$DIMEXE
 40
1.0
  9
$DIMTP
 40
0.0
  9
$DIMTM
 40
0.0
  9
$DIMTXT
 40
4.5
  9
$DIMCEN
 40
0.09
  9
$DIMTSZ
 40
0.0
  9
$DIMTOL
 70
     0
  9
$DIMLIM
 70
     0
  9
$DIMTIH
 70
     0
  9
$DIMTOH
 70
     0
  9
$DIMSE1
 70
     0
  9
$DIMSE2
 70
     0
  9
$DIMTAD
 70
     1
  9
$DIMZIN
 70
     0
  9
$DIMBLK
  1

  9
$DIMASO
 70
     0
  9
$DIMSHO
 70
     0
  9
$DIMPOST
  1

  9
$DIMAPOST
  1

  9
$DIMALT
 70
     0
  9
$DIMALTD
 70
     2
  9
$DIMALTF
 40
25.4
  9
$DIMLFAC
 40
1.0
  9
$DIMTOFL
 70
     1
  9
$DIMTVP
 40
0.0
  9
$DIMTIX
 70
     1
  9
$DIMSOXD
 70
     0
  9
$DIMSAH
 70
     0
  9
$DIMBLK1
  1

  9
$DIMBLK2
  1

  9
$LUNITS
 70
     2
  9
$LUPREC
 70
     4
  9
$AXISMODE
 70
     0
  9
$AXISUNIT
 10
0.0
 20
0.0
  9
$SKETCHINC
 40
0.1
  9
$FILLETRAD
 40
0.0
  9
$AUNITS
 70
     0
  9
$AUPREC
 70
     0
  9
$MENU
  1
acad
  9
$ELEVATION
 40
0.0
  9
$THICKNESS
 40
0.0
  9
$LIMCHECK
 70
     0
  9
$BLIPMODE
 70
     1
  9
$CHAMFERA
 40
5.0
  9
$CHAMFERB
 40
5.0
  9
$SKPOLY
 70
     0
  9
$TDCREATE
 40
2449574.6105755786
  9
$TDUPDATE
 40
2449647.5713935187
  9
$TDINDWG
 40
0.0053189815
  9
$TDUSRTIMER
 40
0.0053189815
  9
$USRTIMER
 70
     1
  9
$ANGBASE
 50
0.0
  9
$ANGDIR
 70
     0
  9
$PDMODE
 70
     0
  9
$PDSIZE
 40
0.0
  9
$PLINEWID
 40
0.0
  9
$COORDS
 70
     2
  9
$SPLFRAME
 70
     0
  9
$SPLINETYPE
 70
     6
  9
$SPLINESEGS
 70
     8
  9
$ATTDIA
 70
     0
  9
$ATTREQ
 70
     1
  9
$HANDLING
 70
     0
  9
$HANDSEED
  5
0
  9
$SURFTAB1
 70
     6
  9
$SURFTAB2
 70
     6
  9
$SURFTYPE
 70
     6
  9
$SURFU
 70
     6
  9
$SURFV
 70
     6
  9
$FLATLAND
 70
     0
  9
$UCSNAME
  2

  9
$UCSORG
 10
0.0
 20
0.0
 30
0.0
  9
$UCSXDIR
 10
1.0
 20
0.0
 30
0.0
  9
$UCSYDIR
 10
0.0
 20
1.0
 30
0.0
  9
$USERI1
 70
     0
  9
$USERI2
 70
     0
  9
$USERI3
 70
     0
  9
$USERI4
 70
     0
  9
$USERI5
 70
     0
  9
$USERR1
 40
0.0
  9
$USERR2
 40
0.0
  9
$USERR3
 40
0.0
  9
$USERR4
 40
0.0
  9
$USERR5
 40
0.0
  9
$WORLDVIEW
 70
     1
  0
ENDSEC
  0
SECTION
  2
TABLES
  0
TABLE
  2
VPORT
 70
     2
  0
VPORT
  2
*ACTIVE
 70
     0
 10
0.0
 20
0.0
 11
1.0
 21
1.0
 12
236.170489
 22
152.511289
 13
0.0
 23
0.0
 14
5.0
 24
5.0
 15
0.0
 25
0.0
 16
0.0
 26
0.0
 36
1.0
 17
0.0
 27
0.0
 37
0.0
 40
373.496632
 41
1.5487
 42
50.0
 43
0.0
 44
0.0
 50
0.0
 51
0.0
 71
     0
 72
   100
 73
     1
 74
     0
 75
     0
 76
     0
 77
     0
 78
     0
  0
ENDTAB
  0
TABLE
  2
LTYPE
 70
     2
  0
LTYPE
  2
CONTINUOUS
 70
    64
  3
Solid line
 72
    65
 73
     0
 40
0.0
  0
LTYPE
  2
CENTER
 70
    64
  3
____ _ ____ _ ____ _ ____ _ 
 72
    65
 73
     4
 40
60.0
 49
45.0
 49
-5.0
 49
5.0
 49
-5.0
  0
ENDTAB
  0
TABLE
  2
LAYER
 70
     3
  0
LAYER
  2
0
 70
     0
 62
     7
  6
CONTINUOUS
  0
LAYER
  2
L-ZISSEN
 70
    64
 62
     7
  6
CONTINUOUS
  0
LAYER
  2
L-TYUSIN
 70
    64
 62
     1
  6
CENTER
  0
ENDTAB
  0
TABLE
  2
STYLE
 70
     1
  0
STYLE
  2
STANDARD
 70
    64
 40
0.0
 41
1.0
 50
0.0
 71
     0
 42
4.5
  3
TXT
  4

  0
ENDTAB
  0
TABLE
  2
VIEW
 70
     0
  0
ENDTAB
  0
TABLE
  2
UCS
 70
     0
  0
ENDTAB
  0
TABLE
  2
DWGMGR
 70
     0
  0
ENDTAB
  0
ENDSEC
  0
SECTION
  2
BLOCKS
  0
ENDSEC
  0
SECTION
  2
ENTITIES
  0
LINE
  8
L-TYUSIN
 10
160.0
 20
154.7
 30
0.0
 11
160.0
 21
36.7
 31
0.0
  0
LINE
  8
L-ZISSEN
 10
184.0
 20
66.0
 30
0.0
 11
136.0
 21
66.0
 31
0.0
  0
LINE
  8
L-ZISSEN
 10
184.0
 20
114.0
 30
0.0
 11
184.0
 21
66.0
 31
0.0
  0
LINE
  8
L-ZISSEN
 10
136.0
 20
114.0
 30
0.0
 11
136.0
 21
66.0
 31
0.0
  0
LINE
  8
L-ZISSEN
 10
240.0
 20
117.7
 30
0.0
 11
240.0
 21
66.0
 31
0.0
  0
LINE
  8
L-ZISSEN
 10
280.0
 20
117.7
 30
0.0
 11
280.0
 21
66.0
 31
0.0
  0
LINE
  8
L-ZISSEN
 10
280.0
 20
66.0
 30
0.0
 11
240.0
 21
66.0
 31
0.0
  0
LINE
  8
L-TYUSIN
 10
260.0
 20
154.7
 30
0.0
 11
260.0
 21
36.7
 31
0.0
  0
LINE
  8
L-ZISSEN
 10
240.0
 20
117.7
 30
0.0
 11
280.0
 21
117.7
 31
0.0
  0
LINE
  8
L-TYUSIN
 10
131.0
 20
190.0
 30
0.0
 11
189.0
 21
190.0
 31
0.0
  0
LINE
  8
L-TYUSIN
 10
160.0
 20
215.0
 30
0.0
 11
160.0
 21
165.0
 31
0.0
  0
LINE
  8
L-ZISSEN
 10
136.0
 20
117.7
 30
0.0
 11
184.0
 21
117.7
 31
0.0
  0
TEXT
  8
L-ZISSEN
 10
40.0
 20
235.0
 30
0.0
 40
4.5
  1
MODEL NO. : POV-3002G
  0
LINE
  8
L-ZISSEN
 10
142.0
 20
149.7
 30
0.0
 11
178.0
 21
149.7
 31
0.0
  0
LINE
  8
L-ZISSEN
 10
136.5
 20
129.7
 30
0.0
 11
183.5
 21
129.7
 31
0.0
  0
LINE
  8
L-ZISSEN
 10
142.0
 20
149.7
 30
0.0
 11
142.0
 21
133.3
 31
0.0
  0
LINE
  8
L-ZISSEN
 10
178.0
 20
149.7
 30
0.0
 11
178.0
 21
133.3
 31
0.0
  0
LINE
  8
L-ZISSEN
 10
136.5
 20
117.7
 30
0.0
 11
136.5
 21
129.7
 31
0.0
  0
LINE
  8
L-ZISSEN
 10
183.5
 20
117.7
 30
0.0
 11
183.5
 21
129.7
 31
0.0
  0
LINE
  8
L-ZISSEN
 10
241.5
 20
129.7
 30
0.0
 11
278.5
 21
129.7
 31
0.0
  0
LINE
  8
L-ZISSEN
 10
278.0
 20
149.7
 30
0.0
 11
278.0
 21
129.7
 31
0.0
  0
LINE
  8
L-ZISSEN
 10
242.0
 20
149.7
 30
0.0
 11
242.0
 21
129.7
 31
0.0
  0
LINE
  8
L-ZISSEN
 10
242.0
 20
149.7
 30
0.0
 11
278.0
 21
149.7
 31
0.0
  0
LINE
  8
L-ZISSEN
 10
136.0
 20
170.0
 30
0.0
 11
184.0
 21
170.0
 31
0.0
  0
LINE
  8
L-ZISSEN
 10
136.0
 20
210.0
 30
0.0
 11
184.0
 21
210.0
 31
0.0
  0
LINE
  8
L-ZISSEN
 10
184.0
 20
210.0
 30
0.0
 11
184.0
 21
170.0
 31
0.0
  0
LINE
  8
L-ZISSEN
 10
136.0
 20
210.0
 30
0.0
 11
136.0
 21
170.0
 31
0.0
  0
CIRCLE
  8
L-ZISSEN
 10
160.0
 20
190.0
 30
0.0
 40
18.0
  0
LINE
  8
L-ZISSEN
 10
241.5
 20
129.7
 30
0.0
 11
241.5
 21
117.7
 31
0.0
  0
LINE
  8
L-ZISSEN
 10
278.5
 20
129.7
 30
0.0
 11
278.5
 21
117.7
 31
0.0
  0
LINE
  8
L-ZISSEN
 10
136.5
 20
208.5
 30
0.0
 11
183.5
 21
208.5
 31
0.0
  0
LINE
  8
L-ZISSEN
 10
136.5
 20
171.5
 30
0.0
 11
183.5
 21
171.5
 31
0.0
  0
LINE
  8
L-ZISSEN
 10
183.5
 20
171.5
 30
0.0
 11
183.5
 21
208.5
 31
0.0
  0
LINE
  8
L-ZISSEN
 10
136.5
 20
171.5
 30
0.0
 11
136.5
 21
208.5
 31
0.0
  0
CIRCLE
  8
L-ZISSEN
 10
160.0
 20
190.0
 30
0.0
 40
4.283
  0
CIRCLE
  8
L-ZISSEN
 10
179.0
 20
176.0
 30
0.0
 40
3.8
  0
CIRCLE
  8
L-ZISSEN
 10
179.0
 20
204.0
 30
0.0
 40
3.8
  0
CIRCLE
  8
L-ZISSEN
 10
141.0
 20
204.0
 30
0.0
 40
3.8
  0
CIRCLE
  8
L-ZISSEN
 10
141.0
 20
176.0
 30
0.0
 40
3.8
  0
LINE
  8
L-ZISSEN
 10
137.2
 20
133.3
 30
0.0
 11
137.2
 21
129.7
 31
0.0
  0
LINE
  8
L-ZISSEN
 10
144.8
 20
133.3
 30
0.0
 11
144.8
 21
129.7
 31
0.0
  0
LINE
  8
L-ZISSEN
 10
137.2
 20
133.3
 30
0.0
 11
144.8
 21
133.3
 31
0.0
  0
LINE
  8
L-ZISSEN
 10
182.8
 20
133.3
 30
0.0
 11
175.2
 21
133.3
 31
0.0
  0
LINE
  8
L-ZISSEN
 10
182.8
 20
133.3
 30
0.0
 11
182.8
 21
129.7
 31
0.0
  0
LINE
  8
L-ZISSEN
 10
175.2
 20
133.3
 30
0.0
 11
175.2
 21
129.7
 31
0.0
  0
LINE
  8
L-ZISSEN
 10
249.8
 20
133.3
 30
0.0
 11
242.2
 21
133.3
 31
0.0
  0
LINE
  8
L-ZISSEN
 10
242.2
 20
133.3
 30
0.0
 11
242.2
 21
129.7
 31
0.0
  0
LINE
  8
L-ZISSEN
 10
249.8
 20
133.3
 30
0.0
 11
249.8
 21
129.7
 31
0.0
  0
LINE
  8
L-ZISSEN
 10
270.2
 20
133.3
 30
0.0
 11
270.2
 21
129.7
 31
0.0
  0
LINE
  8
L-ZISSEN
 10
277.8
 20
133.3
 30
0.0
 11
277.8
 21
129.7
 31
0.0
  0
LINE
  8
L-ZISSEN
 10
270.2
 20
133.3
 30
0.0
 11
277.8
 21
133.3
 31
0.0
  0
LINE
  8
L-ZISSEN
 10
178.0
 20
41.7
 30
0.0
 11
142.0
 21
41.7
 31
0.0
  0
LINE
  8
L-ZISSEN
 10
183.5
 20
59.7
 30
0.0
 11
136.5
 21
59.7
 31
0.0
  0
LINE
  8
L-ZISSEN
 10
136.5
 20
59.7
 30
0.0
 11
136.5
 21
66.0
 31
0.0
  0
LINE
  8
L-ZISSEN
 10
183.5
 20
59.7
 30
0.0
 11
183.5
 21
66.0
 31
0.0
  0
LINE
  8
L-ZISSEN
 10
142.0
 20
41.7
 30
0.0
 11
142.0
 21
56.1
 31
0.0
  0
LINE
  8
L-ZISSEN
 10
178.0
 20
41.7
 30
0.0
 11
178.0
 21
56.1
 31
0.0
  0
LINE
  8
L-ZISSEN
 10
278.0
 20
41.7
 30
0.0
 11
278.0
 21
59.7
 31
0.0
  0
LINE
  8
L-ZISSEN
 10
242.0
 20
41.7
 30
0.0
 11
242.0
 21
59.7
 31
0.0
  0
LINE
  8
L-ZISSEN
 10
278.5
 20
59.7
 30
0.0
 11
241.5
 21
59.7
 31
0.0
  0
LINE
  8
L-ZISSEN
 10
278.0
 20
41.7
 30
0.0
 11
242.0
 21
41.7
 31
0.0
  0
LINE
  8
L-ZISSEN
 10
241.5
 20
59.7
 30
0.0
 11
241.5
 21
66.0
 31
0.0
  0
LINE
  8
L-ZISSEN
 10
278.5
 20
59.7
 30
0.0
 11
278.5
 21
66.0
 31
0.0
  0
LINE
  8
L-ZISSEN
 10
137.2
 20
56.1
 30
0.0
 11
144.8
 21
56.1
 31
0.0
  0
LINE
  8
L-ZISSEN
 10
144.8
 20
56.1
 30
0.0
 11
144.8
 21
59.7
 31
0.0
  0
LINE
  8
L-ZISSEN
 10
137.2
 20
56.1
 30
0.0
 11
137.2
 21
59.7
 31
0.0
  0
LINE
  8
L-ZISSEN
 10
175.2
 20
56.1
 30
0.0
 11
175.2
 21
59.7
 31
0.0
  0
LINE
  8
L-ZISSEN
 10
182.8
 20
56.1
 30
0.0
 11
182.8
 21
59.7
 31
0.0
  0
LINE
  8
L-ZISSEN
 10
182.8
 20
56.1
 30
0.0
 11
175.2
 21
56.1
 31
0.0
  0
LINE
  8
L-ZISSEN
 10
249.8
 20
56.1
 30
0.0
 11
249.8
 21
59.7
 31
0.0
  0
LINE
  8
L-ZISSEN
 10
242.2
 20
56.1
 30
0.0
 11
242.2
 21
59.7
 31
0.0
  0
LINE
  8
L-ZISSEN
 10
249.8
 20
56.1
 30
0.0
 11
242.2
 21
56.1
 31
0.0
  0
LINE
  8
L-ZISSEN
 10
270.2
 20
56.1
 30
0.0
 11
277.8
 21
56.1
 31
0.0
  0
LINE
  8
L-ZISSEN
 10
277.8
 20
56.1
 30
0.0
 11
277.8
 21
59.7
 31
0.0
  0
LINE
  8
L-ZISSEN
 10
270.2
 20
56.1
 30
0.0
 11
270.2
 21
59.7
 31
0.0
  0
LINE
  8
L-ZISSEN
 10
70.2
 20
56.1
 30
0.0
 11
70.2
 21
59.7
 31
0.0
  0
LINE
  8
L-ZISSEN
 10
77.8
 20
56.1
 30
0.0
 11
77.8
 21
59.7
 31
0.0
  0
LINE
  8
L-ZISSEN
 10
70.2
 20
56.1
 30
0.0
 11
77.8
 21
56.1
 31
0.0
  0
LINE
  8
L-ZISSEN
 10
49.8
 20
56.1
 30
0.0
 11
42.2
 21
56.1
 31
0.0
  0
LINE
  8
L-ZISSEN
 10
42.2
 20
56.1
 30
0.0
 11
42.2
 21
59.7
 31
0.0
  0
LINE
  8
L-ZISSEN
 10
49.8
 20
56.1
 30
0.0
 11
49.8
 21
59.7
 31
0.0
  0
LINE
  8
L-ZISSEN
 10
78.5
 20
59.7
 30
0.0
 11
78.5
 21
66.0
 31
0.0
  0
LINE
  8
L-ZISSEN
 10
41.5
 20
59.7
 30
0.0
 11
41.5
 21
66.0
 31
0.0
  0
LINE
  8
L-ZISSEN
 10
78.0
 20
41.7
 30
0.0
 11
42.0
 21
41.7
 31
0.0
  0
LINE
  8
L-ZISSEN
 10
78.5
 20
59.7
 30
0.0
 11
41.5
 21
59.7
 31
0.0
  0
LINE
  8
L-ZISSEN
 10
42.0
 20
41.7
 30
0.0
 11
42.0
 21
59.7
 31
0.0
  0
LINE
  8
L-ZISSEN
 10
78.0
 20
41.7
 30
0.0
 11
78.0
 21
59.7
 31
0.0
  0
LINE
  8
L-ZISSEN
 10
80.0
 20
66.0
 30
0.0
 11
40.0
 21
66.0
 31
0.0
  0
LINE
  8
L-ZISSEN
 10
80.0
 20
117.7
 30
0.0
 11
80.0
 21
66.0
 31
0.0
  0
LINE
  8
L-ZISSEN
 10
40.0
 20
117.7
 30
0.0
 11
40.0
 21
66.0
 31
0.0
  0
LINE
  8
L-ZISSEN
 10
70.2
 20
133.3
 30
0.0
 11
77.8
 21
133.3
 31
0.0
  0
LINE
  8
L-ZISSEN
 10
77.8
 20
133.3
 30
0.0
 11
77.8
 21
129.7
 31
0.0
  0
LINE
  8
L-ZISSEN
 10
70.2
 20
133.3
 30
0.0
 11
70.2
 21
129.7
 31
0.0
  0
LINE
  8
L-ZISSEN
 10
49.8
 20
133.3
 30
0.0
 11
49.8
 21
129.7
 31
0.0
  0
LINE
  8
L-ZISSEN
 10
42.2
 20
133.3
 30
0.0
 11
42.2
 21
129.7
 31
0.0
  0
LINE
  8
L-ZISSEN
 10
49.8
 20
133.3
 30
0.0
 11
42.2
 21
133.3
 31
0.0
  0
LINE
  8
L-ZISSEN
 10
78.5
 20
129.7
 30
0.0
 11
78.5
 21
117.7
 31
0.0
  0
LINE
  8
L-ZISSEN
 10
41.5
 20
129.7
 30
0.0
 11
41.5
 21
117.7
 31
0.0
  0
LINE
  8
L-ZISSEN
 10
42.0
 20
149.7
 30
0.0
 11
78.0
 21
149.7
 31
0.0
  0
LINE
  8
L-ZISSEN
 10
42.0
 20
149.7
 30
0.0
 11
42.0
 21
129.7
 31
0.0
  0
LINE
  8
L-ZISSEN
 10
78.0
 20
149.7
 30
0.0
 11
78.0
 21
129.7
 31
0.0
  0
LINE
  8
L-ZISSEN
 10
41.5
 20
129.7
 30
0.0
 11
78.5
 21
129.7
 31
0.0
  0
LINE
  8
L-ZISSEN
 10
40.0
 20
117.7
 30
0.0
 11
80.0
 21
117.7
 31
0.0
  0
LINE
  8
L-TYUSIN
 10
60.0
 20
154.7
 30
0.0
 11
60.0
 21
36.7
 31
0.0
  0
LINE
  8
L-ZISSEN
 10
40.0
 20
114.0
 30
0.0
 11
80.0
 21
114.0
 31
0.0
  0
LINE
  8
L-ZISSEN
 10
136.0
 20
114.0
 30
0.0
 11
184.0
 21
114.0
 31
0.0
  0
LINE
  8
L-ZISSEN
 10
240.0
 20
114.0
 30
0.0
 11
280.0
 21
114.0
 31
0.0
  0
LINE
  8
L-ZISSEN
 10
480.2
 20
40.3
 30
0.0
 11
487.8
 21
40.3
 31
0.0
  0
LINE
  8
L-ZISSEN
 10
487.8
 20
40.3
 30
0.0
 11
487.8
 21
43.9
 31
0.0
  0
LINE
  8
L-ZISSEN
 10
480.2
 20
40.3
 30
0.0
 11
480.2
 21
43.9
 31
0.0
  0
LINE
  8
L-ZISSEN
 10
459.8
 20
40.3
 30
0.0
 11
459.8
 21
43.9
 31
0.0
  0
LINE
  8
L-ZISSEN
 10
452.2
 20
40.3
 30
0.0
 11
452.2
 21
43.9
 31
0.0
  0
LINE
  8
L-ZISSEN
 10
459.8
 20
40.3
 30
0.0
 11
452.2
 21
40.3
 31
0.0
  0
LINE
  8
L-ZISSEN
 10
395.2
 20
40.3
 30
0.0
 11
395.2
 21
43.9
 31
0.0
  0
LINE
  8
L-ZISSEN
 10
402.8
 20
40.3
 30
0.0
 11
402.8
 21
43.9
 31
0.0
  0
LINE
  8
L-ZISSEN
 10
402.8
 20
40.3
 30
0.0
 11
395.2
 21
40.3
 31
0.0
  0
LINE
  8
L-ZISSEN
 10
357.2
 20
40.3
 30
0.0
 11
364.8
 21
40.3
 31
0.0
  0
LINE
  8
L-ZISSEN
 10
364.8
 20
40.3
 30
0.0
 11
364.8
 21
43.9
 31
0.0
  0
LINE
  8
L-ZISSEN
 10
357.2
 20
40.3
 30
0.0
 11
357.2
 21
43.9
 31
0.0
  0
LINE
  8
L-ZISSEN
 10
488.5
 20
43.9
 30
0.0
 11
488.5
 21
55.9
 31
0.0
  0
LINE
  8
L-ZISSEN
 10
451.5
 20
43.9
 30
0.0
 11
451.5
 21
55.9
 31
0.0
  0
LINE
  8
L-ZISSEN
 10
452.0
 20
23.9
 30
0.0
 11
488.0
 21
23.9
 31
0.0
  0
LINE
  8
L-ZISSEN
 10
452.0
 20
23.9
 30
0.0
 11
452.0
 21
43.9
 31
0.0
  0
LINE
  8
L-ZISSEN
 10
488.0
 20
23.9
 30
0.0
 11
488.0
 21
43.9
 31
0.0
  0
LINE
  8
L-ZISSEN
 10
451.5
 20
43.9
 30
0.0
 11
488.5
 21
43.9
 31
0.0
  0
LINE
  8
L-ZISSEN
 10
403.5
 20
55.9
 30
0.0
 11
403.5
 21
43.9
 31
0.0
  0
LINE
  8
L-ZISSEN
 10
356.5
 20
55.9
 30
0.0
 11
356.5
 21
43.9
 31
0.0
  0
LINE
  8
L-ZISSEN
 10
398.0
 20
23.9
 30
0.0
 11
398.0
 21
40.3
 31
0.0
  0
LINE
  8
L-ZISSEN
 10
362.0
 20
23.9
 30
0.0
 11
362.0
 21
40.3
 31
0.0
  0
LINE
  8
L-ZISSEN
 10
356.5
 20
43.9
 30
0.0
 11
403.5
 21
43.9
 31
0.0
  0
LINE
  8
L-ZISSEN
 10
362.0
 20
23.9
 30
0.0
 11
398.0
 21
23.9
 31
0.0
  0
LINE
  8
L-ZISSEN
 10
356.0
 20
55.9
 30
0.0
 11
404.0
 21
55.9
 31
0.0
  0
LINE
  8
L-ZISSEN
 10
450.0
 20
55.9
 30
0.0
 11
490.0
 21
55.9
 31
0.0
  0
LINE
  8
L-ZISSEN
 10
356.0
 20
66.0
 30
0.0
 11
356.0
 21
55.9
 31
0.0
  0
LINE
  8
L-ZISSEN
 10
404.0
 20
66.0
 30
0.0
 11
404.0
 21
55.9
 31
0.0
  0
LINE
  8
L-ZISSEN
 10
450.0
 20
66.0
 30
0.0
 11
450.0
 21
55.9
 31
0.0
  0
LINE
  8
L-ZISSEN
 10
490.0
 20
66.0
 30
0.0
 11
490.0
 21
55.9
 31
0.0
  0
SOLID
  8
L-ZISSEN
 10
471.90788
 20
66.686371
 30
0.0
 11
471.582144
 21
67.268042
 31
0.0
 12
470.0
 22
66.0
 32
0.0
 13
470.0
 23
66.0
 33
0.0
  0
LINE
  8
L-ZISSEN
 10
471.745012
 20
66.977207
 30
0.0
 11
495.0
 21
80.0
 31
0.0
  0
TEXT
  8
L-ZISSEN
 10
499.0
 20
77.75
 30
0.0
 40
4.5
  1
P.P
  0
LINE
  8
L-ZISSEN
 10
495.0
 20
80.0
 30
0.0
 11
497.0
 21
80.0
 31
0.0
  0
SOLID
  8
L-ZISSEN
 10
378.328596
 20
67.147832
 30
0.0
 11
378.046672
 21
66.54371
 31
0.0
 12
380.0
 22
66.0
 32
0.0
 13
380.0
 23
66.0
 33
0.0
  0
LINE
  8
L-ZISSEN
 10
378.187634
 20
66.845771
 30
0.0
 11
350.0
 21
80.0
 31
0.0
  0
TEXT
  8
L-ZISSEN
 10
337.0
 20
77.75
 30
0.0
 40
4.5
  1
P.P
  0
LINE
  8
L-ZISSEN
 10
350.0
 20
80.0
 30
0.0
 11
348.0
 21
80.0
 31
0.0
  0
TEXT
  8
L-ZISSEN
 10
335.0
 20
105.0
 30
0.0
 40
4.5
  1
MODEL NO. : POV-3002D
  0
LINE
  8
L-TYUSIN
 10
315.0
 20
120.0
 30
0.0
 11
315.0
 21
10.0
 31
0.0
  0
CIRCLE
  8
L-ZISSEN
 10
260.0
 20
78.0
 30
0.0
 40
5.7225
  0
LINE
  8
L-TYUSIN
 10
250.0
 20
78.0
 30
0.0
 11
270.0
 21
78.0
 31
0.0
  0
LINE
  8
L-TYUSIN
 10
50.0
 20
90.0
 30
0.0
 11
70.0
 21
90.0
 31
0.0
  0
CIRCLE
  8
L-ZISSEN
 10
60.0
 20
90.0
 30
0.0
 40
5.7225
  0
LINE
  8
L-TYUSIN
 10
131.0
 20
90.0
 30
0.0
 11
189.0
 21
90.0
 31
0.0
  0
LINE
  8
L-TYUSIN
 10
177.0
 20
100.0
 30
0.0
 11
177.0
 21
80.0
 31
0.0
  0
CIRCLE
  8
L-ZISSEN
 10
177.0
 20
90.0
 30
0.0
 40
3.25
  0
CIRCLE
  8
L-ZISSEN
 10
143.0
 20
78.0
 30
0.0
 40
3.25
  0
CIRCLE
  8
L-ZISSEN
 10
143.0
 20
102.0
 30
0.0
 40
3.25
  0
LINE
  8
L-TYUSIN
 10
143.0
 20
112.0
 30
0.0
 11
143.0
 21
92.0
 31
0.0
  0
LINE
  8
L-TYUSIN
 10
133.0
 20
102.0
 30
0.0
 11
153.0
 21
102.0
 31
0.0
  0
LINE
  8
L-ZISSEN
 10
136.0
 20
117.7
 30
0.0
 11
136.0
 21
66.0
 31
0.0
  0
LINE
  8
L-ZISSEN
 10
184.0
 20
117.7
 30
0.0
 11
184.0
 21
66.0
 31
0.0
  0
LINE
  8
L-ZISSEN
 10
184.0
 20
66.0
 30
0.0
 11
136.0
 21
66.0
 31
0.0
  0
LINE
  8
L-TYUSIN
 10
250.0
 20
102.0
 30
0.0
 11
270.0
 21
102.0
 31
0.0
  0
CIRCLE
  8
L-ZISSEN
 10
260.0
 20
102.0
 30
0.0
 40
5.7225
  0
LINE
  8
L-TYUSIN
 10
133.0
 20
78.0
 30
0.0
 11
153.0
 21
78.0
 31
0.0
  0
LINE
  8
L-TYUSIN
 10
143.0
 20
88.0
 30
0.0
 11
143.0
 21
68.0
 31
0.0
  0
LINE
  8
L-TYUSIN
 10
179.0
 20
102.0
 30
0.0
 11
189.0
 21
102.0
 31
0.0
  0
LINE
  8
L-TYUSIN
 10
179.0
 20
78.0
 30
0.0
 11
189.0
 21
78.0
 31
0.0
  0
SOLID
  8
L-ZISSEN
 10
135.086074
 20
91.809931
 30
0.0
 11
134.548471
 21
91.415689
 31
0.0
 12
136.0
 22
90.0
 32
0.0
 13
136.0
 23
90.0
 33
0.0
  0
LINE
  8
L-ZISSEN
 10
134.817273
 20
91.61281
 30
0.0
 11
125.0
 21
105.0
 31
0.0
  0
LINE
  8
L-ZISSEN
 10
125.0
 20
105.0
 30
0.0
 11
123.0
 21
105.0
 31
0.0
  0
TEXT
  8
L-ZISSEN
 10
89.5
 20
102.75
 30
0.0
 40
4.5
  1
PORT "O"
  0
TEXT
  8
L-ZISSEN
 10
90.0
 20
95.0
 30
0.0
 40
4.5
  1
Rc 1/4
  0
SOLID
  8
L-ZISSEN
 10
158.266844
 20
67.052274
 30
0.0
 11
158.01925
 21
66.433289
 31
0.0
 12
160.0
 22
66.0
 32
0.0
 13
160.0
 23
66.0
 33
0.0
  0
LINE
  8
L-ZISSEN
 10
158.143047
 20
66.742781
 30
0.0
 11
125.0
 21
80.0
 31
0.0
  0
LINE
  8
L-ZISSEN
 10
125.0
 20
80.0
 30
0.0
 11
123.0
 21
80.0
 31
0.0
  0
TEXT
  8
L-ZISSEN
 10
112.0
 20
77.75
 30
0.0
 40
4.5
  1
P.P
  0
SOLID
  8
L-ZISSEN
 10
258.328596
 20
67.147832
 30
0.0
 11
258.046672
 21
66.54371
 31
0.0
 12
260.0
 22
66.0
 32
0.0
 13
260.0
 23
66.0
 33
0.0
  0
LINE
  8
L-ZISSEN
 10
258.187634
 20
66.845771
 30
0.0
 11
230.0
 21
80.0
 31
0.0
  0
LINE
  8
L-ZISSEN
 10
230.0
 20
80.0
 30
0.0
 11
228.0
 21
80.0
 31
0.0
  0
TEXT
  8
L-ZISSEN
 10
217.0
 20
77.75
 30
0.0
 40
4.5
  1
P.P
  0
ENDSEC
  0
EOF
