  0
SECTION
  2
HEADER
  9
$ACADVER
  1
AC1006
  9
$INSBASE
 10
0.0
 20
0.0
 30
0.0
  9
$EXTMIN
 10
37.0
 20
10.0
  9
$EXTMAX
 10
605.0
 20
310.0
  9
$LIMMIN
 10
0.0
 20
0.0
  9
$LIMMAX
 10
594.0
 20
420.0
  9
$ORTHOMODE
 70
     0
  9
$REGENMODE
 70
     1
  9
$FILLMODE
 70
     1
  9
$QTEXTMODE
 70
     0
  9
$MIRRTEXT
 70
     1
  9
$DRAGMODE
 70
     2
  9
$LTSCALE
 40
1.0
  9
$OSMODE
 70
     0
  9
$ATTMODE
 70
     1
  9
$TEXTSIZE
 40
4.5
  9
$TRACEWID
 40
0.05
  9
$TEXTSTYLE
  7
STANDARD
  9
$CLAYER
  8
L-ZISSEN
  9
$CELTYPE
  6
BYLAYER
  9
$CECOLOR
 62
   256
  9
$DIMSCALE
 40
1.0
  9
$DIMASZ
 40
2.0
  9
$DIMEXO
 40
1.0
  9
$DIMDLI
 40
0.38
  9
$DIMRND
 40
0.0
  9
$DIMDLE
 40
1.0
  9
$DIMEXE
 40
1.0
  9
$DIMTP
 40
0.0
  9
$DIMTM
 40
0.0
  9
$DIMTXT
 40
4.5
  9
$DIMCEN
 40
0.09
  9
$DIMTSZ
 40
0.0
  9
$DIMTOL
 70
     0
  9
$DIMLIM
 70
     0
  9
$DIMTIH
 70
     0
  9
$DIMTOH
 70
     0
  9
$DIMSE1
 70
     0
  9
$DIMSE2
 70
     0
  9
$DIMTAD
 70
     1
  9
$DIMZIN
 70
     0
  9
$DIMBLK
  1

  9
$DIMASO
 70
     0
  9
$DIMSHO
 70
     0
  9
$DIMPOST
  1

  9
$DIMAPOST
  1

  9
$DIMALT
 70
     0
  9
$DIMALTD
 70
     2
  9
$DIMALTF
 40
25.4
  9
$DIMLFAC
 40
1.0
  9
$DIMTOFL
 70
     1
  9
$DIMTVP
 40
0.0
  9
$DIMTIX
 70
     1
  9
$DIMSOXD
 70
     0
  9
$DIMSAH
 70
     0
  9
$DIMBLK1
  1

  9
$DIMBLK2
  1

  9
$LUNITS
 70
     2
  9
$LUPREC
 70
     4
  9
$AXISMODE
 70
     0
  9
$AXISUNIT
 10
0.0
 20
0.0
  9
$SKETCHINC
 40
0.1
  9
$FILLETRAD
 40
0.0
  9
$AUNITS
 70
     0
  9
$AUPREC
 70
     0
  9
$MENU
  1
acad
  9
$ELEVATION
 40
0.0
  9
$THICKNESS
 40
0.0
  9
$LIMCHECK
 70
     0
  9
$BLIPMODE
 70
     1
  9
$CHAMFERA
 40
5.0
  9
$CHAMFERB
 40
5.0
  9
$SKPOLY
 70
     0
  9
$TDCREATE
 40
2449657.7131483797
  9
$TDUPDATE
 40
2449657.7131483797
  9
$TDINDWG
 40
0.0000000000
  9
$TDUSRTIMER
 40
0.0000000000
  9
$USRTIMER
 70
     1
  9
$ANGBASE
 50
0.0
  9
$ANGDIR
 70
     0
  9
$PDMODE
 70
     0
  9
$PDSIZE
 40
0.0
  9
$PLINEWID
 40
0.0
  9
$COORDS
 70
     2
  9
$SPLFRAME
 70
     0
  9
$SPLINETYPE
 70
     6
  9
$SPLINESEGS
 70
     8
  9
$ATTDIA
 70
     0
  9
$ATTREQ
 70
     1
  9
$HANDLING
 70
     0
  9
$HANDSEED
  5
0
  9
$SURFTAB1
 70
     6
  9
$SURFTAB2
 70
     6
  9
$SURFTYPE
 70
     6
  9
$SURFU
 70
     6
  9
$SURFV
 70
     6
  9
$FLATLAND
 70
     0
  9
$UCSNAME
  2

  9
$UCSORG
 10
0.0
 20
0.0
 30
0.0
  9
$UCSXDIR
 10
1.0
 20
0.0
 30
0.0
  9
$UCSYDIR
 10
0.0
 20
1.0
 30
0.0
  9
$USERI1
 70
     0
  9
$USERI2
 70
     0
  9
$USERI3
 70
     0
  9
$USERI4
 70
     0
  9
$USERI5
 70
     0
  9
$USERR1
 40
0.0
  9
$USERR2
 40
0.0
  9
$USERR3
 40
0.0
  9
$USERR4
 40
0.0
  9
$USERR5
 40
0.0
  9
$WORLDVIEW
 70
     1
  0
ENDSEC
  0
SECTION
  2
TABLES
  0
TABLE
  2
VPORT
 70
     2
  0
VPORT
  2
*ACTIVE
 70
     0
 10
0.0
 20
0.0
 11
1.0
 21
1.0
 12
338.2359
 22
199.73901
 13
0.0
 23
0.0
 14
5.0
 24
5.0
 15
0.0
 25
0.0
 16
0.0
 26
0.0
 36
1.0
 17
0.0
 27
0.0
 37
0.0
 40
404.416462
 41
1.5487
 42
50.0
 43
0.0
 44
0.0
 50
0.0
 51
0.0
 71
     0
 72
   100
 73
     1
 74
     0
 75
     0
 76
     0
 77
     0
 78
     0
  0
ENDTAB
  0
TABLE
  2
LTYPE
 70
     2
  0
LTYPE
  2
CONTINUOUS
 70
    64
  3
Solid line
 72
    65
 73
     0
 40
0.0
  0
LTYPE
  2
CENTER
 70
    64
  3
____ _ ____ _ ____ _ ____ _ 
 72
    65
 73
     4
 40
60.0
 49
45.0
 49
-5.0
 49
5.0
 49
-5.0
  0
ENDTAB
  0
TABLE
  2
LAYER
 70
     3
  0
LAYER
  2
0
 70
     0
 62
     7
  6
CONTINUOUS
  0
LAYER
  2
L-ZISSEN
 70
    64
 62
     7
  6
CONTINUOUS
  0
LAYER
  2
L-TYUSIN
 70
    64
 62
     1
  6
CENTER
  0
ENDTAB
  0
TABLE
  2
STYLE
 70
     1
  0
STYLE
  2
STANDARD
 70
    64
 40
0.0
 41
1.0
 50
0.0
 71
     0
 42
4.5
  3
TXT
  4

  0
ENDTAB
  0
TABLE
  2
VIEW
 70
     0
  0
ENDTAB
  0
TABLE
  2
UCS
 70
     0
  0
ENDTAB
  0
TABLE
  2
DWGMGR
 70
     0
  0
ENDTAB
  0
ENDSEC
  0
SECTION
  2
BLOCKS
  0
ENDSEC
  0
SECTION
  2
ENTITIES
  0
LINE
  8
L-TYUSIN
 10
140.0
 20
141.8
 30
0.0
 11
140.0
 21
37.5
 31
0.0
  0
LINE
  8
L-TYUSIN
 10
230.0
 20
141.8
 30
0.0
 11
230.0
 21
37.5
 31
0.0
  0
LINE
  8
L-TYUSIN
 10
50.0
 20
141.8
 30
0.0
 11
50.0
 21
37.5
 31
0.0
  0
LINE
  8
L-ZISSEN
 10
227.0
 20
136.8
 30
0.0
 11
233.0
 21
136.8
 31
0.0
  0
LINE
  8
L-ZISSEN
 10
233.0
 20
112.8
 30
0.0
 11
227.0
 21
112.8
 31
0.0
  0
LINE
  8
L-ZISSEN
 10
233.0
 20
129.8
 30
0.0
 11
236.0
 21
129.8
 31
0.0
  0
LINE
  8
L-ZISSEN
 10
236.0
 20
127.7
 30
0.0
 11
236.0
 21
129.8
 31
0.0
  0
LINE
  8
L-ZISSEN
 10
224.0
 20
127.7
 30
0.0
 11
224.0
 21
129.8
 31
0.0
  0
LINE
  8
L-ZISSEN
 10
224.0
 20
129.8
 30
0.0
 11
227.0
 21
129.8
 31
0.0
  0
LINE
  8
L-ZISSEN
 10
227.0
 20
109.8
 30
0.0
 11
233.0
 21
109.8
 31
0.0
  0
LINE
  8
L-ZISSEN
 10
233.0
 20
127.7
 30
0.0
 11
240.5
 21
127.7
 31
0.0
  0
LINE
  8
L-ZISSEN
 10
233.0
 20
136.8
 30
0.0
 11
233.0
 21
101.7
 31
0.0
  0
LINE
  8
L-ZISSEN
 10
227.0
 20
136.8
 30
0.0
 11
227.0
 21
101.7
 31
0.0
  0
LINE
  8
L-ZISSEN
 10
242.5
 20
101.7
 30
0.0
 11
242.5
 21
98.0
 31
0.0
  0
LINE
  8
L-ZISSEN
 10
217.5
 20
101.7
 30
0.0
 11
217.5
 21
98.0
 31
0.0
  0
LINE
  8
L-ZISSEN
 10
240.5
 20
127.7
 30
0.0
 11
240.5
 21
105.3
 31
0.0
  0
LINE
  8
L-ZISSEN
 10
219.5
 20
127.7
 30
0.0
 11
219.5
 21
105.3
 31
0.0
  0
LINE
  8
L-ZISSEN
 10
219.5
 20
127.7
 30
0.0
 11
227.0
 21
127.7
 31
0.0
  0
LINE
  8
L-ZISSEN
 10
217.5
 20
101.7
 30
0.0
 11
242.5
 21
101.7
 31
0.0
  0
LINE
  8
L-ZISSEN
 10
123.509619
 20
105.3
 30
0.0
 11
123.509619
 21
101.7
 31
0.0
  0
LINE
  8
L-ZISSEN
 10
130.509619
 20
105.3
 30
0.0
 11
130.509619
 21
101.7
 31
0.0
  0
LINE
  8
L-ZISSEN
 10
146.0
 20
129.8
 30
0.0
 11
146.0
 21
125.919544
 31
0.0
  0
LINE
  8
L-ZISSEN
 10
134.0
 20
129.8
 30
0.0
 11
134.0
 21
125.919544
 31
0.0
  0
ARC
  8
L-ZISSEN
 10
140.0
 20
124.8
 30
0.0
 40
12.0
 50
326.984741
 51
213.015259
  0
LINE
  8
L-ZISSEN
 10
134.0
 20
129.8
 30
0.0
 11
146.0
 21
129.8
 31
0.0
  0
CIRCLE
  8
L-ZISSEN
 10
140.0
 20
113.7
 30
0.0
 40
2.75
  0
ARC
  8
L-ZISSEN
 10
140.0
 20
175.0
 30
0.0
 40
6.1
 50
28.386038
 51
150.540825
  0
LINE
  8
L-ZISSEN
 10
142.5
 20
180.564171
 30
0.0
 11
142.5
 21
183.75
 31
0.0
  0
LINE
  8
L-ZISSEN
 10
137.5
 20
166.25
 30
0.0
 11
142.5
 21
166.25
 31
0.0
  0
LINE
  8
L-ZISSEN
 10
137.5
 20
183.75
 30
0.0
 11
137.5
 21
180.564171
 31
0.0
  0
LINE
  8
L-ZISSEN
 10
142.5
 20
183.75
 30
0.0
 11
137.5
 21
183.75
 31
0.0
  0
ARC
  8
L-ZISSEN
 10
140.0
 20
175.0
 30
0.0
 40
10.5
 50
16.032971
 51
163.967029
  0
LINE
  8
L-ZISSEN
 10
128.0
 20
172.1
 30
0.0
 11
152.0
 21
172.1
 31
0.0
  0
LINE
  8
L-ZISSEN
 10
128.0
 20
177.9
 30
0.0
 11
128.0
 21
172.1
 31
0.0
  0
LINE
  8
L-ZISSEN
 10
152.0
 20
177.9
 30
0.0
 11
128.0
 21
177.9
 31
0.0
  0
LINE
  8
L-ZISSEN
 10
152.0
 20
172.1
 30
0.0
 11
152.0
 21
177.9
 31
0.0
  0
LINE
  8
L-ZISSEN
 10
129.937694
 20
121.144097
 30
0.0
 11
129.937694
 21
105.3
 31
0.0
  0
LINE
  8
L-ZISSEN
 10
150.062306
 20
121.144097
 30
0.0
 11
150.062306
 21
105.3
 31
0.0
  0
ARC
  8
L-ZISSEN
 10
140.0
 20
116.7
 30
0.0
 40
11.0
 50
23.829031
 51
156.170969
  0
LINE
  8
L-ZISSEN
 10
160.0
 20
101.7
 30
0.0
 11
160.0
 21
98.0
 31
0.0
  0
LINE
  8
L-ZISSEN
 10
120.0
 20
101.7
 30
0.0
 11
120.0
 21
98.0
 31
0.0
  0
LINE
  8
L-ZISSEN
 10
120.0
 20
101.7
 30
0.0
 11
160.0
 21
101.7
 31
0.0
  0
CIRCLE
  8
L-ZISSEN
 10
152.990381
 20
167.5
 30
0.0
 40
3.5
  0
CIRCLE
  8
L-ZISSEN
 10
127.009619
 20
167.5
 30
0.0
 40
3.5
  0
CIRCLE
  8
L-ZISSEN
 10
127.009619
 20
182.5
 30
0.0
 40
3.5
  0
CIRCLE
  8
L-ZISSEN
 10
152.990381
 20
182.5
 30
0.0
 40
3.5
  0
ARC
  8
L-ZISSEN
 10
140.0
 20
175.0
 30
0.0
 40
10.5
 50
196.032971
 51
343.967029
  0
LINE
  8
L-ZISSEN
 10
160.0
 20
187.5
 30
0.0
 11
120.0
 21
187.5
 31
0.0
  0
LINE
  8
L-ZISSEN
 10
160.0
 20
162.5
 30
0.0
 11
160.0
 21
187.5
 31
0.0
  0
LINE
  8
L-ZISSEN
 10
120.0
 20
162.5
 30
0.0
 11
160.0
 21
162.5
 31
0.0
  0
LINE
  8
L-ZISSEN
 10
120.0
 20
187.5
 30
0.0
 11
120.0
 21
162.5
 31
0.0
  0
LINE
  8
L-ZISSEN
 10
116.0
 20
188.0
 30
0.0
 11
116.0
 21
162.0
 31
0.0
  0
LINE
  8
L-ZISSEN
 10
164.0
 20
188.0
 30
0.0
 11
164.0
 21
162.0
 31
0.0
  0
LINE
  8
L-ZISSEN
 10
116.0
 20
162.0
 30
0.0
 11
164.0
 21
162.0
 31
0.0
  0
LINE
  8
L-ZISSEN
 10
116.0
 20
188.0
 30
0.0
 11
164.0
 21
188.0
 31
0.0
  0
LINE
  8
L-TYUSIN
 10
111.0
 20
175.0
 30
0.0
 11
169.0
 21
175.0
 31
0.0
  0
LINE
  8
L-TYUSIN
 10
140.0
 20
193.0
 30
0.0
 11
140.0
 21
157.0
 31
0.0
  0
ARC
  8
L-ZISSEN
 10
500.0
 20
115.0
 30
0.0
 40
10.0
 50
30.0
 51
73.142044
  0
LINE
  8
L-ZISSEN
 10
508.0
 20
117.5
 30
0.0
 11
505.454356
 21
117.5
 31
0.0
  0
LINE
  8
L-ZISSEN
 10
508.0
 20
112.5
 30
0.0
 11
505.454356
 21
112.5
 31
0.0
  0
LINE
  8
L-ZISSEN
 10
492.0
 20
112.5
 30
0.0
 11
494.545644
 21
112.5
 31
0.0
  0
ARC
  8
L-ZISSEN
 10
500.0
 20
115.0
 30
0.0
 40
10.0
 50
200.487315
 51
205.841933
  0
ARC
  8
L-ZISSEN
 10
500.0
 20
115.0
 30
0.0
 40
10.0
 50
154.158067
 51
159.512685
  0
ARC
  8
L-ZISSEN
 10
500.0
 20
115.0
 30
0.0
 40
10.0
 50
210.0
 51
253.142044
  0
LINE
  8
L-ZISSEN
 10
490.2
 20
111.5
 30
0.0
 11
491.0
 21
111.5
 31
0.0
  0
LINE
  8
L-ZISSEN
 10
492.0
 20
110.0
 30
0.0
 11
491.0
 21
110.0
 31
0.0
  0
LINE
  8
L-ZISSEN
 10
490.2
 20
111.5
 30
0.0
 11
490.2
 21
118.5
 31
0.0
  0
LINE
  8
L-ZISSEN
 10
490.2
 20
118.5
 30
0.0
 11
491.0
 21
118.5
 31
0.0
  0
LINE
  8
L-ZISSEN
 10
488.0
 20
112.5
 30
0.0
 11
488.0
 21
117.5
 31
0.0
  0
LINE
  8
L-ZISSEN
 10
488.0
 20
117.5
 30
0.0
 11
490.2
 21
117.5
 31
0.0
  0
LINE
  8
L-ZISSEN
 10
490.2
 20
112.5
 30
0.0
 11
488.0
 21
112.5
 31
0.0
  0
LINE
  8
L-ZISSEN
 10
491.0
 20
120.0
 30
0.0
 11
491.0
 21
110.0
 31
0.0
  0
LINE
  8
L-ZISSEN
 10
492.0
 20
120.0
 30
0.0
 11
491.0
 21
120.0
 31
0.0
  0
LINE
  8
L-ZISSEN
 10
492.0
 20
117.5
 30
0.0
 11
494.545644
 21
117.5
 31
0.0
  0
ARC
  8
L-ZISSEN
 10
500.0
 20
115.0
 30
0.0
 40
10.0
 50
106.857956
 51
150.0
  0
LINE
  8
L-ZISSEN
 10
508.0
 20
109.0
 30
0.0
 11
508.0
 21
121.0
 31
0.0
  0
LINE
  8
L-ZISSEN
 10
508.0
 20
109.0
 30
0.0
 11
508.0
 21
121.0
 31
0.0
  0
LINE
  8
L-ZISSEN
 10
492.0
 20
109.0
 30
0.0
 11
492.0
 21
121.0
 31
0.0
  0
ARC
  8
L-ZISSEN
 10
500.0
 20
115.0
 30
0.0
 40
20.0
 50
143.130102
 51
216.869898
  0
LINE
  8
L-ZISSEN
 10
516.0
 20
103.0
 30
0.0
 11
484.0
 21
103.0
 31
0.0
  0
LINE
  8
L-ZISSEN
 10
484.0
 20
127.0
 30
0.0
 11
516.0
 21
127.0
 31
0.0
  0
ARC
  8
L-ZISSEN
 10
500.0
 20
115.0
 30
0.0
 40
20.0
 50
323.130102
 51
36.869898
  0
ARC
  8
L-ZISSEN
 10
500.0
 20
115.0
 30
0.0
 40
10.0
 50
286.857956
 51
330.0
  0
LINE
  8
L-ZISSEN
 10
509.8
 20
59.3
 30
0.0
 11
509.8
 21
65.3
 31
0.0
  0
LINE
  8
L-ZISSEN
 10
509.8
 20
59.8
 30
0.0
 11
509.0
 21
59.8
 31
0.0
  0
LINE
  8
L-ZISSEN
 10
509.8
 20
65.3
 30
0.0
 11
509.0
 21
65.3
 31
0.0
  0
LINE
  8
L-ZISSEN
 10
508.0
 20
64.3
 30
0.0
 11
506.0
 21
64.3
 31
0.0
  0
LINE
  8
L-ZISSEN
 10
508.0
 20
66.8
 30
0.0
 11
509.0
 21
66.8
 31
0.0
  0
LINE
  8
L-ZISSEN
 10
509.0
 20
66.8
 30
0.0
 11
509.0
 21
56.8
 31
0.0
  0
LINE
  8
L-ZISSEN
 10
509.0
 20
56.8
 30
0.0
 11
508.0
 21
56.8
 31
0.0
  0
LINE
  8
L-ZISSEN
 10
492.0
 20
64.3
 30
0.0
 11
494.0
 21
64.3
 31
0.0
  0
LINE
  8
L-ZISSEN
 10
491.0
 20
56.8
 30
0.0
 11
492.0
 21
56.8
 31
0.0
  0
LINE
  8
L-ZISSEN
 10
491.0
 20
66.8
 30
0.0
 11
491.0
 21
56.8
 31
0.0
  0
LINE
  8
L-ZISSEN
 10
492.0
 20
66.8
 30
0.0
 11
491.0
 21
66.8
 31
0.0
  0
LINE
  8
L-ZISSEN
 10
509.8
 20
59.3
 30
0.0
 11
512.0
 21
59.3
 31
0.0
  0
LINE
  8
L-ZISSEN
 10
512.0
 20
59.3
 30
0.0
 11
512.0
 21
64.3
 31
0.0
  0
LINE
  8
L-ZISSEN
 10
512.0
 20
64.3
 30
0.0
 11
509.8
 21
64.3
 31
0.0
  0
LINE
  8
L-ZISSEN
 10
558.5
 20
59.8
 30
0.0
 11
557.127719
 21
59.8
 31
0.0
  0
LINE
  8
L-ZISSEN
 10
562.872281
 20
59.8
 30
0.0
 11
561.5
 21
59.8
 31
0.0
  0
ARC
  8
L-ZISSEN
 10
560.0
 20
61.8
 30
0.0
 40
3.5
 50
325.150095
 51
214.849905
  0
CIRCLE
  8
L-ZISSEN
 10
560.0
 20
61.8
 30
0.0
 40
5.0
  0
CIRCLE
  8
L-ZISSEN
 10
560.0
 20
61.8
 30
0.0
 40
2.5
  0
LINE
  8
L-ZISSEN
 10
566.0
 20
66.8
 30
0.0
 11
566.0
 21
62.019544
 31
0.0
  0
LINE
  8
L-ZISSEN
 10
554.0
 20
66.8
 30
0.0
 11
554.0
 21
62.019544
 31
0.0
  0
LINE
  8
L-ZISSEN
 10
554.0
 20
66.8
 30
0.0
 11
566.0
 21
66.8
 31
0.0
  0
ARC
  8
L-ZISSEN
 10
560.0
 20
61.8
 30
0.0
 40
12.0
 50
322.650455
 51
217.349545
  0
ARC
  8
L-ZISSEN
 10
560.0
 20
52.8
 30
0.0
 40
11.0
 50
116.627478
 51
150.136862
  0
LINE
  8
L-ZISSEN
 10
568.0
 20
47.8
 30
0.0
 11
568.0
 21
60.349834
 31
0.0
  0
LINE
  8
L-ZISSEN
 10
552.0
 20
47.8
 30
0.0
 11
552.0
 21
60.349834
 31
0.0
  0
LINE
  8
L-ZISSEN
 10
552.0
 20
47.8
 30
0.0
 11
568.0
 21
47.8
 31
0.0
  0
LINE
  8
L-ZISSEN
 10
557.449998
 20
48.8
 30
0.0
 11
557.449998
 21
57.499129
 31
0.0
  0
LINE
  8
L-ZISSEN
 10
562.549998
 20
48.8
 30
0.0
 11
557.449998
 21
48.8
 31
0.0
  0
LINE
  8
L-ZISSEN
 10
562.549998
 20
57.499127
 30
0.0
 11
562.549998
 21
48.8
 31
0.0
  0
LINE
  8
L-ZISSEN
 10
550.46061
 20
58.277229
 30
0.0
 11
550.46061
 21
43.6
 31
0.0
  0
LINE
  8
L-ZISSEN
 10
569.53939
 20
58.277229
 30
0.0
 11
569.53939
 21
43.6
 31
0.0
  0
ARC
  8
L-ZISSEN
 10
560.0
 20
52.8
 30
0.0
 40
11.0
 50
29.863138
 51
63.372522
  0
LINE
  8
L-ZISSEN
 10
497.0
 20
63.8
 30
0.0
 11
492.0
 21
63.8
 31
0.0
  0
LINE
  8
L-ZISSEN
 10
503.0
 20
73.8
 30
0.0
 11
503.0
 21
48.8
 31
0.0
  0
LINE
  8
L-ZISSEN
 10
497.0
 20
73.8
 30
0.0
 11
497.0
 21
48.8
 31
0.0
  0
LINE
  8
L-ZISSEN
 10
508.0
 20
66.8
 30
0.0
 11
508.0
 21
48.8
 31
0.0
  0
LINE
  8
L-ZISSEN
 10
492.0
 20
66.8
 30
0.0
 11
492.0
 21
48.8
 31
0.0
  0
LINE
  8
L-ZISSEN
 10
508.0
 20
63.8
 30
0.0
 11
503.0
 21
63.8
 31
0.0
  0
LINE
  8
L-ZISSEN
 10
490.0
 20
48.8
 30
0.0
 11
490.0
 21
43.6
 31
0.0
  0
LINE
  8
L-ZISSEN
 10
510.0
 20
48.8
 30
0.0
 11
490.0
 21
48.8
 31
0.0
  0
LINE
  8
L-ZISSEN
 10
510.0
 20
43.6
 30
0.0
 11
510.0
 21
48.8
 31
0.0
  0
LINE
  8
L-ZISSEN
 10
494.0
 20
66.8
 30
0.0
 11
497.0
 21
66.8
 31
0.0
  0
LINE
  8
L-ZISSEN
 10
494.0
 20
63.8
 30
0.0
 11
494.0
 21
66.8
 31
0.0
  0
LINE
  8
L-ZISSEN
 10
506.0
 20
63.8
 30
0.0
 11
506.0
 21
66.8
 31
0.0
  0
LINE
  8
L-ZISSEN
 10
503.0
 20
66.8
 30
0.0
 11
506.0
 21
66.8
 31
0.0
  0
LINE
  8
L-ZISSEN
 10
503.0
 20
49.8
 30
0.0
 11
497.0
 21
49.8
 31
0.0
  0
LINE
  8
L-ZISSEN
 10
497.0
 20
73.8
 30
0.0
 11
503.0
 21
73.8
 31
0.0
  0
LINE
  8
L-ZISSEN
 10
572.5
 20
40.0
 30
0.0
 11
572.5
 21
35.0
 31
0.0
  0
LINE
  8
L-ZISSEN
 10
547.5
 20
40.0
 30
0.0
 11
547.5
 21
35.0
 31
0.0
  0
LINE
  8
L-ZISSEN
 10
547.5
 20
40.0
 30
0.0
 11
572.5
 21
40.0
 31
0.0
  0
LINE
  8
L-ZISSEN
 10
502.9
 20
103.0
 30
0.0
 11
502.9
 21
127.0
 31
0.0
  0
LINE
  8
L-ZISSEN
 10
497.1
 20
127.0
 30
0.0
 11
497.1
 21
103.0
 31
0.0
  0
LINE
  8
L-ZISSEN
 10
520.0
 20
40.0
 30
0.0
 11
520.0
 21
35.0
 31
0.0
  0
LINE
  8
L-ZISSEN
 10
480.0
 20
40.0
 30
0.0
 11
480.0
 21
35.0
 31
0.0
  0
LINE
  8
L-ZISSEN
 10
480.0
 20
40.0
 30
0.0
 11
520.0
 21
40.0
 31
0.0
  0
CIRCLE
  8
L-ZISSEN
 10
512.990381
 20
107.5
 30
0.0
 40
3.5
  0
CIRCLE
  8
L-ZISSEN
 10
487.009619
 20
107.5
 30
0.0
 40
3.5
  0
CIRCLE
  8
L-ZISSEN
 10
487.009619
 20
122.5
 30
0.0
 40
3.5
  0
CIRCLE
  8
L-ZISSEN
 10
512.990381
 20
122.5
 30
0.0
 40
3.5
  0
LINE
  8
L-ZISSEN
 10
421.0
 20
208.8
 30
0.0
 11
421.0
 21
201.8
 31
0.0
  0
LINE
  8
L-ZISSEN
 10
399.0
 20
208.8
 30
0.0
 11
399.0
 21
201.8
 31
0.0
  0
LINE
  8
L-ZISSEN
 10
413.5
 20
208.8
 30
0.0
 11
413.5
 21
216.8
 31
0.0
  0
LINE
  8
L-ZISSEN
 10
406.5
 20
208.8
 30
0.0
 11
406.5
 21
216.8
 31
0.0
  0
LINE
  8
L-ZISSEN
 10
402.0
 20
216.8
 30
0.0
 11
418.0
 21
216.8
 31
0.0
  0
LINE
  8
L-ZISSEN
 10
398.0
 20
217.8
 30
0.0
 11
422.0
 21
217.8
 31
0.0
  0
ARC
  8
L-ZISSEN
 10
410.0
 20
202.8
 30
0.0
 40
20.0
 50
53.130102
 51
126.869898
  0
LINE
  8
L-ZISSEN
 10
398.0
 20
217.8
 30
0.0
 11
398.0
 21
218.8
 31
0.0
  0
LINE
  8
L-ZISSEN
 10
422.0
 20
217.8
 30
0.0
 11
422.0
 21
218.8
 31
0.0
  0
LINE
  8
L-ZISSEN
 10
402.0
 20
216.8
 30
0.0
 11
402.0
 21
217.8
 31
0.0
  0
LINE
  8
L-ZISSEN
 10
418.0
 20
216.8
 30
0.0
 11
418.0
 21
217.8
 31
0.0
  0
LINE
  8
L-ZISSEN
 10
399.0
 20
208.8
 30
0.0
 11
421.0
 21
208.8
 31
0.0
  0
LINE
  8
L-ZISSEN
 10
399.0
 20
201.8
 30
0.0
 11
421.0
 21
201.8
 31
0.0
  0
LINE
  8
L-ZISSEN
 10
400.0
 20
197.8
 30
0.0
 11
400.0
 21
193.6
 31
0.0
  0
LINE
  8
L-ZISSEN
 10
402.0
 20
201.8
 30
0.0
 11
402.0
 21
197.8
 31
0.0
  0
LINE
  8
L-ZISSEN
 10
418.0
 20
201.8
 30
0.0
 11
418.0
 21
197.8
 31
0.0
  0
LINE
  8
L-ZISSEN
 10
400.0
 20
197.8
 30
0.0
 11
420.0
 21
197.8
 31
0.0
  0
LINE
  8
L-ZISSEN
 10
362.701706
 20
208.8
 30
0.0
 11
362.701706
 21
201.8
 31
0.0
  0
LINE
  8
L-ZISSEN
 10
337.298294
 20
201.8
 30
0.0
 11
362.701706
 21
201.8
 31
0.0
  0
POLYLINE
  8
L-ZISSEN
 66
     1
 10
0.0
 20
0.0
 30
0.0
  0
VERTEX
  8
L-ZISSEN
 10
338.075805
 20
266.346688
 30
0.0
  0
VERTEX
  8
L-ZISSEN
 10
337.298294
 20
265.0
 30
0.0
  0
VERTEX
  8
L-ZISSEN
 10
338.075805
 20
263.653312
 30
0.0
  0
SEQEND
  8
L-ZISSEN
  0
POLYLINE
  8
L-ZISSEN
 66
     1
 10
0.0
 20
0.0
 30
0.0
  0
VERTEX
  8
L-ZISSEN
 10
343.649147
 20
276.0
 30
0.0
  0
VERTEX
  8
L-ZISSEN
 10
342.871636
 20
274.653312
 30
0.0
  0
SEQEND
  8
L-ZISSEN
  0
POLYLINE
  8
L-ZISSEN
 66
     1
 10
0.0
 20
0.0
 30
0.0
  0
VERTEX
  8
L-ZISSEN
 10
345.204168
 20
276.0
 30
0.0
  0
VERTEX
  8
L-ZISSEN
 10
343.649147
 20
276.0
 30
0.0
  0
SEQEND
  8
L-ZISSEN
  0
POLYLINE
  8
L-ZISSEN
 66
     1
 10
0.0
 20
0.0
 30
0.0
  0
VERTEX
  8
L-ZISSEN
 10
357.128364
 20
274.653312
 30
0.0
  0
VERTEX
  8
L-ZISSEN
 10
356.350853
 20
276.0
 30
0.0
  0
VERTEX
  8
L-ZISSEN
 10
354.795832
 20
276.0
 30
0.0
  0
SEQEND
  8
L-ZISSEN
  0
POLYLINE
  8
L-ZISSEN
 66
     1
 10
0.0
 20
0.0
 30
0.0
  0
VERTEX
  8
L-ZISSEN
 10
361.924195
 20
263.653312
 30
0.0
  0
VERTEX
  8
L-ZISSEN
 10
362.701706
 20
265.0
 30
0.0
  0
VERTEX
  8
L-ZISSEN
 10
361.924195
 20
266.346688
 30
0.0
  0
SEQEND
  8
L-ZISSEN
  0
POLYLINE
  8
L-ZISSEN
 66
     1
 10
0.0
 20
0.0
 30
0.0
  0
VERTEX
  8
L-ZISSEN
 10
354.795832
 20
254.0
 30
0.0
  0
VERTEX
  8
L-ZISSEN
 10
356.350853
 20
254.0
 30
0.0
  0
VERTEX
  8
L-ZISSEN
 10
357.128364
 20
255.346688
 30
0.0
  0
SEQEND
  8
L-ZISSEN
  0
POLYLINE
  8
L-ZISSEN
 66
     1
 10
0.0
 20
0.0
 30
0.0
  0
VERTEX
  8
L-ZISSEN
 10
342.871636
 20
255.346688
 30
0.0
  0
VERTEX
  8
L-ZISSEN
 10
343.649147
 20
254.0
 30
0.0
  0
VERTEX
  8
L-ZISSEN
 10
345.204168
 20
254.0
 30
0.0
  0
SEQEND
  8
L-ZISSEN
  0
LINE
  8
L-ZISSEN
 10
337.298294
 20
208.8
 30
0.0
 11
337.298294
 21
201.8
 31
0.0
  0
CIRCLE
  8
L-ZISSEN
 10
350.0
 20
265.0
 30
0.0
 40
12.0
  0
LINE
  8
L-ZISSEN
 10
358.0
 20
216.8
 30
0.0
 11
358.0
 21
217.8
 31
0.0
  0
LINE
  8
L-ZISSEN
 10
342.0
 20
216.8
 30
0.0
 11
342.0
 21
217.8
 31
0.0
  0
LINE
  8
L-ZISSEN
 10
362.0
 20
217.8
 30
0.0
 11
362.0
 21
218.8
 31
0.0
  0
LINE
  8
L-ZISSEN
 10
338.0
 20
217.8
 30
0.0
 11
338.0
 21
218.8
 31
0.0
  0
ARC
  8
L-ZISSEN
 10
350.0
 20
202.8
 30
0.0
 40
20.0
 50
53.130102
 51
126.869898
  0
LINE
  8
L-ZISSEN
 10
338.0
 20
217.8
 30
0.0
 11
362.0
 21
217.8
 31
0.0
  0
LINE
  8
L-ZISSEN
 10
342.0
 20
216.8
 30
0.0
 11
358.0
 21
216.8
 31
0.0
  0
LINE
  8
L-ZISSEN
 10
340.0
 20
197.8
 30
0.0
 11
360.0
 21
197.8
 31
0.0
  0
LINE
  8
L-ZISSEN
 10
337.298294
 20
208.8
 30
0.0
 11
362.701706
 21
208.8
 31
0.0
  0
LINE
  8
L-ZISSEN
 10
346.5
 20
208.8
 30
0.0
 11
346.5
 21
216.8
 31
0.0
  0
LINE
  8
L-ZISSEN
 10
353.5
 20
208.8
 30
0.0
 11
353.5
 21
216.8
 31
0.0
  0
LINE
  8
L-ZISSEN
 10
358.0
 20
201.8
 30
0.0
 11
358.0
 21
197.8
 31
0.0
  0
LINE
  8
L-ZISSEN
 10
342.0
 20
201.8
 30
0.0
 11
342.0
 21
197.8
 31
0.0
  0
LINE
  8
L-ZISSEN
 10
360.0
 20
197.8
 30
0.0
 11
360.0
 21
193.6
 31
0.0
  0
ARC
  8
L-ZISSEN
 10
350.0
 20
265.0
 30
0.0
 40
20.0
 50
143.130102
 51
216.869898
  0
LINE
  8
L-ZISSEN
 10
366.0
 20
253.0
 30
0.0
 11
334.0
 21
253.0
 31
0.0
  0
LINE
  8
L-ZISSEN
 10
334.0
 20
277.0
 30
0.0
 11
366.0
 21
277.0
 31
0.0
  0
ARC
  8
L-ZISSEN
 10
350.0
 20
265.0
 30
0.0
 40
20.0
 50
323.130102
 51
36.869898
  0
LINE
  8
L-ZISSEN
 10
422.5
 20
190.0
 30
0.0
 11
422.5
 21
185.0
 31
0.0
  0
LINE
  8
L-ZISSEN
 10
397.5
 20
190.0
 30
0.0
 11
397.5
 21
185.0
 31
0.0
  0
LINE
  8
L-ZISSEN
 10
397.5
 20
190.0
 30
0.0
 11
422.5
 21
190.0
 31
0.0
  0
LINE
  8
L-ZISSEN
 10
359.490381
 20
193.6
 30
0.0
 11
359.490381
 21
190.0
 31
0.0
  0
LINE
  8
L-ZISSEN
 10
366.490381
 20
193.6
 30
0.0
 11
366.490381
 21
190.0
 31
0.0
  0
LINE
  8
L-ZISSEN
 10
370.0
 20
190.0
 30
0.0
 11
370.0
 21
185.0
 31
0.0
  0
LINE
  8
L-ZISSEN
 10
330.0
 20
190.0
 30
0.0
 11
330.0
 21
185.0
 31
0.0
  0
LINE
  8
L-ZISSEN
 10
330.0
 20
190.0
 30
0.0
 11
370.0
 21
190.0
 31
0.0
  0
ARC
  8
L-ZISSEN
 10
362.990381
 20
257.5
 30
0.0
 40
3.5
 50
177.365137
 51
122.634863
  0
ARC
  8
L-ZISSEN
 10
337.009619
 20
257.5
 30
0.0
 40
3.5
 50
57.365137
 51
2.634863
  0
ARC
  8
L-ZISSEN
 10
337.009619
 20
272.5
 30
0.0
 40
3.5
 50
357.365137
 51
302.634863
  0
ARC
  8
L-ZISSEN
 10
362.990381
 20
272.5
 30
0.0
 40
3.5
 50
237.365137
 51
182.634863
  0
LINE
  8
L-ZISSEN
 10
359.490381
 20
193.6
 30
0.0
 11
366.490381
 21
193.6
 31
0.0
  0
LINE
  8
L-ZISSEN
 10
340.509619
 20
193.6
 30
0.0
 11
340.509619
 21
190.0
 31
0.0
  0
LINE
  8
L-ZISSEN
 10
340.0
 20
197.8
 30
0.0
 11
340.0
 21
193.6
 31
0.0
  0
LINE
  8
L-ZISSEN
 10
340.509619
 20
193.6
 30
0.0
 11
333.509619
 21
193.6
 31
0.0
  0
LINE
  8
L-ZISSEN
 10
333.509619
 20
193.6
 30
0.0
 11
333.509619
 21
190.0
 31
0.0
  0
LINE
  8
L-ZISSEN
 10
399.0
 20
193.6
 30
0.0
 11
399.0
 21
190.0
 31
0.0
  0
LINE
  8
L-ZISSEN
 10
399.0
 20
193.6
 30
0.0
 11
406.0
 21
193.6
 31
0.0
  0
LINE
  8
L-ZISSEN
 10
406.0
 20
193.6
 30
0.0
 11
406.0
 21
190.0
 31
0.0
  0
LINE
  8
L-ZISSEN
 10
421.0
 20
193.6
 30
0.0
 11
414.0
 21
193.6
 31
0.0
  0
LINE
  8
L-ZISSEN
 10
421.0
 20
193.6
 30
0.0
 11
421.0
 21
190.0
 31
0.0
  0
LINE
  8
L-ZISSEN
 10
414.0
 20
193.6
 30
0.0
 11
414.0
 21
190.0
 31
0.0
  0
LINE
  8
L-ZISSEN
 10
420.0
 20
197.8
 30
0.0
 11
420.0
 21
193.6
 31
0.0
  0
LINE
  8
L-ZISSEN
 10
226.0
 20
41.6
 30
0.0
 11
226.0
 21
45.2
 31
0.0
  0
LINE
  8
L-ZISSEN
 10
219.0
 20
41.6
 30
0.0
 11
219.0
 21
45.2
 31
0.0
  0
LINE
  8
L-ZISSEN
 10
226.0
 20
41.6
 30
0.0
 11
219.0
 21
41.6
 31
0.0
  0
LINE
  8
L-ZISSEN
 10
234.0
 20
41.6
 30
0.0
 11
241.0
 21
41.6
 31
0.0
  0
LINE
  8
L-ZISSEN
 10
242.0
 20
45.2
 30
0.0
 11
218.0
 21
45.2
 31
0.0
  0
LINE
  8
L-ZISSEN
 10
218.0
 20
45.2
 30
0.0
 11
218.0
 21
50.0
 31
0.0
  0
LINE
  8
L-ZISSEN
 10
242.0
 20
45.2
 30
0.0
 11
242.0
 21
50.0
 31
0.0
  0
LINE
  8
L-ZISSEN
 10
241.0
 20
41.6
 30
0.0
 11
241.0
 21
45.2
 31
0.0
  0
LINE
  8
L-ZISSEN
 10
234.0
 20
41.6
 30
0.0
 11
234.0
 21
45.2
 31
0.0
  0
LINE
  8
L-ZISSEN
 10
234.0
 20
42.2
 30
0.0
 11
226.0
 21
42.2
 31
0.0
  0
LINE
  8
L-ZISSEN
 10
130.509619
 20
105.3
 30
0.0
 11
123.509619
 21
105.3
 31
0.0
  0
LINE
  8
L-ZISSEN
 10
149.490381
 20
105.3
 30
0.0
 11
156.490381
 21
105.3
 31
0.0
  0
LINE
  8
L-ZISSEN
 10
149.490381
 20
105.3
 30
0.0
 11
149.490381
 21
101.7
 31
0.0
  0
LINE
  8
L-ZISSEN
 10
156.490381
 20
105.3
 30
0.0
 11
156.490381
 21
101.7
 31
0.0
  0
LINE
  8
L-ZISSEN
 10
219.0
 20
105.3
 30
0.0
 11
219.0
 21
101.7
 31
0.0
  0
LINE
  8
L-ZISSEN
 10
219.0
 20
105.3
 30
0.0
 11
226.0
 21
105.3
 31
0.0
  0
LINE
  8
L-ZISSEN
 10
226.0
 20
105.3
 30
0.0
 11
226.0
 21
101.7
 31
0.0
  0
LINE
  8
L-ZISSEN
 10
234.0
 20
105.3
 30
0.0
 11
241.0
 21
105.3
 31
0.0
  0
LINE
  8
L-ZISSEN
 10
241.0
 20
105.3
 30
0.0
 11
241.0
 21
101.7
 31
0.0
  0
LINE
  8
L-ZISSEN
 10
234.0
 20
105.3
 30
0.0
 11
234.0
 21
101.7
 31
0.0
  0
LINE
  8
L-ZISSEN
 10
54.0
 20
105.3
 30
0.0
 11
54.0
 21
101.7
 31
0.0
  0
LINE
  8
L-ZISSEN
 10
61.0
 20
105.3
 30
0.0
 11
61.0
 21
101.7
 31
0.0
  0
LINE
  8
L-ZISSEN
 10
54.0
 20
105.3
 30
0.0
 11
61.0
 21
105.3
 31
0.0
  0
LINE
  8
L-ZISSEN
 10
46.0
 20
105.3
 30
0.0
 11
46.0
 21
101.7
 31
0.0
  0
LINE
  8
L-ZISSEN
 10
39.0
 20
105.3
 30
0.0
 11
46.0
 21
105.3
 31
0.0
  0
LINE
  8
L-ZISSEN
 10
39.0
 20
105.3
 30
0.0
 11
39.0
 21
101.7
 31
0.0
  0
LINE
  8
L-ZISSEN
 10
37.5
 20
101.7
 30
0.0
 11
62.5
 21
101.7
 31
0.0
  0
LINE
  8
L-ZISSEN
 10
39.5
 20
127.7
 30
0.0
 11
47.0
 21
127.7
 31
0.0
  0
LINE
  8
L-ZISSEN
 10
39.5
 20
127.7
 30
0.0
 11
39.5
 21
105.3
 31
0.0
  0
LINE
  8
L-ZISSEN
 10
60.5
 20
127.7
 30
0.0
 11
60.5
 21
105.3
 31
0.0
  0
LINE
  8
L-ZISSEN
 10
47.0
 20
136.8
 30
0.0
 11
47.0
 21
101.7
 31
0.0
  0
LINE
  8
L-ZISSEN
 10
53.0
 20
136.8
 30
0.0
 11
53.0
 21
101.7
 31
0.0
  0
LINE
  8
L-ZISSEN
 10
53.0
 20
127.7
 30
0.0
 11
60.5
 21
127.7
 31
0.0
  0
LINE
  8
L-ZISSEN
 10
47.0
 20
109.8
 30
0.0
 11
53.0
 21
109.8
 31
0.0
  0
LINE
  8
L-ZISSEN
 10
44.0
 20
129.8
 30
0.0
 11
47.0
 21
129.8
 31
0.0
  0
LINE
  8
L-ZISSEN
 10
44.0
 20
127.7
 30
0.0
 11
44.0
 21
129.8
 31
0.0
  0
LINE
  8
L-ZISSEN
 10
56.0
 20
127.7
 30
0.0
 11
56.0
 21
129.8
 31
0.0
  0
LINE
  8
L-ZISSEN
 10
53.0
 20
129.8
 30
0.0
 11
56.0
 21
129.8
 31
0.0
  0
LINE
  8
L-ZISSEN
 10
53.0
 20
112.8
 30
0.0
 11
47.0
 21
112.8
 31
0.0
  0
LINE
  8
L-ZISSEN
 10
47.0
 20
136.8
 30
0.0
 11
53.0
 21
136.8
 31
0.0
  0
LINE
  8
L-ZISSEN
 10
37.5
 20
101.7
 30
0.0
 11
37.5
 21
98.0
 31
0.0
  0
LINE
  8
L-ZISSEN
 10
62.5
 20
101.7
 30
0.0
 11
62.5
 21
98.0
 31
0.0
  0
TEXT
  8
L-ZISSEN
 10
40.0
 20
210.0
 30
0.0
 40
4.5
  1
MODEL NO. : POV-3002RA
  0
SOLID
  8
L-ZISSEN
 10
231.495224
 20
96.630542
 30
0.0
 11
231.85855
 21
97.189505
 31
0.0
 12
230.0
 22
98.0
 32
0.0
 13
230.0
 23
98.0
 33
0.0
  0
LINE
  8
L-ZISSEN
 10
231.676887
 20
96.910023
 30
0.0
 11
250.0
 21
85.0
 31
0.0
  0
LINE
  8
L-ZISSEN
 10
250.0
 20
85.0
 30
0.0
 11
252.0
 21
85.0
 31
0.0
  0
TEXT
  8
L-ZISSEN
 10
254.0
 20
82.75
 30
0.0
 40
4.5
  1
P.P
  0
SOLID
  8
L-ZISSEN
 10
141.573189
 20
99.279135
 30
0.0
 11
141.073297
 21
99.720216
 31
0.0
 12
140.0
 22
98.0
 32
0.0
 13
140.0
 23
98.0
 33
0.0
  0
LINE
  8
L-ZISSEN
 10
141.323243
 20
99.499676
 30
0.0
 11
155.0
 21
115.0
 31
0.0
  0
LINE
  8
L-ZISSEN
 10
155.0
 20
115.0
 30
0.0
 11
157.0
 21
115.0
 31
0.0
  0
TEXT
  8
L-ZISSEN
 10
159.0
 20
112.75
 30
0.0
 40
4.5
  1
P.P
  0
TEXT
  8
L-ZISSEN
 10
325.0
 20
300.0
 30
0.0
 40
4.5
  1
MODEL NO. : POV-3002B
  0
SOLID
  8
L-ZISSEN
 10
351.178511
 20
183.350084
 30
0.0
 11
351.649916
 21
183.821489
 31
0.0
 12
350.0
 22
185.0
 32
0.0
 13
350.0
 23
185.0
 33
0.0
  0
LINE
  8
L-ZISSEN
 10
351.414214
 20
183.585786
 30
0.0
 11
360.0
 21
175.0
 31
0.0
  0
LINE
  8
L-ZISSEN
 10
360.0
 20
175.0
 30
0.0
 11
362.0
 21
175.0
 31
0.0
  0
TEXT
  8
L-ZISSEN
 10
364.0
 20
172.75
 30
0.0
 40
4.5
  1
P.P
  0
SOLID
  8
L-ZISSEN
 10
411.178511
 20
183.350084
 30
0.0
 11
411.649916
 21
183.821489
 31
0.0
 12
410.0
 22
185.0
 32
0.0
 13
410.0
 23
185.0
 33
0.0
  0
LINE
  8
L-ZISSEN
 10
411.414214
 20
183.585786
 30
0.0
 11
420.0
 21
175.0
 31
0.0
  0
LINE
  8
L-ZISSEN
 10
420.0
 20
175.0
 30
0.0
 11
422.0
 21
175.0
 31
0.0
  0
TEXT
  8
L-ZISSEN
 10
424.0
 20
172.75
 30
0.0
 40
4.5
  1
P.P
  0
LINE
  8
L-TYUSIN
 10
305.0
 20
310.0
 30
0.0
 11
305.0
 21
10.0
 31
0.0
  0
LINE
  8
L-TYUSIN
 10
455.0
 20
310.0
 30
0.0
 11
455.0
 21
10.0
 31
0.0
  0
TEXT
  8
L-ZISSEN
 10
475.0
 20
300.0
 30
0.0
 40
4.5
  1
MODEL NO. : POV-3002C
  0
SOLID
  8
L-ZISSEN
 10
141.466667
 20
176.4
 30
0.0
 11
140.933333
 21
176.8
 31
0.0
 12
140.0
 22
175.0
 32
0.0
 13
140.0
 23
175.0
 33
0.0
  0
LINE
  8
L-ZISSEN
 10
141.2
 20
176.6
 30
0.0
 11
155.0
 21
195.0
 31
0.0
  0
LINE
  8
L-ZISSEN
 10
155.0
 20
195.0
 30
0.0
 11
157.0
 21
195.0
 31
0.0
  0
TEXT
  8
L-ZISSEN
 10
159.0
 20
192.75
 30
0.0
 40
4.5
  1
P.P
  0
SOLID
  8
L-ZISSEN
 10
351.466667
 20
266.4
 30
0.0
 11
350.933333
 21
266.8
 31
0.0
 12
350.0
 22
265.0
 32
0.0
 13
350.0
 23
265.0
 33
0.0
  0
LINE
  8
L-ZISSEN
 10
351.2
 20
266.6
 30
0.0
 11
365.0
 21
285.0
 31
0.0
  0
LINE
  8
L-ZISSEN
 10
365.0
 20
285.0
 30
0.0
 11
367.0
 21
285.0
 31
0.0
  0
TEXT
  8
L-ZISSEN
 10
369.0
 20
282.75
 30
0.0
 40
4.5
  1
P.P
  0
LINE
  8
L-TYUSIN
 10
305.0
 20
160.0
 30
0.0
 11
605.0
 21
160.0
 31
0.0
  0
TEXT
  8
L-ZISSEN
 10
325.0
 20
150.0
 30
0.0
 40
4.5
  1
MODEL NO. : POV-3002L
  0
TEXT
  8
L-ZISSEN
 10
475.0
 20
150.0
 30
0.0
 40
4.5
  1
MODEL NO. : POV-3002RB
  0
SOLID
  8
L-ZISSEN
 10
501.178511
 20
33.350084
 30
0.0
 11
501.649916
 21
33.821489
 31
0.0
 12
500.0
 22
35.0
 32
0.0
 13
500.0
 23
35.0
 33
0.0
  0
LINE
  8
L-ZISSEN
 10
501.414214
 20
33.585786
 30
0.0
 11
510.0
 21
25.0
 31
0.0
  0
LINE
  8
L-ZISSEN
 10
510.0
 20
25.0
 30
0.0
 11
512.0
 21
25.0
 31
0.0
  0
TEXT
  8
L-ZISSEN
 10
514.0
 20
22.75
 30
0.0
 40
4.5
  1
P.P
  0
SOLID
  8
L-ZISSEN
 10
561.178511
 20
33.350084
 30
0.0
 11
561.649916
 21
33.821489
 31
0.0
 12
560.0
 22
35.0
 32
0.0
 13
560.0
 23
35.0
 33
0.0
  0
LINE
  8
L-ZISSEN
 10
561.414214
 20
33.585786
 30
0.0
 11
570.0
 21
25.0
 31
0.0
  0
LINE
  8
L-ZISSEN
 10
570.0
 20
25.0
 30
0.0
 11
572.0
 21
25.0
 31
0.0
  0
TEXT
  8
L-ZISSEN
 10
574.0
 20
22.75
 30
0.0
 40
4.5
  1
P.P
  0
SOLID
  8
L-ZISSEN
 10
501.466667
 20
116.4
 30
0.0
 11
500.933333
 21
116.8
 31
0.0
 12
500.0
 22
115.0
 32
0.0
 13
500.0
 23
115.0
 33
0.0
  0
LINE
  8
L-ZISSEN
 10
501.2
 20
116.6
 30
0.0
 11
515.0
 21
135.0
 31
0.0
  0
LINE
  8
L-ZISSEN
 10
515.0
 20
135.0
 30
0.0
 11
517.0
 21
135.0
 31
0.0
  0
TEXT
  8
L-ZISSEN
 10
519.0
 20
132.75
 30
0.0
 40
4.5
  1
P.P
  0
LINE
  8
L-ZISSEN
 10
483.509619
 20
43.6
 30
0.0
 11
490.509619
 21
43.6
 31
0.0
  0
LINE
  8
L-ZISSEN
 10
483.509619
 20
43.6
 30
0.0
 11
483.509619
 21
40.0
 31
0.0
  0
LINE
  8
L-ZISSEN
 10
490.509619
 20
43.6
 30
0.0
 11
490.509619
 21
40.0
 31
0.0
  0
LINE
  8
L-ZISSEN
 10
509.490381
 20
43.6
 30
0.0
 11
509.490381
 21
40.0
 31
0.0
  0
LINE
  8
L-ZISSEN
 10
516.490381
 20
43.6
 30
0.0
 11
509.490381
 21
43.6
 31
0.0
  0
LINE
  8
L-ZISSEN
 10
516.490381
 20
43.6
 30
0.0
 11
516.490381
 21
40.0
 31
0.0
  0
LINE
  8
L-ZISSEN
 10
556.0
 20
43.6
 30
0.0
 11
549.0
 21
43.6
 31
0.0
  0
LINE
  8
L-ZISSEN
 10
549.0
 20
43.6
 30
0.0
 11
549.0
 21
40.0
 31
0.0
  0
LINE
  8
L-ZISSEN
 10
556.0
 20
43.6
 30
0.0
 11
556.0
 21
40.0
 31
0.0
  0
LINE
  8
L-ZISSEN
 10
571.0
 20
43.6
 30
0.0
 11
564.0
 21
43.6
 31
0.0
  0
LINE
  8
L-ZISSEN
 10
571.0
 20
43.6
 30
0.0
 11
571.0
 21
40.0
 31
0.0
  0
LINE
  8
L-ZISSEN
 10
564.0
 20
43.6
 30
0.0
 11
564.0
 21
40.0
 31
0.0
  0
LINE
  8
L-ZISSEN
 10
488.0
 20
64.3
 30
0.0
 11
490.2
 21
64.3
 31
0.0
  0
LINE
  8
L-ZISSEN
 10
488.0
 20
59.3
 30
0.0
 11
488.0
 21
64.3
 31
0.0
  0
LINE
  8
L-ZISSEN
 10
490.2
 20
59.3
 30
0.0
 11
488.0
 21
59.3
 31
0.0
  0
LINE
  8
L-ZISSEN
 10
490.2
 20
65.3
 30
0.0
 11
491.0
 21
65.3
 31
0.0
  0
LINE
  8
L-ZISSEN
 10
490.2
 20
59.8
 30
0.0
 11
491.0
 21
59.8
 31
0.0
  0
LINE
  8
L-ZISSEN
 10
490.2
 20
59.3
 30
0.0
 11
490.2
 21
65.3
 31
0.0
  0
LINE
  8
L-ZISSEN
 10
508.0
 20
120.0
 30
0.0
 11
509.0
 21
120.0
 31
0.0
  0
LINE
  8
L-ZISSEN
 10
509.0
 20
120.0
 30
0.0
 11
509.0
 21
110.0
 31
0.0
  0
LINE
  8
L-ZISSEN
 10
509.8
 20
112.5
 30
0.0
 11
512.0
 21
112.5
 31
0.0
  0
LINE
  8
L-ZISSEN
 10
512.0
 20
117.5
 30
0.0
 11
509.8
 21
117.5
 31
0.0
  0
LINE
  8
L-ZISSEN
 10
512.0
 20
112.5
 30
0.0
 11
512.0
 21
117.5
 31
0.0
  0
LINE
  8
L-ZISSEN
 10
509.8
 20
118.5
 30
0.0
 11
509.0
 21
118.5
 31
0.0
  0
LINE
  8
L-ZISSEN
 10
509.8
 20
111.5
 30
0.0
 11
509.8
 21
118.5
 31
0.0
  0
LINE
  8
L-ZISSEN
 10
508.0
 20
110.0
 30
0.0
 11
509.0
 21
110.0
 31
0.0
  0
LINE
  8
L-ZISSEN
 10
509.8
 20
111.5
 30
0.0
 11
509.0
 21
111.5
 31
0.0
  0
ARC
  8
L-ZISSEN
 10
500.0
 20
115.0
 30
0.0
 40
10.0
 50
20.487315
 51
25.841933
  0
ARC
  8
L-ZISSEN
 10
500.0
 20
115.0
 30
0.0
 40
10.0
 50
-25.841933
 51
-20.487315
  0
ARC
  8
L-ZISSEN
 10
500.0
 20
115.0
 30
0.0
 40
6.0
 50
118.903335
 51
241.096665
  0
ARC
  8
L-ZISSEN
 10
500.0
 20
115.0
 30
0.0
 40
6.0
 50
298.903335
 51
61.096665
  0
LINE
  8
L-ZISSEN
 10
142.5
 20
169.435829
 30
0.0
 11
142.5
 21
166.25
 31
0.0
  0
LINE
  8
L-ZISSEN
 10
137.5
 20
166.25
 30
0.0
 11
137.5
 21
169.435829
 31
0.0
  0
ARC
  8
L-ZISSEN
 10
140.0
 20
175.0
 30
0.0
 40
6.1
 50
-150.540825
 51
-28.386038
  0
LINE
  8
L-ZISSEN
 10
63.0
 20
98.0
 30
0.0
 11
63.0
 21
50.0
 31
0.0
  0
LINE
  8
L-ZISSEN
 10
37.0
 20
98.0
 30
0.0
 11
37.0
 21
50.0
 31
0.0
  0
CIRCLE
  8
L-ZISSEN
 10
230.0
 20
62.0
 30
0.0
 40
5.7225
  0
LINE
  8
L-TYUSIN
 10
220.0
 20
62.0
 30
0.0
 11
240.0
 21
62.0
 31
0.0
  0
LINE
  8
L-TYUSIN
 10
40.0
 20
74.0
 30
0.0
 11
60.0
 21
74.0
 31
0.0
  0
CIRCLE
  8
L-ZISSEN
 10
50.0
 20
74.0
 30
0.0
 40
5.7225
  0
LINE
  8
L-TYUSIN
 10
111.0
 20
74.0
 30
0.0
 11
169.0
 21
74.0
 31
0.0
  0
LINE
  8
L-TYUSIN
 10
157.0
 20
84.0
 30
0.0
 11
157.0
 21
64.0
 31
0.0
  0
CIRCLE
  8
L-ZISSEN
 10
157.0
 20
74.0
 30
0.0
 40
3.25
  0
CIRCLE
  8
L-ZISSEN
 10
123.0
 20
62.0
 30
0.0
 40
3.25
  0
CIRCLE
  8
L-ZISSEN
 10
123.0
 20
86.0
 30
0.0
 40
3.25
  0
LINE
  8
L-TYUSIN
 10
123.0
 20
96.0
 30
0.0
 11
123.0
 21
76.0
 31
0.0
  0
LINE
  8
L-TYUSIN
 10
113.0
 20
86.0
 30
0.0
 11
133.0
 21
86.0
 31
0.0
  0
LINE
  8
L-ZISSEN
 10
243.0
 20
50.0
 30
0.0
 11
217.0
 21
50.0
 31
0.0
  0
LINE
  8
L-ZISSEN
 10
243.0
 20
98.0
 30
0.0
 11
243.0
 21
50.0
 31
0.0
  0
LINE
  8
L-ZISSEN
 10
217.0
 20
98.0
 30
0.0
 11
217.0
 21
50.0
 31
0.0
  0
LINE
  8
L-ZISSEN
 10
116.0
 20
98.0
 30
0.0
 11
116.0
 21
50.0
 31
0.0
  0
LINE
  8
L-ZISSEN
 10
164.0
 20
98.0
 30
0.0
 11
164.0
 21
50.0
 31
0.0
  0
LINE
  8
L-ZISSEN
 10
164.0
 20
50.0
 30
0.0
 11
116.0
 21
50.0
 31
0.0
  0
LINE
  8
L-ZISSEN
 10
164.0
 20
98.0
 30
0.0
 11
116.0
 21
98.0
 31
0.0
  0
LINE
  8
L-ZISSEN
 10
243.0
 20
98.0
 30
0.0
 11
217.0
 21
98.0
 31
0.0
  0
LINE
  8
L-ZISSEN
 10
37.0
 20
98.0
 30
0.0
 11
63.0
 21
98.0
 31
0.0
  0
LINE
  8
L-TYUSIN
 10
220.0
 20
86.0
 30
0.0
 11
240.0
 21
86.0
 31
0.0
  0
CIRCLE
  8
L-ZISSEN
 10
230.0
 20
86.0
 30
0.0
 40
5.7225
  0
LINE
  8
L-ZISSEN
 10
46.0
 20
41.6
 30
0.0
 11
46.0
 21
45.2
 31
0.0
  0
LINE
  8
L-ZISSEN
 10
39.0
 20
41.6
 30
0.0
 11
39.0
 21
45.2
 31
0.0
  0
LINE
  8
L-ZISSEN
 10
46.0
 20
41.6
 30
0.0
 11
39.0
 21
41.6
 31
0.0
  0
LINE
  8
L-ZISSEN
 10
54.0
 20
41.6
 30
0.0
 11
61.0
 21
41.6
 31
0.0
  0
LINE
  8
L-ZISSEN
 10
62.0
 20
45.2
 30
0.0
 11
38.0
 21
45.2
 31
0.0
  0
LINE
  8
L-ZISSEN
 10
38.0
 20
45.2
 30
0.0
 11
38.0
 21
50.0
 31
0.0
  0
LINE
  8
L-ZISSEN
 10
62.0
 20
45.2
 30
0.0
 11
62.0
 21
50.0
 31
0.0
  0
LINE
  8
L-ZISSEN
 10
61.0
 20
41.6
 30
0.0
 11
61.0
 21
45.2
 31
0.0
  0
LINE
  8
L-ZISSEN
 10
54.0
 20
41.6
 30
0.0
 11
54.0
 21
45.2
 31
0.0
  0
LINE
  8
L-ZISSEN
 10
54.0
 20
42.2
 30
0.0
 11
46.0
 21
42.2
 31
0.0
  0
LINE
  8
L-ZISSEN
 10
37.0
 20
50.0
 30
0.0
 11
63.0
 21
50.0
 31
0.0
  0
LINE
  8
L-ZISSEN
 10
149.5
 20
41.6
 30
0.0
 11
149.5
 21
45.2
 31
0.0
  0
LINE
  8
L-ZISSEN
 10
156.5
 20
41.6
 30
0.0
 11
149.5
 21
41.6
 31
0.0
  0
LINE
  8
L-ZISSEN
 10
156.5
 20
41.6
 30
0.0
 11
156.5
 21
45.2
 31
0.0
  0
LINE
  8
L-ZISSEN
 10
123.5
 20
41.6
 30
0.0
 11
123.5
 21
45.2
 31
0.0
  0
LINE
  8
L-ZISSEN
 10
130.5
 20
41.6
 30
0.0
 11
130.5
 21
45.2
 31
0.0
  0
LINE
  8
L-ZISSEN
 10
123.5
 20
41.6
 30
0.0
 11
130.5
 21
41.6
 31
0.0
  0
LINE
  8
L-ZISSEN
 10
147.25
 20
45.2
 30
0.0
 11
147.25
 21
42.2
 31
0.0
  0
LINE
  8
L-ZISSEN
 10
132.75
 20
45.2
 30
0.0
 11
132.75
 21
42.2
 31
0.0
  0
LINE
  8
L-ZISSEN
 10
147.25
 20
42.2
 30
0.0
 11
132.75
 21
42.2
 31
0.0
  0
LINE
  8
L-ZISSEN
 10
158.0
 20
45.2
 30
0.0
 11
158.0
 21
50.0
 31
0.0
  0
LINE
  8
L-ZISSEN
 10
122.0
 20
45.2
 30
0.0
 11
122.0
 21
50.0
 31
0.0
  0
LINE
  8
L-ZISSEN
 10
158.0
 20
45.2
 30
0.0
 11
122.0
 21
45.2
 31
0.0
  0
LINE
  8
L-TYUSIN
 10
113.0
 20
62.0
 30
0.0
 11
133.0
 21
62.0
 31
0.0
  0
LINE
  8
L-TYUSIN
 10
123.0
 20
72.0
 30
0.0
 11
123.0
 21
52.0
 31
0.0
  0
LINE
  8
L-TYUSIN
 10
159.0
 20
86.0
 30
0.0
 11
169.0
 21
86.0
 31
0.0
  0
LINE
  8
L-TYUSIN
 10
159.0
 20
62.0
 30
0.0
 11
169.0
 21
62.0
 31
0.0
  0
SOLID
  8
L-ZISSEN
 10
114.241006
 20
72.99151
 30
0.0
 11
114.663165
 21
72.475539
 31
0.0
 12
116.0
 22
74.0
 32
0.0
 13
116.0
 23
74.0
 33
0.0
  0
LINE
  8
L-ZISSEN
 10
114.452085
 20
72.733524
 30
0.0
 11
105.0
 21
65.0
 31
0.0
  0
LINE
  8
L-ZISSEN
 10
105.0
 20
65.0
 30
0.0
 11
103.0
 21
65.0
 31
0.0
  0
TEXT
  8
L-ZISSEN
 10
69.5
 20
62.75
 30
0.0
 40
4.5
  1
PORT "O"
  0
TEXT
  8
L-ZISSEN
 10
70.0
 20
55.0
 30
0.0
 40
4.5
  1
Rc 1/4
  0
LINE
  8
L-ZISSEN
 10
360.0
 20
47.8
 30
0.0
 11
360.0
 21
42.6
 31
0.0
  0
LINE
  8
L-ZISSEN
 10
340.0
 20
47.8
 30
0.0
 11
340.0
 21
42.6
 31
0.0
  0
LINE
  8
L-ZISSEN
 10
344.5
 20
53.298902
 30
0.0
 11
355.5
 21
53.298902
 31
0.0
  0
LINE
  8
L-ZISSEN
 10
355.5
 20
53.298902
 30
0.0
 11
355.5
 21
47.8
 31
0.0
  0
LINE
  8
L-ZISSEN
 10
344.5
 20
53.298902
 30
0.0
 11
344.5
 21
47.8
 31
0.0
  0
LINE
  8
L-ZISSEN
 10
347.248994
 20
56.3
 30
0.0
 11
352.751006
 21
56.3
 31
0.0
  0
LINE
  8
L-ZISSEN
 10
340.0
 20
47.8
 30
0.0
 11
360.0
 21
47.8
 31
0.0
  0
LINE
  8
L-ZISSEN
 10
355.5
 20
53.298902
 30
0.0
 11
352.75
 21
56.3
 31
0.0
  0
LINE
  8
L-ZISSEN
 10
350.0
 20
56.3
 30
0.0
 11
352.75
 21
56.3
 31
0.0
  0
LINE
  8
L-ZISSEN
 10
344.5
 20
53.298902
 30
0.0
 11
347.25
 21
56.3
 31
0.0
  0
LINE
  8
L-ZISSEN
 10
350.0
 20
56.3
 30
0.0
 11
352.5
 21
56.3
 31
0.0
  0
ARC
  8
L-ZISSEN
 10
350.0
 20
55.321837
 30
0.0
 40
2.4
 50
24.052141
 51
155.947859
  0
LINE
  8
L-ZISSEN
 10
413.1
 20
70.132786
 30
0.0
 11
415.5
 21
70.132786
 31
0.0
  0
LINE
  8
L-ZISSEN
 10
404.5
 20
70.132786
 30
0.0
 11
406.9
 21
70.132786
 31
0.0
  0
LINE
  8
L-ZISSEN
 10
402.0
 20
55.3
 30
0.0
 11
403.7
 21
55.3
 31
0.0
  0
LINE
  8
L-ZISSEN
 10
402.0
 20
55.3
 30
0.0
 11
402.0
 21
60.3
 31
0.0
  0
LINE
  8
L-ZISSEN
 10
402.0
 20
60.3
 30
0.0
 11
403.7
 21
60.3
 31
0.0
  0
LINE
  8
L-ZISSEN
 10
403.7
 20
55.3
 30
0.0
 11
403.7
 21
61.3
 31
0.0
  0
LINE
  8
L-ZISSEN
 10
404.5
 20
61.3
 30
0.0
 11
403.7
 21
61.3
 31
0.0
  0
LINE
  8
L-ZISSEN
 10
404.5
 20
55.8
 30
0.0
 11
403.7
 21
55.8
 31
0.0
  0
LINE
  8
L-ZISSEN
 10
415.5
 20
55.8
 30
0.0
 11
416.3
 21
55.8
 31
0.0
  0
LINE
  8
L-ZISSEN
 10
415.5
 20
61.3
 30
0.0
 11
416.3
 21
61.3
 31
0.0
  0
LINE
  8
L-ZISSEN
 10
416.3
 20
55.3
 30
0.0
 11
416.3
 21
61.3
 31
0.0
  0
LINE
  8
L-ZISSEN
 10
418.0
 20
55.3
 30
0.0
 11
416.3
 21
55.3
 31
0.0
  0
LINE
  8
L-ZISSEN
 10
418.0
 20
55.3
 30
0.0
 11
418.0
 21
60.3
 31
0.0
  0
LINE
  8
L-ZISSEN
 10
418.0
 20
60.3
 30
0.0
 11
416.3
 21
60.3
 31
0.0
  0
LINE
  8
L-ZISSEN
 10
418.0
 20
74.868641
 30
0.0
 11
416.3
 21
74.868641
 31
0.0
  0
LINE
  8
L-ZISSEN
 10
418.0
 20
69.868641
 30
0.0
 11
418.0
 21
74.868641
 31
0.0
  0
LINE
  8
L-ZISSEN
 10
418.0
 20
69.868641
 30
0.0
 11
416.3
 21
69.868641
 31
0.0
  0
LINE
  8
L-ZISSEN
 10
421.0
 20
42.6
 30
0.0
 11
421.0
 21
39.0
 31
0.0
  0
LINE
  8
L-ZISSEN
 10
414.0
 20
42.6
 30
0.0
 11
421.0
 21
42.6
 31
0.0
  0
LINE
  8
L-ZISSEN
 10
414.0
 20
42.6
 30
0.0
 11
414.0
 21
39.0
 31
0.0
  0
LINE
  8
L-ZISSEN
 10
406.0
 20
42.6
 30
0.0
 11
406.0
 21
39.0
 31
0.0
  0
LINE
  8
L-ZISSEN
 10
399.0
 20
42.6
 30
0.0
 11
406.0
 21
42.6
 31
0.0
  0
LINE
  8
L-ZISSEN
 10
399.0
 20
42.6
 30
0.0
 11
399.0
 21
39.0
 31
0.0
  0
LINE
  8
L-ZISSEN
 10
359.490381
 20
42.6
 30
0.0
 11
359.490381
 21
39.0
 31
0.0
  0
LINE
  8
L-ZISSEN
 10
366.490381
 20
42.6
 30
0.0
 11
366.490381
 21
39.0
 31
0.0
  0
LINE
  8
L-ZISSEN
 10
359.490381
 20
42.6
 30
0.0
 11
366.490381
 21
42.6
 31
0.0
  0
LINE
  8
L-ZISSEN
 10
340.509619
 20
42.6
 30
0.0
 11
340.509619
 21
39.0
 31
0.0
  0
LINE
  8
L-ZISSEN
 10
340.509619
 20
42.6
 30
0.0
 11
333.509619
 21
42.6
 31
0.0
  0
LINE
  8
L-ZISSEN
 10
333.509619
 20
42.6
 30
0.0
 11
333.509619
 21
39.0
 31
0.0
  0
LINE
  8
L-ZISSEN
 10
339.266932
 20
111.9
 30
0.0
 11
339.266932
 21
118.1
 31
0.0
  0
LINE
  8
L-ZISSEN
 10
322.0
 20
111.9
 30
0.0
 11
322.0
 21
118.1
 31
0.0
  0
LINE
  8
L-ZISSEN
 10
331.022983
 20
118.1
 30
0.0
 11
331.022983
 21
120.5
 31
0.0
  0
LINE
  8
L-ZISSEN
 10
332.237036
 20
118.1
 30
0.0
 11
332.237036
 21
120.5
 31
0.0
  0
LINE
  8
L-ZISSEN
 10
332.237036
 20
109.5
 30
0.0
 11
332.237036
 21
111.9
 31
0.0
  0
LINE
  8
L-ZISSEN
 10
331.022983
 20
109.5
 30
0.0
 11
331.022983
 21
111.9
 31
0.0
  0
LINE
  8
L-ZISSEN
 10
317.683402
 20
109.5
 30
0.0
 11
317.683402
 21
120.5
 31
0.0
  0
LINE
  8
L-ZISSEN
 10
367.706829
 20
118.1
 30
0.0
 11
367.706829
 21
120.5
 31
0.0
  0
LINE
  8
L-ZISSEN
 10
376.282274
 20
118.1
 30
0.0
 11
376.282274
 21
120.5
 31
0.0
  0
LINE
  8
L-ZISSEN
 10
378.995455
 20
118.1
 30
0.0
 11
378.995455
 21
120.5
 31
0.0
  0
LINE
  8
L-ZISSEN
 10
367.706829
 20
109.5
 30
0.0
 11
367.706829
 21
111.9
 31
0.0
  0
LINE
  8
L-ZISSEN
 10
376.282274
 20
109.5
 30
0.0
 11
376.282274
 21
111.9
 31
0.0
  0
LINE
  8
L-ZISSEN
 10
378.995455
 20
109.5
 30
0.0
 11
378.995455
 21
111.9
 31
0.0
  0
LINE
  8
L-ZISSEN
 10
368.920883
 20
72.107415
 30
0.0
 11
367.706829
 21
75.918724
 31
0.0
  0
LINE
  8
L-ZISSEN
 10
323.899786
 20
52.525776
 30
0.0
 11
326.990054
 21
35.0
 31
0.0
  0
LINE
  8
L-ZISSEN
 10
331.287007
 20
63.3
 30
0.0
 11
339.266932
 21
63.3
 31
0.0
  0
LINE
  8
L-ZISSEN
 10
331.022983
 20
64.233459
 30
0.0
 11
332.237036
 21
60.422151
 31
0.0
  0
LINE
  8
L-ZISSEN
 10
339.355487
 20
62.797779
 30
0.0
 11
339.266932
 21
63.3
 31
0.0
  0
LINE
  8
L-ZISSEN
 10
330.0
 20
108.7
 30
0.0
 11
330.0
 21
102.5
 31
0.0
  0
TEXT
  8
L-ZISSEN
 10
369.0
 20
132.75
 30
0.0
 40
4.5
  1
P.P
  0
LINE
  8
L-ZISSEN
 10
365.0
 20
135.0
 30
0.0
 11
367.0
 21
135.0
 31
0.0
  0
LINE
  8
L-ZISSEN
 10
351.2
 20
116.6
 30
0.0
 11
365.0
 21
135.0
 31
0.0
  0
SOLID
  8
L-ZISSEN
 10
351.466667
 20
116.4
 30
0.0
 11
350.933333
 21
116.8
 31
0.0
 12
350.0
 22
115.0
 32
0.0
 13
350.0
 23
115.0
 33
0.0
  0
TEXT
  8
L-ZISSEN
 10
424.0
 20
22.75
 30
0.0
 40
4.5
  1
P.P
  0
LINE
  8
L-ZISSEN
 10
420.0
 20
25.0
 30
0.0
 11
422.0
 21
25.0
 31
0.0
  0
LINE
  8
L-ZISSEN
 10
411.414214
 20
33.585786
 30
0.0
 11
420.0
 21
25.0
 31
0.0
  0
SOLID
  8
L-ZISSEN
 10
411.178511
 20
33.350084
 30
0.0
 11
411.649916
 21
33.821489
 31
0.0
 12
410.0
 22
35.0
 32
0.0
 13
410.0
 23
35.0
 33
0.0
  0
TEXT
  8
L-ZISSEN
 10
364.0
 20
22.75
 30
0.0
 40
4.5
  1
P.P
  0
LINE
  8
L-ZISSEN
 10
360.0
 20
25.0
 30
0.0
 11
362.0
 21
25.0
 31
0.0
  0
LINE
  8
L-ZISSEN
 10
351.414214
 20
33.585786
 30
0.0
 11
360.0
 21
25.0
 31
0.0
  0
SOLID
  8
L-ZISSEN
 10
351.178511
 20
33.350084
 30
0.0
 11
351.649916
 21
33.821489
 31
0.0
 12
350.0
 22
35.0
 32
0.0
 13
350.0
 23
35.0
 33
0.0
  0
ARC
  8
L-ZISSEN
 10
362.990381
 20
122.5
 30
0.0
 40
3.5
 50
325.150095
 51
214.849905
  0
ARC
  8
L-ZISSEN
 10
337.009619
 20
122.5
 30
0.0
 40
3.5
 50
325.150095
 51
214.849905
  0
ARC
  8
L-ZISSEN
 10
337.009619
 20
107.5
 30
0.0
 40
3.5
 50
145.150095
 51
34.849905
  0
ARC
  8
L-ZISSEN
 10
362.990381
 20
107.5
 30
0.0
 40
3.5
 50
145.150095
 51
34.849905
  0
LINE
  8
L-ZISSEN
 10
330.0
 20
39.0
 30
0.0
 11
370.0
 21
39.0
 31
0.0
  0
LINE
  8
L-ZISSEN
 10
330.0
 20
39.0
 30
0.0
 11
330.0
 21
35.0
 31
0.0
  0
LINE
  8
L-ZISSEN
 10
370.0
 20
39.0
 30
0.0
 11
370.0
 21
35.0
 31
0.0
  0
LINE
  8
L-ZISSEN
 10
397.5
 20
39.0
 30
0.0
 11
422.5
 21
39.0
 31
0.0
  0
LINE
  8
L-ZISSEN
 10
397.5
 20
39.0
 30
0.0
 11
397.5
 21
35.0
 31
0.0
  0
LINE
  8
L-ZISSEN
 10
422.5
 20
39.0
 30
0.0
 11
422.5
 21
35.0
 31
0.0
  0
LINE
  8
L-ZISSEN
 10
330.0
 20
127.5
 30
0.0
 11
370.0
 21
127.5
 31
0.0
  0
LINE
  8
L-ZISSEN
 10
370.0
 20
102.5
 30
0.0
 11
330.0
 21
102.5
 31
0.0
  0
LINE
  8
L-ZISSEN
 10
322.0
 20
63.3
 30
0.0
 11
328.030317
 21
63.3
 31
0.0
  0
LINE
  8
L-ZISSEN
 10
342.0
 20
47.8
 30
0.0
 11
340.588199
 21
55.806721
 31
0.0
  0
LINE
  8
L-ZISSEN
 10
322.0
 20
63.3
 30
0.0
 11
322.329018
 21
61.434049
 31
0.0
  0
LINE
  8
L-ZISSEN
 10
370.0
 20
127.5
 30
0.0
 11
370.0
 21
121.3
 31
0.0
  0
LINE
  8
L-ZISSEN
 10
330.0
 20
127.5
 30
0.0
 11
330.0
 21
121.3
 31
0.0
  0
ARC
  8
L-ZISSEN
 10
350.0
 20
115.0
 30
0.0
 40
10.0
 50
213.367013
 51
326.632987
  0
LINE
  8
L-ZISSEN
 10
342.0
 20
118.0
 30
0.0
 11
342.0
 21
112.0
 31
0.0
  0
LINE
  8
L-ZISSEN
 10
400.0
 20
47.8
 30
0.0
 11
400.0
 21
42.6
 31
0.0
  0
LINE
  8
L-ZISSEN
 10
400.0
 20
47.8
 30
0.0
 11
420.0
 21
47.8
 31
0.0
  0
LINE
  8
L-ZISSEN
 10
420.0
 20
47.8
 30
0.0
 11
420.0
 21
42.6
 31
0.0
  0
ARC
  8
L-ZISSEN
 10
410.0
 20
56.3
 30
0.0
 40
2.4
 50
0.0
 51
180.0
  0
LINE
  8
L-ZISSEN
 10
404.5
 20
53.298902
 30
0.0
 11
415.5
 21
53.298902
 31
0.0
  0
LINE
  8
L-ZISSEN
 10
407.25
 20
56.3
 30
0.0
 11
404.5
 21
53.298902
 31
0.0
  0
LINE
  8
L-ZISSEN
 10
412.75
 20
56.3
 30
0.0
 11
415.5
 21
53.298902
 31
0.0
  0
LINE
  8
L-ZISSEN
 10
415.5
 20
78.650344
 30
0.0
 11
415.5
 21
47.8
 31
0.0
  0
LINE
  8
L-ZISSEN
 10
404.5
 20
78.650344
 30
0.0
 11
404.5
 21
47.8
 31
0.0
  0
LINE
  8
L-ZISSEN
 10
407.25
 20
56.3
 30
0.0
 11
412.75
 21
56.3
 31
0.0
  0
LINE
  8
L-ZISSEN
 10
352.444203
 20
57.938117
 30
0.0
 11
378.995455
 21
70.132786
 31
0.0
  0
LINE
  8
L-ZISSEN
 10
352.444203
 20
57.938117
 30
0.0
 11
320.26615
 21
51.876188
 31
0.0
  0
LINE
  8
L-ZISSEN
 10
378.995455
 20
70.132786
 30
0.0
 11
376.282274
 21
78.650344
 31
0.0
  0
LINE
  8
L-ZISSEN
 10
317.683402
 20
59.984272
 30
0.0
 11
320.26615
 21
51.876188
 31
0.0
  0
LINE
  8
L-ZISSEN
 10
376.282274
 20
78.650344
 30
0.0
 11
367.706829
 21
75.918724
 31
0.0
  0
LINE
  8
L-ZISSEN
 10
368.920883
 20
72.107415
 30
0.0
 11
332.237036
 21
60.422151
 31
0.0
  0
LINE
  8
L-ZISSEN
 10
331.022983
 20
64.233459
 30
0.0
 11
317.683402
 21
59.984272
 31
0.0
  0
ARC
  8
L-ZISSEN
 10
373.035705
 20
72.368641
 30
0.0
 40
12.0
 50
226.792148
 51
192.888554
  0
LINE
  8
L-ZISSEN
 10
371.519913
 20
70.380583
 30
0.0
 11
370.147674
 21
70.391451
 31
0.0
  0
ARC
  8
L-ZISSEN
 10
373.035705
 20
72.368641
 30
0.0
 40
3.5
 50
324.696333
 51
214.396142
  0
LINE
  8
L-ZISSEN
 10
375.892057
 20
70.345957
 30
0.0
 11
374.519819
 21
70.356825
 31
0.0
  0
CIRCLE
  8
L-ZISSEN
 10
373.035705
 20
72.368641
 30
0.0
 40
2.5
  0
LINE
  8
L-ZISSEN
 10
404.5
 20
78.650344
 30
0.0
 11
406.9
 21
78.650344
 31
0.0
  0
LINE
  8
L-ZISSEN
 10
413.1
 20
60.368641
 30
0.0
 11
406.9
 21
60.368641
 31
0.0
  0
LINE
  8
L-ZISSEN
 10
406.9
 20
84.368641
 30
0.0
 11
413.1
 21
84.368641
 31
0.0
  0
LINE
  8
L-ZISSEN
 10
406.9
 20
84.368641
 30
0.0
 11
406.9
 21
55.918042
 31
0.0
  0
LINE
  8
L-ZISSEN
 10
413.1
 20
78.650344
 30
0.0
 11
415.5
 21
78.650344
 31
0.0
  0
LINE
  8
L-ZISSEN
 10
413.1
 20
84.368641
 30
0.0
 11
413.1
 21
55.918042
 31
0.0
  0
LINE
  8
L-ZISSEN
 10
416.3
 20
69.868641
 30
0.0
 11
416.3
 21
75.868641
 31
0.0
  0
LINE
  8
L-ZISSEN
 10
415.5
 20
75.868641
 30
0.0
 11
416.3
 21
75.868641
 31
0.0
  0
LINE
  8
L-ZISSEN
 10
415.5
 20
70.368641
 30
0.0
 11
416.3
 21
70.368641
 31
0.0
  0
LINE
  8
L-ZISSEN
 10
404.5
 20
70.368641
 30
0.0
 11
403.7
 21
70.368641
 31
0.0
  0
LINE
  8
L-ZISSEN
 10
404.5
 20
75.868641
 30
0.0
 11
403.7
 21
75.868641
 31
0.0
  0
LINE
  8
L-ZISSEN
 10
403.7
 20
69.868641
 30
0.0
 11
403.7
 21
75.868641
 31
0.0
  0
LINE
  8
L-ZISSEN
 10
402.0
 20
74.868641
 30
0.0
 11
403.7
 21
74.868641
 31
0.0
  0
LINE
  8
L-ZISSEN
 10
402.0
 20
69.868641
 30
0.0
 11
402.0
 21
74.868641
 31
0.0
  0
LINE
  8
L-ZISSEN
 10
402.0
 20
69.868641
 30
0.0
 11
403.7
 21
69.868641
 31
0.0
  0
CIRCLE
  8
L-ZISSEN
 10
327.3
 20
57.8
 30
0.0
 40
2.5
  0
LINE
  8
L-ZISSEN
 10
330.172281
 20
55.8
 30
0.0
 11
328.8
 21
55.8
 31
0.0
  0
ARC
  8
L-ZISSEN
 10
327.3
 20
57.8
 30
0.0
 40
3.5
 50
325.150095
 51
214.849905
  0
LINE
  8
L-ZISSEN
 10
325.8
 20
55.8
 30
0.0
 11
324.427719
 21
55.8
 31
0.0
  0
LINE
  8
L-ZISSEN
 10
361.035705
 20
118.1
 30
0.0
 11
361.035705
 21
111.9
 31
0.0
  0
LINE
  8
L-ZISSEN
 10
385.035705
 20
111.9
 30
0.0
 11
385.035705
 21
118.1
 31
0.0
  0
LINE
  8
L-ZISSEN
 10
378.995455
 20
120.5
 30
0.0
 11
317.683402
 21
120.5
 31
0.0
  0
LINE
  8
L-ZISSEN
 10
385.035705
 20
118.1
 30
0.0
 11
353.599971
 21
118.1
 31
0.0
  0
LINE
  8
L-ZISSEN
 10
319.567192
 20
111.9
 30
0.0
 11
319.567192
 21
118.1
 31
0.0
  0
LINE
  8
L-ZISSEN
 10
378.995455
 20
109.5
 30
0.0
 11
317.683402
 21
109.5
 31
0.0
  0
LINE
  8
L-ZISSEN
 10
385.035705
 20
111.9
 30
0.0
 11
353.599971
 21
111.9
 31
0.0
  0
LINE
  8
L-ZISSEN
 10
344.096035
 20
111.9
 30
0.0
 11
344.096035
 21
118.1
 31
0.0
  0
LINE
  8
L-ZISSEN
 10
353.599971
 20
111.9
 30
0.0
 11
353.599971
 21
118.1
 31
0.0
  0
LINE
  8
L-ZISSEN
 10
356.030424
 20
111.9
 30
0.0
 11
356.030424
 21
118.1
 31
0.0
  0
LINE
  8
L-ZISSEN
 10
344.096035
 20
111.9
 30
0.0
 11
319.567192
 21
111.9
 31
0.0
  0
LINE
  8
L-ZISSEN
 10
344.096035
 20
118.1
 30
0.0
 11
319.567192
 21
118.1
 31
0.0
  0
ARC
  8
L-ZISSEN
 10
350.0
 20
115.0
 30
0.0
 40
10.0
 50
341.94077
 51
18.05923
  0
ARC
  8
L-ZISSEN
 10
350.0
 20
115.0
 30
0.0
 40
10.0
 50
33.367013
 51
146.632987
  0
LINE
  8
L-ZISSEN
 10
375.535705
 20
107.0
 30
0.0
 11
375.535705
 21
108.7
 31
0.0
  0
LINE
  8
L-ZISSEN
 10
375.535705
 20
107.0
 30
0.0
 11
370.535705
 21
107.0
 31
0.0
  0
LINE
  8
L-ZISSEN
 10
370.535705
 20
107.0
 30
0.0
 11
370.535705
 21
108.7
 31
0.0
  0
LINE
  8
L-ZISSEN
 10
376.535705
 20
108.7
 30
0.0
 11
369.535705
 21
108.7
 31
0.0
  0
LINE
  8
L-ZISSEN
 10
369.535705
 20
109.5
 30
0.0
 11
369.535705
 21
108.7
 31
0.0
  0
LINE
  8
L-ZISSEN
 10
369.535705
 20
120.5
 30
0.0
 11
369.535705
 21
121.3
 31
0.0
  0
LINE
  8
L-ZISSEN
 10
376.535705
 20
121.3
 30
0.0
 11
369.535705
 21
121.3
 31
0.0
  0
LINE
  8
L-ZISSEN
 10
375.535705
 20
123.0
 30
0.0
 11
375.535705
 21
121.3
 31
0.0
  0
LINE
  8
L-ZISSEN
 10
370.535705
 20
123.0
 30
0.0
 11
370.535705
 21
121.3
 31
0.0
  0
LINE
  8
L-ZISSEN
 10
375.535705
 20
123.0
 30
0.0
 11
370.535705
 21
123.0
 31
0.0
  0
LINE
  8
L-ZISSEN
 10
376.535705
 20
109.5
 30
0.0
 11
376.535705
 21
108.7
 31
0.0
  0
LINE
  8
L-ZISSEN
 10
376.535705
 20
120.5
 30
0.0
 11
376.535705
 21
121.3
 31
0.0
  0
LINE
  8
L-ZISSEN
 10
370.0
 20
108.7
 30
0.0
 11
370.0
 21
102.5
 31
0.0
  0
LINE
  8
L-ZISSEN
 10
331.0
 20
109.5
 30
0.0
 11
331.0
 21
108.7
 31
0.0
  0
LINE
  8
L-ZISSEN
 10
324.0
 20
109.5
 30
0.0
 11
324.0
 21
108.7
 31
0.0
  0
LINE
  8
L-ZISSEN
 10
331.0
 20
108.7
 30
0.0
 11
324.0
 21
108.7
 31
0.0
  0
LINE
  8
L-ZISSEN
 10
325.0
 20
107.0
 30
0.0
 11
325.0
 21
108.7
 31
0.0
  0
LINE
  8
L-ZISSEN
 10
330.0
 20
107.0
 30
0.0
 11
325.0
 21
107.0
 31
0.0
  0
LINE
  8
L-ZISSEN
 10
330.0
 20
107.0
 30
0.0
 11
330.0
 21
108.5
 31
0.0
  0
LINE
  8
L-ZISSEN
 10
330.0
 20
123.0
 30
0.0
 11
325.0
 21
123.0
 31
0.0
  0
LINE
  8
L-ZISSEN
 10
325.0
 20
123.0
 30
0.0
 11
325.0
 21
121.3
 31
0.0
  0
LINE
  8
L-ZISSEN
 10
330.0
 20
123.0
 30
0.0
 11
330.0
 21
121.5
 31
0.0
  0
LINE
  8
L-ZISSEN
 10
331.0
 20
120.5
 30
0.0
 11
331.0
 21
121.3
 31
0.0
  0
LINE
  8
L-ZISSEN
 10
331.0
 20
121.3
 30
0.0
 11
324.0
 21
121.3
 31
0.0
  0
LINE
  8
L-ZISSEN
 10
324.0
 20
120.5
 30
0.0
 11
324.0
 21
121.3
 31
0.0
  0
ARC
  8
L-ZISSEN
 10
560.0
 20
205.321837
 30
0.0
 40
2.4
 50
24.052141
 51
155.947859
  0
ARC
  8
L-ZISSEN
 10
500.0
 20
205.321837
 30
0.0
 40
2.4
 50
24.052141
 51
155.947859
  0
LINE
  8
L-ZISSEN
 10
500.0
 20
206.3
 30
0.0
 11
502.5
 21
206.3
 31
0.0
  0
LINE
  8
L-ZISSEN
 10
494.5
 20
203.298902
 30
0.0
 11
497.25
 21
206.3
 31
0.0
  0
LINE
  8
L-ZISSEN
 10
500.0
 20
206.3
 30
0.0
 11
502.75
 21
206.3
 31
0.0
  0
LINE
  8
L-ZISSEN
 10
505.5
 20
203.298902
 30
0.0
 11
502.75
 21
206.3
 31
0.0
  0
LINE
  8
L-ZISSEN
 10
571.0
 20
193.6
 30
0.0
 11
571.0
 21
190.0
 31
0.0
  0
LINE
  8
L-ZISSEN
 10
564.0
 20
193.6
 30
0.0
 11
564.0
 21
190.0
 31
0.0
  0
LINE
  8
L-ZISSEN
 10
564.0
 20
193.6
 30
0.0
 11
571.0
 21
193.6
 31
0.0
  0
LINE
  8
L-ZISSEN
 10
556.0
 20
193.6
 30
0.0
 11
556.0
 21
190.0
 31
0.0
  0
LINE
  8
L-ZISSEN
 10
549.0
 20
193.6
 30
0.0
 11
549.0
 21
190.0
 31
0.0
  0
LINE
  8
L-ZISSEN
 10
549.0
 20
193.6
 30
0.0
 11
556.0
 21
193.6
 31
0.0
  0
TEXT
  8
L-ZISSEN
 10
519.0
 20
282.75
 30
0.0
 40
4.5
  1
P.P
  0
LINE
  8
L-ZISSEN
 10
515.0
 20
285.0
 30
0.0
 11
517.0
 21
285.0
 31
0.0
  0
LINE
  8
L-ZISSEN
 10
501.2
 20
266.6
 30
0.0
 11
515.0
 21
285.0
 31
0.0
  0
SOLID
  8
L-ZISSEN
 10
501.466667
 20
266.4
 30
0.0
 11
500.933333
 21
266.8
 31
0.0
 12
500.0
 22
265.0
 32
0.0
 13
500.0
 23
265.0
 33
0.0
  0
LINE
  8
L-ZISSEN
 10
509.490381
 20
193.6
 30
0.0
 11
509.490381
 21
190.0
 31
0.0
  0
LINE
  8
L-ZISSEN
 10
509.490381
 20
193.6
 30
0.0
 11
516.490381
 21
193.6
 31
0.0
  0
LINE
  8
L-ZISSEN
 10
516.490381
 20
193.6
 30
0.0
 11
516.490381
 21
190.0
 31
0.0
  0
LINE
  8
L-ZISSEN
 10
490.509619
 20
193.6
 30
0.0
 11
490.509619
 21
190.0
 31
0.0
  0
LINE
  8
L-ZISSEN
 10
483.509619
 20
193.6
 30
0.0
 11
490.509619
 21
193.6
 31
0.0
  0
LINE
  8
L-ZISSEN
 10
483.509619
 20
193.6
 30
0.0
 11
483.509619
 21
190.0
 31
0.0
  0
TEXT
  8
L-ZISSEN
 10
514.0
 20
172.75
 30
0.0
 40
4.5
  1
P.P
  0
LINE
  8
L-ZISSEN
 10
510.0
 20
175.0
 30
0.0
 11
512.0
 21
175.0
 31
0.0
  0
LINE
  8
L-ZISSEN
 10
501.414214
 20
183.585786
 30
0.0
 11
510.0
 21
175.0
 31
0.0
  0
SOLID
  8
L-ZISSEN
 10
501.178511
 20
183.350084
 30
0.0
 11
501.649916
 21
183.821489
 31
0.0
 12
500.0
 22
185.0
 32
0.0
 13
500.0
 23
185.0
 33
0.0
  0
TEXT
  8
L-ZISSEN
 10
574.0
 20
172.75
 30
0.0
 40
4.5
  1
P.P
  0
LINE
  8
L-ZISSEN
 10
570.0
 20
175.0
 30
0.0
 11
572.0
 21
175.0
 31
0.0
  0
LINE
  8
L-ZISSEN
 10
561.414214
 20
183.585786
 30
0.0
 11
570.0
 21
175.0
 31
0.0
  0
SOLID
  8
L-ZISSEN
 10
561.178511
 20
183.350084
 30
0.0
 11
561.649916
 21
183.821489
 31
0.0
 12
560.0
 22
185.0
 32
0.0
 13
560.0
 23
185.0
 33
0.0
  0
LINE
  8
L-ZISSEN
 10
570.0
 20
197.8
 30
0.0
 11
570.0
 21
193.6
 31
0.0
  0
LINE
  8
L-ZISSEN
 10
550.0
 20
197.8
 30
0.0
 11
550.0
 21
193.6
 31
0.0
  0
LINE
  8
L-ZISSEN
 10
550.0
 20
197.8
 30
0.0
 11
570.0
 21
197.8
 31
0.0
  0
LINE
  8
L-ZISSEN
 10
554.5
 20
203.298902
 30
0.0
 11
565.5
 21
203.298902
 31
0.0
  0
LINE
  8
L-ZISSEN
 10
557.25
 20
206.3
 30
0.0
 11
554.5
 21
203.298902
 31
0.0
  0
LINE
  8
L-ZISSEN
 10
562.75
 20
206.3
 30
0.0
 11
565.5
 21
203.298902
 31
0.0
  0
LINE
  8
L-ZISSEN
 10
565.5
 20
203.298902
 30
0.0
 11
565.5
 21
197.8
 31
0.0
  0
LINE
  8
L-ZISSEN
 10
554.5
 20
203.298902
 30
0.0
 11
554.5
 21
197.8
 31
0.0
  0
LINE
  8
L-ZISSEN
 10
557.25
 20
206.3
 30
0.0
 11
562.75
 21
206.3
 31
0.0
  0
CIRCLE
  8
L-ZISSEN
 10
500.0
 20
265.0
 30
0.0
 40
2.4
  0
CIRCLE
  8
L-ZISSEN
 10
500.0
 20
265.0
 30
0.0
 40
2.75
  0
CIRCLE
  8
L-ZISSEN
 10
500.0
 20
265.0
 30
0.0
 40
5.5
  0
CIRCLE
  8
L-ZISSEN
 10
500.0
 20
265.0
 30
0.0
 40
10.0
  0
CIRCLE
  8
L-ZISSEN
 10
512.990381
 20
272.5
 30
0.0
 40
3.5
  0
CIRCLE
  8
L-ZISSEN
 10
487.009619
 20
272.5
 30
0.0
 40
3.5
  0
CIRCLE
  8
L-ZISSEN
 10
487.009619
 20
257.5
 30
0.0
 40
3.5
  0
CIRCLE
  8
L-ZISSEN
 10
512.990381
 20
257.5
 30
0.0
 40
3.5
  0
LINE
  8
L-ZISSEN
 10
480.0
 20
190.0
 30
0.0
 11
520.0
 21
190.0
 31
0.0
  0
LINE
  8
L-ZISSEN
 10
480.0
 20
190.0
 30
0.0
 11
480.0
 21
185.0
 31
0.0
  0
LINE
  8
L-ZISSEN
 10
520.0
 20
190.0
 30
0.0
 11
520.0
 21
185.0
 31
0.0
  0
LINE
  8
L-ZISSEN
 10
547.5
 20
190.0
 30
0.0
 11
572.5
 21
190.0
 31
0.0
  0
LINE
  8
L-ZISSEN
 10
547.5
 20
190.0
 30
0.0
 11
547.5
 21
185.0
 31
0.0
  0
LINE
  8
L-ZISSEN
 10
572.5
 20
190.0
 30
0.0
 11
572.5
 21
185.0
 31
0.0
  0
ARC
  8
L-ZISSEN
 10
500.0
 20
265.0
 30
0.0
 40
20.0
 50
323.130102
 51
36.869898
  0
LINE
  8
L-ZISSEN
 10
484.0
 20
277.0
 30
0.0
 11
516.0
 21
277.0
 31
0.0
  0
LINE
  8
L-ZISSEN
 10
516.0
 20
253.0
 30
0.0
 11
484.0
 21
253.0
 31
0.0
  0
ARC
  8
L-ZISSEN
 10
500.0
 20
265.0
 30
0.0
 40
20.0
 50
143.130102
 51
216.869898
  0
LINE
  8
L-ZISSEN
 10
490.0
 20
197.8
 30
0.0
 11
510.0
 21
197.8
 31
0.0
  0
LINE
  8
L-ZISSEN
 10
510.0
 20
197.8
 30
0.0
 11
510.0
 21
193.6
 31
0.0
  0
LINE
  8
L-ZISSEN
 10
490.0
 20
197.8
 30
0.0
 11
490.0
 21
193.6
 31
0.0
  0
LINE
  8
L-ZISSEN
 10
497.248994
 20
206.3
 30
0.0
 11
502.751006
 21
206.3
 31
0.0
  0
LINE
  8
L-ZISSEN
 10
494.5
 20
203.298902
 30
0.0
 11
494.5
 21
197.8
 31
0.0
  0
LINE
  8
L-ZISSEN
 10
505.5
 20
203.298902
 30
0.0
 11
505.5
 21
197.8
 31
0.0
  0
LINE
  8
L-ZISSEN
 10
494.5
 20
203.298902
 30
0.0
 11
505.5
 21
203.298902
 31
0.0
  0
ENDSEC
  0
EOF
