  0
SECTION
  2
HEADER
  9
$ACADVER
  1
AC1006
  9
$INSBASE
 10
832.993776
 20
536.855841
 30
0.0
  9
$EXTMIN
 10
30.0
 20
27.75
  9
$EXTMAX
 10
468.0
 20
282.5
  9
$LIMMIN
 10
0.0
 20
0.0
  9
$LIMMAX
 10
420.0
 20
297.0
  9
$ORTHOMODE
 70
     0
  9
$REGENMODE
 70
     1
  9
$FILLMODE
 70
     1
  9
$QTEXTMODE
 70
     0
  9
$MIRRTEXT
 70
     1
  9
$DRAGMODE
 70
     2
  9
$LTSCALE
 40
1.0
  9
$OSMODE
 70
     0
  9
$ATTMODE
 70
     1
  9
$TEXTSIZE
 40
4.5
  9
$TRACEWID
 40
0.05
  9
$TEXTSTYLE
  7
STANDARD
  9
$CLAYER
  8
L-ZISSEN
  9
$CELTYPE
  6
BYLAYER
  9
$CECOLOR
 62
   256
  9
$DIMSCALE
 40
1.0
  9
$DIMASZ
 40
2.0
  9
$DIMEXO
 40
2.0
  9
$DIMDLI
 40
0.38
  9
$DIMRND
 40
0.0
  9
$DIMDLE
 40
1.0
  9
$DIMEXE
 40
2.0
  9
$DIMTP
 40
0.0
  9
$DIMTM
 40
0.0
  9
$DIMTXT
 40
4.5
  9
$DIMCEN
 40
0.09
  9
$DIMTSZ
 40
0.0
  9
$DIMTOL
 70
     0
  9
$DIMLIM
 70
     0
  9
$DIMTIH
 70
     0
  9
$DIMTOH
 70
     0
  9
$DIMSE1
 70
     0
  9
$DIMSE2
 70
     0
  9
$DIMTAD
 70
     1
  9
$DIMZIN
 70
     0
  9
$DIMBLK
  1

  9
$DIMASO
 70
     0
  9
$DIMSHO
 70
     0
  9
$DIMPOST
  1

  9
$DIMAPOST
  1

  9
$DIMALT
 70
     0
  9
$DIMALTD
 70
     2
  9
$DIMALTF
 40
25.4
  9
$DIMLFAC
 40
1.0
  9
$DIMTOFL
 70
     1
  9
$DIMTVP
 40
0.0
  9
$DIMTIX
 70
     1
  9
$DIMSOXD
 70
     0
  9
$DIMSAH
 70
     0
  9
$DIMBLK1
  1

  9
$DIMBLK2
  1

  9
$LUNITS
 70
     2
  9
$LUPREC
 70
     4
  9
$AXISMODE
 70
     0
  9
$AXISUNIT
 10
0.0
 20
0.0
  9
$SKETCHINC
 40
0.1
  9
$FILLETRAD
 40
0.0
  9
$AUNITS
 70
     0
  9
$AUPREC
 70
     0
  9
$MENU
  1
acad
  9
$ELEVATION
 40
0.0
  9
$THICKNESS
 40
0.0
  9
$LIMCHECK
 70
     0
  9
$BLIPMODE
 70
     1
  9
$CHAMFERA
 40
1.5
  9
$CHAMFERB
 40
1.5
  9
$SKPOLY
 70
     0
  9
$TDCREATE
 40
2449001.8779935185
  9
$TDUPDATE
 40
2449001.8779935185
  9
$TDINDWG
 40
0.0000000000
  9
$TDUSRTIMER
 40
0.0000000000
  9
$USRTIMER
 70
     1
  9
$ANGBASE
 50
0.0
  9
$ANGDIR
 70
     0
  9
$PDMODE
 70
     0
  9
$PDSIZE
 40
0.0
  9
$PLINEWID
 40
0.0
  9
$COORDS
 70
     2
  9
$SPLFRAME
 70
     0
  9
$SPLINETYPE
 70
     6
  9
$SPLINESEGS
 70
     8
  9
$ATTDIA
 70
     0
  9
$ATTREQ
 70
     1
  9
$HANDLING
 70
     0
  9
$HANDSEED
  5
0
  9
$SURFTAB1
 70
     6
  9
$SURFTAB2
 70
     6
  9
$SURFTYPE
 70
     6
  9
$SURFU
 70
     6
  9
$SURFV
 70
     6
  9
$FLATLAND
 70
     0
  9
$UCSNAME
  2

  9
$UCSORG
 10
0.0
 20
0.0
 30
0.0
  9
$UCSXDIR
 10
1.0
 20
0.0
 30
0.0
  9
$UCSYDIR
 10
0.0
 20
1.0
 30
0.0
  9
$USERI1
 70
     0
  9
$USERI2
 70
     0
  9
$USERI3
 70
     0
  9
$USERI4
 70
     0
  9
$USERI5
 70
     0
  9
$USERR1
 40
0.0
  9
$USERR2
 40
0.0
  9
$USERR3
 40
0.0
  9
$USERR4
 40
0.0
  9
$USERR5
 40
0.0
  9
$WORLDVIEW
 70
     1
  0
ENDSEC
  0
SECTION
  2
TABLES
  0
TABLE
  2
VPORT
 70
     2
  0
VPORT
  2
*ACTIVE
 70
     0
 10
0.0
 20
0.0
 11
1.0
 21
1.0
 12
238.227989
 22
153.824519
 13
0.0
 23
0.0
 14
5.0
 24
5.0
 15
0.0
 25
0.0
 16
0.0
 26
0.0
 36
1.0
 17
0.0
 27
0.0
 37
0.0
 40
307.649038
 41
1.5487
 42
50.0
 43
0.0
 44
0.0
 50
0.0
 51
0.0
 71
     0
 72
   100
 73
     1
 74
     0
 75
     0
 76
     0
 77
     0
 78
     0
  0
ENDTAB
  0
TABLE
  2
LTYPE
 70
     2
  0
LTYPE
  2
CONTINUOUS
 70
    64
  3
Solid line
 72
    65
 73
     0
 40
0.0
  0
LTYPE
  2
CENTER
 70
    64
  3
____ _ ____ _ ____ _ ____ _ 
 72
    65
 73
     4
 40
60.0
 49
45.0
 49
-5.0
 49
5.0
 49
-5.0
  0
ENDTAB
  0
TABLE
  2
LAYER
 70
     3
  0
LAYER
  2
0
 70
     0
 62
     7
  6
CONTINUOUS
  0
LAYER
  2
L-ZISSEN
 70
    64
 62
     7
  6
CONTINUOUS
  0
LAYER
  2
L-TYUSIN
 70
    64
 62
     1
  6
CENTER
  0
ENDTAB
  0
TABLE
  2
STYLE
 70
     1
  0
STYLE
  2
STANDARD
 70
    64
 40
0.0
 41
1.0
 50
0.0
 71
     0
 42
4.5
  3
txt
  4

  0
ENDTAB
  0
TABLE
  2
VIEW
 70
     0
  0
ENDTAB
  0
TABLE
  2
UCS
 70
     0
  0
ENDTAB
  0
TABLE
  2
DWGMGR
 70
     0
  0
ENDTAB
  0
ENDSEC
  0
SECTION
  2
BLOCKS
  0
ENDSEC
  0
SECTION
  2
ENTITIES
  0
LINE
  8
L-ZISSEN
 62
     7
 10
208.0
 20
45.9
 30
0.0
 11
208.0
 21
39.5
 31
0.0
  0
LINE
  8
L-ZISSEN
 62
     7
 10
187.826641
 20
41.1
 30
0.0
 11
187.826641
 21
39.5
 31
0.0
  0
LINE
  8
L-ZISSEN
 62
     7
 10
231.384419
 20
41.9
 30
0.0
 11
231.384419
 21
39.5
 31
0.0
  0
LINE
  8
L-ZISSEN
 62
     7
 10
198.5
 20
47.5
 30
0.0
 11
198.5
 21
41.1
 31
0.0
  0
LINE
  8
L-ZISSEN
 62
     7
 10
206.447629
 20
41.1
 30
0.0
 11
187.826641
 21
41.1
 31
0.0
  0
LINE
  8
L-ZISSEN
 62
     7
 10
187.826641
 20
39.5
 30
0.0
 11
208.0
 21
39.5
 31
0.0
  0
LINE
  8
L-ZISSEN
 62
     7
 10
231.384419
 20
39.5
 30
0.0
 11
252.173358
 21
39.5
 31
0.0
  0
LINE
  8
L-ZISSEN
 62
     7
 10
252.173358
 20
39.5
 30
0.0
 11
252.173358
 21
41.1
 31
0.0
  0
LINE
  8
L-ZISSEN
 62
     7
 10
252.173358
 20
41.1
 30
0.0
 11
241.5
 21
41.1
 31
0.0
  0
LINE
  8
L-ZISSEN
 62
     7
 10
241.5
 20
41.1
 30
0.0
 11
241.5
 21
47.5
 31
0.0
  0
LINE
  8
L-ZISSEN
 62
     7
 10
241.5
 20
47.5
 30
0.0
 11
198.5
 21
47.5
 31
0.0
  0
LINE
  8
L-ZISSEN
 62
     7
 10
206.447629
 20
47.5
 30
0.0
 11
206.447629
 21
41.1
 31
0.0
  0
LINE
  8
L-ZISSEN
 62
     7
 10
239.947629
 20
45.9
 30
0.0
 11
239.947629
 21
39.5
 31
0.0
  0
LINE
  8
L-ZISSEN
 62
     7
 10
239.947629
 20
45.9
 30
0.0
 11
208.0
 21
45.9
 31
0.0
  0
LINE
  8
L-ZISSEN
 62
     7
 10
80.05237
 20
45.9
 30
0.0
 11
112.0
 21
45.9
 31
0.0
  0
LINE
  8
L-ZISSEN
 62
     7
 10
80.05237
 20
45.9
 30
0.0
 11
80.05237
 21
39.5
 31
0.0
  0
LINE
  8
L-ZISSEN
 62
     7
 10
113.55237
 20
47.5
 30
0.0
 11
113.55237
 21
41.1
 31
0.0
  0
LINE
  8
L-ZISSEN
 62
     7
 10
78.5
 20
47.5
 30
0.0
 11
121.5
 21
47.5
 31
0.0
  0
LINE
  8
L-ZISSEN
 62
     7
 10
78.5
 20
41.1
 30
0.0
 11
78.5
 21
47.5
 31
0.0
  0
LINE
  8
L-ZISSEN
 62
     7
 10
67.826641
 20
41.1
 30
0.0
 11
78.5
 21
41.1
 31
0.0
  0
LINE
  8
L-ZISSEN
 62
     7
 10
67.826641
 20
39.5
 30
0.0
 11
67.826641
 21
41.1
 31
0.0
  0
LINE
  8
L-ZISSEN
 62
     7
 10
88.615581
 20
39.5
 30
0.0
 11
67.826641
 21
39.5
 31
0.0
  0
LINE
  8
L-ZISSEN
 62
     7
 10
132.173359
 20
39.5
 30
0.0
 11
112.0
 21
39.5
 31
0.0
  0
LINE
  8
L-ZISSEN
 62
     7
 10
113.55237
 20
41.1
 30
0.0
 11
132.173359
 21
41.1
 31
0.0
  0
LINE
  8
L-ZISSEN
 62
     7
 10
121.5
 20
47.5
 30
0.0
 11
121.5
 21
41.1
 31
0.0
  0
LINE
  8
L-ZISSEN
 62
     7
 10
88.615581
 20
41.9
 30
0.0
 11
88.615581
 21
39.5
 31
0.0
  0
LINE
  8
L-ZISSEN
 62
     7
 10
132.173359
 20
41.1
 30
0.0
 11
132.173359
 21
39.5
 31
0.0
  0
LINE
  8
L-ZISSEN
 62
     7
 10
112.0
 20
45.9
 30
0.0
 11
112.0
 21
39.5
 31
0.0
  0
CIRCLE
  8
L-ZISSEN
 62
     7
 10
77.726136
 20
182.273864
 30
0.0
 40
2.25
  0
CIRCLE
  8
L-ZISSEN
 62
     7
 10
122.273864
 20
137.726136
 30
0.0
 40
2.25
  0
LINE
  8
L-ZISSEN
 62
     7
 10
78.5
 20
171.600505
 30
0.0
 11
67.826641
 21
182.273864
 31
0.0
  0
LINE
  8
L-ZISSEN
 62
     7
 10
121.5
 20
148.399495
 30
0.0
 11
132.173359
 21
137.726136
 31
0.0
  0
LINE
  8
L-ZISSEN
 62
     7
 10
79.331667
 20
172.0
 30
0.0
 11
88.615581
 21
181.283914
 31
0.0
  0
LINE
  8
L-TYUSIN
 10
81.26167
 20
185.809398
 30
0.0
 11
74.190602
 21
178.73833
 31
0.0
  0
LINE
  8
L-TYUSIN
 10
125.809398
 20
141.26167
 30
0.0
 11
118.73833
 21
134.190602
 31
0.0
  0
LINE
  8
L-TYUSIN
 10
74.190602
 20
185.809398
 30
0.0
 11
81.26167
 21
178.73833
 31
0.0
  0
LINE
  8
L-ZISSEN
 62
     7
 10
67.826641
 20
182.273864
 30
0.0
 11
77.726136
 21
192.173359
 31
0.0
  0
LINE
  8
L-ZISSEN
 62
     7
 10
122.273864
 20
127.826641
 30
0.0
 11
111.600505
 21
138.5
 31
0.0
  0
LINE
  8
L-ZISSEN
 62
     7
 10
132.173359
 20
137.726136
 30
0.0
 11
122.273864
 21
127.826641
 31
0.0
  0
LINE
  8
L-ZISSEN
 62
     7
 10
77.726136
 20
192.173359
 30
0.0
 11
93.41583
 21
176.483665
 31
0.0
  0
LINE
  8
L-ZISSEN
 10
121.5
 20
172.0
 30
0.0
 11
121.5
 21
148.0
 31
0.0
  0
LINE
  8
L-ZISSEN
 10
112.0
 20
138.5
 30
0.0
 11
88.0
 21
138.5
 31
0.0
  0
LINE
  8
L-TYUSIN
 10
100.0
 20
116.2
 30
0.0
 11
100.0
 21
40.9
 31
0.0
  0
LINE
  8
L-TYUSIN
 10
72.502647
 20
160.0
 30
0.0
 11
127.497353
 21
160.0
 31
0.0
  0
LINE
  8
L-ZISSEN
 10
226.679404
 20
60.030769
 30
0.0
 11
226.679404
 21
55.5
 31
0.0
  0
LINE
  8
L-ZISSEN
 10
232.0
 20
60.0
 30
0.0
 11
226.63325
 21
60.0
 31
0.0
  0
LINE
  8
L-ZISSEN
 10
233.416408
 20
82.0
 30
0.0
 11
206.583592
 21
82.0
 31
0.0
  0
ARC
  8
L-ZISSEN
 10
220.0
 20
70.0
 30
0.0
 40
12.0
 50
277.180756
 51
262.819244
  0
LINE
  8
L-ZISSEN
 10
230.0
 20
60.0
 30
0.0
 11
230.0
 21
55.5
 31
0.0
  0
LINE
  8
L-ZISSEN
 10
232.0
 20
82.0
 30
0.0
 11
232.0
 21
60.0
 31
0.0
  0
LINE
  8
L-ZISSEN
 10
238.0
 20
76.7
 30
0.0
 11
232.0
 21
76.7
 31
0.0
  0
LINE
  8
L-ZISSEN
 10
238.0
 20
84.7
 30
0.0
 11
238.0
 21
76.7
 31
0.0
  0
LINE
  8
L-ZISSEN
 10
202.25
 20
84.7
 30
0.0
 11
237.75
 21
84.7
 31
0.0
  0
LINE
  8
L-ZISSEN
 10
202.0
 20
73.0
 30
0.0
 11
202.0
 21
84.7
 31
0.0
  0
LINE
  8
L-ZISSEN
 10
198.5
 20
73.0
 30
0.0
 11
208.0
 21
73.0
 31
0.0
  0
LINE
  8
L-ZISSEN
 10
198.5
 20
49.0
 30
0.0
 11
198.5
 21
73.0
 31
0.0
  0
LINE
  8
L-ZISSEN
 10
198.5
 20
49.0
 30
0.0
 11
202.25
 21
49.0
 31
0.0
  0
LINE
  8
L-ZISSEN
 10
202.25
 20
55.5
 30
0.0
 11
202.25
 21
47.5
 31
0.0
  0
LINE
  8
L-ZISSEN
 10
237.75
 20
55.5
 30
0.0
 11
202.25
 21
55.5
 31
0.0
  0
LINE
  8
L-ZISSEN
 10
237.75
 20
47.5
 30
0.0
 11
237.75
 21
55.5
 31
0.0
  0
LINE
  8
L-TYUSIN
 10
193.468755
 20
61.0
 30
0.0
 11
209.93751
 21
61.0
 31
0.0
  0
LINE
  8
L-TYUSIN
 10
205.0
 20
70.0
 30
0.0
 11
235.0
 21
70.0
 31
0.0
  0
LINE
  8
L-TYUSIN
 10
220.0
 20
43.080713
 30
0.0
 11
220.0
 21
116.2
 31
0.0
  0
LINE
  8
L-TYUSIN
 10
74.0
 20
70.0
 30
0.0
 11
126.0
 21
70.0
 31
0.0
  0
LINE
  8
L-ZISSEN
 10
82.25
 20
55.5
 30
0.0
 11
89.334635
 21
55.5
 31
0.0
  0
LINE
  8
L-ZISSEN
 10
78.5
 20
58.0
 30
0.0
 11
88.38105
 21
58.0
 31
0.0
  0
LINE
  8
L-ZISSEN
 10
96.0
 20
84.7
 30
0.0
 11
96.0
 21
72.313708
 31
0.0
  0
LINE
  8
L-ZISSEN
 10
117.75
 20
55.5
 30
0.0
 11
110.665365
 21
55.5
 31
0.0
  0
LINE
  8
L-ZISSEN
 10
104.0
 20
84.7
 30
0.0
 11
104.0
 21
72.313708
 31
0.0
  0
CIRCLE
  8
L-ZISSEN
 10
100.0
 20
61.0
 30
0.0
 40
12.0
  0
LINE
  8
L-TYUSIN
 10
115.015677
 20
61.0
 30
0.0
 11
84.455489
 21
61.0
 31
0.0
  0
LINE
  8
L-ZISSEN
 10
114.0
 20
84.7
 30
0.0
 11
114.0
 21
82.0
 31
0.0
  0
LINE
  8
L-ZISSEN
 10
104.0
 20
82.0
 30
0.0
 11
121.5
 21
82.0
 31
0.0
  0
LINE
  8
L-ZISSEN
 10
121.5
 20
82.0
 30
0.0
 11
121.5
 21
58.0
 31
0.0
  0
LINE
  8
L-ZISSEN
 10
121.5
 20
58.0
 30
0.0
 11
111.61895
 21
58.0
 31
0.0
  0
LINE
  8
L-ZISSEN
 10
117.75
 20
58.0
 30
0.0
 11
117.75
 21
47.5
 31
0.0
  0
LINE
  8
L-ZISSEN
 10
82.25
 20
58.0
 30
0.0
 11
82.25
 21
47.5
 31
0.0
  0
LINE
  8
L-ZISSEN
 10
96.0
 20
82.0
 30
0.0
 11
78.5
 21
82.0
 31
0.0
  0
LINE
  8
L-ZISSEN
 10
86.0
 20
84.7
 30
0.0
 11
86.0
 21
82.0
 31
0.0
  0
LINE
  8
L-ZISSEN
 10
117.75
 20
84.7
 30
0.0
 11
82.25
 21
84.7
 31
0.0
  0
LINE
  8
L-TYUSIN
 10
100.0
 20
182.75
 30
0.0
 11
100.0
 21
133.5
 31
0.0
  0
LINE
  8
L-ZISSEN
 10
78.5
 20
82.0
 30
0.0
 11
78.5
 21
58.0
 31
0.0
  0
LINE
  8
L-ZISSEN
 10
218.5
 20
55.5
 30
0.0
 11
218.5
 21
58.094119
 31
0.0
  0
LINE
  8
L-ZISSEN
 10
221.5
 20
55.5
 30
0.0
 11
221.5
 21
58.094119
 31
0.0
  0
LINE
  8
L-ZISSEN
 10
208.0
 20
73.0
 30
0.0
 11
208.0
 21
82.0
 31
0.0
  0
LINE
  8
L-ZISSEN
 10
206.583592
 20
84.7
 30
0.0
 11
206.583592
 21
82.0
 31
0.0
  0
LINE
  8
L-ZISSEN
 10
233.416408
 20
84.7
 30
0.0
 11
233.416408
 21
82.0
 31
0.0
  0
LINE
  8
L-ZISSEN
 10
121.5
 20
172.0
 30
0.0
 11
113.079086
 21
172.0
 31
0.0
  0
LINE
  8
L-ZISSEN
 10
121.5
 20
148.0
 30
0.0
 11
113.079086
 21
148.0
 31
0.0
  0
LINE
  8
L-ZISSEN
 10
88.0
 20
138.5
 30
0.0
 11
88.0
 21
146.920914
 31
0.0
  0
LINE
  8
L-ZISSEN
 10
112.0
 20
138.5
 30
0.0
 11
112.0
 21
146.920914
 31
0.0
  0
CIRCLE
  8
L-ZISSEN
 10
100.0
 20
61.0
 30
0.0
 40
5.7225
  0
CIRCLE
  8
L-ZISSEN
 10
220.0
 20
70.0
 30
0.0
 40
5.7225
  0
LINE
  8
L-ZISSEN
 10
86.5
 20
45.9
 30
0.0
 11
86.5
 21
41.9
 31
0.0
  0
LINE
  8
L-ZISSEN
 10
86.5
 20
41.9
 30
0.0
 11
93.5
 21
41.9
 31
0.0
  0
LINE
  8
L-ZISSEN
 10
93.5
 20
41.9
 30
0.0
 11
93.5
 21
45.9
 31
0.0
  0
LINE
  8
L-ZISSEN
 10
106.5
 20
41.9
 30
0.0
 11
106.5
 21
45.9
 31
0.0
  0
LINE
  8
L-ZISSEN
 10
112.0
 20
41.9
 30
0.0
 11
106.5
 21
41.9
 31
0.0
  0
LINE
  8
L-ZISSEN
 10
226.5
 20
41.9
 30
0.0
 11
226.5
 21
45.9
 31
0.0
  0
LINE
  8
L-ZISSEN
 10
233.5
 20
45.9
 30
0.0
 11
233.5
 21
41.9
 31
0.0
  0
LINE
  8
L-ZISSEN
 10
233.5
 20
41.9
 30
0.0
 11
226.5
 21
41.9
 31
0.0
  0
LINE
  8
L-ZISSEN
 10
213.5
 20
41.9
 30
0.0
 11
213.5
 21
45.9
 31
0.0
  0
LINE
  8
L-ZISSEN
 10
208.0
 20
41.9
 30
0.0
 11
213.5
 21
41.9
 31
0.0
  0
LINE
  8
L-ZISSEN
 10
117.75
 20
102.2
 30
0.0
 11
82.25
 21
102.2
 31
0.0
  0
LINE
  8
L-ZISSEN
 10
117.75
 20
102.2
 30
0.0
 11
117.75
 21
84.7
 31
0.0
  0
LINE
  8
L-ZISSEN
 10
82.25
 20
102.2
 30
0.0
 11
82.25
 21
84.7
 31
0.0
  0
LINE
  8
L-ZISSEN
 10
108.0
 20
111.2
 30
0.0
 11
92.0
 21
111.2
 31
0.0
  0
LINE
  8
L-ZISSEN
 10
92.0
 20
111.2
 30
0.0
 11
92.0
 21
102.2
 31
0.0
  0
LINE
  8
L-ZISSEN
 10
108.0
 20
111.2
 30
0.0
 11
108.0
 21
102.2
 31
0.0
  0
LINE
  8
L-ZISSEN
 10
202.25
 20
102.2
 30
0.0
 11
202.25
 21
84.7
 31
0.0
  0
LINE
  8
L-ZISSEN
 10
237.75
 20
102.2
 30
0.0
 11
202.25
 21
102.2
 31
0.0
  0
LINE
  8
L-ZISSEN
 10
212.0
 20
111.2
 30
0.0
 11
212.0
 21
102.2
 31
0.0
  0
LINE
  8
L-ZISSEN
 10
228.0
 20
111.2
 30
0.0
 11
212.0
 21
111.2
 31
0.0
  0
LINE
  8
L-ZISSEN
 10
228.0
 20
111.2
 30
0.0
 11
228.0
 21
102.2
 31
0.0
  0
LINE
  8
L-ZISSEN
 10
237.75
 20
102.2
 30
0.0
 11
237.75
 21
84.7
 31
0.0
  0
LINE
  8
L-ZISSEN
 10
103.5
 20
107.2
 30
0.0
 11
96.5
 21
107.2
 31
0.0
  0
LINE
  8
L-ZISSEN
 10
96.5
 20
107.2
 30
0.0
 11
96.5
 21
102.2
 31
0.0
  0
LINE
  8
L-ZISSEN
 10
103.5
 20
107.2
 30
0.0
 11
103.5
 21
102.2
 31
0.0
  0
LINE
  8
L-ZISSEN
 10
209.5
 20
107.2
 30
0.0
 11
209.5
 21
102.2
 31
0.0
  0
LINE
  8
L-ZISSEN
 10
202.5
 20
107.2
 30
0.0
 11
202.5
 21
102.2
 31
0.0
  0
LINE
  8
L-ZISSEN
 10
209.5
 20
107.2
 30
0.0
 11
202.5
 21
107.2
 31
0.0
  0
LINE
  8
L-ZISSEN
 10
230.5
 20
107.2
 30
0.0
 11
237.5
 21
107.2
 31
0.0
  0
LINE
  8
L-ZISSEN
 10
237.5
 20
107.2
 30
0.0
 11
237.5
 21
102.2
 31
0.0
  0
LINE
  8
L-ZISSEN
 10
230.5
 20
107.2
 30
0.0
 11
230.5
 21
102.2
 31
0.0
  0
LINE
  8
L-ZISSEN
 10
78.5
 20
172.0
 30
0.0
 11
78.5
 21
148.0
 31
0.0
  0
CIRCLE
  8
L-ZISSEN
 10
100.0
 20
160.0
 30
0.0
 40
17.75
  0
CIRCLE
  8
L-ZISSEN
 10
100.0
 20
160.0
 30
0.0
 40
8.0
  0
LINE
  8
L-ZISSEN
 10
86.920914
 20
172.0
 30
0.0
 11
78.5
 21
172.0
 31
0.0
  0
LINE
  8
L-ZISSEN
 10
86.920914
 20
148.0
 30
0.0
 11
78.5
 21
148.0
 31
0.0
  0
CIRCLE
  8
L-ZISSEN
 10
100.0
 20
146.0
 30
0.0
 40
3.5
  0
CIRCLE
  8
L-ZISSEN
 10
100.0
 20
174.0
 30
0.0
 40
3.5
  0
LINE
  8
L-ZISSEN
 62
     7
 10
112.0
 20
139.331667
 30
0.0
 11
120.668333
 21
148.0
 31
0.0
  0
CIRCLE
  8
L-ZISSEN
 10
100.0
 20
160.0
 30
0.0
 40
4.283
  0
TEXT
  8
L-ZISSEN
 10
110.0
 20
222.0
 30
0.0
 40
4.5
  1
02
  0
TEXT
  8
L-ZISSEN
 10
110.0
 20
228.0
 30
0.0
 40
4.5
  1
60
  0
TEXT
  8
L-ZISSEN
 10
30.0
 20
225.0
 30
0.0
 40
4.5
  1
MODEL No. : 
  0
TEXT
  8
L-ZISSEN
 10
75.0
 20
225.0
 30
0.0
 40
4.5
  1
392- 00-  BM
  0
LINE
  8
L-TYUSIN
 10
118.73833
 20
141.26167
 30
0.0
 11
125.809398
 21
134.190602
 31
0.0
  0
TEXT
  8
L-ZISSEN
 10
93.0
 20
228.0
 30
0.0
 40
4.5
  1
2
  0
TEXT
  8
L-ZISSEN
 10
93.0
 20
222.0
 30
0.0
 40
4.5
  1
3
  0
SOLID
  8
L-ZISSEN
 10
122.908705
 20
68.541693
 30
0.0
 11
123.305524
 21
69.077397
 31
0.0
 12
121.5
 22
70.0
 32
0.0
 13
121.5
 23
70.0
 33
0.0
  0
LINE
  8
L-ZISSEN
 10
123.107114
 20
68.809545
 30
0.0
 11
135.0
 21
60.0
 31
0.0
  0
LINE
  8
L-ZISSEN
 10
135.0
 20
60.0
 30
0.0
 11
137.0
 21
60.0
 31
0.0
  0
TEXT
  8
L-ZISSEN
 10
139.0
 20
57.75
 30
0.0
 40
4.5
  1
A PORT
  0
SOLID
  8
L-ZISSEN
 10
99.989385
 20
58.97244
 30
0.0
 11
100.647545
 21
59.078595
 31
0.0
 12
100.0
 22
61.0
 32
0.0
 13
100.0
 23
61.0
 33
0.0
  0
LINE
  8
L-ZISSEN
 10
100.318465
 20
59.025518
 30
0.0
 11
105.0
 21
30.0
 31
0.0
  0
LINE
  8
L-ZISSEN
 10
105.0
 20
30.0
 30
0.0
 11
107.0
 21
30.0
 31
0.0
  0
TEXT
  8
L-ZISSEN
 10
109.0
 20
27.75
 30
0.0
 40
4.5
  1
B PORT
  0
SOLID
  8
L-ZISSEN
 10
76.694476
 20
69.077397
 30
0.0
 11
77.091295
 21
68.541693
 31
0.0
 12
78.5
 22
70.0
 32
0.0
 13
78.5
 23
70.0
 33
0.0
  0
LINE
  8
L-ZISSEN
 10
76.892886
 20
68.809545
 30
0.0
 11
65.0
 21
60.0
 31
0.0
  0
LINE
  8
L-ZISSEN
 10
65.0
 20
60.0
 30
0.0
 11
63.0
 21
60.0
 31
0.0
  0
TEXT
  8
L-ZISSEN
 10
35.5
 20
57.75
 30
0.0
 40
4.5
  1
O PORT
  0
TEXT
  8
L-ZISSEN
 10
140.0
 20
50.0
 30
0.0
 40
4.5
  1
Rc 1/4
  0
TEXT
  8
L-ZISSEN
 10
140.0
 20
40.0
 30
0.0
 40
4.5
  1
Rc 3/8
  0
ENDSEC
  0
EOF
