  0
SECTION
  2
HEADER
  9
$ACADVER
  1
AC1006
  9
$INSBASE
 10
0.0
 20
0.0
 30
0.0
  9
$EXTMIN
 10
-805.493776
 20
-516.855841
  9
$EXTMAX
 10
420.0
 20
297.0
  9
$LIMMIN
 10
0.0
 20
0.0
  9
$LIMMAX
 10
420.0
 20
297.0
  9
$ORTHOMODE
 70
     1
  9
$REGENMODE
 70
     1
  9
$FILLMODE
 70
     1
  9
$QTEXTMODE
 70
     0
  9
$MIRRTEXT
 70
     1
  9
$DRAGMODE
 70
     2
  9
$LTSCALE
 40
1.0
  9
$OSMODE
 70
     0
  9
$ATTMODE
 70
     1
  9
$TEXTSIZE
 40
0.2
  9
$TRACEWID
 40
0.05
  9
$TEXTSTYLE
  7
STANDARD
  9
$CLAYER
  8
L-ZISSEN
  9
$CELTYPE
  6
BYLAYER
  9
$CECOLOR
 62
   256
  9
$DIMSCALE
 40
1.0
  9
$DIMASZ
 40
1.5
  9
$DIMEXO
 40
1.0
  9
$DIMDLI
 40
0.38
  9
$DIMRND
 40
0.0
  9
$DIMDLE
 40
0.0
  9
$DIMEXE
 40
1.0
  9
$DIMTP
 40
0.0
  9
$DIMTM
 40
0.0
  9
$DIMTXT
 40
2.5
  9
$DIMCEN
 40
0.09
  9
$DIMTSZ
 40
0.0
  9
$DIMTOL
 70
     0
  9
$DIMLIM
 70
     0
  9
$DIMTIH
 70
     0
  9
$DIMTOH
 70
     0
  9
$DIMSE1
 70
     0
  9
$DIMSE2
 70
     0
  9
$DIMTAD
 70
     1
  9
$DIMZIN
 70
     0
  9
$DIMBLK
  1

  9
$DIMASO
 70
     1
  9
$DIMSHO
 70
     0
  9
$DIMPOST
  1

  9
$DIMAPOST
  1

  9
$DIMALT
 70
     0
  9
$DIMALTD
 70
     2
  9
$DIMALTF
 40
25.4
  9
$DIMLFAC
 40
1.0
  9
$DIMTOFL
 70
     1
  9
$DIMTVP
 40
0.0
  9
$DIMTIX
 70
     1
  9
$DIMSOXD
 70
     0
  9
$DIMSAH
 70
     0
  9
$DIMBLK1
  1

  9
$DIMBLK2
  1

  9
$LUNITS
 70
     2
  9
$LUPREC
 70
     4
  9
$AXISMODE
 70
     0
  9
$AXISUNIT
 10
0.0
 20
0.0
  9
$SKETCHINC
 40
0.1
  9
$FILLETRAD
 40
0.0
  9
$AUNITS
 70
     0
  9
$AUPREC
 70
     0
  9
$MENU
  1
acad
  9
$ELEVATION
 40
0.0
  9
$THICKNESS
 40
0.0
  9
$LIMCHECK
 70
     0
  9
$BLIPMODE
 70
     1
  9
$CHAMFERA
 40
0.0
  9
$CHAMFERB
 40
0.0
  9
$SKPOLY
 70
     0
  9
$TDCREATE
 40
2449657.6926987269
  9
$TDUPDATE
 40
2449657.6926987269
  9
$TDINDWG
 40
0.0000000000
  9
$TDUSRTIMER
 40
0.0000000000
  9
$USRTIMER
 70
     1
  9
$ANGBASE
 50
0.0
  9
$ANGDIR
 70
     0
  9
$PDMODE
 70
     0
  9
$PDSIZE
 40
0.0
  9
$PLINEWID
 40
0.0
  9
$COORDS
 70
     0
  9
$SPLFRAME
 70
     0
  9
$SPLINETYPE
 70
     6
  9
$SPLINESEGS
 70
     8
  9
$ATTDIA
 70
     0
  9
$ATTREQ
 70
     1
  9
$HANDLING
 70
     0
  9
$HANDSEED
  5
0
  9
$SURFTAB1
 70
     6
  9
$SURFTAB2
 70
     6
  9
$SURFTYPE
 70
     6
  9
$SURFU
 70
     6
  9
$SURFV
 70
     6
  9
$FLATLAND
 70
     0
  9
$UCSNAME
  2

  9
$UCSORG
 10
0.0
 20
0.0
 30
0.0
  9
$UCSXDIR
 10
1.0
 20
0.0
 30
0.0
  9
$UCSYDIR
 10
0.0
 20
1.0
 30
0.0
  9
$USERI1
 70
     0
  9
$USERI2
 70
     0
  9
$USERI3
 70
     0
  9
$USERI4
 70
     0
  9
$USERI5
 70
     0
  9
$USERR1
 40
0.0
  9
$USERR2
 40
0.0
  9
$USERR3
 40
0.0
  9
$USERR4
 40
0.0
  9
$USERR5
 40
0.0
  9
$WORLDVIEW
 70
     1
  0
ENDSEC
  0
SECTION
  2
TABLES
  0
TABLE
  2
VPORT
 70
     2
  0
VPORT
  2
*ACTIVE
 70
     0
 10
0.0
 20
0.0
 11
1.0
 21
1.0
 12
-392.811199
 22
-191.972053
 13
0.0
 23
0.0
 14
1.0
 24
1.0
 15
0.0
 25
0.0
 16
0.0
 26
0.0
 36
1.0
 17
0.0
 27
0.0
 37
0.0
 40
603.581929
 41
1.5487
 42
50.0
 43
0.0
 44
0.0
 50
0.0
 51
0.0
 71
     0
 72
   100
 73
     1
 74
     0
 75
     0
 76
     0
 77
     0
 78
     0
  0
ENDTAB
  0
TABLE
  2
LTYPE
 70
     1
  0
LTYPE
  2
CONTINUOUS
 70
    64
  3
Solid line
 72
    65
 73
     0
 40
0.0
  0
ENDTAB
  0
TABLE
  2
LAYER
 70
     3
  0
LAYER
  2
0
 70
     0
 62
     7
  6
CONTINUOUS
  0
LAYER
  2
L-ZISSEN
 70
    64
 62
     7
  6
CONTINUOUS
  0
LAYER
  2
L-TYUSIN
 70
    64
 62
     1
  6
CONTINUOUS
  0
ENDTAB
  0
TABLE
  2
STYLE
 70
     1
  0
STYLE
  2
STANDARD
 70
    64
 40
0.0
 41
1.0
 50
0.0
 71
     0
 42
0.2
  3
txt
  4

  0
ENDTAB
  0
TABLE
  2
VIEW
 70
     0
  0
ENDTAB
  0
TABLE
  2
UCS
 70
     0
  0
ENDTAB
  0
TABLE
  2
DWGMGR
 70
     0
  0
ENDTAB
  0
ENDSEC
  0
SECTION
  2
BLOCKS
  0
ENDSEC
  0
SECTION
  2
ENTITIES
  0
TEXT
  8
L-ZISSEN
 10
-705.993776
 20
-9.855841
 30
0.0
 40
4.5
  1
4
  0
TEXT
  8
L-ZISSEN
 10
-704.993776
 20
-3.855841
 30
0.0
 40
4.5
  1
1
  0
TEXT
  8
L-ZISSEN
 10
-797.993776
 20
-6.855841
 30
0.0
 40
4.5
  1
MODEL No. : 
  0
TEXT
  8
L-ZISSEN
 10
-752.993776
 20
-6.855841
 30
0.0
 40
4.5
  1
392-2F0-600
  0
LINE
  8
L-TYUSIN
 10
-775.993776
 20
-310.355841
 30
0.0
 11
-775.993776
 21
-368.355841
 31
0.0
  0
LINE
  8
L-TYUSIN
 10
-787.993776
 20
-310.355841
 30
0.0
 11
-787.993776
 21
-368.355841
 31
0.0
  0
LINE
  8
L-TYUSIN
 10
-637.993776
 20
-150.855841
 30
0.0
 11
-621.993776
 21
-150.855841
 31
0.0
  0
LINE
  8
L-TYUSIN
 10
-629.993776
 20
-142.855841
 30
0.0
 11
-629.993776
 21
-158.855841
 31
0.0
  0
CIRCLE
  8
L-ZISSEN
 10
-629.993776
 20
-150.855841
 30
0.0
 40
4.25
  0
CIRCLE
  8
L-ZISSEN
 10
-655.993776
 20
-162.855841
 30
0.0
 40
4.25
  0
LINE
  8
L-TYUSIN
 10
-663.993776
 20
-162.855841
 30
0.0
 11
-647.993776
 21
-162.855841
 31
0.0
  0
LINE
  8
L-TYUSIN
 10
-655.993776
 20
-154.855841
 30
0.0
 11
-655.993776
 21
-170.855841
 31
0.0
  0
LINE
  8
L-ZISSEN
 10
-621.493776
 20
-177.355841
 30
0.0
 11
-621.493776
 21
-140.355841
 31
0.0
  0
LINE
  8
L-ZISSEN
 10
-664.493776
 20
-140.355841
 30
0.0
 11
-621.493776
 21
-140.355841
 31
0.0
  0
LINE
  8
L-ZISSEN
 10
-664.493776
 20
-177.355841
 30
0.0
 11
-664.493776
 21
-140.355841
 31
0.0
  0
LINE
  8
L-ZISSEN
 10
-664.493776
 20
-177.355841
 30
0.0
 11
-621.493776
 21
-177.355841
 31
0.0
  0
LINE
  8
L-ZISSEN
 10
-761.493776
 20
-315.355841
 30
0.0
 11
-798.493776
 21
-315.355841
 31
0.0
  0
LINE
  8
L-ZISSEN
 10
-761.493776
 20
-358.355841
 30
0.0
 11
-798.493776
 21
-358.355841
 31
0.0
  0
LINE
  8
L-ZISSEN
 10
-798.493776
 20
-315.355841
 30
0.0
 11
-798.493776
 21
-358.355841
 31
0.0
  0
LINE
  8
L-ZISSEN
 10
-631.743776
 20
-230.355841
 30
0.0
 11
-630.493776
 21
-230.355841
 31
0.0
  0
LINE
  8
L-ZISSEN
 10
-630.493776
 20
-228.355841
 30
0.0
 11
-630.493776
 21
-230.355841
 31
0.0
  0
LINE
  8
L-ZISSEN
 10
-655.493776
 20
-228.355841
 30
0.0
 11
-655.493776
 21
-230.355841
 31
0.0
  0
LINE
  8
L-ZISSEN
 10
-655.493776
 20
-230.355841
 30
0.0
 11
-654.243776
 21
-230.355841
 31
0.0
  0
LINE
  8
L-ZISSEN
 10
-656.743776
 20
-193.105841
 30
0.0
 11
-629.243776
 21
-193.105841
 31
0.0
  0
LINE
  8
L-ZISSEN
 10
-656.743776
 20
-193.105841
 30
0.0
 11
-656.743776
 21
-220.605841
 31
0.0
  0
LINE
  8
L-ZISSEN
 10
-629.243776
 20
-193.105841
 30
0.0
 11
-629.243776
 21
-220.605841
 31
0.0
  0
LINE
  8
L-ZISSEN
 10
-654.243776
 20
-221.855841
 30
0.0
 11
-657.993776
 21
-221.855841
 31
0.0
  0
LINE
  8
L-ZISSEN
 10
-627.993776
 20
-221.855841
 30
0.0
 11
-631.743776
 21
-221.855841
 31
0.0
  0
LINE
  8
L-ZISSEN
 10
-657.993776
 20
-221.855841
 30
0.0
 11
-657.993776
 21
-191.855841
 31
0.0
  0
LINE
  8
L-ZISSEN
 10
-627.993776
 20
-221.855841
 30
0.0
 11
-627.993776
 21
-191.855841
 31
0.0
  0
LINE
  8
L-ZISSEN
 10
-627.993776
 20
-191.855841
 30
0.0
 11
-657.993776
 21
-191.855841
 31
0.0
  0
LINE
  8
L-ZISSEN
 10
-631.743776
 20
-223.855841
 30
0.0
 11
-625.993776
 21
-223.855841
 31
0.0
  0
LINE
  8
L-ZISSEN
 10
-654.243776
 20
-228.355841
 30
0.0
 11
-662.993776
 21
-228.355841
 31
0.0
  0
LINE
  8
L-ZISSEN
 10
-656.743776
 20
-220.605841
 30
0.0
 11
-629.243776
 21
-220.605841
 31
0.0
  0
LINE
  8
L-ZISSEN
 10
-654.243776
 20
-236.105841
 30
0.0
 11
-654.243776
 21
-220.605841
 31
0.0
  0
LINE
  8
L-ZISSEN
 10
-631.743776
 20
-236.105841
 30
0.0
 11
-631.743776
 21
-220.605841
 31
0.0
  0
LINE
  8
L-ZISSEN
 10
-659.993776
 20
-223.855841
 30
0.0
 11
-659.993776
 21
-189.855841
 31
0.0
  0
LINE
  8
L-ZISSEN
 10
-625.993776
 20
-223.855841
 30
0.0
 11
-625.993776
 21
-189.855841
 31
0.0
  0
LINE
  8
L-ZISSEN
 10
-659.993776
 20
-223.855841
 30
0.0
 11
-654.243776
 21
-223.855841
 31
0.0
  0
LINE
  8
L-ZISSEN
 10
-625.993776
 20
-189.855841
 30
0.0
 11
-659.993776
 21
-189.855841
 31
0.0
  0
LINE
  8
L-ZISSEN
 10
-654.243776
 20
-236.105841
 30
0.0
 11
-631.743776
 21
-236.105841
 31
0.0
  0
LINE
  8
L-ZISSEN
 10
-622.993776
 20
-228.355841
 30
0.0
 11
-631.743776
 21
-228.355841
 31
0.0
  0
LINE
  8
L-ZISSEN
 10
-622.993776
 20
-185.355841
 30
0.0
 11
-662.993776
 21
-185.355841
 31
0.0
  0
LINE
  8
L-TYUSIN
 10
-642.993776
 20
-133.355841
 30
0.0
 11
-642.993776
 21
-250.905841
 31
0.0
  0
LINE
  8
L-ZISSEN
 10
-654.243776
 20
-246.105841
 30
0.0
 11
-631.743776
 21
-246.105841
 31
0.0
  0
LINE
  8
L-ZISSEN
 10
-654.243776
 20
-246.105841
 30
0.0
 11
-654.243776
 21
-241.105841
 31
0.0
  0
LINE
  8
L-ZISSEN
 10
-631.743776
 20
-246.105841
 30
0.0
 11
-631.743776
 21
-241.105841
 31
0.0
  0
LINE
  8
L-ZISSEN
 10
-654.243776
 20
-241.105841
 30
0.0
 11
-631.743776
 21
-241.105841
 31
0.0
  0
LINE
  8
L-ZISSEN
 10
-652.293776
 20
-241.105841
 30
0.0
 11
-652.293776
 21
-236.105841
 31
0.0
  0
LINE
  8
L-ZISSEN
 10
-633.693776
 20
-241.105841
 30
0.0
 11
-633.693776
 21
-236.105841
 31
0.0
  0
LINE
  8
L-ZISSEN
 10
-697.743776
 20
-293.655841
 30
0.0
 11
-702.743776
 21
-293.655841
 31
0.0
  0
LINE
  8
L-ZISSEN
 10
-697.743776
 20
-275.055841
 30
0.0
 11
-702.743776
 21
-275.055841
 31
0.0
  0
LINE
  8
L-ZISSEN
 10
-657.993776
 20
-307.855841
 30
0.0
 11
-657.993776
 21
-303.855841
 31
0.0
  0
LINE
  8
L-ZISSEN
 10
-657.993776
 20
-303.855841
 30
0.0
 11
-627.993776
 21
-303.855841
 31
0.0
  0
LINE
  8
L-ZISSEN
 10
-627.993776
 20
-303.855841
 30
0.0
 11
-627.993776
 21
-307.855841
 31
0.0
  0
CIRCLE
  8
L-ZISSEN
 10
-642.993776
 20
-284.355841
 30
0.0
 40
6.5
  0
LINE
  8
L-ZISSEN
 10
-692.743776
 20
-295.605841
 30
0.0
 11
-697.743776
 21
-295.605841
 31
0.0
  0
LINE
  8
L-ZISSEN
 10
-746.993776
 20
-303.855841
 30
0.0
 11
-746.993776
 21
-307.855841
 31
0.0
  0
LINE
  8
L-ZISSEN
 10
-716.993776
 20
-303.855841
 30
0.0
 11
-746.993776
 21
-303.855841
 31
0.0
  0
LINE
  8
L-ZISSEN
 10
-716.993776
 20
-307.855841
 30
0.0
 11
-716.993776
 21
-303.855841
 31
0.0
  0
LINE
  8
L-ZISSEN
 10
-714.993776
 20
-311.855841
 30
0.0
 11
-714.993776
 21
-307.855841
 31
0.0
  0
LINE
  8
L-ZISSEN
 10
-714.993776
 20
-307.855841
 30
0.0
 11
-748.993776
 21
-307.855841
 31
0.0
  0
LINE
  8
L-ZISSEN
 10
-748.993776
 20
-307.855841
 30
0.0
 11
-748.993776
 21
-311.855841
 31
0.0
  0
LINE
  8
L-ZISSEN
 10
-625.993776
 20
-307.855841
 30
0.0
 11
-625.993776
 21
-311.855841
 31
0.0
  0
LINE
  8
L-ZISSEN
 10
-659.993776
 20
-307.855841
 30
0.0
 11
-625.993776
 21
-307.855841
 31
0.0
  0
LINE
  8
L-ZISSEN
 10
-659.993776
 20
-311.855841
 30
0.0
 11
-659.993776
 21
-307.855841
 31
0.0
  0
LINE
  8
L-TYUSIN
 10
-667.993776
 20
-336.855841
 30
0.0
 11
-617.993776
 21
-336.855841
 31
0.0
  0
LINE
  8
L-ZISSEN
 10
-761.493776
 20
-315.355841
 30
0.0
 11
-761.493776
 21
-358.355841
 31
0.0
  0
LINE
  8
L-TYUSIN
 10
-642.993776
 20
-268.105841
 30
0.0
 11
-642.993776
 21
-362.855841
 31
0.0
  0
LINE
  8
L-TYUSIN
 10
-703.893776
 20
-336.855841
 30
0.0
 11
-805.493776
 21
-336.855841
 31
0.0
  0
LINE
  8
L-ZISSEN
 10
-761.493776
 20
-316.855841
 30
0.0
 11
-753.493776
 21
-316.855841
 31
0.0
  0
LINE
  8
L-ZISSEN
 10
-753.493776
 20
-357.855841
 30
0.0
 11
-753.493776
 21
-311.855841
 31
0.0
  0
LINE
  8
L-ZISSEN
 10
-753.493776
 20
-356.855841
 30
0.0
 11
-761.493776
 21
-356.855841
 31
0.0
  0
LINE
  8
L-ZISSEN
 10
-622.993776
 20
-228.355841
 30
0.0
 11
-622.993776
 21
-177.355841
 31
0.0
  0
LINE
  8
L-ZISSEN
 10
-662.993776
 20
-177.355841
 30
0.0
 11
-662.993776
 21
-228.355841
 31
0.0
  0
LINE
  8
L-ZISSEN
 10
-753.493776
 20
-357.855841
 30
0.0
 11
-710.493776
 21
-357.855841
 31
0.0
  0
LINE
  8
L-ZISSEN
 10
-710.493776
 20
-357.855841
 30
0.0
 11
-710.493776
 21
-311.855841
 31
0.0
  0
LINE
  8
L-ZISSEN
 10
-710.493776
 20
-311.855841
 30
0.0
 11
-753.493776
 21
-311.855841
 31
0.0
  0
LINE
  8
L-ZISSEN
 10
-708.493776
 20
-349.355841
 30
0.0
 11
-708.493776
 21
-324.355841
 31
0.0
  0
LINE
  8
L-ZISSEN
 10
-710.493776
 20
-349.355841
 30
0.0
 11
-708.493776
 21
-349.355841
 31
0.0
  0
LINE
  8
L-ZISSEN
 10
-710.493776
 20
-324.355841
 30
0.0
 11
-708.493776
 21
-324.355841
 31
0.0
  0
LINE
  8
L-ZISSEN
 10
-718.243776
 20
-303.855841
 30
0.0
 11
-718.243776
 21
-273.105841
 31
0.0
  0
LINE
  8
L-ZISSEN
 10
-692.743776
 20
-273.105841
 30
0.0
 11
-697.743776
 21
-273.105841
 31
0.0
  0
LINE
  8
L-ZISSEN
 10
-745.743776
 20
-273.105841
 30
0.0
 11
-745.743776
 21
-303.855841
 31
0.0
  0
LINE
  8
L-ZISSEN
 10
-702.743776
 20
-273.105841
 30
0.0
 11
-702.743776
 21
-295.605841
 31
0.0
  0
LINE
  8
L-ZISSEN
 10
-692.743776
 20
-273.105841
 30
0.0
 11
-692.743776
 21
-295.605841
 31
0.0
  0
LINE
  8
L-ZISSEN
 10
-697.743776
 20
-273.105841
 30
0.0
 11
-697.743776
 21
-295.605841
 31
0.0
  0
LINE
  8
L-ZISSEN
 10
-702.743776
 20
-273.105841
 30
0.0
 11
-745.743776
 21
-273.105841
 31
0.0
  0
LINE
  8
L-ZISSEN
 10
-702.743776
 20
-295.605841
 30
0.0
 11
-718.243776
 21
-295.605841
 31
0.0
  0
LINE
  8
L-ZISSEN
 10
-629.243776
 20
-303.855841
 30
0.0
 11
-629.243776
 21
-273.105841
 31
0.0
  0
CIRCLE
  8
L-ZISSEN
 10
-642.993776
 20
-284.355841
 30
0.0
 40
11.25
  0
LINE
  8
L-ZISSEN
 10
-656.743776
 20
-273.105841
 30
0.0
 11
-656.743776
 21
-303.855841
 31
0.0
  0
LINE
  8
L-ZISSEN
 10
-629.243776
 20
-273.105841
 30
0.0
 11
-656.743776
 21
-273.105841
 31
0.0
  0
LINE
  8
L-ZISSEN
 10
-662.993776
 20
-311.855841
 30
0.0
 11
-622.993776
 21
-311.855841
 31
0.0
  0
LINE
  8
L-ZISSEN
 10
-662.993776
 20
-311.855841
 30
0.0
 11
-662.993776
 21
-357.855841
 31
0.0
  0
LINE
  8
L-ZISSEN
 10
-662.993776
 20
-357.855841
 30
0.0
 11
-622.993776
 21
-357.855841
 31
0.0
  0
LINE
  8
L-ZISSEN
 10
-622.993776
 20
-357.855841
 30
0.0
 11
-622.993776
 21
-311.855841
 31
0.0
  0
CIRCLE
  8
L-ZISSEN
 10
-642.993776
 20
-336.855841
 30
0.0
 40
12.5
  0
LINE
  8
L-ZISSEN
 10
-796.793776
 20
-358.355841
 30
0.0
 11
-796.793776
 21
-359.355841
 31
0.0
  0
LINE
  8
L-ZISSEN
 10
-765.793776
 20
-358.355841
 30
0.0
 11
-765.793776
 21
-359.355841
 31
0.0
  0
LINE
  8
L-ZISSEN
 10
-664.493776
 20
-358.355841
 30
0.0
 11
-664.493776
 21
-315.355841
 31
0.0
  0
LINE
  8
L-ZISSEN
 10
-621.493776
 20
-358.355841
 30
0.0
 11
-621.493776
 21
-315.355841
 31
0.0
  0
LINE
  8
L-ZISSEN
 10
-664.493776
 20
-315.355841
 30
0.0
 11
-662.993776
 21
-315.355841
 31
0.0
  0
LINE
  8
L-ZISSEN
 10
-622.993776
 20
-315.355841
 30
0.0
 11
-621.493776
 21
-315.355841
 31
0.0
  0
LINE
  8
L-ZISSEN
 10
-664.993776
 20
-358.355841
 30
0.0
 11
-620.993776
 21
-358.355841
 31
0.0
  0
LINE
  8
L-ZISSEN
 10
-664.993776
 20
-359.355841
 30
0.0
 11
-664.993776
 21
-358.355841
 31
0.0
  0
LINE
  8
L-ZISSEN
 10
-620.993776
 20
-359.355841
 30
0.0
 11
-620.993776
 21
-358.355841
 31
0.0
  0
LINE
  8
L-ZISSEN
 10
-620.993776
 20
-24.355841
 30
0.0
 11
-620.993776
 21
-25.355841
 31
0.0
  0
LINE
  8
L-ZISSEN
 10
-664.993776
 20
-24.355841
 30
0.0
 11
-664.993776
 21
-25.355841
 31
0.0
  0
LINE
  8
L-ZISSEN
 10
-664.993776
 20
-25.355841
 30
0.0
 11
-620.993776
 21
-25.355841
 31
0.0
  0
LINE
  8
L-ZISSEN
 10
-664.493776
 20
-68.355841
 30
0.0
 11
-621.493776
 21
-68.355841
 31
0.0
  0
LINE
  8
L-ZISSEN
 10
-621.493776
 20
-25.355841
 30
0.0
 11
-621.493776
 21
-68.355841
 31
0.0
  0
LINE
  8
L-ZISSEN
 10
-664.493776
 20
-25.355841
 30
0.0
 11
-664.493776
 21
-68.355841
 31
0.0
  0
LINE
  8
L-ZISSEN
 10
-622.993776
 20
-68.355841
 30
0.0
 11
-622.993776
 21
-71.855841
 31
0.0
  0
LINE
  8
L-ZISSEN
 10
-662.993776
 20
-71.855841
 30
0.0
 11
-662.993776
 21
-68.355841
 31
0.0
  0
LINE
  8
L-ZISSEN
 10
-662.993776
 20
-71.855841
 30
0.0
 11
-622.993776
 21
-71.855841
 31
0.0
  0
LINE
  8
L-ZISSEN
 10
-629.243776
 20
-110.605841
 30
0.0
 11
-656.743776
 21
-110.605841
 31
0.0
  0
LINE
  8
L-ZISSEN
 10
-656.743776
 20
-110.605841
 30
0.0
 11
-656.743776
 21
-79.855841
 31
0.0
  0
LINE
  8
L-ZISSEN
 10
-629.243776
 20
-79.855841
 30
0.0
 11
-629.243776
 21
-110.605841
 31
0.0
  0
LINE
  8
L-TYUSIN
 10
-642.993776
 20
-115.605841
 30
0.0
 11
-642.993776
 21
-20.855841
 31
0.0
  0
LINE
  8
L-TYUSIN
 10
-667.993776
 20
-46.855841
 30
0.0
 11
-617.993776
 21
-46.855841
 31
0.0
  0
LINE
  8
L-ZISSEN
 10
-659.993776
 20
-71.855841
 30
0.0
 11
-659.993776
 21
-75.855841
 31
0.0
  0
LINE
  8
L-ZISSEN
 10
-659.993776
 20
-75.855841
 30
0.0
 11
-625.993776
 21
-75.855841
 31
0.0
  0
LINE
  8
L-ZISSEN
 10
-625.993776
 20
-75.855841
 30
0.0
 11
-625.993776
 21
-71.855841
 31
0.0
  0
LINE
  8
L-ZISSEN
 10
-627.993776
 20
-79.855841
 30
0.0
 11
-627.993776
 21
-75.855841
 31
0.0
  0
LINE
  8
L-ZISSEN
 10
-657.993776
 20
-79.855841
 30
0.0
 11
-627.993776
 21
-79.855841
 31
0.0
  0
LINE
  8
L-ZISSEN
 10
-657.993776
 20
-75.855841
 30
0.0
 11
-657.993776
 21
-79.855841
 31
0.0
  0
CIRCLE
  8
L-ZISSEN
 10
-642.993776
 20
-46.855841
 30
0.0
 40
1.0
  0
SOLID
  8
L-ZISSEN
 10
-644.503456
 20
-360.709347
 30
0.0
 11
-643.982877
 21
-361.12581
 31
0.0
 12
-642.993776
 22
-359.355841
 32
0.0
 13
-642.993776
 23
-359.355841
 33
0.0
  0
LINE
  8
L-ZISSEN
 10
-644.243167
 20
-360.917579
 30
0.0
 11
-652.993776
 21
-371.855841
 31
0.0
  0
LINE
  8
L-ZISSEN
 10
-652.993776
 20
-371.855841
 30
0.0
 11
-654.993776
 21
-371.855841
 31
0.0
  0
TEXT
  8
L-ZISSEN
 10
-665.993776
 20
-374.105841
 30
0.0
 40
4.5
  1
P.P
  0
SOLID
  8
L-ZISSEN
 10
-628.565734
 20
-149.416464
 30
0.0
 11
-629.10975
 21
-149.03112
 31
0.0
 12
-629.993776
 22
-150.855841
 32
0.0
 13
-629.993776
 23
-150.855841
 33
0.0
  0
LINE
  8
L-ZISSEN
 10
-628.837742
 20
-149.223792
 30
0.0
 11
-612.993776
 21
-126.855841
 31
0.0
  0
LINE
  8
L-ZISSEN
 10
-612.993776
 20
-126.855841
 30
0.0
 11
-610.993776
 21
-126.855841
 31
0.0
  0
TEXT
  8
L-ZISSEN
 10
-608.993776
 20
-129.105841
 30
0.0
 40
4.5
  1
P.P
  0
SOLID
  8
L-ZISSEN
 10
-641.484097
 20
-23.002335
 30
0.0
 11
-642.004676
 21
-22.585872
 31
0.0
 12
-642.993776
 22
-24.355841
 32
0.0
 13
-642.993776
 23
-24.355841
 33
0.0
  0
LINE
  8
L-ZISSEN
 10
-641.744386
 20
-22.794103
 30
0.0
 11
-632.993776
 21
-11.855841
 31
0.0
  0
LINE
  8
L-ZISSEN
 10
-632.993776
 20
-11.855841
 30
0.0
 11
-630.993776
 21
-11.855841
 31
0.0
  0
TEXT
  8
L-ZISSEN
 10
-628.993776
 20
-14.105841
 30
0.0
 40
4.5
  1
P.P
  0
SOLID
  8
L-ZISSEN
 10
-775.196426
 20
-361.220068
 30
0.0
 11
-774.634912
 21
-360.860699
 31
0.0
 12
-775.993776
 22
-359.355841
 32
0.0
 13
-775.993776
 23
-359.355841
 33
0.0
  0
LINE
  8
L-ZISSEN
 10
-774.915669
 20
-361.040384
 30
0.0
 11
-767.993776
 21
-371.855841
 31
0.0
  0
LINE
  8
L-ZISSEN
 10
-767.993776
 20
-371.855841
 30
0.0
 11
-765.993776
 21
-371.855841
 31
0.0
  0
TEXT
  8
L-ZISSEN
 10
-763.993776
 20
-374.105841
 30
0.0
 40
4.5
  1
P.P
  0
TEXT
  8
L-ZISSEN
 10
-481.493776
 20
-338.605841
 30
0.0
 40
4.5
  1
P.P
  0
LINE
  8
L-ZISSEN
 10
-468.493776
 20
-336.355841
 30
0.0
 11
-470.493776
 21
-336.355841
 31
0.0
  0
LINE
  8
L-ZISSEN
 10
-456.948803
 20
-357.598592
 30
0.0
 11
-468.493776
 21
-336.355841
 31
0.0
  0
SOLID
  8
L-ZISSEN
 10
-456.655928
 20
-357.439421
 30
0.0
 11
-457.241678
 21
-357.757763
 31
0.0
 12
-455.993776
 22
-359.355841
 32
0.0
 13
-455.993776
 23
-359.355841
 33
0.0
  0
LINE
  8
L-TYUSIN
 10
-469.493776
 20
-354.355841
 30
0.0
 11
-469.493776
 21
-396.355841
 31
0.0
  0
TEXT
  8
L-ZISSEN
 10
-308.993776
 20
-41.605841
 30
0.0
 40
4.5
  1
P.P
  0
LINE
  8
L-ZISSEN
 10
-312.993776
 20
-39.355841
 30
0.0
 11
-310.993776
 21
-39.355841
 31
0.0
  0
LINE
  8
L-ZISSEN
 10
-321.884376
 20
-26.019942
 30
0.0
 11
-312.993776
 21
-39.355841
 31
0.0
  0
SOLID
  8
L-ZISSEN
 10
-322.161726
 20
-26.204842
 30
0.0
 11
-321.607026
 21
-25.835041
 31
0.0
 12
-322.993776
 22
-24.355841
 32
0.0
 13
-322.993776
 23
-24.355841
 33
0.0
  0
LINE
  8
L-TYUSIN
 10
-242.993776
 20
-354.355841
 30
0.0
 11
-242.993776
 21
-396.355841
 31
0.0
  0
LINE
  8
L-TYUSIN
 10
-352.993776
 20
-354.355841
 30
0.0
 11
-352.993776
 21
-396.355841
 31
0.0
  0
TEXT
  8
L-ZISSEN
 10
-298.993776
 20
-338.605841
 30
0.0
 40
4.5
  1
P.P
  0
LINE
  8
L-ZISSEN
 10
-302.993776
 20
-336.355841
 30
0.0
 11
-300.993776
 21
-336.355841
 31
0.0
  0
LINE
  8
L-ZISSEN
 10
-321.681419
 20
-357.84663
 30
0.0
 11
-302.993776
 21
-336.355841
 31
0.0
  0
SOLID
  8
L-ZISSEN
 10
-321.429884
 20
-358.065356
 30
0.0
 11
-321.932954
 21
-357.627904
 31
0.0
 12
-322.993776
 22
-359.355841
 32
0.0
 13
-322.993776
 23
-359.355841
 33
0.0
  0
TEXT
  8
L-ZISSEN
 10
-288.993776
 20
-129.605841
 30
0.0
 40
4.5
  1
P.P
  0
LINE
  8
L-ZISSEN
 10
-292.993776
 20
-127.355841
 30
0.0
 11
-290.993776
 21
-127.355841
 31
0.0
  0
LINE
  8
L-ZISSEN
 10
-308.821537
 20
-149.235392
 30
0.0
 11
-292.993776
 21
-127.355841
 31
0.0
  0
SOLID
  8
L-ZISSEN
 10
-308.551462
 20
-149.430765
 30
0.0
 11
-309.091612
 21
-149.040019
 31
0.0
 12
-309.993776
 22
-150.855841
 32
0.0
 13
-309.993776
 23
-150.855841
 33
0.0
  0
LINE
  8
L-ZISSEN
 10
-362.993776
 20
-24.355841
 30
0.0
 11
-362.993776
 21
7.644159
 31
0.0
  0
LINE
  8
L-ZISSEN
 10
-362.993776
 20
7.644159
 30
0.0
 11
-232.993776
 21
7.644159
 31
0.0
  0
LINE
  8
L-ZISSEN
 10
-232.993776
 20
-24.355841
 30
0.0
 11
-362.993776
 21
-24.355841
 31
0.0
  0
LINE
  8
L-ZISSEN
 10
-232.993776
 20
-24.355841
 30
0.0
 11
-232.993776
 21
7.644159
 31
0.0
  0
CIRCLE
  8
L-ZISSEN
 10
-322.993776
 20
-3.355841
 30
0.0
 40
5.7225
  0
LINE
  8
L-TYUSIN
 10
-313.993776
 20
-3.355841
 30
0.0
 11
-331.993776
 21
-3.355841
 31
0.0
  0
LINE
  8
L-TYUSIN
 10
-322.993776
 20
-12.355841
 30
0.0
 11
-322.993776
 21
5.644159
 31
0.0
  0
LINE
  8
L-TYUSIN
 10
-334.993776
 20
-187.355841
 30
0.0
 11
-334.993776
 21
-197.355841
 31
0.0
  0
CIRCLE
  8
L-ZISSEN
 10
-446.493776
 20
-370.355841
 30
0.0
 40
7.475
  0
LINE
  8
L-TYUSIN
 10
-334.993776
 20
-371.355841
 30
0.0
 11
-334.993776
 21
-389.355841
 31
0.0
  0
LINE
  8
L-TYUSIN
 10
-325.993776
 20
-380.355841
 30
0.0
 11
-343.993776
 21
-380.355841
 31
0.0
  0
CIRCLE
  8
L-ZISSEN
 10
-334.993776
 20
-380.355841
 30
0.0
 40
5.7225
  0
LINE
  8
L-TYUSIN
 10
-242.993776
 20
-139.355841
 30
0.0
 11
-242.993776
 21
-159.355841
 31
0.0
  0
LINE
  8
L-TYUSIN
 10
-232.993776
 20
-149.355841
 30
0.0
 11
-252.993776
 21
-149.355841
 31
0.0
  0
CIRCLE
  8
L-ZISSEN
 10
-242.993776
 20
-149.355841
 30
0.0
 40
7.0
  0
CIRCLE
  8
L-ZISSEN
 10
-242.993776
 20
-149.355841
 30
0.0
 40
4.5
  0
CIRCLE
  8
L-ZISSEN
 10
-352.993776
 20
-149.355841
 30
0.0
 40
4.5
  0
CIRCLE
  8
L-ZISSEN
 10
-352.993776
 20
-149.355841
 30
0.0
 40
7.0
  0
LINE
  8
L-TYUSIN
 10
-342.993776
 20
-149.355841
 30
0.0
 11
-362.993776
 21
-149.355841
 31
0.0
  0
LINE
  8
L-TYUSIN
 10
-352.993776
 20
-139.355841
 30
0.0
 11
-352.993776
 21
-159.355841
 31
0.0
  0
LINE
  8
L-ZISSEN
 10
-362.993776
 20
-140.355841
 30
0.0
 11
-232.993776
 21
-140.355841
 31
0.0
  0
LINE
  8
L-ZISSEN
 10
-232.993776
 20
-140.355841
 30
0.0
 11
-232.993776
 21
-192.355841
 31
0.0
  0
LINE
  8
L-ZISSEN
 10
-362.993776
 20
-192.355841
 30
0.0
 11
-342.993776
 21
-192.355841
 31
0.0
  0
LINE
  8
L-ZISSEN
 10
-362.993776
 20
-140.355841
 30
0.0
 11
-362.993776
 21
-192.355841
 31
0.0
  0
LINE
  8
L-TYUSIN
 10
-446.493776
 20
-358.355841
 30
0.0
 11
-446.493776
 21
-382.355841
 31
0.0
  0
LINE
  8
L-TYUSIN
 10
-434.493776
 20
-370.355841
 30
0.0
 11
-458.493776
 21
-370.355841
 31
0.0
  0
LINE
  8
L-ZISSEN
 10
-232.993776
 20
-359.355841
 30
0.0
 11
-232.993776
 21
-391.355841
 31
0.0
  0
LINE
  8
L-ZISSEN
 10
-232.993776
 20
-359.355841
 30
0.0
 11
-362.993776
 21
-359.355841
 31
0.0
  0
LINE
  8
L-ZISSEN
 10
-362.993776
 20
-391.355841
 30
0.0
 11
-232.993776
 21
-391.355841
 31
0.0
  0
LINE
  8
L-ZISSEN
 10
-362.993776
 20
-359.355841
 30
0.0
 11
-362.993776
 21
-391.355841
 31
0.0
  0
LINE
  8
L-ZISSEN
 10
-478.493776
 20
-391.355841
 30
0.0
 11
-426.493776
 21
-391.355841
 31
0.0
  0
LINE
  8
L-ZISSEN
 10
-478.493776
 20
-359.355841
 30
0.0
 11
-478.493776
 21
-391.355841
 31
0.0
  0
LINE
  8
L-ZISSEN
 10
-426.493776
 20
-359.355841
 30
0.0
 11
-478.493776
 21
-359.355841
 31
0.0
  0
LINE
  8
L-ZISSEN
 10
-426.493776
 20
-391.355841
 30
0.0
 11
-426.493776
 21
-359.355841
 31
0.0
  0
LINE
  8
L-TYUSIN
 10
-272.993776
 20
-12.355841
 30
0.0
 11
-272.993776
 21
5.644159
 31
0.0
  0
LINE
  8
L-TYUSIN
 10
-263.993776
 20
-3.355841
 30
0.0
 11
-281.993776
 21
-3.355841
 31
0.0
  0
CIRCLE
  8
L-ZISSEN
 10
-272.993776
 20
-3.355841
 30
0.0
 40
5.7225
  0
SOLID
  8
L-ZISSEN
 10
-272.161726
 20
-26.204842
 30
0.0
 11
-271.607026
 21
-25.835041
 31
0.0
 12
-272.993776
 22
-24.355841
 32
0.0
 13
-272.993776
 23
-24.355841
 33
0.0
  0
LINE
  8
L-ZISSEN
 10
-271.884376
 20
-26.019942
 30
0.0
 11
-262.993776
 21
-39.355841
 31
0.0
  0
LINE
  8
L-ZISSEN
 10
-262.993776
 20
-39.355841
 30
0.0
 11
-260.993776
 21
-39.355841
 31
0.0
  0
TEXT
  8
L-ZISSEN
 10
-258.993776
 20
-41.605841
 30
0.0
 40
4.5
  1
P.P
  0
LINE
  8
L-TYUSIN
 10
-352.993776
 20
12.644159
 30
0.0
 11
-352.993776
 21
-29.355841
 31
0.0
  0
LINE
  8
L-TYUSIN
 10
-284.993776
 20
-187.355841
 30
0.0
 11
-284.993776
 21
-197.355841
 31
0.0
  0
SOLID
  8
L-ZISSEN
 10
-258.551462
 20
-149.430765
 30
0.0
 11
-259.091612
 21
-149.040019
 31
0.0
 12
-259.993776
 22
-150.855841
 32
0.0
 13
-259.993776
 23
-150.855841
 33
0.0
  0
LINE
  8
L-ZISSEN
 10
-258.821537
 20
-149.235392
 30
0.0
 11
-242.993776
 21
-127.355841
 31
0.0
  0
LINE
  8
L-ZISSEN
 10
-242.993776
 20
-127.355841
 30
0.0
 11
-240.993776
 21
-127.355841
 31
0.0
  0
TEXT
  8
L-ZISSEN
 10
-238.993776
 20
-129.605841
 30
0.0
 40
4.5
  1
P.P
  0
CIRCLE
  8
L-ZISSEN
 10
-284.993776
 20
-380.355841
 30
0.0
 40
5.7225
  0
LINE
  8
L-TYUSIN
 10
-275.993776
 20
-380.355841
 30
0.0
 11
-293.993776
 21
-380.355841
 31
0.0
  0
LINE
  8
L-TYUSIN
 10
-284.993776
 20
-371.355841
 30
0.0
 11
-284.993776
 21
-389.355841
 31
0.0
  0
SOLID
  8
L-ZISSEN
 10
-271.429884
 20
-358.065356
 30
0.0
 11
-271.932954
 21
-357.627904
 31
0.0
 12
-272.993776
 22
-359.355841
 32
0.0
 13
-272.993776
 23
-359.355841
 33
0.0
  0
LINE
  8
L-ZISSEN
 10
-271.681419
 20
-357.84663
 30
0.0
 11
-252.993776
 21
-336.355841
 31
0.0
  0
LINE
  8
L-ZISSEN
 10
-252.993776
 20
-336.355841
 30
0.0
 11
-250.993776
 21
-336.355841
 31
0.0
  0
TEXT
  8
L-ZISSEN
 10
-248.993776
 20
-338.605841
 30
0.0
 40
4.5
  1
P.P
  0
LINE
  8
L-TYUSIN
 10
-242.993776
 20
12.644159
 30
0.0
 11
-242.993776
 21
-29.355841
 31
0.0
  0
LINE
  8
L-ZISSEN
 10
-252.993776
 20
-192.355841
 30
0.0
 11
-232.993776
 21
-192.355841
 31
0.0
  0
LINE
  8
L-ZISSEN
 10
-302.993776
 20
-192.355841
 30
0.0
 11
-292.993776
 21
-192.355841
 31
0.0
  0
LINE
  8
L-TYUSIN
 10
-357.993776
 20
-370.355841
 30
0.0
 11
-367.993776
 21
-370.355841
 31
0.0
  0
LINE
  8
L-TYUSIN
 10
-237.993776
 20
-370.355841
 30
0.0
 11
-227.993776
 21
-370.355841
 31
0.0
  0
TEXT
  8
L-ZISSEN
 10
-385.993776
 20
55.144159
 30
0.0
 40
4.5
  1
4
  0
TEXT
  8
L-ZISSEN
 10
-384.993776
 20
61.144159
 30
0.0
 40
4.5
  1
1
  0
TEXT
  8
L-ZISSEN
 10
-477.993776
 20
58.144159
 30
0.0
 40
4.5
  1
MODEL No. : 
  0
TEXT
  8
L-ZISSEN
 10
-432.993776
 20
58.144159
 30
0.0
 40
4.5
  1
392-2*0-600
  0
LINE
  8
L-TYUSIN
 10
-237.993776
 20
-13.355841
 30
0.0
 11
-227.993776
 21
-13.355841
 31
0.0
  0
LINE
  8
L-TYUSIN
 10
-357.993776
 20
-13.355841
 30
0.0
 11
-367.993776
 21
-13.355841
 31
0.0
  0
LINE
  8
L-TYUSIN
 10
-357.993776
 20
-172.355841
 30
0.0
 11
-367.993776
 21
-172.355841
 31
0.0
  0
LINE
  8
L-TYUSIN
 10
-237.993776
 20
-172.355841
 30
0.0
 11
-227.993776
 21
-172.355841
 31
0.0
  0
LINE
  8
L-TYUSIN
 10
-512.993776
 20
83.144159
 30
0.0
 11
-512.993776
 21
-421.924598
 31
0.0
  0
LINE
  8
L-TYUSIN
 10
-182.993776
 20
-380.355841
 30
0.0
 11
-182.993776
 21
-370.355841
 31
0.0
  0
LINE
  8
L-TYUSIN
 10
-187.993776
 20
-166.355841
 30
0.0
 11
-177.993776
 21
-166.355841
 31
0.0
  0
LINE
  8
L-TYUSIN
 10
-187.993776
 20
-8.355841
 30
0.0
 11
-177.993776
 21
-8.355841
 31
0.0
  0
LINE
  8
L-TYUSIN
 10
-187.993776
 20
-375.355841
 30
0.0
 11
-177.993776
 21
-375.355841
 31
0.0
  0
LINE
  8
L-TYUSIN
 10
-182.993776
 20
-13.355841
 30
0.0
 11
-182.993776
 21
-3.355841
 31
0.0
  0
LINE
  8
L-TYUSIN
 10
-182.993776
 20
-171.355841
 30
0.0
 11
-182.993776
 21
-161.355841
 31
0.0
  0
LINE
  8
L-TYUSIN
 10
-137.993776
 20
-375.355841
 30
0.0
 11
-127.993776
 21
-375.355841
 31
0.0
  0
LINE
  8
L-TYUSIN
 10
-132.993776
 20
-380.355841
 30
0.0
 11
-132.993776
 21
-370.355841
 31
0.0
  0
LINE
  8
L-TYUSIN
 10
-132.993776
 20
-171.355841
 30
0.0
 11
-132.993776
 21
-161.355841
 31
0.0
  0
LINE
  8
L-TYUSIN
 10
-132.993776
 20
-13.355841
 30
0.0
 11
-132.993776
 21
-3.355841
 31
0.0
  0
LINE
  8
L-TYUSIN
 10
-137.993776
 20
-8.355841
 30
0.0
 11
-127.993776
 21
-8.355841
 31
0.0
  0
LINE
  8
L-TYUSIN
 10
-137.993776
 20
-166.355841
 30
0.0
 11
-127.993776
 21
-166.355841
 31
0.0
  0
LINE
  8
L-TYUSIN
 10
-87.993776
 20
-166.355841
 30
0.0
 11
-77.993776
 21
-166.355841
 31
0.0
  0
LINE
  8
L-TYUSIN
 10
-87.993776
 20
-8.355841
 30
0.0
 11
-77.993776
 21
-8.355841
 31
0.0
  0
LINE
  8
L-TYUSIN
 10
-82.993776
 20
-13.355841
 30
0.0
 11
-82.993776
 21
-3.355841
 31
0.0
  0
LINE
  8
L-TYUSIN
 10
-82.993776
 20
-171.355841
 30
0.0
 11
-82.993776
 21
-161.355841
 31
0.0
  0
LINE
  8
L-TYUSIN
 10
-82.993776
 20
-380.355841
 30
0.0
 11
-82.993776
 21
-370.355841
 31
0.0
  0
LINE
  8
L-TYUSIN
 10
-87.993776
 20
-375.355841
 30
0.0
 11
-77.993776
 21
-375.355841
 31
0.0
  0
TEXT
  8
L-ZISSEN
 10
-250.993776
 20
40.644159
 30
0.0
 40
4.5
  1
MODEL No.
 72
     1
 11
-232.993776
 21
40.644159
 31
0.0
  0
TEXT
  8
L-ZISSEN
 10
-258.118776
 20
30.644159
 30
0.0
 40
4.5
  1
392-220-600*
 72
     1
 11
-232.993776
 21
30.644159
 31
0.0
  0
TEXT
  8
L-ZISSEN
 10
-150.993776
 20
40.644159
 30
0.0
 40
4.5
  1
MODEL No.
 72
     1
 11
-132.993776
 21
40.644159
 31
0.0
  0
TEXT
  8
L-ZISSEN
 10
-158.118776
 20
30.644159
 30
0.0
 40
4.5
  1
392-240-600*
 72
     1
 11
-132.993776
 21
30.644159
 31
0.0
  0
TEXT
  8
L-ZISSEN
 10
-208.118776
 20
50.644159
 30
0.0
 40
4.5
  1
392-230-600*
 72
     1
 11
-182.993776
 21
50.644159
 31
0.0
  0
TEXT
  8
L-ZISSEN
 10
-200.993776
 20
58.144159
 30
0.0
 40
4.5
  1
MODEL No.
 72
     1
 11
-182.993776
 21
58.144159
 31
0.0
  0
TEXT
  8
L-ZISSEN
 10
-108.118776
 20
50.644159
 30
0.0
 40
4.5
  1
392-250-600*
 72
     1
 11
-82.993776
 21
50.644159
 31
0.0
  0
TEXT
  8
L-ZISSEN
 10
-100.993776
 20
58.144159
 30
0.0
 40
4.5
  1
MODEL No.
 72
     1
 11
-82.993776
 21
58.144159
 31
0.0
  0
LINE
  8
L-TYUSIN
 10
-27.993776
 20
-166.355841
 30
0.0
 11
-37.993776
 21
-166.355841
 31
0.0
  0
LINE
  8
L-TYUSIN
 10
-27.993776
 20
-8.355841
 30
0.0
 11
-37.993776
 21
-8.355841
 31
0.0
  0
LINE
  8
L-TYUSIN
 10
-32.993776
 20
-13.355841
 30
0.0
 11
-32.993776
 21
-3.355841
 31
0.0
  0
LINE
  8
L-TYUSIN
 10
-32.993776
 20
-171.355841
 30
0.0
 11
-32.993776
 21
-161.355841
 31
0.0
  0
LINE
  8
L-TYUSIN
 10
-32.993776
 20
-380.355841
 30
0.0
 11
-32.993776
 21
-370.355841
 31
0.0
  0
LINE
  8
L-TYUSIN
 10
-27.993776
 20
-375.355841
 30
0.0
 11
-37.993776
 21
-375.355841
 31
0.0
  0
TEXT
  8
L-ZISSEN
 10
-58.118776
 20
30.644159
 30
0.0
 40
4.5
  1
392-260-600*
 72
     1
 11
-32.993776
 21
30.644159
 31
0.0
  0
TEXT
  8
L-ZISSEN
 10
-50.993776
 20
40.644159
 30
0.0
 40
4.5
  1
MODEL No.
 72
     1
 11
-32.993776
 21
40.644159
 31
0.0
  0
ENDSEC
  0
EOF
