  0
SECTION
  2
HEADER
  9
$ACADVER
  1
AC1006
  9
$INSBASE
 10
832.993776
 20
536.855841
 30
0.0
  9
$EXTMIN
 10
27.826641
 20
14.5
  9
$EXTMAX
 10
468.0
 20
282.5
  9
$LIMMIN
 10
0.0
 20
0.0
  9
$LIMMAX
 10
420.0
 20
297.0
  9
$ORTHOMODE
 70
     0
  9
$REGENMODE
 70
     1
  9
$FILLMODE
 70
     1
  9
$QTEXTMODE
 70
     0
  9
$MIRRTEXT
 70
     1
  9
$DRAGMODE
 70
     2
  9
$LTSCALE
 40
1.0
  9
$OSMODE
 70
     0
  9
$ATTMODE
 70
     1
  9
$TEXTSIZE
 40
4.5
  9
$TRACEWID
 40
0.05
  9
$TEXTSTYLE
  7
STANDARD
  9
$CLAYER
  8
L-ZISSEN
  9
$CELTYPE
  6
BYLAYER
  9
$CECOLOR
 62
   256
  9
$DIMSCALE
 40
1.0
  9
$DIMASZ
 40
2.0
  9
$DIMEXO
 40
2.0
  9
$DIMDLI
 40
0.38
  9
$DIMRND
 40
0.0
  9
$DIMDLE
 40
1.0
  9
$DIMEXE
 40
2.0
  9
$DIMTP
 40
0.0
  9
$DIMTM
 40
0.0
  9
$DIMTXT
 40
4.5
  9
$DIMCEN
 40
0.09
  9
$DIMTSZ
 40
0.0
  9
$DIMTOL
 70
     0
  9
$DIMLIM
 70
     0
  9
$DIMTIH
 70
     0
  9
$DIMTOH
 70
     0
  9
$DIMSE1
 70
     0
  9
$DIMSE2
 70
     0
  9
$DIMTAD
 70
     1
  9
$DIMZIN
 70
     0
  9
$DIMBLK
  1

  9
$DIMASO
 70
     0
  9
$DIMSHO
 70
     0
  9
$DIMPOST
  1

  9
$DIMAPOST
  1

  9
$DIMALT
 70
     0
  9
$DIMALTD
 70
     2
  9
$DIMALTF
 40
25.4
  9
$DIMLFAC
 40
1.0
  9
$DIMTOFL
 70
     1
  9
$DIMTVP
 40
0.0
  9
$DIMTIX
 70
     1
  9
$DIMSOXD
 70
     0
  9
$DIMSAH
 70
     0
  9
$DIMBLK1
  1

  9
$DIMBLK2
  1

  9
$LUNITS
 70
     2
  9
$LUPREC
 70
     4
  9
$AXISMODE
 70
     0
  9
$AXISUNIT
 10
0.0
 20
0.0
  9
$SKETCHINC
 40
0.1
  9
$FILLETRAD
 40
0.0
  9
$AUNITS
 70
     0
  9
$AUPREC
 70
     0
  9
$MENU
  1
acad
  9
$ELEVATION
 40
0.0
  9
$THICKNESS
 40
0.0
  9
$LIMCHECK
 70
     0
  9
$BLIPMODE
 70
     1
  9
$CHAMFERA
 40
1.5
  9
$CHAMFERB
 40
1.5
  9
$SKPOLY
 70
     0
  9
$TDCREATE
 40
2449001.8583729165
  9
$TDUPDATE
 40
2449001.8583729165
  9
$TDINDWG
 40
0.0000000000
  9
$TDUSRTIMER
 40
0.0000000000
  9
$USRTIMER
 70
     1
  9
$ANGBASE
 50
0.0
  9
$ANGDIR
 70
     0
  9
$PDMODE
 70
     0
  9
$PDSIZE
 40
0.0
  9
$PLINEWID
 40
0.0
  9
$COORDS
 70
     2
  9
$SPLFRAME
 70
     0
  9
$SPLINETYPE
 70
     6
  9
$SPLINESEGS
 70
     8
  9
$ATTDIA
 70
     0
  9
$ATTREQ
 70
     1
  9
$HANDLING
 70
     0
  9
$HANDSEED
  5
0
  9
$SURFTAB1
 70
     6
  9
$SURFTAB2
 70
     6
  9
$SURFTYPE
 70
     6
  9
$SURFU
 70
     6
  9
$SURFV
 70
     6
  9
$FLATLAND
 70
     0
  9
$UCSNAME
  2

  9
$UCSORG
 10
0.0
 20
0.0
 30
0.0
  9
$UCSXDIR
 10
1.0
 20
0.0
 30
0.0
  9
$UCSYDIR
 10
0.0
 20
1.0
 30
0.0
  9
$USERI1
 70
     0
  9
$USERI2
 70
     0
  9
$USERI3
 70
     0
  9
$USERI4
 70
     0
  9
$USERI5
 70
     0
  9
$USERR1
 40
0.0
  9
$USERR2
 40
0.0
  9
$USERR3
 40
0.0
  9
$USERR4
 40
0.0
  9
$USERR5
 40
0.0
  9
$WORLDVIEW
 70
     1
  0
ENDSEC
  0
SECTION
  2
TABLES
  0
TABLE
  2
VPORT
 70
     2
  0
VPORT
  2
*ACTIVE
 70
     0
 10
0.0
 20
0.0
 11
1.0
 21
1.0
 12
238.227989
 22
153.824519
 13
0.0
 23
0.0
 14
5.0
 24
5.0
 15
0.0
 25
0.0
 16
0.0
 26
0.0
 36
1.0
 17
0.0
 27
0.0
 37
0.0
 40
307.649038
 41
1.5487
 42
50.0
 43
0.0
 44
0.0
 50
0.0
 51
0.0
 71
     0
 72
   100
 73
     1
 74
     0
 75
     0
 76
     0
 77
     0
 78
     0
  0
ENDTAB
  0
TABLE
  2
LTYPE
 70
     2
  0
LTYPE
  2
CONTINUOUS
 70
    64
  3
Solid line
 72
    65
 73
     0
 40
0.0
  0
LTYPE
  2
CENTER
 70
    64
  3
____ _ ____ _ ____ _ ____ _ 
 72
    65
 73
     4
 40
60.0
 49
45.0
 49
-5.0
 49
5.0
 49
-5.0
  0
ENDTAB
  0
TABLE
  2
LAYER
 70
     3
  0
LAYER
  2
0
 70
     0
 62
     7
  6
CONTINUOUS
  0
LAYER
  2
L-ZISSEN
 70
    64
 62
     7
  6
CONTINUOUS
  0
LAYER
  2
L-TYUSIN
 70
    64
 62
     1
  6
CENTER
  0
ENDTAB
  0
TABLE
  2
STYLE
 70
     1
  0
STYLE
  2
STANDARD
 70
    64
 40
0.0
 41
1.0
 50
0.0
 71
     0
 42
4.5
  3
txt
  4

  0
ENDTAB
  0
TABLE
  2
VIEW
 70
     0
  0
ENDTAB
  0
TABLE
  2
UCS
 70
     0
  0
ENDTAB
  0
TABLE
  2
DWGMGR
 70
     0
  0
ENDTAB
  0
ENDSEC
  0
SECTION
  2
BLOCKS
  0
ENDSEC
  0
SECTION
  2
ENTITIES
  0
LINE
  8
L-ZISSEN
 10
58.75
 20
143.45
 30
0.0
 11
58.75
 21
137.5
 31
0.0
  0
LINE
  8
L-ZISSEN
 10
58.75
 20
143.45
 30
0.0
 11
81.25
 21
143.45
 31
0.0
  0
LINE
  8
L-ZISSEN
 10
81.25
 20
143.45
 30
0.0
 11
81.25
 21
137.5
 31
0.0
  0
CIRCLE
  8
L-ZISSEN
 10
180.0
 20
210.0
 30
0.0
 40
12.5
  0
LINE
  8
L-ZISSEN
 10
159.0
 20
190.0
 30
0.0
 11
205.0
 21
190.0
 31
0.0
  0
LINE
  8
L-ZISSEN
 10
159.0
 20
230.0
 30
0.0
 11
159.0
 21
190.0
 31
0.0
  0
LINE
  8
L-ZISSEN
 10
205.0
 20
230.0
 30
0.0
 11
159.0
 21
230.0
 31
0.0
  0
LINE
  8
L-ZISSEN
 10
205.0
 20
230.0
 30
0.0
 11
205.0
 21
190.0
 31
0.0
  0
LINE
  8
L-ZISSEN
 10
243.75
 20
196.25
 30
0.0
 11
243.75
 21
223.75
 31
0.0
  0
LINE
  8
L-ZISSEN
 10
221.25
 20
223.75
 30
0.0
 11
221.25
 21
196.25
 31
0.0
  0
LINE
  8
L-ZISSEN
 10
243.75
 20
223.75
 30
0.0
 11
213.0
 21
223.75
 31
0.0
  0
CIRCLE
  8
L-ZISSEN
 10
232.5
 20
210.0
 30
0.0
 40
11.25
  0
LINE
  8
L-ZISSEN
 10
213.0
 20
196.25
 30
0.0
 11
243.75
 21
196.25
 31
0.0
  0
LINE
  8
L-ZISSEN
 10
221.25
 20
143.45
 30
0.0
 11
221.25
 21
127.95
 31
0.0
  0
LINE
  8
L-ZISSEN
 10
243.75
 20
143.45
 30
0.0
 11
243.75
 21
100.45
 31
0.0
  0
LINE
  8
L-ZISSEN
 10
243.75
 20
148.45
 30
0.0
 11
221.25
 21
148.45
 31
0.0
  0
LINE
  8
L-ZISSEN
 10
243.75
 20
153.45
 30
0.0
 11
221.25
 21
153.45
 31
0.0
  0
LINE
  8
L-ZISSEN
 10
243.75
 20
143.45
 30
0.0
 11
221.25
 21
143.45
 31
0.0
  0
LINE
  8
L-ZISSEN
 10
243.75
 20
100.45
 30
0.0
 11
213.0
 21
100.45
 31
0.0
  0
LINE
  8
L-ZISSEN
 10
243.75
 20
153.45
 30
0.0
 11
243.75
 21
148.45
 31
0.0
  0
LINE
  8
L-ZISSEN
 10
213.0
 20
127.95
 30
0.0
 11
243.75
 21
127.95
 31
0.0
  0
LINE
  8
L-ZISSEN
 10
192.5
 20
135.7
 30
0.0
 11
192.5
 21
137.5
 31
0.0
  0
LINE
  8
L-ZISSEN
 10
167.5
 20
135.7
 30
0.0
 11
167.5
 21
137.5
 31
0.0
  0
LINE
  8
L-ZISSEN
 10
167.5
 20
137.5
 30
0.0
 11
192.5
 21
137.5
 31
0.0
  0
LINE
  8
L-ZISSEN
 10
90.0
 20
135.7
 30
0.0
 11
50.0
 21
135.7
 31
0.0
  0
LINE
  8
L-ZISSEN
 10
205.0
 20
135.7
 30
0.0
 11
205.0
 21
92.7
 31
0.0
  0
LINE
  8
L-ZISSEN
 10
159.0
 20
135.7
 30
0.0
 11
205.0
 21
135.7
 31
0.0
  0
LINE
  8
L-ZISSEN
 10
159.0
 20
92.7
 30
0.0
 11
159.0
 21
135.7
 31
0.0
  0
LINE
  8
L-ZISSEN
 10
330.0
 20
84.7
 30
0.0
 11
330.0
 21
135.7
 31
0.0
  0
LINE
  8
L-ZISSEN
 10
90.0
 20
92.7
 30
0.0
 11
50.0
 21
92.7
 31
0.0
  0
LINE
  8
L-ZISSEN
 10
290.0
 20
135.7
 30
0.0
 11
290.0
 21
84.7
 31
0.0
  0
LINE
  8
L-ZISSEN
 10
160.0
 20
92.7
 30
0.0
 11
160.0
 21
84.7
 31
0.0
  0
LINE
  8
L-ZISSEN
 10
159.0
 20
92.7
 30
0.0
 11
205.0
 21
92.7
 31
0.0
  0
LINE
  8
L-ZISSEN
 10
200.0
 20
84.7
 30
0.0
 11
200.0
 21
92.7
 31
0.0
  0
LINE
  8
L-ZISSEN
 62
     7
 10
298.0
 20
45.9
 30
0.0
 11
298.0
 21
39.5
 31
0.0
  0
LINE
  8
L-ZISSEN
 62
     7
 10
277.826641
 20
41.1
 30
0.0
 11
277.826641
 21
39.5
 31
0.0
  0
LINE
  8
L-ZISSEN
 62
     7
 10
321.384419
 20
41.9
 30
0.0
 11
321.384419
 21
39.5
 31
0.0
  0
LINE
  8
L-ZISSEN
 62
     7
 10
288.5
 20
47.5
 30
0.0
 11
288.5
 21
41.1
 31
0.0
  0
LINE
  8
L-ZISSEN
 62
     7
 10
296.447629
 20
41.1
 30
0.0
 11
277.826641
 21
41.1
 31
0.0
  0
LINE
  8
L-ZISSEN
 62
     7
 10
277.826641
 20
39.5
 30
0.0
 11
298.0
 21
39.5
 31
0.0
  0
LINE
  8
L-ZISSEN
 62
     7
 10
321.384419
 20
39.5
 30
0.0
 11
342.173358
 21
39.5
 31
0.0
  0
LINE
  8
L-ZISSEN
 62
     7
 10
342.173358
 20
39.5
 30
0.0
 11
342.173358
 21
41.1
 31
0.0
  0
LINE
  8
L-ZISSEN
 62
     7
 10
342.173358
 20
41.1
 30
0.0
 11
331.5
 21
41.1
 31
0.0
  0
LINE
  8
L-ZISSEN
 62
     7
 10
331.5
 20
41.1
 30
0.0
 11
331.5
 21
47.5
 31
0.0
  0
LINE
  8
L-ZISSEN
 62
     7
 10
331.5
 20
47.5
 30
0.0
 11
288.5
 21
47.5
 31
0.0
  0
LINE
  8
L-ZISSEN
 62
     7
 10
296.447629
 20
47.5
 30
0.0
 11
296.447629
 21
41.1
 31
0.0
  0
LINE
  8
L-ZISSEN
 62
     7
 10
329.947629
 20
45.9
 30
0.0
 11
329.947629
 21
39.5
 31
0.0
  0
LINE
  8
L-ZISSEN
 62
     7
 10
329.947629
 20
45.9
 30
0.0
 11
298.0
 21
45.9
 31
0.0
  0
LINE
  8
L-ZISSEN
 62
     7
 10
160.05237
 20
45.9
 30
0.0
 11
192.0
 21
45.9
 31
0.0
  0
LINE
  8
L-ZISSEN
 62
     7
 10
160.05237
 20
45.9
 30
0.0
 11
160.05237
 21
39.5
 31
0.0
  0
LINE
  8
L-ZISSEN
 62
     7
 10
193.55237
 20
47.5
 30
0.0
 11
193.55237
 21
41.1
 31
0.0
  0
LINE
  8
L-ZISSEN
 62
     7
 10
158.5
 20
47.5
 30
0.0
 11
201.5
 21
47.5
 31
0.0
  0
LINE
  8
L-ZISSEN
 62
     7
 10
158.5
 20
41.1
 30
0.0
 11
158.5
 21
47.5
 31
0.0
  0
LINE
  8
L-ZISSEN
 62
     7
 10
147.826641
 20
41.1
 30
0.0
 11
158.5
 21
41.1
 31
0.0
  0
LINE
  8
L-ZISSEN
 62
     7
 10
147.826641
 20
39.5
 30
0.0
 11
147.826641
 21
41.1
 31
0.0
  0
LINE
  8
L-ZISSEN
 62
     7
 10
168.615581
 20
39.5
 30
0.0
 11
147.826641
 21
39.5
 31
0.0
  0
LINE
  8
L-ZISSEN
 62
     7
 10
212.173359
 20
39.5
 30
0.0
 11
192.0
 21
39.5
 31
0.0
  0
LINE
  8
L-ZISSEN
 62
     7
 10
193.55237
 20
41.1
 30
0.0
 11
212.173359
 21
41.1
 31
0.0
  0
LINE
  8
L-ZISSEN
 62
     7
 10
201.5
 20
47.5
 30
0.0
 11
201.5
 21
41.1
 31
0.0
  0
LINE
  8
L-ZISSEN
 62
     7
 10
168.615581
 20
41.9
 30
0.0
 11
168.615581
 21
39.5
 31
0.0
  0
LINE
  8
L-ZISSEN
 62
     7
 10
212.173359
 20
41.1
 30
0.0
 11
212.173359
 21
39.5
 31
0.0
  0
LINE
  8
L-ZISSEN
 62
     7
 10
192.0
 20
45.9
 30
0.0
 11
192.0
 21
39.5
 31
0.0
  0
CIRCLE
  8
L-ZISSEN
 62
     7
 10
157.726136
 20
232.273864
 30
0.0
 40
2.25
  0
CIRCLE
  8
L-ZISSEN
 62
     7
 10
202.273864
 20
187.726136
 30
0.0
 40
2.25
  0
LINE
  8
L-ZISSEN
 62
     7
 10
158.5
 20
221.600505
 30
0.0
 11
147.826641
 21
232.273864
 31
0.0
  0
LINE
  8
L-ZISSEN
 62
     7
 10
206.899495
 20
193.0
 30
0.0
 11
212.173359
 21
187.726136
 31
0.0
  0
LINE
  8
L-ZISSEN
 62
     7
 10
167.331667
 20
230.0
 30
0.0
 11
168.615581
 21
231.283914
 31
0.0
  0
LINE
  8
L-TYUSIN
 10
161.26167
 20
235.809398
 30
0.0
 11
154.190602
 21
228.73833
 31
0.0
  0
LINE
  8
L-TYUSIN
 10
205.809398
 20
191.26167
 30
0.0
 11
198.73833
 21
184.190602
 31
0.0
  0
LINE
  8
L-TYUSIN
 10
154.190602
 20
235.809398
 30
0.0
 11
161.26167
 21
228.73833
 31
0.0
  0
LINE
  8
L-ZISSEN
 62
     7
 10
147.826641
 20
232.273864
 30
0.0
 11
157.726136
 21
242.173359
 31
0.0
  0
LINE
  8
L-ZISSEN
 62
     7
 10
202.273864
 20
177.826641
 30
0.0
 11
191.600505
 21
188.5
 31
0.0
  0
LINE
  8
L-ZISSEN
 62
     7
 10
212.173359
 20
187.726136
 30
0.0
 11
202.273864
 21
177.826641
 31
0.0
  0
LINE
  8
L-ZISSEN
 62
     7
 10
157.726136
 20
242.173359
 30
0.0
 11
169.899495
 21
230.0
 31
0.0
  0
LINE
  8
L-ZISSEN
 10
158.5
 20
222.0
 30
0.0
 11
158.5
 21
198.0
 31
0.0
  0
LINE
  8
L-ZISSEN
 10
192.0
 20
188.5
 30
0.0
 11
168.0
 21
188.5
 31
0.0
  0
LINE
  8
L-TYUSIN
 10
180.0
 20
142.5
 30
0.0
 11
180.0
 21
40.9
 31
0.0
  0
LINE
  8
L-TYUSIN
 10
248.75
 20
210.0
 30
0.0
 11
152.502647
 21
210.0
 31
0.0
  0
LINE
  8
L-ZISSEN
 10
316.679404
 20
60.030769
 30
0.0
 11
316.679404
 21
55.5
 31
0.0
  0
LINE
  8
L-ZISSEN
 10
322.0
 20
60.0
 30
0.0
 11
316.63325
 21
60.0
 31
0.0
  0
LINE
  8
L-ZISSEN
 10
323.416408
 20
82.0
 30
0.0
 11
296.583592
 21
82.0
 31
0.0
  0
ARC
  8
L-ZISSEN
 10
310.0
 20
70.0
 30
0.0
 40
12.0
 50
277.180756
 51
262.819244
  0
LINE
  8
L-ZISSEN
 10
320.0
 20
60.0
 30
0.0
 11
320.0
 21
55.5
 31
0.0
  0
LINE
  8
L-ZISSEN
 10
322.0
 20
82.0
 30
0.0
 11
322.0
 21
60.0
 31
0.0
  0
LINE
  8
L-ZISSEN
 10
328.0
 20
76.7
 30
0.0
 11
322.0
 21
76.7
 31
0.0
  0
LINE
  8
L-ZISSEN
 10
328.0
 20
84.7
 30
0.0
 11
328.0
 21
76.7
 31
0.0
  0
LINE
  8
L-ZISSEN
 10
290.0
 20
84.7
 30
0.0
 11
330.0
 21
84.7
 31
0.0
  0
LINE
  8
L-ZISSEN
 10
292.0
 20
73.0
 30
0.0
 11
292.0
 21
84.7
 31
0.0
  0
LINE
  8
L-ZISSEN
 10
288.5
 20
73.0
 30
0.0
 11
298.0
 21
73.0
 31
0.0
  0
LINE
  8
L-ZISSEN
 10
288.5
 20
49.0
 30
0.0
 11
288.5
 21
73.0
 31
0.0
  0
LINE
  8
L-ZISSEN
 10
288.5
 20
49.0
 30
0.0
 11
292.25
 21
49.0
 31
0.0
  0
LINE
  8
L-ZISSEN
 10
292.25
 20
55.5
 30
0.0
 11
292.25
 21
47.5
 31
0.0
  0
LINE
  8
L-ZISSEN
 10
327.75
 20
55.5
 30
0.0
 11
292.25
 21
55.5
 31
0.0
  0
LINE
  8
L-ZISSEN
 10
327.75
 20
47.5
 30
0.0
 11
327.75
 21
55.5
 31
0.0
  0
LINE
  8
L-TYUSIN
 10
283.468755
 20
61.0
 30
0.0
 11
299.93751
 21
61.0
 31
0.0
  0
LINE
  8
L-TYUSIN
 10
295.0
 20
70.0
 30
0.0
 11
325.0
 21
70.0
 31
0.0
  0
LINE
  8
L-TYUSIN
 10
70.0
 20
40.9
 30
0.0
 11
70.0
 21
158.45
 31
0.0
  0
LINE
  8
L-TYUSIN
 10
154.0
 20
70.0
 30
0.0
 11
206.0
 21
70.0
 31
0.0
  0
LINE
  8
L-ZISSEN
 10
162.25
 20
55.5
 30
0.0
 11
169.334635
 21
55.5
 31
0.0
  0
LINE
  8
L-ZISSEN
 10
158.5
 20
58.0
 30
0.0
 11
168.38105
 21
58.0
 31
0.0
  0
LINE
  8
L-ZISSEN
 10
176.0
 20
84.7
 30
0.0
 11
176.0
 21
72.313708
 31
0.0
  0
LINE
  8
L-ZISSEN
 10
197.75
 20
55.5
 30
0.0
 11
190.665365
 21
55.5
 31
0.0
  0
LINE
  8
L-ZISSEN
 10
184.0
 20
84.7
 30
0.0
 11
184.0
 21
72.313708
 31
0.0
  0
CIRCLE
  8
L-ZISSEN
 10
180.0
 20
61.0
 30
0.0
 40
12.0
  0
LINE
  8
L-TYUSIN
 10
195.015677
 20
61.0
 30
0.0
 11
164.455489
 21
61.0
 31
0.0
  0
LINE
  8
L-ZISSEN
 10
194.0
 20
84.7
 30
0.0
 11
194.0
 21
82.0
 31
0.0
  0
LINE
  8
L-ZISSEN
 10
184.0
 20
82.0
 30
0.0
 11
201.5
 21
82.0
 31
0.0
  0
LINE
  8
L-ZISSEN
 10
201.5
 20
82.0
 30
0.0
 11
201.5
 21
58.0
 31
0.0
  0
LINE
  8
L-ZISSEN
 10
201.5
 20
58.0
 30
0.0
 11
191.61895
 21
58.0
 31
0.0
  0
LINE
  8
L-ZISSEN
 10
197.75
 20
58.0
 30
0.0
 11
197.75
 21
47.5
 31
0.0
  0
LINE
  8
L-ZISSEN
 10
162.25
 20
58.0
 30
0.0
 11
162.25
 21
47.5
 31
0.0
  0
LINE
  8
L-ZISSEN
 10
176.0
 20
82.0
 30
0.0
 11
158.5
 21
82.0
 31
0.0
  0
LINE
  8
L-ZISSEN
 10
166.0
 20
84.7
 30
0.0
 11
166.0
 21
82.0
 31
0.0
  0
LINE
  8
L-ZISSEN
 10
200.0
 20
84.7
 30
0.0
 11
160.0
 21
84.7
 31
0.0
  0
LINE
  8
L-TYUSIN
 10
180.0
 20
235.0
 30
0.0
 11
180.0
 21
183.5
 31
0.0
  0
LINE
  8
L-ZISSEN
 10
158.5
 20
82.0
 30
0.0
 11
158.5
 21
58.0
 31
0.0
  0
LINE
  8
L-ZISSEN
 10
308.5
 20
55.5
 30
0.0
 11
308.5
 21
58.094119
 31
0.0
  0
LINE
  8
L-ZISSEN
 10
311.5
 20
55.5
 30
0.0
 11
311.5
 21
58.094119
 31
0.0
  0
LINE
  8
L-ZISSEN
 10
298.0
 20
73.0
 30
0.0
 11
298.0
 21
82.0
 31
0.0
  0
LINE
  8
L-ZISSEN
 10
296.583592
 20
84.7
 30
0.0
 11
296.583592
 21
82.0
 31
0.0
  0
LINE
  8
L-ZISSEN
 10
323.416408
 20
84.7
 30
0.0
 11
323.416408
 21
82.0
 31
0.0
  0
LINE
  8
L-ZISSEN
 10
158.5
 20
222.0
 30
0.0
 11
159.0
 21
222.0
 31
0.0
  0
LINE
  8
L-ZISSEN
 10
158.5
 20
198.0
 30
0.0
 11
159.0
 21
198.0
 31
0.0
  0
LINE
  8
L-ZISSEN
 10
168.0
 20
188.5
 30
0.0
 11
168.0
 21
190.0
 31
0.0
  0
LINE
  8
L-ZISSEN
 10
192.0
 20
188.5
 30
0.0
 11
192.0
 21
190.0
 31
0.0
  0
LINE
  8
L-ZISSEN
 10
205.0
 20
227.0
 30
0.0
 11
209.0
 21
227.0
 31
0.0
  0
LINE
  8
L-ZISSEN
 10
209.0
 20
227.0
 30
0.0
 11
209.0
 21
193.0
 31
0.0
  0
LINE
  8
L-ZISSEN
 10
209.0
 20
193.0
 30
0.0
 11
205.0
 21
193.0
 31
0.0
  0
LINE
  8
L-ZISSEN
 10
209.0
 20
97.2
 30
0.0
 11
205.0
 21
97.2
 31
0.0
  0
LINE
  8
L-ZISSEN
 10
209.0
 20
131.2
 30
0.0
 11
209.0
 21
97.2
 31
0.0
  0
LINE
  8
L-ZISSEN
 10
205.0
 20
131.2
 30
0.0
 11
209.0
 21
131.2
 31
0.0
  0
LINE
  8
L-ZISSEN
 10
209.0
 20
129.2
 30
0.0
 11
213.0
 21
129.2
 31
0.0
  0
LINE
  8
L-ZISSEN
 10
213.0
 20
129.2
 30
0.0
 11
213.0
 21
99.2
 31
0.0
  0
LINE
  8
L-ZISSEN
 10
213.0
 20
99.2
 30
0.0
 11
209.0
 21
99.2
 31
0.0
  0
LINE
  8
L-ZISSEN
 10
221.25
 20
153.45
 30
0.0
 11
221.25
 21
148.45
 31
0.0
  0
CIRCLE
  8
L-ZISSEN
 10
232.5
 20
210.0
 30
0.0
 40
6.5
  0
LINE
  8
L-ZISSEN
 10
58.75
 20
153.45
 30
0.0
 11
81.25
 21
153.45
 31
0.0
  0
LINE
  8
L-ZISSEN
 10
58.75
 20
153.45
 30
0.0
 11
58.75
 21
148.45
 31
0.0
  0
LINE
  8
L-ZISSEN
 10
81.25
 20
153.45
 30
0.0
 11
81.25
 21
148.45
 31
0.0
  0
LINE
  8
L-ZISSEN
 10
58.75
 20
148.45
 30
0.0
 11
81.25
 21
148.45
 31
0.0
  0
LINE
  8
L-ZISSEN
 10
213.0
 20
195.0
 30
0.0
 11
209.0
 21
195.0
 31
0.0
  0
LINE
  8
L-ZISSEN
 10
213.0
 20
225.0
 30
0.0
 11
213.0
 21
195.0
 31
0.0
  0
LINE
  8
L-ZISSEN
 10
209.0
 20
225.0
 30
0.0
 11
213.0
 21
225.0
 31
0.0
  0
LINE
  8
L-ZISSEN
 10
241.8
 20
148.45
 30
0.0
 11
241.8
 21
143.45
 31
0.0
  0
LINE
  8
L-ZISSEN
 10
223.2
 20
148.45
 30
0.0
 11
223.2
 21
143.45
 31
0.0
  0
LINE
  8
L-ZISSEN
 10
60.7
 20
148.45
 30
0.0
 11
60.7
 21
143.45
 31
0.0
  0
LINE
  8
L-ZISSEN
 10
79.3
 20
148.45
 30
0.0
 11
79.3
 21
143.45
 31
0.0
  0
CIRCLE
  8
L-ZISSEN
 10
180.0
 20
61.0
 30
0.0
 40
5.7225
  0
CIRCLE
  8
L-ZISSEN
 10
310.0
 20
70.0
 30
0.0
 40
5.7225
  0
CIRCLE
  8
L-ZISSEN
 10
70.0
 20
70.0
 30
0.0
 40
5.7225
  0
LINE
  8
L-ZISSEN
 10
300.7
 20
148.45
 30
0.0
 11
300.7
 21
143.45
 31
0.0
  0
LINE
  8
L-ZISSEN
 10
319.3
 20
148.45
 30
0.0
 11
319.3
 21
143.45
 31
0.0
  0
LINE
  8
L-ZISSEN
 10
321.25
 20
148.45
 30
0.0
 11
298.75
 21
148.45
 31
0.0
  0
LINE
  8
L-ZISSEN
 10
298.75
 20
153.45
 30
0.0
 11
298.75
 21
148.45
 31
0.0
  0
LINE
  8
L-ZISSEN
 10
321.25
 20
153.45
 30
0.0
 11
321.25
 21
148.45
 31
0.0
  0
LINE
  8
L-ZISSEN
 10
321.25
 20
153.45
 30
0.0
 11
298.75
 21
153.45
 31
0.0
  0
LINE
  8
L-ZISSEN
 10
56.583592
 20
84.7
 30
0.0
 11
56.583592
 21
82.0
 31
0.0
  0
LINE
  8
L-ZISSEN
 10
83.416408
 20
84.7
 30
0.0
 11
83.416408
 21
82.0
 31
0.0
  0
LINE
  8
L-ZISSEN
 10
82.0
 20
73.0
 30
0.0
 11
82.0
 21
82.0
 31
0.0
  0
LINE
  8
L-ZISSEN
 10
68.5
 20
55.5
 30
0.0
 11
68.5
 21
58.094119
 31
0.0
  0
LINE
  8
L-ZISSEN
 10
71.5
 20
55.5
 30
0.0
 11
71.5
 21
58.094119
 31
0.0
  0
LINE
  8
L-TYUSIN
 10
310.0
 20
40.9
 30
0.0
 11
310.0
 21
158.45
 31
0.0
  0
LINE
  8
L-TYUSIN
 10
85.0
 20
70.0
 30
0.0
 11
55.0
 21
70.0
 31
0.0
  0
LINE
  8
L-TYUSIN
 10
96.531245
 20
61.0
 30
0.0
 11
80.06249
 21
61.0
 31
0.0
  0
LINE
  8
L-ZISSEN
 10
52.25
 20
47.5
 30
0.0
 11
52.25
 21
55.5
 31
0.0
  0
LINE
  8
L-ZISSEN
 10
52.25
 20
55.5
 30
0.0
 11
87.75
 21
55.5
 31
0.0
  0
LINE
  8
L-ZISSEN
 10
87.75
 20
55.5
 30
0.0
 11
87.75
 21
47.5
 31
0.0
  0
LINE
  8
L-ZISSEN
 10
91.5
 20
49.0
 30
0.0
 11
87.75
 21
49.0
 31
0.0
  0
LINE
  8
L-ZISSEN
 10
91.5
 20
49.0
 30
0.0
 11
91.5
 21
73.0
 31
0.0
  0
LINE
  8
L-ZISSEN
 10
91.5
 20
73.0
 30
0.0
 11
82.0
 21
73.0
 31
0.0
  0
LINE
  8
L-ZISSEN
 10
88.0
 20
73.0
 30
0.0
 11
88.0
 21
84.7
 31
0.0
  0
LINE
  8
L-ZISSEN
 10
90.0
 20
84.7
 30
0.0
 11
50.0
 21
84.7
 31
0.0
  0
LINE
  8
L-ZISSEN
 10
52.0
 20
84.7
 30
0.0
 11
52.0
 21
76.7
 31
0.0
  0
LINE
  8
L-ZISSEN
 10
52.0
 20
76.7
 30
0.0
 11
58.0
 21
76.7
 31
0.0
  0
LINE
  8
L-ZISSEN
 10
58.0
 20
82.0
 30
0.0
 11
58.0
 21
60.0
 31
0.0
  0
LINE
  8
L-ZISSEN
 10
60.0
 20
60.0
 30
0.0
 11
60.0
 21
55.5
 31
0.0
  0
ARC
  8
L-ZISSEN
 10
70.0
 20
70.0
 30
0.0
 40
12.0
 50
277.180756
 51
262.819244
  0
LINE
  8
L-ZISSEN
 10
56.583592
 20
82.0
 30
0.0
 11
83.416408
 21
82.0
 31
0.0
  0
LINE
  8
L-ZISSEN
 10
58.0
 20
60.0
 30
0.0
 11
63.36675
 21
60.0
 31
0.0
  0
LINE
  8
L-ZISSEN
 10
63.320596
 20
60.030769
 30
0.0
 11
63.320596
 21
55.5
 31
0.0
  0
LINE
  8
L-ZISSEN
 62
     7
 10
89.947629
 20
45.9
 30
0.0
 11
58.0
 21
45.9
 31
0.0
  0
LINE
  8
L-ZISSEN
 62
     7
 10
89.947629
 20
45.9
 30
0.0
 11
89.947629
 21
39.5
 31
0.0
  0
LINE
  8
L-ZISSEN
 62
     7
 10
56.447629
 20
47.5
 30
0.0
 11
56.447629
 21
41.1
 31
0.0
  0
LINE
  8
L-ZISSEN
 62
     7
 10
91.5
 20
47.5
 30
0.0
 11
48.5
 21
47.5
 31
0.0
  0
LINE
  8
L-ZISSEN
 62
     7
 10
91.5
 20
41.1
 30
0.0
 11
91.5
 21
47.5
 31
0.0
  0
LINE
  8
L-ZISSEN
 62
     7
 10
102.173358
 20
41.1
 30
0.0
 11
91.5
 21
41.1
 31
0.0
  0
LINE
  8
L-ZISSEN
 62
     7
 10
102.173358
 20
39.5
 30
0.0
 11
102.173358
 21
41.1
 31
0.0
  0
LINE
  8
L-ZISSEN
 62
     7
 10
81.384419
 20
39.5
 30
0.0
 11
102.173358
 21
39.5
 31
0.0
  0
LINE
  8
L-ZISSEN
 62
     7
 10
37.826641
 20
39.5
 30
0.0
 11
58.0
 21
39.5
 31
0.0
  0
LINE
  8
L-ZISSEN
 62
     7
 10
56.447629
 20
41.1
 30
0.0
 11
37.826641
 21
41.1
 31
0.0
  0
LINE
  8
L-ZISSEN
 62
     7
 10
48.5
 20
47.5
 30
0.0
 11
48.5
 21
41.1
 31
0.0
  0
LINE
  8
L-ZISSEN
 62
     7
 10
81.384419
 20
41.9
 30
0.0
 11
81.384419
 21
39.5
 31
0.0
  0
LINE
  8
L-ZISSEN
 62
     7
 10
37.826641
 20
41.1
 30
0.0
 11
37.826641
 21
39.5
 31
0.0
  0
LINE
  8
L-ZISSEN
 62
     7
 10
58.0
 20
45.9
 30
0.0
 11
58.0
 21
39.5
 31
0.0
  0
LINE
  8
L-ZISSEN
 10
90.0
 20
135.7
 30
0.0
 11
90.0
 21
84.7
 31
0.0
  0
LINE
  8
L-ZISSEN
 10
290.0
 20
92.7
 30
0.0
 11
330.0
 21
92.7
 31
0.0
  0
LINE
  8
L-ZISSEN
 10
50.0
 20
84.7
 30
0.0
 11
50.0
 21
135.7
 31
0.0
  0
LINE
  8
L-ZISSEN
 10
290.0
 20
135.7
 30
0.0
 11
298.75
 21
135.7
 31
0.0
  0
LINE
  8
L-ZISSEN
 10
321.25
 20
143.45
 30
0.0
 11
298.75
 21
143.45
 31
0.0
  0
LINE
  8
L-ZISSEN
 10
293.0
 20
97.2
 30
0.0
 11
327.0
 21
97.2
 31
0.0
  0
LINE
  8
L-ZISSEN
 10
327.0
 20
131.2
 30
0.0
 11
321.25
 21
131.2
 31
0.0
  0
LINE
  8
L-ZISSEN
 10
293.0
 20
131.2
 30
0.0
 11
293.0
 21
97.2
 31
0.0
  0
LINE
  8
L-ZISSEN
 10
327.0
 20
131.2
 30
0.0
 11
327.0
 21
97.2
 31
0.0
  0
LINE
  8
L-ZISSEN
 10
298.75
 20
143.45
 30
0.0
 11
298.75
 21
127.95
 31
0.0
  0
LINE
  8
L-ZISSEN
 10
321.25
 20
143.45
 30
0.0
 11
321.25
 21
127.95
 31
0.0
  0
LINE
  8
L-ZISSEN
 10
323.75
 20
127.95
 30
0.0
 11
296.25
 21
127.95
 31
0.0
  0
LINE
  8
L-ZISSEN
 10
321.25
 20
135.7
 30
0.0
 11
330.0
 21
135.7
 31
0.0
  0
LINE
  8
L-ZISSEN
 10
298.75
 20
131.2
 30
0.0
 11
293.0
 21
131.2
 31
0.0
  0
LINE
  8
L-ZISSEN
 10
295.0
 20
99.2
 30
0.0
 11
325.0
 21
99.2
 31
0.0
  0
LINE
  8
L-ZISSEN
 10
295.0
 20
129.2
 30
0.0
 11
295.0
 21
99.2
 31
0.0
  0
LINE
  8
L-ZISSEN
 10
325.0
 20
129.2
 30
0.0
 11
325.0
 21
99.2
 31
0.0
  0
LINE
  8
L-ZISSEN
 10
295.0
 20
129.2
 30
0.0
 11
298.75
 21
129.2
 31
0.0
  0
LINE
  8
L-ZISSEN
 10
321.25
 20
129.2
 30
0.0
 11
325.0
 21
129.2
 31
0.0
  0
LINE
  8
L-ZISSEN
 10
296.25
 20
100.45
 30
0.0
 11
296.25
 21
127.95
 31
0.0
  0
LINE
  8
L-ZISSEN
 10
323.75
 20
100.45
 30
0.0
 11
323.75
 21
127.95
 31
0.0
  0
LINE
  8
L-ZISSEN
 10
323.75
 20
100.45
 30
0.0
 11
296.25
 21
100.45
 31
0.0
  0
LINE
  8
L-ZISSEN
 10
166.5
 20
45.9
 30
0.0
 11
166.5
 21
41.9
 31
0.0
  0
LINE
  8
L-ZISSEN
 10
166.5
 20
41.9
 30
0.0
 11
173.5
 21
41.9
 31
0.0
  0
LINE
  8
L-ZISSEN
 10
173.5
 20
41.9
 30
0.0
 11
173.5
 21
45.9
 31
0.0
  0
LINE
  8
L-ZISSEN
 10
186.5
 20
41.9
 30
0.0
 11
186.5
 21
45.9
 31
0.0
  0
LINE
  8
L-ZISSEN
 10
192.0
 20
41.9
 30
0.0
 11
186.5
 21
41.9
 31
0.0
  0
LINE
  8
L-ZISSEN
 10
316.5
 20
41.9
 30
0.0
 11
316.5
 21
45.9
 31
0.0
  0
LINE
  8
L-ZISSEN
 10
323.5
 20
45.9
 30
0.0
 11
323.5
 21
41.9
 31
0.0
  0
LINE
  8
L-ZISSEN
 10
323.5
 20
41.9
 30
0.0
 11
316.5
 21
41.9
 31
0.0
  0
LINE
  8
L-ZISSEN
 10
303.5
 20
41.9
 30
0.0
 11
303.5
 21
45.9
 31
0.0
  0
LINE
  8
L-ZISSEN
 10
298.0
 20
41.9
 30
0.0
 11
303.5
 21
41.9
 31
0.0
  0
LINE
  8
L-ZISSEN
 10
83.5
 20
41.9
 30
0.0
 11
76.5
 21
41.9
 31
0.0
  0
LINE
  8
L-ZISSEN
 10
83.5
 20
45.9
 30
0.0
 11
83.5
 21
41.9
 31
0.0
  0
LINE
  8
L-ZISSEN
 10
76.5
 20
41.9
 30
0.0
 11
76.5
 21
45.9
 31
0.0
  0
LINE
  8
L-ZISSEN
 10
63.5
 20
41.9
 30
0.0
 11
63.5
 21
45.9
 31
0.0
  0
LINE
  8
L-ZISSEN
 10
58.0
 20
41.9
 30
0.0
 11
63.5
 21
41.9
 31
0.0
  0
TEXT
  8
L-ZISSEN
 10
30.0
 20
265.0
 30
0.0
 40
4.5
  1
MODEL No. : 
  0
TEXT
  8
L-ZISSEN
 10
75.0
 20
265.0
 30
0.0
 40
4.5
  1
392- 00-  B
  0
TEXT
  8
L-ZISSEN
 10
124.0
 20
268.0
 30
0.0
 40
4.5
  1
1
  0
TEXT
  8
L-ZISSEN
 10
123.0
 20
262.0
 30
0.0
 40
4.5
  1
4
  0
TEXT
  8
L-ZISSEN
 10
110.0
 20
268.0
 30
0.0
 40
4.5
  1
60
  0
TEXT
  8
L-ZISSEN
 10
110.0
 20
262.0
 30
0.0
 40
4.5
  1
02
  0
LINE
  8
L-TYUSIN
 10
157.726136
 20
46.1
 30
0.0
 11
157.726136
 21
34.5
 31
0.0
  0
LINE
  8
L-TYUSIN
 10
202.273864
 20
46.1
 30
0.0
 11
202.273864
 21
34.5
 31
0.0
  0
LINE
  8
L-TYUSIN
 10
332.273864
 20
46.1
 30
0.0
 11
332.273864
 21
34.5
 31
0.0
  0
LINE
  8
L-TYUSIN
 10
287.726136
 20
46.1
 30
0.0
 11
287.726136
 21
34.5
 31
0.0
  0
LINE
  8
L-TYUSIN
 10
92.273864
 20
46.1
 30
0.0
 11
92.273864
 21
34.5
 31
0.0
  0
LINE
  8
L-TYUSIN
 10
47.726136
 20
46.1
 30
0.0
 11
47.726136
 21
34.5
 31
0.0
  0
LINE
  8
L-ZISSEN
 10
82.5
 20
137.5
 30
0.0
 11
57.5
 21
137.5
 31
0.0
  0
LINE
  8
L-ZISSEN
 10
82.5
 20
135.7
 30
0.0
 11
82.5
 21
137.5
 31
0.0
  0
LINE
  8
L-ZISSEN
 10
57.5
 20
135.7
 30
0.0
 11
57.5
 21
137.5
 31
0.0
  0
LINE
  8
L-ZISSEN
 10
322.5
 20
137.5
 30
0.0
 11
321.25
 21
137.5
 31
0.0
  0
LINE
  8
L-ZISSEN
 10
322.5
 20
135.7
 30
0.0
 11
322.5
 21
137.5
 31
0.0
  0
LINE
  8
L-ZISSEN
 10
297.5
 20
135.7
 30
0.0
 11
297.5
 21
137.5
 31
0.0
  0
LINE
  8
L-ZISSEN
 10
298.75
 20
137.5
 30
0.0
 11
297.5
 21
137.5
 31
0.0
  0
LINE
  8
L-ZISSEN
 62
     7
 10
192.0
 20
189.331667
 30
0.0
 11
192.668333
 21
190.0
 31
0.0
  0
TEXT
  8
L-ZISSEN
 10
93.0
 20
268.0
 30
0.0
 40
4.5
  1
2
  0
TEXT
  8
L-ZISSEN
 10
93.0
 20
262.0
 30
0.0
 40
4.5
  1
3
  0
SOLID
  8
L-ZISSEN
 10
202.590165
 20
68.290423
 30
0.0
 11
203.085694
 21
68.7364
 31
0.0
 12
201.5
 22
70.0
 32
0.0
 13
201.5
 23
70.0
 33
0.0
  0
LINE
  8
L-ZISSEN
 10
202.837929
 20
68.513412
 30
0.0
 11
215.0
 21
55.0
 31
0.0
  0
LINE
  8
L-ZISSEN
 10
215.0
 20
55.0
 30
0.0
 11
217.0
 21
55.0
 31
0.0
  0
TEXT
  8
L-ZISSEN
 10
219.0
 20
52.75
 30
0.0
 40
4.5
  1
A PORT
  0
TEXT
  8
L-ZISSEN
 10
220.0
 20
45.0
 30
0.0
 40
4.5
  1
Rc 1/4
  0
TEXT
  8
L-ZISSEN
 10
220.0
 20
35.0
 30
0.0
 40
4.5
  1
Rc 3/8
  0
SOLID
  8
L-ZISSEN
 10
156.914306
 20
68.7364
 30
0.0
 11
157.409835
 21
68.290423
 31
0.0
 12
158.5
 22
70.0
 32
0.0
 13
158.5
 23
70.0
 33
0.0
  0
LINE
  8
L-ZISSEN
 10
157.162071
 20
68.513412
 30
0.0
 11
145.0
 21
55.0
 31
0.0
  0
LINE
  8
L-ZISSEN
 10
145.0
 20
55.0
 30
0.0
 11
143.0
 21
55.0
 31
0.0
  0
TEXT
  8
L-ZISSEN
 10
115.5
 20
52.75
 30
0.0
 40
4.5
  1
O PORT
  0
SOLID
  8
L-ZISSEN
 10
180.214115
 20
58.98375
 30
0.0
 11
180.85646
 21
59.162179
 31
0.0
 12
180.0
 22
61.0
 32
0.0
 13
180.0
 23
61.0
 33
0.0
  0
LINE
  8
L-ZISSEN
 10
180.535288
 20
59.072964
 30
0.0
 11
190.0
 21
25.0
 31
0.0
  0
LINE
  8
L-ZISSEN
 10
190.0
 20
25.0
 30
0.0
 11
192.0
 21
25.0
 31
0.0
  0
TEXT
  8
L-ZISSEN
 10
194.0
 20
22.75
 30
0.0
 40
4.5
  1
B PORT
  0
LINE
  8
L-TYUSIN
 10
198.73833
 20
191.26167
 30
0.0
 11
205.809398
 21
184.190602
 31
0.0
  0
ENDSEC
  0
EOF
