  0
SECTION
  2
HEADER
  9
$ACADVER
  1
AC1006
  9
$INSBASE
 10
0.0
 20
0.0
 30
0.0
  9
$EXTMIN
 10
25.00331
 20
57.0
  9
$EXTMAX
 10
580.5
 20
606.0
  9
$LIMMIN
 10
0.0
 20
0.0
  9
$LIMMAX
 10
12.0
 20
9.0
  9
$ORTHOMODE
 70
     0
  9
$REGENMODE
 70
     1
  9
$FILLMODE
 70
     1
  9
$QTEXTMODE
 70
     0
  9
$MIRRTEXT
 70
     1
  9
$DRAGMODE
 70
     2
  9
$LTSCALE
 40
1.0
  9
$OSMODE
 70
     0
  9
$ATTMODE
 70
     1
  9
$TEXTSIZE
 40
4.5
  9
$TRACEWID
 40
0.05
  9
$TEXTSTYLE
  7
STANDARD
  9
$CLAYER
  8
L-TYUSIN
  9
$CELTYPE
  6
BYLAYER
  9
$CECOLOR
 62
   256
  9
$DIMSCALE
 40
1.0
  9
$DIMASZ
 40
2.0
  9
$DIMEXO
 40
1.0
  9
$DIMDLI
 40
0.38
  9
$DIMRND
 40
0.0
  9
$DIMDLE
 40
0.0
  9
$DIMEXE
 40
1.0
  9
$DIMTP
 40
0.0
  9
$DIMTM
 40
0.0
  9
$DIMTXT
 40
2.5
  9
$DIMCEN
 40
0.09
  9
$DIMTSZ
 40
0.0
  9
$DIMTOL
 70
     0
  9
$DIMLIM
 70
     0
  9
$DIMTIH
 70
     0
  9
$DIMTOH
 70
     0
  9
$DIMSE1
 70
     0
  9
$DIMSE2
 70
     0
  9
$DIMTAD
 70
     1
  9
$DIMZIN
 70
     0
  9
$DIMBLK
  1

  9
$DIMASO
 70
     1
  9
$DIMSHO
 70
     0
  9
$DIMPOST
  1

  9
$DIMAPOST
  1

  9
$DIMALT
 70
     0
  9
$DIMALTD
 70
     2
  9
$DIMALTF
 40
25.4
  9
$DIMLFAC
 40
1.0
  9
$DIMTOFL
 70
     1
  9
$DIMTVP
 40
0.0
  9
$DIMTIX
 70
     0
  9
$DIMSOXD
 70
     0
  9
$DIMSAH
 70
     0
  9
$DIMBLK1
  1

  9
$DIMBLK2
  1

  9
$LUNITS
 70
     2
  9
$LUPREC
 70
     4
  9
$AXISMODE
 70
     0
  9
$AXISUNIT
 10
0.0
 20
0.0
  9
$SKETCHINC
 40
0.1
  9
$FILLETRAD
 40
0.0
  9
$AUNITS
 70
     0
  9
$AUPREC
 70
     0
  9
$MENU
  1
acad
  9
$ELEVATION
 40
0.0
  9
$THICKNESS
 40
0.0
  9
$LIMCHECK
 70
     0
  9
$BLIPMODE
 70
     1
  9
$CHAMFERA
 40
0.0
  9
$CHAMFERB
 40
0.0
  9
$SKPOLY
 70
     0
  9
$TDCREATE
 40
2449263.5728906249
  9
$TDUPDATE
 40
2449263.5728906249
  9
$TDINDWG
 40
0.0000000000
  9
$TDUSRTIMER
 40
0.0000000000
  9
$USRTIMER
 70
     1
  9
$ANGBASE
 50
0.0
  9
$ANGDIR
 70
     0
  9
$PDMODE
 70
     0
  9
$PDSIZE
 40
0.0
  9
$PLINEWID
 40
0.0
  9
$COORDS
 70
     0
  9
$SPLFRAME
 70
     0
  9
$SPLINETYPE
 70
     6
  9
$SPLINESEGS
 70
     8
  9
$ATTDIA
 70
     0
  9
$ATTREQ
 70
     1
  9
$HANDLING
 70
     0
  9
$HANDSEED
  5
0
  9
$SURFTAB1
 70
     6
  9
$SURFTAB2
 70
     6
  9
$SURFTYPE
 70
     6
  9
$SURFU
 70
     6
  9
$SURFV
 70
     6
  9
$FLATLAND
 70
     0
  9
$UCSNAME
  2

  9
$UCSORG
 10
0.0
 20
0.0
 30
0.0
  9
$UCSXDIR
 10
1.0
 20
0.0
 30
0.0
  9
$UCSYDIR
 10
0.0
 20
1.0
 30
0.0
  9
$USERI1
 70
     0
  9
$USERI2
 70
     0
  9
$USERI3
 70
     0
  9
$USERI4
 70
     0
  9
$USERI5
 70
     0
  9
$USERR1
 40
0.0
  9
$USERR2
 40
0.0
  9
$USERR3
 40
0.0
  9
$USERR4
 40
0.0
  9
$USERR5
 40
0.0
  9
$WORLDVIEW
 70
     1
  0
ENDSEC
  0
SECTION
  2
TABLES
  0
TABLE
  2
VPORT
 70
     2
  0
VPORT
  2
*ACTIVE
 70
     0
 10
0.0
 20
0.0
 11
1.0
 21
1.0
 12
486.081351
 22
313.86417
 13
0.0
 23
0.0
 14
1.0
 24
1.0
 15
0.0
 25
0.0
 16
0.0
 26
0.0
 36
1.0
 17
0.0
 27
0.0
 37
0.0
 40
627.728339
 41
1.5487
 42
50.0
 43
0.0
 44
0.0
 50
0.0
 51
0.0
 71
     0
 72
   100
 73
     1
 74
     0
 75
     0
 76
     0
 77
     0
 78
     0
  0
ENDTAB
  0
TABLE
  2
LTYPE
 70
     2
  0
LTYPE
  2
CONTINUOUS
 70
    64
  3
Solid line
 72
    65
 73
     0
 40
0.0
  0
LTYPE
  2
CENTER
 70
    64
  3
____ _ ____ _ ____
 72
    65
 73
     4
 40
8.0
 49
5.0
 49
-1.0
 49
1.0
 49
-1.0
  0
ENDTAB
  0
TABLE
  2
LAYER
 70
     3
  0
LAYER
  2
0
 70
     0
 62
     7
  6
CONTINUOUS
  0
LAYER
  2
L-ZISSEN
 70
    64
 62
     7
  6
CONTINUOUS
  0
LAYER
  2
L-TYUSIN
 70
    64
 62
     1
  6
CENTER
  0
ENDTAB
  0
TABLE
  2
STYLE
 70
     1
  0
STYLE
  2
STANDARD
 70
    64
 40
0.0
 41
1.0
 50
0.0
 71
     0
 42
4.5
  3
txt
  4

  0
ENDTAB
  0
TABLE
  2
VIEW
 70
     0
  0
ENDTAB
  0
TABLE
  2
UCS
 70
     0
  0
ENDTAB
  0
TABLE
  2
DWGMGR
 70
     0
  0
ENDTAB
  0
ENDSEC
  0
SECTION
  2
BLOCKS
  0
ENDSEC
  0
SECTION
  2
ENTITIES
  0
LINE
  8
L-TYUSIN
 10
156.5
 20
87.0
 30
0.0
 11
146.5
 21
87.0
 31
0.0
  0
LINE
  8
L-TYUSIN
 10
302.5
 20
87.0
 30
0.0
 11
312.5
 21
87.0
 31
0.0
  0
LINE
  8
L-TYUSIN
 10
90.0
 20
200.0
 30
0.0
 11
369.0
 21
200.0
 31
0.0
  0
LINE
  8
L-ZISSEN
 10
333.5
 20
272.0
 30
0.0
 11
134.5
 21
272.0
 31
0.0
  0
LINE
  8
L-ZISSEN
 10
134.5
 20
133.0
 30
0.0
 11
324.5
 21
133.0
 31
0.0
  0
LINE
  8
L-ZISSEN
 10
100.0
 20
170.0
 30
0.0
 11
100.0
 21
230.0
 31
0.0
  0
LINE
  8
L-ZISSEN
 10
100.0
 20
230.0
 30
0.0
 11
108.5
 21
230.0
 31
0.0
  0
LINE
  8
L-ZISSEN
 10
100.0
 20
170.0
 30
0.0
 11
108.5
 21
170.0
 31
0.0
  0
ARC
  8
L-ZISSEN
 10
123.5
 20
236.0
 30
0.0
 40
15.0
 50
90.0
 51
180.0
  0
ARC
  8
L-ZISSEN
 10
340.5
 20
236.0
 30
0.0
 40
15.0
 50
0.0
 51
90.0
  0
ARC
  8
L-ZISSEN
 10
340.5
 20
158.0
 30
0.0
 40
15.0
 50
270.0
 51
0.0
  0
ARC
  8
L-ZISSEN
 10
123.5
 20
158.0
 30
0.0
 40
15.0
 50
180.0
 51
270.0
  0
LINE
  8
L-ZISSEN
 10
134.5
 20
288.0
 30
0.0
 11
134.5
 21
251.0
 31
0.0
  0
LINE
  8
L-ZISSEN
 10
108.5
 20
236.0
 30
0.0
 11
108.5
 21
230.0
 31
0.0
  0
CIRCLE
  8
L-ZISSEN
 10
123.5
 20
236.0
 30
0.0
 40
13.0
  0
LINE
  8
L-ZISSEN
 10
333.5
 20
288.0
 30
0.0
 11
333.5
 21
251.0
 31
0.0
  0
LINE
  8
L-ZISSEN
 10
359.0
 20
230.0
 30
0.0
 11
355.5
 21
230.0
 31
0.0
  0
LINE
  8
L-ZISSEN
 10
359.0
 20
170.0
 30
0.0
 11
359.0
 21
230.0
 31
0.0
  0
LINE
  8
L-ZISSEN
 10
359.0
 20
170.0
 30
0.0
 11
355.5
 21
170.0
 31
0.0
  0
CIRCLE
  8
L-ZISSEN
 10
340.5
 20
236.0
 30
0.0
 40
13.0
  0
LINE
  8
L-ZISSEN
 10
340.5
 20
251.0
 30
0.0
 11
333.5
 21
251.0
 31
0.0
  0
LINE
  8
L-ZISSEN
 10
355.5
 20
236.0
 30
0.0
 11
355.5
 21
230.0
 31
0.0
  0
LINE
  8
L-ZISSEN
 10
134.5
 20
117.0
 30
0.0
 11
134.5
 21
143.0
 31
0.0
  0
LINE
  8
L-ZISSEN
 10
324.5
 20
117.0
 30
0.0
 11
324.5
 21
143.0
 31
0.0
  0
LINE
  8
L-ZISSEN
 10
123.5
 20
143.0
 30
0.0
 11
134.5
 21
143.0
 31
0.0
  0
LINE
  8
L-ZISSEN
 10
108.5
 20
158.0
 30
0.0
 11
108.5
 21
170.0
 31
0.0
  0
CIRCLE
  8
L-ZISSEN
 10
123.5
 20
158.0
 30
0.0
 40
13.0
  0
LINE
  8
L-ZISSEN
 10
340.5
 20
143.0
 30
0.0
 11
324.5
 21
143.0
 31
0.0
  0
LINE
  8
L-ZISSEN
 10
355.5
 20
158.0
 30
0.0
 11
355.5
 21
170.0
 31
0.0
  0
CIRCLE
  8
L-ZISSEN
 10
340.5
 20
158.0
 30
0.0
 40
13.0
  0
CIRCLE
  8
L-ZISSEN
 10
229.5
 20
228.0
 30
0.0
 40
40.0
  0
LINE
  8
L-ZISSEN
 10
134.5
 20
251.0
 30
0.0
 11
123.500003
 21
251.0
 31
0.0
  0
CIRCLE
  8
L-ZISSEN
 10
529.5
 20
200.0
 30
0.0
 40
30.0
  0
LINE
  8
L-ZISSEN
 10
484.5
 20
272.0
 30
0.0
 11
574.5
 21
272.0
 31
0.0
  0
LINE
  8
L-ZISSEN
 10
484.5
 20
133.0
 30
0.0
 11
574.5
 21
133.0
 31
0.0
  0
LINE
  8
L-ZISSEN
 10
574.5
 20
302.0
 30
0.0
 11
574.5
 21
249.043478
 31
0.0
  0
LINE
  8
L-ZISSEN
 10
484.5
 20
117.0
 30
0.0
 11
484.5
 21
153.0
 31
0.0
  0
LINE
  8
L-TYUSIN
 10
529.5
 20
64.0
 30
0.0
 11
529.5
 21
405.6
 31
0.0
  0
LINE
  8
L-ZISSEN
 10
450.5
 20
268.0
 30
0.0
 11
484.5
 21
268.0
 31
0.0
  0
LINE
  8
L-ZISSEN
 10
450.5
 20
188.0
 30
0.0
 11
450.5
 21
268.0
 31
0.0
  0
LINE
  8
L-ZISSEN
 10
450.5
 20
188.0
 30
0.0
 11
489.5
 21
188.0
 31
0.0
  0
LINE
  8
L-ZISSEN
 10
575.5
 20
223.0
 30
0.0
 11
575.5
 21
249.0
 31
0.0
  0
LINE
  8
L-ZISSEN
 10
575.5
 20
249.0
 30
0.0
 11
529.5
 21
251.0
 31
0.0
  0
LINE
  8
L-ZISSEN
 10
575.5
 20
223.0
 30
0.0
 11
550.012135
 21
221.891832
 31
0.0
  0
LINE
  8
L-ZISSEN
 10
574.5
 20
222.956522
 30
0.0
 11
574.5
 21
171.043478
 31
0.0
  0
LINE
  8
L-ZISSEN
 10
499.5
 20
223.0
 30
0.0
 11
499.5
 21
249.0
 31
0.0
  0
LINE
  8
L-ZISSEN
 10
499.5
 20
249.0
 30
0.0
 11
529.5
 21
251.0
 31
0.0
  0
LINE
  8
L-ZISSEN
 10
499.5
 20
223.0
 30
0.0
 11
509.47158
 21
222.335228
 31
0.0
  0
LINE
  8
L-ZISSEN
 10
499.5
 20
145.0
 30
0.0
 11
529.5
 21
143.0
 31
0.0
  0
LINE
  8
L-ZISSEN
 10
499.5
 20
171.0
 30
0.0
 11
518.121813
 21
172.241454
 31
0.0
  0
LINE
  8
L-ZISSEN
 10
499.5
 20
145.0
 30
0.0
 11
499.5
 21
171.0
 31
0.0
  0
LINE
  8
L-ZISSEN
 10
575.5
 20
145.0
 30
0.0
 11
529.5
 21
143.0
 31
0.0
  0
LINE
  8
L-ZISSEN
 10
575.5
 20
171.0
 30
0.0
 11
541.445094
 21
172.480648
 31
0.0
  0
LINE
  8
L-ZISSEN
 10
575.5
 20
145.0
 30
0.0
 11
575.5
 21
171.0
 31
0.0
  0
LINE
  8
L-ZISSEN
 10
574.5
 20
144.956522
 30
0.0
 11
574.5
 21
117.0
 31
0.0
  0
LINE
  8
L-ZISSEN
 10
484.5
 20
153.0
 30
0.0
 11
497.5
 21
153.0
 31
0.0
  0
LINE
  8
L-ZISSEN
 10
497.5
 20
153.0
 30
0.0
 11
497.5
 21
167.0
 31
0.0
  0
LINE
  8
L-ZISSEN
 10
489.5
 20
167.0
 30
0.0
 11
497.5
 21
167.0
 31
0.0
  0
LINE
  8
L-ZISSEN
 10
484.5
 20
251.0
 30
0.0
 11
484.5
 21
288.0
 31
0.0
  0
LINE
  8
L-ZISSEN
 10
489.5
 20
167.0
 30
0.0
 11
489.5
 21
188.0
 31
0.0
  0
LINE
  8
L-ZISSEN
 10
484.5
 20
251.0
 30
0.0
 11
574.5
 21
251.0
 31
0.0
  0
LINE
  8
L-TYUSIN
 10
494.5
 20
236.0
 30
0.0
 11
580.5
 21
236.0
 31
0.0
  0
LINE
  8
L-TYUSIN
 10
494.5
 20
158.0
 30
0.0
 11
580.5
 21
158.0
 31
0.0
  0
LINE
  8
L-TYUSIN
 10
340.5
 20
251.0
 30
0.0
 11
340.5
 21
221.0
 31
0.0
  0
LINE
  8
L-TYUSIN
 10
355.5
 20
236.0
 30
0.0
 11
325.5
 21
236.0
 31
0.0
  0
LINE
  8
L-TYUSIN
 10
184.5
 20
228.0
 30
0.0
 11
274.5
 21
228.0
 31
0.0
  0
LINE
  8
L-TYUSIN
 10
494.5
 20
200.0
 30
0.0
 11
564.5
 21
200.0
 31
0.0
  0
LINE
  8
L-TYUSIN
 10
369.0
 20
550.0
 30
0.0
 11
90.0
 21
550.0
 31
0.0
  0
LINE
  8
L-TYUSIN
 10
229.5
 20
57.0
 30
0.0
 11
229.5
 21
405.6
 31
0.0
  0
LINE
  8
L-ZISSEN
 10
134.5
 20
505.0
 30
0.0
 11
134.5
 21
595.0
 31
0.0
  0
LINE
  8
L-ZISSEN
 10
333.5
 20
549.0
 30
0.0
 11
333.5
 21
565.0
 31
0.0
  0
LINE
  8
L-ZISSEN
 10
134.5
 20
505.0
 30
0.0
 11
324.5
 21
505.0
 31
0.0
  0
LINE
  8
L-ZISSEN
 10
134.5
 20
595.0
 30
0.0
 11
324.5
 21
595.0
 31
0.0
  0
LINE
  8
L-ZISSEN
 10
189.5
 20
471.0
 30
0.0
 11
189.5
 21
505.0
 31
0.0
  0
LINE
  8
L-ZISSEN
 10
269.5
 20
471.0
 30
0.0
 11
269.5
 21
505.0
 31
0.0
  0
LINE
  8
L-ZISSEN
 10
189.5
 20
471.0
 30
0.0
 11
269.5
 21
471.0
 31
0.0
  0
LINE
  8
L-ZISSEN
 10
189.5
 20
498.0
 30
0.0
 11
177.375644
 21
505.0
 31
0.0
  0
LINE
  8
L-ZISSEN
 10
269.5
 20
498.0
 30
0.0
 11
281.624356
 21
505.0
 31
0.0
  0
LINE
  8
L-ZISSEN
 10
100.0
 20
520.0
 30
0.0
 11
134.5
 21
520.0
 31
0.0
  0
LINE
  8
L-ZISSEN
 10
100.0
 20
580.0
 30
0.0
 11
109.804348
 21
580.0
 31
0.0
  0
LINE
  8
L-ZISSEN
 10
100.0
 20
520.0
 30
0.0
 11
100.0
 21
580.0
 31
0.0
  0
LINE
  8
L-ZISSEN
 10
359.0
 20
520.0
 30
0.0
 11
359.0
 21
580.0
 31
0.0
  0
LINE
  8
L-ZISSEN
 10
359.0
 20
580.0
 30
0.0
 11
354.195652
 21
580.0
 31
0.0
  0
LINE
  8
L-ZISSEN
 10
136.5
 20
596.0
 30
0.0
 11
123.5
 21
596.0
 31
0.0
  0
LINE
  8
L-ZISSEN
 10
123.5
 20
596.0
 30
0.0
 11
110.5
 21
596.0
 31
0.0
  0
LINE
  8
L-ZISSEN
 10
110.5
 20
596.0
 30
0.0
 11
108.5
 21
550.0
 31
0.0
  0
LINE
  8
L-ZISSEN
 10
110.5
 20
520.0
 30
0.0
 11
108.5
 21
550.0
 31
0.0
  0
LINE
  8
L-ZISSEN
 10
136.5
 20
596.0
 30
0.0
 11
136.5
 21
595.0
 31
0.0
  0
LINE
  8
L-ZISSEN
 10
327.5
 20
596.0
 30
0.0
 11
327.5
 21
595.0
 31
0.0
  0
LINE
  8
L-ZISSEN
 10
353.5
 20
520.0
 30
0.0
 11
355.5
 21
550.0
 31
0.0
  0
LINE
  8
L-ZISSEN
 10
353.5
 20
596.0
 30
0.0
 11
355.5
 21
550.0
 31
0.0
  0
LINE
  8
L-ZISSEN
 10
340.5
 20
596.0
 30
0.0
 11
327.5
 21
596.0
 31
0.0
  0
LINE
  8
L-ZISSEN
 10
353.5
 20
596.0
 30
0.0
 11
340.5
 21
596.0
 31
0.0
  0
LINE
  8
L-ZISSEN
 10
324.5
 20
520.0
 30
0.0
 11
359.0
 21
520.0
 31
0.0
  0
LINE
  8
L-ZISSEN
 10
327.5
 20
520.0
 30
0.0
 11
325.73913
 21
546.413043
 31
0.0
  0
LINE
  8
L-ZISSEN
 10
327.5
 20
596.0
 30
0.0
 11
326.257143
 21
567.414286
 31
0.0
  0
CIRCLE
  8
L-ZISSEN
 10
340.5
 20
236.0
 30
0.0
 40
6.75
  0
LINE
  8
L-TYUSIN
 10
123.5
 20
601.0
 30
0.0
 11
123.5
 21
515.0
 31
0.0
  0
LINE
  8
L-TYUSIN
 10
340.5
 20
601.0
 30
0.0
 11
340.5
 21
515.0
 31
0.0
  0
LINE
  8
L-ZISSEN
 10
134.5
 20
288.0
 30
0.0
 11
333.5
 21
288.0
 31
0.0
  0
LINE
  8
L-ZISSEN
 10
157.5
 20
294.0
 30
0.0
 11
301.5
 21
294.0
 31
0.0
  0
LINE
  8
L-ZISSEN
 10
157.5
 20
519.0
 30
0.0
 11
157.5
 21
595.0
 31
0.0
  0
LINE
  8
L-ZISSEN
 10
301.5
 20
519.0
 30
0.0
 11
301.5
 21
595.0
 31
0.0
  0
LINE
  8
L-ZISSEN
 10
157.5
 20
519.0
 30
0.0
 11
301.5
 21
519.0
 31
0.0
  0
LINE
  8
L-ZISSEN
 10
324.5
 20
505.0
 30
0.0
 11
324.5
 21
546.0
 31
0.0
  0
LINE
  8
L-ZISSEN
 10
333.5
 20
565.0
 30
0.0
 11
324.5
 21
568.0
 31
0.0
  0
LINE
  8
L-ZISSEN
 10
333.5
 20
549.0
 30
0.0
 11
324.5
 21
546.0
 31
0.0
  0
LINE
  8
L-ZISSEN
 10
324.5
 20
568.0
 30
0.0
 11
324.5
 21
595.0
 31
0.0
  0
LINE
  8
L-ZISSEN
 10
326.804348
 20
580.0
 30
0.0
 11
324.5
 21
580.0
 31
0.0
  0
LINE
  8
L-ZISSEN
 10
152.8
 20
67.0
 30
0.0
 11
306.2
 21
67.0
 31
0.0
  0
LINE
  8
L-ZISSEN
 10
306.2
 20
67.0
 30
0.0
 11
306.2
 21
117.0
 31
0.0
  0
LINE
  8
L-ZISSEN
 10
152.8
 20
67.0
 30
0.0
 11
152.8
 21
117.0
 31
0.0
  0
LINE
  8
L-ZISSEN
 10
134.5
 20
117.0
 30
0.0
 11
324.5
 21
117.0
 31
0.0
  0
LINE
  8
L-ZISSEN
 10
307.5
 20
73.0
 30
0.0
 11
307.5
 21
101.0
 31
0.0
  0
LINE
  8
L-ZISSEN
 10
307.5
 20
101.0
 30
0.0
 11
306.2
 21
101.0
 31
0.0
  0
LINE
  8
L-ZISSEN
 10
307.5
 20
73.0
 30
0.0
 11
306.2
 21
73.0
 31
0.0
  0
LINE
  8
L-ZISSEN
 10
151.5
 20
73.0
 30
0.0
 11
152.8
 21
73.0
 31
0.0
  0
LINE
  8
L-ZISSEN
 10
151.5
 20
101.0
 30
0.0
 11
152.8
 21
101.0
 31
0.0
  0
LINE
  8
L-ZISSEN
 10
151.5
 20
73.0
 30
0.0
 11
151.5
 21
101.0
 31
0.0
  0
LINE
  8
L-ZISSEN
 10
484.5
 20
117.0
 30
0.0
 11
574.5
 21
117.0
 31
0.0
  0
LINE
  8
L-ZISSEN
 10
490.0
 20
67.0
 30
0.0
 11
569.0
 21
67.0
 31
0.0
  0
LINE
  8
L-ZISSEN
 10
571.5
 20
117.0
 30
0.0
 11
569.0
 21
67.0
 31
0.0
  0
LINE
  8
L-ZISSEN
 10
487.5
 20
117.0
 30
0.0
 11
490.0
 21
67.0
 31
0.0
  0
CIRCLE
  8
L-ZISSEN
 10
529.5
 20
87.0
 30
0.0
 40
14.0
  0
LINE
  8
L-ZISSEN
 10
484.5
 20
288.0
 30
0.0
 11
574.5
 21
288.0
 31
0.0
  0
LINE
  8
L-ZISSEN
 10
498.5
 20
302.0
 30
0.0
 11
498.5
 21
298.0
 31
0.0
  0
LINE
  8
L-ZISSEN
  6
CONTINUOUS
 62
     7
 10
301.5
 20
302.0
 30
0.0
 11
301.5
 21
288.0
 31
0.0
  0
LINE
  8
L-ZISSEN
 10
178.5
 20
549.0
 30
0.0
 11
157.5
 21
549.0
 31
0.0
  0
LINE
  8
L-ZISSEN
 10
178.5
 20
565.0
 30
0.0
 11
157.5
 21
565.0
 31
0.0
  0
CIRCLE
  8
L-ZISSEN
  6
CONTINUOUS
 62
     7
 10
273.5
 20
535.0
 30
0.0
 40
4.25
  0
CIRCLE
  8
L-ZISSEN
  6
CONTINUOUS
 62
     7
 10
185.5
 20
535.0
 30
0.0
 40
4.25
  0
LINE
  8
L-ZISSEN
 10
172.5
 20
310.0
 30
0.0
 11
177.914815
 21
310.0
 31
0.0
  0
LINE
  8
L-ZISSEN
 10
157.5
 20
310.0
 30
0.0
 11
160.5
 21
310.0
 31
0.0
  0
LINE
  8
L-ZISSEN
 10
300.5
 20
332.2
 30
0.0
 11
300.5
 21
302.117647
 31
0.0
  0
LINE
  8
L-ZISSEN
  6
CONTINUOUS
 62
     7
 10
279.5
 20
395.6
 30
0.0
 11
179.5
 21
395.6
 31
0.0
  0
LINE
  8
L-ZISSEN
  6
CONTINUOUS
 62
     7
 10
179.5
 20
395.6
 30
0.0
 11
177.810917
 21
304.38952
 31
0.0
  0
LINE
  8
L-ZISSEN
  6
CONTINUOUS
 62
     7
 10
280.5
 20
341.6
 30
0.0
 11
178.5
 21
341.6
 31
0.0
  0
LINE
  8
L-ZISSEN
  6
CONTINUOUS
 62
     7
 10
279.5
 20
395.6
 30
0.0
 11
281.189083
 21
304.38952
 31
0.0
  0
LINE
  8
L-ZISSEN
  6
CONTINUOUS
 62
     7
 10
250.5
 20
308.0
 30
0.0
 11
208.5
 21
308.0
 31
0.0
  0
LINE
  8
L-ZISSEN
  6
CONTINUOUS
 62
     7
 10
301.5
 20
302.0
 30
0.0
 11
250.5
 21
308.0
 31
0.0
  0
LINE
  8
L-ZISSEN
  6
CONTINUOUS
 62
     7
 10
157.5
 20
302.0
 30
0.0
 11
208.5
 21
308.0
 31
0.0
  0
LINE
  8
L-ZISSEN
  6
CONTINUOUS
 62
     7
 10
501.41404
 20
395.6
 30
0.0
 11
571.58596
 21
395.6
 31
0.0
  0
LINE
  8
L-ZISSEN
  6
CONTINUOUS
 62
     7
 10
498.963038
 20
302.0
 30
0.0
 11
501.41404
 21
395.6
 31
0.0
  0
LINE
  8
L-ZISSEN
  6
CONTINUOUS
 62
     7
 10
500.0
 20
341.6
 30
0.0
 11
573.0
 21
341.6
 31
0.0
  0
LINE
  8
L-ZISSEN
  6
CONTINUOUS
 62
     7
 10
574.036962
 20
302.0
 30
0.0
 11
571.58596
 21
395.6
 31
0.0
  0
LINE
  8
L-ZISSEN
  6
CONTINUOUS
 62
     7
 10
546.5
 20
322.2
 30
0.0
 11
547.015306
 21
302.0
 31
0.0
  0
LINE
  8
L-ZISSEN
  6
CONTINUOUS
 62
     7
 10
498.5
 20
302.0
 30
0.0
 11
574.5
 21
302.0
 31
0.0
  0
LINE
  8
L-ZISSEN
  6
CONTINUOUS
 62
     7
 10
502.2
 20
294.0
 30
0.0
 11
556.8
 21
294.0
 31
0.0
  0
LINE
  8
L-ZISSEN
  6
CONTINUOUS
 62
     7
 10
280.5
 20
528.5
 30
0.0
 11
280.5
 21
585.5
 31
0.0
  0
LINE
  8
L-ZISSEN
  6
CONTINUOUS
 62
     7
 10
301.5
 20
567.0
 30
0.0
 11
280.5
 21
567.0
 31
0.0
  0
LINE
  8
L-ZISSEN
  6
CONTINUOUS
 62
     7
 10
280.5
 20
547.0
 30
0.0
 11
301.5
 21
547.0
 31
0.0
  0
CIRCLE
  8
L-ZISSEN
  6
CONTINUOUS
 62
     7
 10
253.5
 20
557.0
 30
0.0
 40
12.5
  0
LINE
  8
L-TYUSIN
  6
CENTER
 62
     1
 10
253.5
 20
542.9375
 30
0.0
 11
253.5
 21
571.0625
 31
0.0
  0
LINE
  8
L-TYUSIN
  6
CENTER
 62
     1
 10
311.5
 20
557.0
 30
0.0
 11
147.5
 21
557.0
 31
0.0
  0
LINE
  8
L-ZISSEN
  6
CONTINUOUS
 62
     7
 10
178.5
 20
585.5
 30
0.0
 11
208.356406
 21
593.5
 31
0.0
  0
LINE
  8
L-ZISSEN
  6
CONTINUOUS
 62
     7
 10
280.5
 20
585.5
 30
0.0
 11
250.643594
 21
593.5
 31
0.0
  0
LINE
  8
L-ZISSEN
  6
CONTINUOUS
 62
     7
 10
178.5
 20
528.5
 30
0.0
 11
178.5
 21
585.5
 31
0.0
  0
LINE
  8
L-ZISSEN
  6
CONTINUOUS
 62
     7
 10
178.5
 20
528.5
 30
0.0
 11
208.356406
 21
520.5
 31
0.0
  0
LINE
  8
L-ZISSEN
  6
CONTINUOUS
 62
     7
 10
280.5
 20
528.5
 30
0.0
 11
250.643594
 21
520.5
 31
0.0
  0
CIRCLE
  8
L-ZISSEN
  6
CONTINUOUS
 62
     7
 10
166.5
 20
528.0
 30
0.0
 40
6.5
  0
LINE
  8
L-ZISSEN
  6
CONTINUOUS
 62
     7
 10
208.356406
 20
520.5
 30
0.0
 11
250.643594
 21
520.5
 31
0.0
  0
LINE
  8
L-ZISSEN
  6
CONTINUOUS
 62
     7
 10
286.5
 20
315.5
 30
0.0
 11
298.5
 21
315.5
 31
0.0
  0
LINE
  8
L-ZISSEN
  6
CONTINUOUS
 62
     7
 10
286.5
 20
315.5
 30
0.0
 11
286.5
 21
307.998558
 31
0.0
  0
LINE
  8
L-ZISSEN
  6
CONTINUOUS
 62
     7
 10
286.0
 20
308.0
 30
0.0
 11
299.0
 21
308.0
 31
0.0
  0
LINE
  8
L-ZISSEN
  6
CONTINUOUS
 62
     7
 10
286.0
 20
308.0
 30
0.0
 11
286.0
 21
303.823529
 31
0.0
  0
LINE
  8
L-ZISSEN
  6
CONTINUOUS
 62
     7
 10
298.5
 20
315.5
 30
0.0
 11
298.5
 21
307.998558
 31
0.0
  0
LINE
  8
L-TYUSIN
  6
CENTER
 62
     1
 10
305.348431
 20
322.2
 30
0.0
 11
295.348431
 21
322.2
 31
0.0
  0
LINE
  8
L-ZISSEN
  6
CONTINUOUS
 62
     7
 10
299.0
 20
308.0
 30
0.0
 11
299.0
 21
302.294118
 31
0.0
  0
LINE
  8
L-ZISSEN
  6
CONTINUOUS
 62
     7
 10
172.5
 20
315.5
 30
0.0
 11
160.5
 21
315.5
 31
0.0
  0
LINE
  8
L-ZISSEN
  6
CONTINUOUS
 62
     7
 10
173.0
 20
308.0
 30
0.0
 11
160.0
 21
308.0
 31
0.0
  0
LINE
  8
L-ZISSEN
  6
CONTINUOUS
 62
     7
 10
172.5
 20
315.5
 30
0.0
 11
172.5
 21
307.998558
 31
0.0
  0
LINE
  8
L-ZISSEN
  6
CONTINUOUS
 62
     7
 10
160.5
 20
315.5
 30
0.0
 11
160.5
 21
307.998558
 31
0.0
  0
LINE
  8
L-ZISSEN
  6
CONTINUOUS
 62
     7
 10
160.0
 20
308.0
 30
0.0
 11
160.0
 21
302.294118
 31
0.0
  0
LINE
  8
L-ZISSEN
  6
CONTINUOUS
 62
     7
 10
173.0
 20
308.0
 30
0.0
 11
173.0
 21
303.823529
 31
0.0
  0
LINE
  8
L-ZISSEN
  6
CONTINUOUS
 62
     7
 10
157.5
 20
310.0
 30
0.0
 11
157.5
 21
288.0
 31
0.0
  0
LINE
  8
L-ZISSEN
  6
CONTINUOUS
 62
     7
 10
157.5
 20
519.0
 30
0.0
 11
157.5
 21
595.0
 31
0.0
  0
LINE
  8
L-ZISSEN
  6
CONTINUOUS
 62
     7
 10
208.356406
 20
593.5
 30
0.0
 11
250.643594
 21
593.5
 31
0.0
  0
CIRCLE
  8
L-ZISSEN
  6
CONTINUOUS
 62
     7
 10
205.5
 20
557.0
 30
0.0
 40
12.5
  0
LINE
  8
L-TYUSIN
  6
CENTER
 62
     1
 10
205.5
 20
542.9375
 30
0.0
 11
205.5
 21
571.0625
 31
0.0
  0
LINE
  8
L-ZISSEN
  6
CONTINUOUS
 62
     7
 10
247.5
 20
517.0
 30
0.0
 11
211.5
 21
517.0
 31
0.0
  0
LINE
  8
L-ZISSEN
  6
CONTINUOUS
 62
     7
 10
301.5
 20
595.0
 30
0.0
 11
301.5
 21
519.0
 31
0.0
  0
CIRCLE
  8
L-ZISSEN
  6
CONTINUOUS
 62
     7
 10
292.5
 20
586.0
 30
0.0
 40
6.5
  0
CIRCLE
  8
L-ZISSEN
  6
CONTINUOUS
 62
     7
 10
292.5
 20
528.0
 30
0.0
 40
6.5
  0
CIRCLE
  8
L-ZISSEN
  6
CONTINUOUS
 62
     7
 10
166.5
 20
586.0
 30
0.0
 40
6.5
  0
CIRCLE
  8
L-ZISSEN
  6
CONTINUOUS
 62
     7
 10
185.5
 20
579.0
 30
0.0
 40
4.25
  0
CIRCLE
  8
L-ZISSEN
  6
CONTINUOUS
 62
     7
 10
273.5
 20
579.0
 30
0.0
 40
4.25
  0
LINE
  8
L-ZISSEN
  6
CONTINUOUS
 62
     7
 10
501.0
 20
308.0
 30
0.0
 11
514.0
 21
308.0
 31
0.0
  0
LINE
  8
L-ZISSEN
  6
CONTINUOUS
 62
     7
 10
501.5
 20
315.5
 30
0.0
 11
513.5
 21
315.5
 31
0.0
  0
LINE
  8
L-ZISSEN
  6
CONTINUOUS
 62
     7
 10
501.5
 20
315.5
 30
0.0
 11
501.5
 21
307.998558
 31
0.0
  0
LINE
  8
L-ZISSEN
  6
CONTINUOUS
 62
     7
 10
501.0
 20
308.0
 30
0.0
 11
501.0
 21
302.0
 31
0.0
  0
LINE
  8
L-ZISSEN
  6
CONTINUOUS
 62
     7
 10
513.5
 20
315.5
 30
0.0
 11
513.5
 21
307.998558
 31
0.0
  0
LINE
  8
L-ZISSEN
  6
CONTINUOUS
 62
     7
 10
514.0
 20
308.0
 30
0.0
 11
514.0
 21
302.294118
 31
0.0
  0
LINE
  8
L-ZISSEN
  6
CONTINUOUS
 62
     7
 10
559.5
 20
315.5
 30
0.0
 11
559.5
 21
307.998558
 31
0.0
  0
LINE
  8
L-ZISSEN
  6
CONTINUOUS
 62
     7
 10
571.5
 20
315.5
 30
0.0
 11
571.5
 21
307.998558
 31
0.0
  0
LINE
  8
L-ZISSEN
  6
CONTINUOUS
 62
     7
 10
571.5
 20
315.5
 30
0.0
 11
559.5
 21
315.5
 31
0.0
  0
LINE
  8
L-ZISSEN
  6
CONTINUOUS
 62
     7
 10
572.0
 20
308.0
 30
0.0
 11
559.0
 21
308.0
 31
0.0
  0
LINE
  8
L-ZISSEN
  6
CONTINUOUS
 62
     7
 10
572.0
 20
308.0
 30
0.0
 11
572.0
 21
302.0
 31
0.0
  0
LINE
  8
L-ZISSEN
  6
CONTINUOUS
 62
     7
 10
559.0
 20
308.0
 30
0.0
 11
559.0
 21
302.294118
 31
0.0
  0
LINE
  8
L-ZISSEN
  6
CONTINUOUS
 62
     7
 10
526.5
 20
322.2
 30
0.0
 11
525.984694
 21
302.0
 31
0.0
  0
CIRCLE
  8
L-ZISSEN
  6
CONTINUOUS
 62
     7
 10
536.5
 20
322.2
 30
0.0
 40
6.6
  0
ARC
  8
L-ZISSEN
  6
CONTINUOUS
 62
     7
 10
536.5
 20
322.2
 30
0.0
 40
10.0
 50
0.0
 51
180.0
  0
LINE
  8
L-ZISSEN
  6
CONTINUOUS
 62
     7
 10
534.767949
 20
325.2
 30
0.0
 11
533.035898
 21
322.2
 31
0.0
  0
LINE
  8
L-ZISSEN
  6
CONTINUOUS
 62
     7
 10
533.035898
 20
322.2
 30
0.0
 11
534.767949
 21
319.2
 31
0.0
  0
LINE
  8
L-ZISSEN
  6
CONTINUOUS
 62
     7
 10
534.767949
 20
319.2
 30
0.0
 11
538.232051
 21
319.2
 31
0.0
  0
LINE
  8
L-ZISSEN
  6
CONTINUOUS
 62
     7
 10
538.232051
 20
319.2
 30
0.0
 11
539.964102
 21
322.2
 31
0.0
  0
LINE
  8
L-ZISSEN
  6
CONTINUOUS
 62
     7
 10
539.964102
 20
322.2
 30
0.0
 11
538.232051
 21
325.2
 31
0.0
  0
LINE
  8
L-ZISSEN
  6
CONTINUOUS
 62
     7
 10
538.232051
 20
325.2
 30
0.0
 11
534.767949
 21
325.2
 31
0.0
  0
LINE
  8
L-ZISSEN
 10
247.5
 20
517.0
 30
0.0
 11
247.5
 21
519.0
 31
0.0
  0
LINE
  8
L-ZISSEN
 10
211.5
 20
517.0
 30
0.0
 11
211.5
 21
519.0
 31
0.0
  0
LINE
  8
L-ZISSEN
 10
300.5
 20
332.2
 30
0.0
 11
280.685185
 21
332.2
 31
0.0
  0
LINE
  8
L-TYUSIN
  6
CENTER
 62
     1
 10
549.540034
 20
322.2
 30
0.0
 11
523.571054
 21
322.2
 31
0.0
  0
TEXT
  8
L-ZISSEN
 10
25.00331
 20
589.549265
 30
0.0
 40
4.5
  1
MODEL NO.
  0
LINE
  8
L-TYUSIN
 10
229.5
 20
461.0
 30
0.0
 11
229.5
 21
606.0
 31
0.0
  0
LINE
  8
L-TYUSIN
 10
445.5
 20
228.0
 30
0.0
 11
496.041266
 21
228.0
 31
0.0
  0
LINE
  8
L-TYUSIN
 10
511.5
 20
87.0
 30
0.0
 11
547.5
 21
87.0
 31
0.0
  0
CIRCLE
  8
L-ZISSEN
 10
340.5
 20
158.0
 30
0.0
 40
6.75
  0
LINE
  8
L-TYUSIN
 10
355.5
 20
158.0
 30
0.0
 11
325.5
 21
158.0
 31
0.0
  0
LINE
  8
L-TYUSIN
 10
340.5
 20
173.0
 30
0.0
 11
340.5
 21
143.0
 31
0.0
  0
CIRCLE
  8
L-ZISSEN
 10
123.5
 20
158.0
 30
0.0
 40
6.75
  0
LINE
  8
L-TYUSIN
 10
138.5
 20
158.0
 30
0.0
 11
108.5
 21
158.0
 31
0.0
  0
LINE
  8
L-TYUSIN
 10
123.5
 20
173.0
 30
0.0
 11
123.5
 21
143.0
 31
0.0
  0
CIRCLE
  8
L-ZISSEN
 10
123.5
 20
236.0
 30
0.0
 40
6.75
  0
LINE
  8
L-TYUSIN
 10
138.5
 20
236.0
 30
0.0
 11
108.5
 21
236.0
 31
0.0
  0
LINE
  8
L-TYUSIN
 10
123.5
 20
251.0
 30
0.0
 11
123.5
 21
221.0
 31
0.0
  0
LINE
  8
L-ZISSEN
 10
152.2
 20
288.0
 30
0.0
 11
152.2
 21
298.0
 31
0.0
  0
LINE
  8
L-ZISSEN
 10
152.2
 20
298.0
 30
0.0
 11
136.8
 21
298.0
 31
0.0
  0
LINE
  8
L-ZISSEN
 10
136.8
 20
298.0
 30
0.0
 11
136.8
 21
288.0
 31
0.0
  0
LINE
  8
L-ZISSEN
 10
322.2
 20
298.0
 30
0.0
 11
322.2
 21
288.0
 31
0.0
  0
LINE
  8
L-ZISSEN
 10
306.8
 20
298.0
 30
0.0
 11
322.2
 21
298.0
 31
0.0
  0
LINE
  8
L-ZISSEN
 10
306.8
 20
288.0
 30
0.0
 11
306.8
 21
298.0
 31
0.0
  0
LINE
  8
L-ZISSEN
 10
136.8
 20
107.0
 30
0.0
 11
136.8
 21
117.0
 31
0.0
  0
LINE
  8
L-ZISSEN
 10
152.2
 20
107.0
 30
0.0
 11
136.8
 21
107.0
 31
0.0
  0
LINE
  8
L-ZISSEN
 10
152.2
 20
117.0
 30
0.0
 11
152.2
 21
107.0
 31
0.0
  0
LINE
  8
L-ZISSEN
 10
306.8
 20
117.0
 30
0.0
 11
306.8
 21
107.0
 31
0.0
  0
LINE
  8
L-ZISSEN
 10
306.8
 20
107.0
 30
0.0
 11
322.2
 21
107.0
 31
0.0
  0
LINE
  8
L-ZISSEN
 10
322.2
 20
107.0
 30
0.0
 11
322.2
 21
117.0
 31
0.0
  0
LINE
  8
L-ZISSEN
 10
562.2
 20
107.0
 30
0.0
 11
562.2
 21
117.0
 31
0.0
  0
LINE
  8
L-ZISSEN
 10
546.8
 20
107.0
 30
0.0
 11
562.2
 21
107.0
 31
0.0
  0
LINE
  8
L-ZISSEN
 10
546.8
 20
117.0
 30
0.0
 11
546.8
 21
107.0
 31
0.0
  0
LINE
  8
L-ZISSEN
 10
512.2
 20
117.0
 30
0.0
 11
512.2
 21
107.0
 31
0.0
  0
LINE
  8
L-ZISSEN
 10
512.2
 20
107.0
 30
0.0
 11
496.8
 21
107.0
 31
0.0
  0
LINE
  8
L-ZISSEN
 10
496.8
 20
107.0
 30
0.0
 11
496.8
 21
117.0
 31
0.0
  0
LINE
  8
L-ZISSEN
 10
556.8
 20
288.0
 30
0.0
 11
556.8
 21
298.0
 31
0.0
  0
LINE
  8
L-ZISSEN
 10
556.8
 20
298.0
 30
0.0
 11
572.2
 21
298.0
 31
0.0
  0
LINE
  8
L-ZISSEN
 10
572.2
 20
298.0
 30
0.0
 11
572.2
 21
288.0
 31
0.0
  0
LINE
  8
L-ZISSEN
 10
486.8
 20
298.0
 30
0.0
 11
486.8
 21
288.0
 31
0.0
  0
LINE
  8
L-ZISSEN
 10
502.2
 20
298.0
 30
0.0
 11
486.8
 21
298.0
 31
0.0
  0
LINE
  8
L-ZISSEN
 10
502.2
 20
288.0
 30
0.0
 11
502.2
 21
298.0
 31
0.0
  0
LINE
  8
L-ZISSEN
  6
CONTINUOUS
 62
     7
 10
572.2
 20
294.0
 30
0.0
 11
574.5
 21
294.0
 31
0.0
  0
CIRCLE
  8
L-ZISSEN
 10
314.5
 20
585.0
 30
0.0
 40
7.7
  0
CIRCLE
  8
L-ZISSEN
 10
314.5
 20
515.0
 30
0.0
 40
7.7
  0
CIRCLE
  8
L-ZISSEN
 10
144.5
 20
585.0
 30
0.0
 40
7.7
  0
CIRCLE
  8
L-ZISSEN
 10
144.5
 20
515.0
 30
0.0
 40
7.7
  0
TEXT
  8
L-ZISSEN
 10
26.501765
 20
579.552731
 30
0.0
 40
4.5
  1
MVS-3512YC
  0
TEXT
  8
L-ZISSEN
 10
26.965324
 20
569.929806
 30
0.0
 40
4.5
  1
MVS-3514YC
  0
SOLID
  8
L-ZISSEN
 10
359.968533
 20
198.218693
 30
0.0
 11
360.493901
 21
198.629099
 31
0.0
 12
359.0
 22
200.0
 32
0.0
 13
359.0
 23
200.0
 33
0.0
  0
LINE
  8
L-ZISSEN
 10
360.231217
 20
198.423896
 30
0.0
 11
389.62059
 21
160.802021
 31
0.0
  0
LINE
  8
L-ZISSEN
 10
389.62059
 20
160.802021
 30
0.0
 11
391.62059
 21
160.802021
 31
0.0
  0
TEXT
  8
L-ZISSEN
 10
392.412217
 20
159.10109
 30
0.0
 40
4.5
  1
IN
  0
TEXT
  8
L-ZISSEN
 10
393.131954
 20
152.595615
 30
0.0
 40
4.5
  1
Rc1-1/4
  0
TEXT
  8
L-ZISSEN
 10
393.275902
 20
144.331903
 30
0.0
 40
4.5
  1
Rc1-1/2
  0
CIRCLE
  8
L-ZISSEN
 10
229.5
 20
228.0
 30
0.0
 40
28.328
  0
CIRCLE
  8
L-ZISSEN
 10
529.5
 20
200.0
 30
0.0
 40
19.476
  0
CIRCLE
  8
L-ZISSEN
 10
529.5
 20
87.0
 30
0.0
 40
9.3155
  0
LINE
  8
L-TYUSIN
 10
536.5
 20
333.250326
 30
0.0
 11
536.5
 21
309.713234
 31
0.0
  0
ENDSEC
  0
EOF
