  0
SECTION
  2
HEADER
  9
$ACADVER
  1
AC1006
  9
$INSBASE
 10
0.0
 20
0.0
 30
0.0
  9
$EXTMIN
 10
-21.804757
 20
0.0
  9
$EXTMAX
 10
421.0
 20
434.346557
  9
$LIMMIN
 10
0.0
 20
0.0
  9
$LIMMAX
 10
12.0
 20
9.0
  9
$ORTHOMODE
 70
     1
  9
$REGENMODE
 70
     1
  9
$FILLMODE
 70
     1
  9
$QTEXTMODE
 70
     0
  9
$MIRRTEXT
 70
     1
  9
$DRAGMODE
 70
     2
  9
$LTSCALE
 40
1.0
  9
$OSMODE
 70
     0
  9
$ATTMODE
 70
     1
  9
$TEXTSIZE
 40
4.5
  9
$TRACEWID
 40
0.05
  9
$TEXTSTYLE
  7
STANDARD
  9
$CLAYER
  8
L-ZISSEN
  9
$CELTYPE
  6
BYLAYER
  9
$CECOLOR
 62
   256
  9
$DIMSCALE
 40
1.0
  9
$DIMASZ
 40
1.5
  9
$DIMEXO
 40
1.0
  9
$DIMDLI
 40
0.38
  9
$DIMRND
 40
0.0
  9
$DIMDLE
 40
0.0
  9
$DIMEXE
 40
1.0
  9
$DIMTP
 40
0.0
  9
$DIMTM
 40
0.0
  9
$DIMTXT
 40
2.5
  9
$DIMCEN
 40
0.09
  9
$DIMTSZ
 40
0.0
  9
$DIMTOL
 70
     0
  9
$DIMLIM
 70
     0
  9
$DIMTIH
 70
     0
  9
$DIMTOH
 70
     0
  9
$DIMSE1
 70
     0
  9
$DIMSE2
 70
     0
  9
$DIMTAD
 70
     1
  9
$DIMZIN
 70
     0
  9
$DIMBLK
  1

  9
$DIMASO
 70
     1
  9
$DIMSHO
 70
     0
  9
$DIMPOST
  1

  9
$DIMAPOST
  1

  9
$DIMALT
 70
     0
  9
$DIMALTD
 70
     2
  9
$DIMALTF
 40
25.4
  9
$DIMLFAC
 40
1.0
  9
$DIMTOFL
 70
     1
  9
$DIMTVP
 40
0.0
  9
$DIMTIX
 70
     0
  9
$DIMSOXD
 70
     0
  9
$DIMSAH
 70
     0
  9
$DIMBLK1
  1

  9
$DIMBLK2
  1

  9
$LUNITS
 70
     2
  9
$LUPREC
 70
     4
  9
$AXISMODE
 70
     0
  9
$AXISUNIT
 10
0.0
 20
0.0
  9
$SKETCHINC
 40
0.1
  9
$FILLETRAD
 40
0.0
  9
$AUNITS
 70
     0
  9
$AUPREC
 70
     0
  9
$MENU
  1
acad
  9
$ELEVATION
 40
0.0
  9
$THICKNESS
 40
0.0
  9
$LIMCHECK
 70
     0
  9
$BLIPMODE
 70
     1
  9
$CHAMFERA
 40
0.0
  9
$CHAMFERB
 40
0.0
  9
$SKPOLY
 70
     0
  9
$TDCREATE
 40
2449263.5750488425
  9
$TDUPDATE
 40
2449263.5750488425
  9
$TDINDWG
 40
0.0000000000
  9
$TDUSRTIMER
 40
0.0000000000
  9
$USRTIMER
 70
     1
  9
$ANGBASE
 50
0.0
  9
$ANGDIR
 70
     0
  9
$PDMODE
 70
     0
  9
$PDSIZE
 40
0.0
  9
$PLINEWID
 40
0.0
  9
$COORDS
 70
     0
  9
$SPLFRAME
 70
     0
  9
$SPLINETYPE
 70
     6
  9
$SPLINESEGS
 70
     8
  9
$ATTDIA
 70
     0
  9
$ATTREQ
 70
     1
  9
$HANDLING
 70
     0
  9
$HANDSEED
  5
0
  9
$SURFTAB1
 70
     6
  9
$SURFTAB2
 70
     6
  9
$SURFTYPE
 70
     6
  9
$SURFU
 70
     6
  9
$SURFV
 70
     6
  9
$FLATLAND
 70
     0
  9
$UCSNAME
  2

  9
$UCSORG
 10
0.0
 20
0.0
 30
0.0
  9
$UCSXDIR
 10
1.0
 20
0.0
 30
0.0
  9
$UCSYDIR
 10
0.0
 20
1.0
 30
0.0
  9
$USERI1
 70
     0
  9
$USERI2
 70
     0
  9
$USERI3
 70
     0
  9
$USERI4
 70
     0
  9
$USERI5
 70
     0
  9
$USERR1
 40
0.0
  9
$USERR2
 40
0.0
  9
$USERR3
 40
0.0
  9
$USERR4
 40
0.0
  9
$USERR5
 40
0.0
  9
$WORLDVIEW
 70
     1
  0
ENDSEC
  0
SECTION
  2
TABLES
  0
TABLE
  2
VPORT
 70
     2
  0
VPORT
  2
*ACTIVE
 70
     0
 10
0.0
 20
0.0
 11
1.0
 21
1.0
 12
280.119912
 22
237.76099
 13
0.0
 23
0.0
 14
1.0
 24
1.0
 15
0.0
 25
0.0
 16
0.0
 26
0.0
 36
1.0
 17
0.0
 27
0.0
 37
0.0
 40
437.452652
 41
1.5487
 42
50.0
 43
0.0
 44
0.0
 50
0.0
 51
0.0
 71
     0
 72
   100
 73
     1
 74
     0
 75
     0
 76
     0
 77
     0
 78
     0
  0
ENDTAB
  0
TABLE
  2
LTYPE
 70
     2
  0
LTYPE
  2
CONTINUOUS
 70
    64
  3
Solid line
 72
    65
 73
     0
 40
0.0
  0
LTYPE
  2
CENTER
 70
    64
  3
____ _ ____ _ ____
 72
    65
 73
     4
 40
8.0
 49
5.0
 49
-1.0
 49
1.0
 49
-1.0
  0
ENDTAB
  0
TABLE
  2
LAYER
 70
     3
  0
LAYER
  2
0
 70
     0
 62
     7
  6
CONTINUOUS
  0
LAYER
  2
L-ZISSEN
 70
    64
 62
     7
  6
CONTINUOUS
  0
LAYER
  2
L-TYUSIN
 70
    64
 62
     1
  6
CENTER
  0
ENDTAB
  0
TABLE
  2
STYLE
 70
     1
  0
STYLE
  2
STANDARD
 70
    64
 40
0.0
 41
1.0
 50
0.0
 71
     0
 42
4.5
  3
txt
  4

  0
ENDTAB
  0
TABLE
  2
VIEW
 70
     0
  0
ENDTAB
  0
TABLE
  2
UCS
 70
     0
  0
ENDTAB
  0
TABLE
  2
DWGMGR
 70
     0
  0
ENDTAB
  0
ENDSEC
  0
SECTION
  2
BLOCKS
  0
ENDSEC
  0
SECTION
  2
ENTITIES
  0
TEXT
  8
L-ZISSEN
 10
198.307207
 20
90.86625
 30
0.0
 40
4.5
  1
Rc3/4
  0
TEXT
  8
L-ZISSEN
 10
-18.736228
 20
421.149266
 30
0.0
 40
4.5
  1
MVS-3506JYC
  0
LINE
  8
L-ZISSEN
 10
172.0
 20
398.25
 30
0.0
 11
173.25
 21
364.5
 31
0.0
  0
LINE
  8
L-ZISSEN
 10
179.0
 20
383.0
 30
0.0
 11
179.0
 21
346.0
 31
0.0
  0
LINE
  8
L-ZISSEN
 10
179.0
 20
346.0
 30
0.0
 11
172.0
 21
346.0
 31
0.0
  0
LINE
  8
L-ZISSEN
 10
179.0
 20
383.0
 30
0.0
 11
172.564815
 21
383.0
 31
0.0
  0
LINE
  8
L-ZISSEN
 10
173.25
 20
364.5
 30
0.0
 11
172.0
 21
346.0
 31
0.0
  0
LINE
  8
L-TYUSIN
 10
164.25
 20
410.0
 30
0.0
 11
164.25
 21
395.0
 31
0.0
  0
LINE
  8
L-ZISSEN
  6
CONTINUOUS
 62
     7
 10
171.75
 20
405.0
 30
0.0
 11
156.75
 21
405.0
 31
0.0
  0
LINE
  8
L-ZISSEN
 10
171.75
 20
405.0
 30
0.0
 11
171.842593
 21
402.5
 31
0.0
  0
LINE
  8
L-ZISSEN
 10
156.75
 20
405.0
 30
0.0
 11
156.657407
 21
402.5
 31
0.0
  0
LINE
  8
L-ZISSEN
 10
28.0
 20
398.25
 30
0.0
 11
26.75
 21
364.5
 31
0.0
  0
LINE
  8
L-ZISSEN
 10
26.75
 20
364.5
 30
0.0
 11
28.0
 21
346.0
 31
0.0
  0
LINE
  8
L-ZISSEN
 10
43.25
 20
405.0
 30
0.0
 11
43.342593
 21
402.5
 31
0.0
  0
LINE
  8
L-ZISSEN
 10
28.25
 20
405.0
 30
0.0
 11
28.157407
 21
402.5
 31
0.0
  0
LINE
  8
L-TYUSIN
 10
35.75
 20
410.0
 30
0.0
 11
35.75
 21
395.0
 31
0.0
  0
LINE
  8
L-ZISSEN
 10
21.0
 20
383.0
 30
0.0
 11
27.435185
 21
383.0
 31
0.0
  0
LINE
  8
L-ZISSEN
 10
21.0
 20
346.0
 30
0.0
 11
28.0
 21
346.0
 31
0.0
  0
LINE
  8
L-ZISSEN
 10
21.0
 20
383.0
 30
0.0
 11
21.0
 21
346.0
 31
0.0
  0
LINE
  8
L-ZISSEN
 10
337.0
 20
121.12963
 30
0.0
 11
337.0
 21
147.87037
 31
0.0
  0
LINE
  8
L-ZISSEN
  6
CONTINUOUS
 62
     7
 10
340.5
 20
163.0
 30
0.0
 11
340.5
 21
148.0
 31
0.0
  0
LINE
  8
L-ZISSEN
 10
340.5
 20
163.0
 30
0.0
 11
338.0
 21
163.092593
 31
0.0
  0
LINE
  8
L-ZISSEN
 10
340.5
 20
148.0
 30
0.0
 11
318.5
 21
147.185185
 31
0.0
  0
LINE
  8
L-ZISSEN
 10
340.5
 20
121.0
 30
0.0
 11
318.5
 21
121.814815
 31
0.0
  0
LINE
  8
L-ZISSEN
 10
340.5
 20
106.0
 30
0.0
 11
300.0
 21
104.5
 31
0.0
  0
LINE
  8
L-ZISSEN
 10
300.0
 20
104.5
 30
0.0
 11
281.5
 21
108.0
 31
0.0
  0
ARC
  8
L-ZISSEN
 10
300.0
 20
134.5
 30
0.0
 40
18.5
 50
22.233272
 51
157.766728
  0
LINE
  8
L-ZISSEN
 10
317.124544
 20
141.5
 30
0.0
 11
318.5
 21
141.5
 31
0.0
  0
LINE
  8
L-ZISSEN
 10
318.5
 20
127.5
 30
0.0
 11
317.124544
 21
127.5
 31
0.0
  0
LINE
  8
L-ZISSEN
 10
318.5
 20
121.814815
 30
0.0
 11
318.5
 21
147.185185
 31
0.0
  0
LINE
  8
L-ZISSEN
 10
281.5
 20
127.5
 30
0.0
 11
282.875456
 21
127.5
 31
0.0
  0
LINE
  8
L-ZISSEN
 10
282.875456
 20
141.5
 30
0.0
 11
281.5
 21
141.5
 31
0.0
  0
ARC
  8
L-ZISSEN
 10
300.0
 20
134.5
 30
0.0
 40
18.5
 50
202.233272
 51
337.766728
  0
LINE
  8
L-ZISSEN
 10
174.25
 20
116.0
 30
0.0
 11
179.0
 21
116.0
 31
0.0
  0
CIRCLE
  8
L-ZISSEN
 10
164.25
 20
113.5
 30
0.0
 40
3.5
  0
LINE
  8
L-TYUSIN
 10
164.25
 20
103.5
 30
0.0
 11
164.25
 21
123.5
 31
0.0
  0
LINE
  8
L-TYUSIN
 10
174.25
 20
113.5
 30
0.0
 11
154.25
 21
113.5
 31
0.0
  0
LINE
  8
L-TYUSIN
 10
25.75
 20
113.5
 30
0.0
 11
45.75
 21
113.5
 31
0.0
  0
LINE
  8
L-TYUSIN
 10
35.75
 20
103.5
 30
0.0
 11
35.75
 21
123.5
 31
0.0
  0
LINE
  8
L-ZISSEN
 10
25.75
 20
116.0
 30
0.0
 11
21.0
 21
116.0
 31
0.0
  0
CIRCLE
  8
L-ZISSEN
 10
35.75
 20
113.5
 30
0.0
 40
3.5
  0
LINE
  8
L-ZISSEN
 10
173.25
 20
155.5
 30
0.0
 11
173.25
 21
153.0
 31
0.0
  0
ARC
  8
L-ZISSEN
 10
164.25
 20
155.5
 30
0.0
 40
9.0
 50
0.0
 51
30.558432
  0
LINE
  8
L-TYUSIN
 10
164.25
 20
165.5
 30
0.0
 11
164.25
 21
145.5
 31
0.0
  0
LINE
  8
L-TYUSIN
 10
174.25
 20
155.5
 30
0.0
 11
154.25
 21
155.5
 31
0.0
  0
CIRCLE
  8
L-ZISSEN
 10
164.25
 20
155.5
 30
0.0
 40
3.5
  0
LINE
  8
L-ZISSEN
 10
26.75
 20
155.5
 30
0.0
 11
26.75
 21
153.0
 31
0.0
  0
ARC
  8
L-ZISSEN
 10
35.75
 20
155.5
 30
0.0
 40
9.0
 50
149.441568
 51
180.0
  0
CIRCLE
  8
L-ZISSEN
 10
35.75
 20
155.5
 30
0.0
 40
3.5
  0
LINE
  8
L-ZISSEN
  6
CONTINUOUS
 62
     7
 10
164.5
 20
103.503125
 30
0.0
 11
164.5
 21
50.0
 31
0.0
  0
LINE
  8
L-ZISSEN
  6
CONTINUOUS
 62
     7
 10
172.0
 20
183.0
 30
0.0
 11
172.0
 21
160.075751
 31
0.0
  0
LINE
  8
L-ZISSEN
 10
173.25
 20
153.0
 30
0.0
 11
179.0
 21
153.0
 31
0.0
  0
LINE
  8
L-TYUSIN
 10
164.25
 20
103.5
 30
0.0
 11
164.25
 21
123.5
 31
0.0
  0
LINE
  8
L-ZISSEN
 10
179.0
 20
153.0
 30
0.0
 11
179.0
 21
116.0
 31
0.0
  0
LINE
  8
L-ZISSEN
 10
21.0
 20
153.0
 30
0.0
 11
21.0
 21
116.0
 31
0.0
  0
LINE
  8
L-ZISSEN
 10
26.75
 20
153.0
 30
0.0
 11
21.0
 21
153.0
 31
0.0
  0
LINE
  8
L-TYUSIN
 10
35.75
 20
165.5
 30
0.0
 11
35.75
 21
145.5
 31
0.0
  0
LINE
  8
L-TYUSIN
 10
25.75
 20
155.5
 30
0.0
 11
45.75
 21
155.5
 31
0.0
  0
LINE
  8
L-ZISSEN
 10
49.0
 20
356.5
 30
0.0
 11
28.0
 21
356.5
 31
0.0
  0
LINE
  8
L-ZISSEN
 10
49.0
 20
372.5
 30
0.0
 11
28.0
 21
372.5
 31
0.0
  0
CIRCLE
  8
L-ZISSEN
  6
CONTINUOUS
 62
     7
 10
144.0
 20
342.5
 30
0.0
 40
4.25
  0
CIRCLE
  8
L-ZISSEN
  6
CONTINUOUS
 62
     7
 10
56.0
 20
342.5
 30
0.0
 40
4.25
  0
LINE
  8
L-ZISSEN
 10
275.0
 20
119.5
 30
0.0
 11
275.0
 21
132.5
 31
0.0
  0
LINE
  8
L-ZISSEN
  6
CONTINUOUS
 62
     7
 10
170.0
 20
54.0
 30
0.0
 11
164.5
 21
54.0
 31
0.0
  0
LINE
  8
L-ZISSEN
 10
170.0
 20
82.0
 30
0.0
 11
170.0
 21
54.0
 31
0.0
  0
LINE
  8
L-ZISSEN
  6
CONTINUOUS
 62
     7
 10
170.0
 20
82.0
 30
0.0
 11
164.5
 21
82.0
 31
0.0
  0
LINE
  8
L-ZISSEN
 10
30.0
 20
82.0
 30
0.0
 11
30.0
 21
54.0
 31
0.0
  0
LINE
  8
L-ZISSEN
 10
43.0
 20
191.0
 30
0.0
 11
48.414815
 21
191.0
 31
0.0
  0
LINE
  8
L-ZISSEN
 10
28.0
 20
191.0
 30
0.0
 11
31.0
 21
191.0
 31
0.0
  0
LINE
  8
L-ZISSEN
 10
171.0
 20
213.2
 30
0.0
 11
171.0
 21
183.117647
 31
0.0
  0
LINE
  8
L-ZISSEN
  6
CONTINUOUS
 62
     7
 10
150.0
 20
276.6
 30
0.0
 11
50.0
 21
276.6
 31
0.0
  0
LINE
  8
L-TYUSIN
  6
CENTER
 62
     1
 10
100.0
 20
41.0
 30
0.0
 11
100.0
 21
286.6
 31
0.0
  0
LINE
  8
L-ZISSEN
  6
CONTINUOUS
 62
     7
 10
50.0
 20
276.6
 30
0.0
 11
48.310917
 21
185.38952
 31
0.0
  0
LINE
  8
L-ZISSEN
  6
CONTINUOUS
 62
     7
 10
151.0
 20
222.6
 30
0.0
 11
49.0
 21
222.6
 31
0.0
  0
LINE
  8
L-ZISSEN
  6
CONTINUOUS
 62
     7
 10
150.0
 20
276.6
 30
0.0
 11
151.689083
 21
185.38952
 31
0.0
  0
LINE
  8
L-ZISSEN
  6
CONTINUOUS
 62
     7
 10
121.0
 20
189.0
 30
0.0
 11
79.0
 21
189.0
 31
0.0
  0
LINE
  8
L-ZISSEN
  6
CONTINUOUS
 62
     7
 10
172.0
 20
183.0
 30
0.0
 11
121.0
 21
189.0
 31
0.0
  0
LINE
  8
L-ZISSEN
  6
CONTINUOUS
 62
     7
 10
28.0
 20
183.0
 30
0.0
 11
79.0
 21
189.0
 31
0.0
  0
LINE
  8
L-ZISSEN
  6
CONTINUOUS
 62
     7
 10
172.0
 20
175.0
 30
0.0
 11
28.0
 21
175.0
 31
0.0
  0
LINE
  8
L-ZISSEN
  6
CONTINUOUS
 62
     7
 10
28.0
 20
165.5
 30
0.0
 11
90.050126
 21
165.5
 31
0.0
  0
LINE
  8
L-ZISSEN
  6
CONTINUOUS
 62
     7
 10
172.0
 20
165.5
 30
0.0
 11
109.949874
 21
165.5
 31
0.0
  0
LINE
  8
L-TYUSIN
  6
CENTER
 62
     1
 10
18.0
 20
134.5
 30
0.0
 11
182.0
 21
134.5
 31
0.0
  0
CIRCLE
  8
L-ZISSEN
 10
100.0
 20
150.5
 30
0.0
 40
18.0
  0
LINE
  8
L-ZISSEN
  6
CONTINUOUS
 62
     7
 10
164.5
 20
101.0
 30
0.0
 11
35.5
 21
101.0
 31
0.0
  0
LINE
  8
L-ZISSEN
  6
CONTINUOUS
 62
     7
 10
35.5
 20
50.0
 30
0.0
 11
164.5
 21
50.0
 31
0.0
  0
LINE
  8
L-ZISSEN
  6
CONTINUOUS
 62
     7
 10
264.91404
 20
276.6
 30
0.0
 11
335.08596
 21
276.6
 31
0.0
  0
LINE
  8
L-ZISSEN
  6
CONTINUOUS
 62
     7
 10
262.463038
 20
183.0
 30
0.0
 11
264.91404
 21
276.6
 31
0.0
  0
LINE
  8
L-ZISSEN
  6
CONTINUOUS
 62
     7
 10
263.5
 20
222.6
 30
0.0
 11
336.5
 21
222.6
 31
0.0
  0
LINE
  8
L-TYUSIN
  6
CENTER
 62
     1
 10
300.0
 20
40.0
 30
0.0
 11
300.0
 21
286.6
 31
0.0
  0
LINE
  8
L-ZISSEN
  6
CONTINUOUS
 62
     7
 10
337.536962
 20
183.0
 30
0.0
 11
335.08596
 21
276.6
 31
0.0
  0
LINE
  8
L-ZISSEN
  6
CONTINUOUS
 62
     7
 10
310.0
 20
203.2
 30
0.0
 11
310.515306
 21
183.0
 31
0.0
  0
LINE
  8
L-ZISSEN
  6
CONTINUOUS
 62
     7
 10
262.0
 20
183.0
 30
0.0
 11
338.0
 21
183.0
 31
0.0
  0
LINE
  8
L-ZISSEN
  6
CONTINUOUS
 62
     7
 10
262.0
 20
175.0
 30
0.0
 11
338.0
 21
175.0
 31
0.0
  0
LINE
  8
L-ZISSEN
  6
CONTINUOUS
 62
     7
 10
262.0
 20
165.0
 30
0.0
 11
338.0
 21
165.0
 31
0.0
  0
LINE
  8
L-TYUSIN
  6
CENTER
 62
     1
 10
280.0
 20
155.5
 30
0.0
 11
342.5
 21
155.5
 31
0.0
  0
LINE
  8
L-ZISSEN
  6
CONTINUOUS
 62
     7
 10
260.0
 20
168.5
 30
0.0
 11
260.0
 21
132.5
 31
0.0
  0
LINE
  8
L-ZISSEN
  6
CONTINUOUS
 62
     7
 10
260.0
 20
132.5
 30
0.0
 11
275.0
 21
132.5
 31
0.0
  0
LINE
  8
L-ZISSEN
  6
CONTINUOUS
 62
     7
 10
262.0
 20
119.5
 30
0.0
 11
275.0
 21
119.5
 31
0.0
  0
LINE
  8
L-ZISSEN
  6
CONTINUOUS
 62
     7
 10
262.0
 20
108.0
 30
0.0
 11
281.5
 21
108.0
 31
0.0
  0
LINE
  8
L-ZISSEN
 10
262.0
 20
101.0
 30
0.0
 11
263.309296
 21
50.0
 31
0.0
  0
LINE
  8
L-ZISSEN
  6
CONTINUOUS
 62
     7
 10
262.0
 20
101.0
 30
0.0
 11
262.0
 21
119.5
 31
0.0
  0
LINE
  8
L-ZISSEN
  6
CONTINUOUS
 62
     7
 10
262.0
 20
101.0
 30
0.0
 11
338.0
 21
101.0
 31
0.0
  0
LINE
  8
L-TYUSIN
  6
CENTER
 62
     1
 10
280.0
 20
113.5
 30
0.0
 11
342.5
 21
113.5
 31
0.0
  0
LINE
  8
L-ZISSEN
 10
338.0
 20
101.0
 30
0.0
 11
336.690704
 21
50.0
 31
0.0
  0
CIRCLE
  8
L-ZISSEN
  6
CONTINUOUS
 62
     7
 10
300.0
 20
68.0
 30
0.0
 40
14.0
  0
LINE
  8
L-TYUSIN
  6
CENTER
 62
     1
 10
284.25
 20
68.0
 30
0.0
 11
315.75
 21
68.0
 31
0.0
  0
LINE
  8
L-ZISSEN
  6
CONTINUOUS
 62
     7
 10
263.309296
 20
50.0
 30
0.0
 11
336.690704
 21
50.0
 31
0.0
  0
LINE
  8
L-ZISSEN
  6
CONTINUOUS
 62
     7
 10
151.0
 20
336.0
 30
0.0
 11
151.0
 21
393.0
 31
0.0
  0
LINE
  8
L-ZISSEN
  6
CONTINUOUS
 62
     7
 10
172.0
 20
374.5
 30
0.0
 11
151.0
 21
374.5
 31
0.0
  0
LINE
  8
L-ZISSEN
  6
CONTINUOUS
 62
     7
 10
151.0
 20
354.5
 30
0.0
 11
172.0
 21
354.5
 31
0.0
  0
CIRCLE
  8
L-ZISSEN
  6
CONTINUOUS
 62
     7
 10
124.0
 20
364.5
 30
0.0
 40
12.5
  0
LINE
  8
L-TYUSIN
  6
CENTER
 62
     1
 10
124.0
 20
350.4375
 30
0.0
 11
124.0
 21
378.5625
 31
0.0
  0
LINE
  8
L-TYUSIN
  6
CENTER
 62
     1
 10
100.0
 20
316.5
 30
0.0
 11
100.0
 21
412.5
 31
0.0
  0
LINE
  8
L-TYUSIN
  6
CENTER
 62
     1
 10
182.0
 20
364.5
 30
0.0
 11
18.0
 21
364.5
 31
0.0
  0
LINE
  8
L-ZISSEN
  6
CONTINUOUS
 62
     7
 10
49.0
 20
393.0
 30
0.0
 11
78.856406
 21
401.0
 31
0.0
  0
LINE
  8
L-ZISSEN
  6
CONTINUOUS
 62
     7
 10
151.0
 20
393.0
 30
0.0
 11
121.143594
 21
401.0
 31
0.0
  0
LINE
  8
L-ZISSEN
  6
CONTINUOUS
 62
     7
 10
172.0
 20
402.5
 30
0.0
 11
28.0
 21
402.5
 31
0.0
  0
LINE
  8
L-ZISSEN
  6
CONTINUOUS
 62
     7
 10
49.0
 20
336.0
 30
0.0
 11
49.0
 21
393.0
 31
0.0
  0
LINE
  8
L-ZISSEN
  6
CONTINUOUS
 62
     7
 10
49.0
 20
336.0
 30
0.0
 11
78.856406
 21
328.0
 31
0.0
  0
LINE
  8
L-ZISSEN
  6
CONTINUOUS
 62
     7
 10
151.0
 20
336.0
 30
0.0
 11
121.143594
 21
328.0
 31
0.0
  0
LINE
  8
L-ZISSEN
  6
CONTINUOUS
 62
     7
 10
28.0
 20
326.5
 30
0.0
 11
172.0
 21
326.5
 31
0.0
  0
CIRCLE
  8
L-ZISSEN
  6
CONTINUOUS
 62
     7
 10
37.0
 20
335.5
 30
0.0
 40
6.5
  0
LINE
  8
L-ZISSEN
  6
CONTINUOUS
 62
     7
 10
78.856406
 20
328.0
 30
0.0
 11
121.143594
 21
328.0
 31
0.0
  0
LINE
  8
L-ZISSEN
  6
CONTINUOUS
 62
     7
 10
157.0
 20
196.5
 30
0.0
 11
169.0
 21
196.5
 31
0.0
  0
LINE
  8
L-ZISSEN
  6
CONTINUOUS
 62
     7
 10
157.0
 20
196.5
 30
0.0
 11
157.0
 21
188.998558
 31
0.0
  0
LINE
  8
L-ZISSEN
  6
CONTINUOUS
 62
     7
 10
156.5
 20
189.0
 30
0.0
 11
169.5
 21
189.0
 31
0.0
  0
LINE
  8
L-ZISSEN
  6
CONTINUOUS
 62
     7
 10
156.5
 20
189.0
 30
0.0
 11
156.5
 21
184.823529
 31
0.0
  0
LINE
  8
L-ZISSEN
  6
CONTINUOUS
 62
     7
 10
169.0
 20
196.5
 30
0.0
 11
169.0
 21
188.998558
 31
0.0
  0
LINE
  8
L-TYUSIN
  6
CENTER
 62
     1
 10
175.848431
 20
203.2
 30
0.0
 11
165.848431
 21
203.2
 31
0.0
  0
LINE
  8
L-ZISSEN
  6
CONTINUOUS
 62
     7
 10
169.5
 20
189.0
 30
0.0
 11
169.5
 21
183.294118
 31
0.0
  0
LINE
  8
L-TYUSIN
  6
CENTER
 62
     1
 10
159.5
 20
68.0
 30
0.0
 11
173.5
 21
68.0
 31
0.0
  0
LINE
  8
L-TYUSIN
  6
CENTER
 62
     1
 10
40.5
 20
68.0
 30
0.0
 11
26.5
 21
68.0
 31
0.0
  0
LINE
  8
L-ZISSEN
  6
CONTINUOUS
 62
     7
 10
43.0
 20
196.5
 30
0.0
 11
31.0
 21
196.5
 31
0.0
  0
LINE
  8
L-ZISSEN
  6
CONTINUOUS
 62
     7
 10
43.5
 20
189.0
 30
0.0
 11
30.5
 21
189.0
 31
0.0
  0
LINE
  8
L-ZISSEN
  6
CONTINUOUS
 62
     7
 10
43.0
 20
196.5
 30
0.0
 11
43.0
 21
188.998558
 31
0.0
  0
LINE
  8
L-ZISSEN
  6
CONTINUOUS
 62
     7
 10
31.0
 20
196.5
 30
0.0
 11
31.0
 21
188.998558
 31
0.0
  0
LINE
  8
L-ZISSEN
  6
CONTINUOUS
 62
     7
 10
30.5
 20
189.0
 30
0.0
 11
30.5
 21
183.294118
 31
0.0
  0
LINE
  8
L-ZISSEN
  6
CONTINUOUS
 62
     7
 10
43.5
 20
189.0
 30
0.0
 11
43.5
 21
184.823529
 31
0.0
  0
LINE
  8
L-ZISSEN
  6
CONTINUOUS
 62
     7
 10
28.0
 20
191.0
 30
0.0
 11
28.0
 21
160.075751
 31
0.0
  0
LINE
  8
L-ZISSEN
  6
CONTINUOUS
 62
     7
 10
28.25
 20
405.0
 30
0.0
 11
43.25
 21
405.0
 31
0.0
  0
LINE
  8
L-ZISSEN
  6
CONTINUOUS
 62
     7
 10
28.0
 20
326.5
 30
0.0
 11
28.0
 21
402.5
 31
0.0
  0
LINE
  8
L-ZISSEN
  6
CONTINUOUS
 62
     7
 10
78.856406
 20
401.0
 30
0.0
 11
121.143594
 21
401.0
 31
0.0
  0
CIRCLE
  8
L-ZISSEN
  6
CONTINUOUS
 62
     7
 10
76.0
 20
364.5
 30
0.0
 40
12.5
  0
LINE
  8
L-TYUSIN
  6
CENTER
 62
     1
 10
76.0
 20
350.4375
 30
0.0
 11
76.0
 21
378.5625
 31
0.0
  0
LINE
  8
L-ZISSEN
  6
CONTINUOUS
 62
     7
 10
118.0
 20
324.5
 30
0.0
 11
82.0
 21
324.5
 31
0.0
  0
LINE
  8
L-ZISSEN
  6
CONTINUOUS
 62
     7
 10
172.0
 20
402.5
 30
0.0
 11
172.0
 21
326.5
 31
0.0
  0
CIRCLE
  8
L-ZISSEN
  6
CONTINUOUS
 62
     7
 10
163.0
 20
393.5
 30
0.0
 40
6.5
  0
CIRCLE
  8
L-ZISSEN
  6
CONTINUOUS
 62
     7
 10
163.0
 20
335.5
 30
0.0
 40
6.5
  0
CIRCLE
  8
L-ZISSEN
  6
CONTINUOUS
 62
     7
 10
37.0
 20
393.5
 30
0.0
 40
6.5
  0
CIRCLE
  8
L-ZISSEN
  6
CONTINUOUS
 62
     7
 10
56.0
 20
386.5
 30
0.0
 40
4.25
  0
CIRCLE
  8
L-ZISSEN
  6
CONTINUOUS
 62
     7
 10
144.0
 20
386.5
 30
0.0
 40
4.25
  0
LINE
  8
L-ZISSEN
  6
CONTINUOUS
 62
     7
 10
340.5
 20
106.0
 30
0.0
 11
340.5
 21
121.0
 31
0.0
  0
LINE
  8
L-ZISSEN
  6
CONTINUOUS
 62
     7
 10
281.5
 20
108.0
 30
0.0
 11
281.5
 21
165.0
 31
0.0
  0
LINE
  8
L-TYUSIN
  6
CENTER
 62
     1
 10
282.0
 20
134.5
 30
0.0
 11
318.0
 21
134.5
 31
0.0
  0
LINE
  8
L-ZISSEN
  6
CONTINUOUS
 62
     7
 10
262.0
 20
183.0
 30
0.0
 11
262.0
 21
165.0
 31
0.0
  0
LINE
  8
L-ZISSEN
  6
CONTINUOUS
 62
     7
 10
264.5
 20
189.0
 30
0.0
 11
277.5
 21
189.0
 31
0.0
  0
LINE
  8
L-ZISSEN
  6
CONTINUOUS
 62
     7
 10
265.0
 20
196.5
 30
0.0
 11
277.0
 21
196.5
 31
0.0
  0
LINE
  8
L-ZISSEN
  6
CONTINUOUS
 62
     7
 10
265.0
 20
196.5
 30
0.0
 11
265.0
 21
188.998558
 31
0.0
  0
LINE
  8
L-ZISSEN
  6
CONTINUOUS
 62
     7
 10
264.5
 20
189.0
 30
0.0
 11
264.5
 21
183.0
 31
0.0
  0
LINE
  8
L-ZISSEN
  6
CONTINUOUS
 62
     7
 10
277.0
 20
196.5
 30
0.0
 11
277.0
 21
188.998558
 31
0.0
  0
LINE
  8
L-ZISSEN
  6
CONTINUOUS
 62
     7
 10
277.5
 20
189.0
 30
0.0
 11
277.5
 21
183.294118
 31
0.0
  0
LINE
  8
L-ZISSEN
  6
CONTINUOUS
 62
     7
 10
323.0
 20
196.5
 30
0.0
 11
323.0
 21
188.998558
 31
0.0
  0
LINE
  8
L-ZISSEN
  6
CONTINUOUS
 62
     7
 10
335.0
 20
196.5
 30
0.0
 11
335.0
 21
188.998558
 31
0.0
  0
LINE
  8
L-ZISSEN
  6
CONTINUOUS
 62
     7
 10
335.0
 20
196.5
 30
0.0
 11
323.0
 21
196.5
 31
0.0
  0
LINE
  8
L-ZISSEN
  6
CONTINUOUS
 62
     7
 10
335.5
 20
189.0
 30
0.0
 11
322.5
 21
189.0
 31
0.0
  0
LINE
  8
L-ZISSEN
  6
CONTINUOUS
 62
     7
 10
335.5
 20
189.0
 30
0.0
 11
335.5
 21
183.0
 31
0.0
  0
LINE
  8
L-ZISSEN
  6
CONTINUOUS
 62
     7
 10
322.5
 20
189.0
 30
0.0
 11
322.5
 21
183.294118
 31
0.0
  0
LINE
  8
L-ZISSEN
  6
CONTINUOUS
 62
     7
 10
290.0
 20
203.2
 30
0.0
 11
289.484694
 21
183.0
 31
0.0
  0
CIRCLE
  8
L-ZISSEN
  6
CONTINUOUS
 62
     7
 10
300.0
 20
203.2
 30
0.0
 40
6.6
  0
ARC
  8
L-ZISSEN
  6
CONTINUOUS
 62
     7
 10
300.0
 20
203.2
 30
0.0
 40
10.0
 50
0.0
 51
180.0
  0
LINE
  8
L-ZISSEN
  6
CONTINUOUS
 62
     7
 10
35.5
 20
103.503125
 30
0.0
 11
35.5
 21
50.0
 31
0.0
  0
LINE
  8
L-ZISSEN
  6
CONTINUOUS
 62
     7
 10
30.0
 20
82.0
 30
0.0
 11
35.5
 21
82.0
 31
0.0
  0
LINE
  8
L-ZISSEN
  6
CONTINUOUS
 62
     7
 10
30.0
 20
54.0
 30
0.0
 11
35.5
 21
54.0
 31
0.0
  0
LINE
  8
L-ZISSEN
  6
CONTINUOUS
 62
     7
 10
338.0
 20
183.0
 30
0.0
 11
338.0
 21
163.092593
 31
0.0
  0
LINE
  8
L-ZISSEN
 10
260.0
 20
168.5
 30
0.0
 11
262.0
 21
168.5
 31
0.0
  0
LINE
  8
L-ZISSEN
  6
CONTINUOUS
 62
     7
 10
298.267949
 20
206.2
 30
0.0
 11
296.535898
 21
203.2
 31
0.0
  0
LINE
  8
L-ZISSEN
  6
CONTINUOUS
 62
     7
 10
296.535898
 20
203.2
 30
0.0
 11
298.267949
 21
200.2
 31
0.0
  0
LINE
  8
L-ZISSEN
  6
CONTINUOUS
 62
     7
 10
298.267949
 20
200.2
 30
0.0
 11
301.732051
 21
200.2
 31
0.0
  0
LINE
  8
L-ZISSEN
  6
CONTINUOUS
 62
     7
 10
301.732051
 20
200.2
 30
0.0
 11
303.464102
 21
203.2
 31
0.0
  0
LINE
  8
L-ZISSEN
  6
CONTINUOUS
 62
     7
 10
303.464102
 20
203.2
 30
0.0
 11
301.732051
 21
206.2
 31
0.0
  0
LINE
  8
L-ZISSEN
  6
CONTINUOUS
 62
     7
 10
301.732051
 20
206.2
 30
0.0
 11
298.267949
 21
206.2
 31
0.0
  0
LINE
  8
L-ZISSEN
 10
338.0
 20
101.0
 30
0.0
 11
338.0
 21
105.907407
 31
0.0
  0
LINE
  8
L-TYUSIN
  6
CENTER
 62
     1
 10
78.0
 20
150.5
 30
0.0
 11
122.0
 21
150.5
 31
0.0
  0
LINE
  8
L-ZISSEN
 10
118.0
 20
324.5
 30
0.0
 11
118.0
 21
326.5
 31
0.0
  0
LINE
  8
L-ZISSEN
 10
82.0
 20
324.5
 30
0.0
 11
82.0
 21
326.5
 31
0.0
  0
LINE
  8
L-TYUSIN
  6
CENTER
 62
     1
 10
255.0
 20
150.5
 30
0.0
 11
274.878449
 21
150.5
 31
0.0
  0
SOLID
  8
L-ZISSEN
 10
179.492866
 20
132.533227
 30
0.0
 11
180.104097
 21
132.799388
 31
0.0
 12
179.0
 22
134.5
 32
0.0
 13
179.0
 23
134.5
 33
0.0
  0
LINE
  8
L-ZISSEN
 10
179.798481
 20
132.666308
 30
0.0
 11
193.30716
 21
101.643973
 31
0.0
  0
LINE
  8
L-ZISSEN
 10
193.30716
 20
101.643973
 30
0.0
 11
195.30716
 21
101.643973
 31
0.0
  0
TEXT
  8
L-ZISSEN
 10
197.30716
 20
99.393973
 30
0.0
 40
4.5
  1
IN
  0
LINE
  8
L-ZISSEN
 10
171.0
 20
213.2
 30
0.0
 11
151.185185
 21
213.2
 31
0.0
  0
LINE
  8
L-TYUSIN
  6
CENTER
 62
     1
 10
308.0
 20
203.2
 30
0.0
 11
292.0
 21
203.2
 31
0.0
  0
TEXT
  8
L-ZISSEN
 10
-21.804757
 20
429.846557
 30
0.0
 40
4.5
  1
MODEL NO.
  0
CIRCLE
  8
L-ZISSEN
 10
100.0
 20
150.5
 30
0.0
 40
12.5585
  0
CIRCLE
  8
L-ZISSEN
 10
300.0
 20
68.0
 30
0.0
 40
9.3155
  0
CIRCLE
  8
L-ZISSEN
 10
300.0
 20
134.5
 30
0.0
 40
12.5585
  0
ARC
  8
L-ZISSEN
 10
35.75
 20
113.5
 30
0.0
 40
10.0
 50
180.0
 51
268.567456
  0
LINE
  8
L-ZISSEN
 10
25.75
 20
113.5
 30
0.0
 11
25.75
 21
116.0
 31
0.0
  0
ARC
  8
L-ZISSEN
 10
164.25
 20
113.5
 30
0.0
 40
10.0
 50
271.432544
 51
0.0
  0
LINE
  8
L-ZISSEN
 10
174.25
 20
113.5
 30
0.0
 11
174.25
 21
116.0
 31
0.0
  0
ENDSEC
  0
EOF
