  0
SECTION
  2
HEADER
  9
$ACADVER
  1
AC1006
  9
$INSBASE
 10
0.0
 20
0.0
 30
0.0
  9
$EXTMIN
 10
40.0
 20
24.0
  9
$EXTMAX
 10
1545.0
 20
1040.0
  9
$LIMMIN
 10
0.0
 20
0.0
  9
$LIMMAX
 10
1680.0
 20
1188.0
  9
$ORTHOMODE
 70
     0
  9
$REGENMODE
 70
     1
  9
$FILLMODE
 70
     1
  9
$QTEXTMODE
 70
     0
  9
$MIRRTEXT
 70
     1
  9
$DRAGMODE
 70
     2
  9
$LTSCALE
 40
1.0
  9
$OSMODE
 70
     0
  9
$ATTMODE
 70
     1
  9
$TEXTSIZE
 40
4.5
  9
$TRACEWID
 40
0.05
  9
$TEXTSTYLE
  7
STANDARD
  9
$CLAYER
  8
L-ZISSEN
  9
$CELTYPE
  6
BYLAYER
  9
$CECOLOR
 62
   256
  9
$DIMSCALE
 40
1.0
  9
$DIMASZ
 40
2.0
  9
$DIMEXO
 40
1.0
  9
$DIMDLI
 40
0.38
  9
$DIMRND
 40
0.0
  9
$DIMDLE
 40
1.0
  9
$DIMEXE
 40
1.0
  9
$DIMTP
 40
0.0
  9
$DIMTM
 40
0.0
  9
$DIMTXT
 40
4.5
  9
$DIMCEN
 40
0.09
  9
$DIMTSZ
 40
0.0
  9
$DIMTOL
 70
     0
  9
$DIMLIM
 70
     0
  9
$DIMTIH
 70
     0
  9
$DIMTOH
 70
     0
  9
$DIMSE1
 70
     0
  9
$DIMSE2
 70
     0
  9
$DIMTAD
 70
     1
  9
$DIMZIN
 70
     0
  9
$DIMBLK
  1

  9
$DIMASO
 70
     0
  9
$DIMSHO
 70
     0
  9
$DIMPOST
  1

  9
$DIMAPOST
  1

  9
$DIMALT
 70
     0
  9
$DIMALTD
 70
     2
  9
$DIMALTF
 40
25.4
  9
$DIMLFAC
 40
1.0
  9
$DIMTOFL
 70
     1
  9
$DIMTVP
 40
0.0
  9
$DIMTIX
 70
     1
  9
$DIMSOXD
 70
     0
  9
$DIMSAH
 70
     0
  9
$DIMBLK1
  1

  9
$DIMBLK2
  1

  9
$LUNITS
 70
     2
  9
$LUPREC
 70
     4
  9
$AXISMODE
 70
     0
  9
$AXISUNIT
 10
0.0
 20
0.0
  9
$SKETCHINC
 40
0.1
  9
$FILLETRAD
 40
0.0
  9
$AUNITS
 70
     0
  9
$AUPREC
 70
     0
  9
$MENU
  1
acad
  9
$ELEVATION
 40
0.0
  9
$THICKNESS
 40
0.0
  9
$LIMCHECK
 70
     0
  9
$BLIPMODE
 70
     1
  9
$CHAMFERA
 40
0.0
  9
$CHAMFERB
 40
0.0
  9
$SKPOLY
 70
     0
  9
$TDCREATE
 40
2449251.3096894678
  9
$TDUPDATE
 40
2449251.3096894678
  9
$TDINDWG
 40
0.0000000000
  9
$TDUSRTIMER
 40
0.0000000000
  9
$USRTIMER
 70
     1
  9
$ANGBASE
 50
0.0
  9
$ANGDIR
 70
     0
  9
$PDMODE
 70
     0
  9
$PDSIZE
 40
0.0
  9
$PLINEWID
 40
0.0
  9
$COORDS
 70
     2
  9
$SPLFRAME
 70
     0
  9
$SPLINETYPE
 70
     6
  9
$SPLINESEGS
 70
     8
  9
$ATTDIA
 70
     0
  9
$ATTREQ
 70
     1
  9
$HANDLING
 70
     0
  9
$HANDSEED
  5
0
  9
$SURFTAB1
 70
     6
  9
$SURFTAB2
 70
     6
  9
$SURFTYPE
 70
     6
  9
$SURFU
 70
     6
  9
$SURFV
 70
     6
  9
$FLATLAND
 70
     0
  9
$UCSNAME
  2

  9
$UCSORG
 10
0.0
 20
0.0
 30
0.0
  9
$UCSXDIR
 10
1.0
 20
0.0
 30
0.0
  9
$UCSYDIR
 10
0.0
 20
1.0
 30
0.0
  9
$USERI1
 70
     0
  9
$USERI2
 70
     0
  9
$USERI3
 70
     0
  9
$USERI4
 70
     0
  9
$USERI5
 70
     0
  9
$USERR1
 40
0.0
  9
$USERR2
 40
0.0
  9
$USERR3
 40
0.0
  9
$USERR4
 40
0.0
  9
$USERR5
 40
0.0
  9
$WORLDVIEW
 70
     1
  0
ENDSEC
  0
SECTION
  2
TABLES
  0
TABLE
  2
VPORT
 70
     2
  0
VPORT
  2
*ACTIVE
 70
     0
 10
0.0
 20
0.0
 11
1.0
 21
1.0
 12
952.911956
 22
615.298075
 13
0.0
 23
0.0
 14
5.0
 24
5.0
 15
0.0
 25
0.0
 16
0.0
 26
0.0
 36
1.0
 17
0.0
 27
0.0
 37
0.0
 40
1230.59615
 41
1.5487
 42
50.0
 43
0.0
 44
0.0
 50
0.0
 51
0.0
 71
     0
 72
   100
 73
     1
 74
     0
 75
     0
 76
     0
 77
     0
 78
     0
  0
ENDTAB
  0
TABLE
  2
LTYPE
 70
     2
  0
LTYPE
  2
CONTINUOUS
 70
    64
  3
Solid line
 72
    65
 73
     0
 40
0.0
  0
LTYPE
  2
CENTER
 70
    64
  3
____ _ ____ _ ____ _ ____ _ 
 72
    65
 73
     4
 40
60.0
 49
45.0
 49
-5.0
 49
5.0
 49
-5.0
  0
ENDTAB
  0
TABLE
  2
LAYER
 70
     3
  0
LAYER
  2
0
 70
     0
 62
     7
  6
CONTINUOUS
  0
LAYER
  2
L-ZISSEN
 70
    64
 62
     7
  6
CONTINUOUS
  0
LAYER
  2
L-TYUSIN
 70
    64
 62
     1
  6
CENTER
  0
ENDTAB
  0
TABLE
  2
STYLE
 70
     1
  0
STYLE
  2
STANDARD
 70
    64
 40
0.0
 41
1.0
 50
0.0
 71
     0
 42
4.5
  3
TXT
  4

  0
ENDTAB
  0
TABLE
  2
VIEW
 70
     0
  0
ENDTAB
  0
TABLE
  2
UCS
 70
     0
  0
ENDTAB
  0
TABLE
  2
DWGMGR
 70
     0
  0
ENDTAB
  0
ENDSEC
  0
SECTION
  2
BLOCKS
  0
ENDSEC
  0
SECTION
  2
ENTITIES
  0
LINE
  8
L-TYUSIN
  6
CENTER
 62
     1
 10
66.5
 20
234.0
 30
0.0
 11
40.5
 21
234.0
 31
0.0
  0
LINE
  8
L-ZISSEN
 10
58.000001
 20
229.5
 30
0.0
 11
49.0
 21
229.5
 31
0.0
  0
LINE
  8
L-ZISSEN
 10
58.0
 20
238.5
 30
0.0
 11
49.000001
 21
238.5
 31
0.0
  0
ARC
  8
L-ZISSEN
 10
49.0
 20
234.0
 30
0.0
 40
4.5
 50
89.999983
 51
270.000016
  0
ARC
  8
L-ZISSEN
 10
58.0
 20
234.0
 30
0.0
 40
4.5
 50
270.000007
 51
89.99999
  0
ARC
  8
L-ZISSEN
 10
162.0
 20
234.0
 30
0.0
 40
4.5
 50
90.0
 51
270.000014
  0
ARC
  8
L-ZISSEN
 10
171.0
 20
234.0
 30
0.0
 40
4.5
 50
270.000021
 51
90.0
  0
LINE
  8
L-ZISSEN
 10
171.000002
 20
229.5
 30
0.0
 11
162.000001
 21
229.5
 31
0.0
  0
LINE
  8
L-ZISSEN
 10
171.0
 20
238.5
 30
0.0
 11
162.0
 21
238.5
 31
0.0
  0
LINE
  8
L-TYUSIN
  6
CENTER
 62
     1
 10
53.5
 20
242.5
 30
0.0
 11
53.5
 21
225.5
 31
0.0
  0
LINE
  8
L-TYUSIN
  6
CENTER
 62
     1
 10
166.5
 20
242.5
 30
0.0
 11
166.5
 21
225.5
 31
0.0
  0
LINE
  8
L-TYUSIN
  6
CENTER
 62
     1
 10
318.8
 20
234.0
 30
0.0
 11
330.0
 21
234.0
 31
0.0
  0
LINE
  8
L-ZISSEN
 10
303.0
 20
222.0
 30
0.0
 11
326.0
 21
222.0
 31
0.0
  0
LINE
  8
L-ZISSEN
 10
303.0
 20
246.0
 30
0.0
 11
326.0
 21
246.0
 31
0.0
  0
LINE
  8
L-ZISSEN
 10
180.0
 20
222.0
 30
0.0
 11
166.0
 21
222.0
 31
0.0
  0
LINE
  8
L-TYUSIN
  6
CENTER
 62
     1
 10
179.5
 20
234.0
 30
0.0
 11
153.5
 21
234.0
 31
0.0
  0
LINE
  8
L-ZISSEN
 10
180.0
 20
246.0
 30
0.0
 11
180.0
 21
222.0
 31
0.0
  0
LINE
  8
L-ZISSEN
 10
152.2
 20
246.0
 30
0.0
 11
152.2
 21
227.0
 31
0.0
  0
LINE
  8
L-ZISSEN
 10
67.8
 20
246.0
 30
0.0
 11
67.8
 21
227.0
 31
0.0
  0
LINE
  8
L-ZISSEN
 10
322.8
 20
246.0
 30
0.0
 11
322.8
 21
222.0
 31
0.0
  0
LINE
  8
L-ZISSEN
 10
326.0
 20
246.0
 30
0.0
 11
326.0
 21
222.0
 31
0.0
  0
LINE
  8
L-ZISSEN
 10
82.0
 20
172.0
 30
0.0
 11
82.0
 21
229.583802
 31
0.0
  0
LINE
  8
L-ZISSEN
 10
136.0
 20
324.0
 30
0.0
 11
84.0
 21
324.0
 31
0.0
  0
ARC
  8
L-ZISSEN
 10
110.0
 20
311.0
 30
0.0
 40
13.0
 50
125.234418
 51
54.765582
  0
CIRCLE
  8
L-ZISSEN
 10
110.0
 20
311.0
 30
0.0
 40
9.3
  0
LINE
  8
L-ZISSEN
 10
117.5
 20
324.0
 30
0.0
 11
117.5
 21
321.618381
 31
0.0
  0
LINE
  8
L-ZISSEN
 10
102.5
 20
324.0
 30
0.0
 11
102.5
 21
321.618381
 31
0.0
  0
LINE
  8
L-ZISSEN
 10
298.5
 20
325.5
 30
0.0
 11
298.5
 21
255.0
 31
0.0
  0
LINE
  8
L-ZISSEN
 10
136.0
 20
325.5
 30
0.0
 11
136.0
 21
316.0
 31
0.0
  0
LINE
  8
L-ZISSEN
 10
84.0
 20
325.5
 30
0.0
 11
84.0
 21
316.0
 31
0.0
  0
LINE
  8
L-ZISSEN
 10
79.9
 20
316.0
 30
0.0
 11
84.0
 21
316.0
 31
0.0
  0
LINE
  8
L-ZISSEN
 10
136.0
 20
316.0
 30
0.0
 11
148.1
 21
316.0
 31
0.0
  0
LINE
  8
L-ZISSEN
 10
79.9
 20
264.0
 30
0.0
 11
148.1
 21
264.0
 31
0.0
  0
LINE
  8
L-ZISSEN
 10
138.1
 20
316.0
 30
0.0
 11
138.1
 21
264.0
 31
0.0
  0
LINE
  8
L-ZISSEN
 10
79.9
 20
316.0
 30
0.0
 11
79.9
 21
264.0
 31
0.0
  0
LINE
  8
L-ZISSEN
 10
81.9
 20
316.0
 30
0.0
 11
81.9
 21
264.0
 31
0.0
  0
LINE
  8
L-ZISSEN
 10
84.0
 20
325.5
 30
0.0
 11
136.0
 21
325.5
 31
0.0
  0
LINE
  8
L-TYUSIN
  6
CENTER
 62
     1
 10
164.5
 20
254.0
 30
0.0
 11
154.5
 21
254.0
 31
0.0
  0
LINE
  8
L-ZISSEN
 10
78.5
 20
255.0
 30
0.0
 11
78.5
 21
246.0
 31
0.0
  0
LINE
  8
L-ZISSEN
 10
298.0
 20
153.5
 30
0.0
 11
242.0
 21
153.5
 31
0.0
  0
ARC
  8
L-ZISSEN
 10
270.0
 20
254.0
 30
0.0
 40
8.0
 50
0.0
 51
180.0
  0
LINE
  8
L-ZISSEN
 10
301.5
 20
245.0
 30
0.0
 11
301.5
 21
255.0
 31
0.0
  0
LINE
  8
L-ZISSEN
 10
278.0
 20
246.0
 30
0.0
 11
278.0
 21
254.0
 31
0.0
  0
LINE
  8
L-ZISSEN
 10
262.0
 20
246.0
 30
0.0
 11
262.0
 21
254.0
 31
0.0
  0
LINE
  8
L-ZISSEN
 10
238.5
 20
245.0
 30
0.0
 11
238.5
 21
255.0
 31
0.0
  0
LINE
  8
L-ZISSEN
 10
285.7
 20
255.0
 30
0.0
 11
285.7
 21
264.0
 31
0.0
  0
LINE
  8
L-ZISSEN
 10
254.3
 20
255.0
 30
0.0
 11
254.3
 21
264.0
 31
0.0
  0
LINE
  8
L-ZISSEN
 10
127.0
 20
259.0
 30
0.0
 11
137.0
 21
259.0
 31
0.0
  0
LINE
  8
L-ZISSEN
 10
137.0
 20
259.0
 30
0.0
 11
137.0
 21
255.0
 31
0.0
  0
LINE
  8
L-ZISSEN
 10
127.0
 20
259.0
 30
0.0
 11
127.0
 21
255.0
 31
0.0
  0
LINE
  8
L-ZISSEN
 10
141.5
 20
255.0
 30
0.0
 11
141.5
 21
246.0
 31
0.0
  0
LINE
  8
L-ZISSEN
 10
136.0
 20
264.0
 30
0.0
 11
136.0
 21
259.0
 31
0.0
  0
LINE
  8
L-ZISSEN
 10
125.7
 20
264.0
 30
0.0
 11
125.7
 21
255.0
 31
0.0
  0
LINE
  8
L-ZISSEN
 10
94.3
 20
264.0
 30
0.0
 11
94.3
 21
255.0
 31
0.0
  0
LINE
  8
L-ZISSEN
 10
71.0
 20
255.0
 30
0.0
 11
141.5
 21
255.0
 31
0.0
  0
LINE
  8
L-ZISSEN
 10
71.0
 20
246.1
 30
0.0
 11
71.0
 21
255.0
 31
0.0
  0
LINE
  8
L-ZISSEN
 10
159.5
 20
246.0
 30
0.0
 11
159.5
 21
262.1
 31
0.0
  0
LINE
  8
L-ZISSEN
 10
159.5
 20
262.1
 30
0.0
 11
136.0
 21
262.1
 31
0.0
  0
LINE
  8
L-ZISSEN
 10
84.0
 20
264.0
 30
0.0
 11
84.0
 21
259.0
 31
0.0
  0
LINE
  8
L-ZISSEN
 10
89.0
 20
146.0
 30
0.0
 11
89.0
 21
153.5
 31
0.0
  0
LINE
  8
L-ZISSEN
 10
79.0
 20
146.0
 30
0.0
 11
79.0
 21
153.5
 31
0.0
  0
CIRCLE
  8
L-ZISSEN
 10
270.0
 20
254.0
 30
0.0
 40
4.25
  0
LINE
  8
L-ZISSEN
 10
298.5
 20
264.0
 30
0.0
 11
246.5
 21
264.0
 31
0.0
  0
LINE
  8
L-TYUSIN
  6
CENTER
 62
     1
 10
282.0
 20
254.0
 30
0.0
 11
258.0
 21
254.0
 31
0.0
  0
LINE
  8
L-ZISSEN
 10
238.5
 20
255.0
 30
0.0
 11
262.0
 21
255.0
 31
0.0
  0
LINE
  8
L-ZISSEN
 10
301.5
 20
255.0
 30
0.0
 11
278.0
 21
255.0
 31
0.0
  0
LINE
  8
L-TYUSIN
  6
CENTER
 62
     1
 10
270.0
 20
330.5
 30
0.0
 11
270.0
 21
141.0
 31
0.0
  0
LINE
  8
L-ZISSEN
 10
151.0
 20
228.0
 30
0.0
 11
143.0
 21
228.0
 31
0.0
  0
LINE
  8
L-ZISSEN
 10
166.0
 20
177.5
 30
0.0
 11
158.5
 21
177.5
 31
0.0
  0
LINE
  8
L-ZISSEN
 10
166.0
 20
222.5
 30
0.0
 11
166.0
 21
177.5
 31
0.0
  0
CIRCLE
  8
L-ZISSEN
 10
270.0
 20
200.0
 30
0.0
 40
22.5
  0
LINE
  8
L-ZISSEN
 10
237.0
 20
228.0
 30
0.0
 11
303.0
 21
228.0
 31
0.0
  0
LINE
  8
L-TYUSIN
  6
CENTER
 62
     1
 10
230.0
 20
200.0
 30
0.0
 11
310.0
 21
200.0
 31
0.0
  0
LINE
  8
L-ZISSEN
 10
237.0
 20
229.353846
 30
0.0
 11
255.0
 21
229.353846
 31
0.0
  0
LINE
  8
L-ZISSEN
 10
138.0
 20
201.0
 30
0.0
 11
138.0
 21
229.583802
 31
0.0
  0
LINE
  8
L-TYUSIN
  6
CENTER
 62
     1
 10
234.0
 20
200.0
 30
0.0
 11
250.0
 21
200.0
 31
0.0
  0
LINE
  8
L-TYUSIN
  6
CENTER
 62
     1
 10
171.0
 20
200.0
 30
0.0
 11
49.0
 21
200.0
 31
0.0
  0
LINE
  8
L-TYUSIN
  6
CENTER
 62
     1
 10
110.0
 20
330.5
 30
0.0
 11
110.0
 21
141.0
 31
0.0
  0
CIRCLE
  8
L-ZISSEN
 10
141.0
 20
237.0
 30
0.0
 40
3.375
  0
CIRCLE
  8
L-ZISSEN
 10
79.0
 20
237.0
 30
0.0
 40
3.375
  0
LINE
  8
L-ZISSEN
 10
143.0
 20
161.0
 30
0.0
 11
77.0
 21
161.0
 31
0.0
  0
LINE
  8
L-ZISSEN
 10
180.0
 20
246.0
 30
0.0
 11
40.0
 21
246.0
 31
0.0
  0
ARC
  8
L-ZISSEN
 10
141.0
 20
237.0
 30
0.0
 40
8.0
 50
284.477512
 51
247.975687
  0
LINE
  8
L-ZISSEN
 10
143.0
 20
153.5
 30
0.0
 11
143.0
 21
229.254033
 31
0.0
  0
LINE
  8
L-ZISSEN
 10
149.0
 20
241.0
 30
0.0
 11
147.928203
 21
241.0
 31
0.0
  0
LINE
  8
L-ZISSEN
 10
149.0
 20
228.0
 30
0.0
 11
149.0
 21
246.0
 31
0.0
  0
LINE
  8
L-ZISSEN
 10
134.071797
 20
241.0
 30
0.0
 11
116.0
 21
241.0
 31
0.0
  0
LINE
  8
L-ZISSEN
 10
116.0
 20
241.0
 30
0.0
 11
116.0
 21
229.0
 31
0.0
  0
LINE
  8
L-ZISSEN
 10
134.0
 20
201.0
 30
0.0
 11
138.0
 21
201.0
 31
0.0
  0
ARC
  8
L-ZISSEN
 10
134.0
 20
192.0
 30
0.0
 40
9.0
 50
89.999985
 51
-90.0
  0
ARC
  8
L-ZISSEN
 10
110.0
 20
229.0
 30
0.0
 40
6.0
 50
180.0
 51
360.0
  0
LINE
  8
L-ZISSEN
 10
104.0
 20
241.0
 30
0.0
 11
104.0
 21
229.0
 31
0.0
  0
LINE
  8
L-ZISSEN
 10
85.928203
 20
241.0
 30
0.0
 11
104.0
 21
241.0
 31
0.0
  0
LINE
  8
L-ZISSEN
 10
71.0
 20
228.0
 30
0.0
 11
71.0
 21
246.0
 31
0.0
  0
LINE
  8
L-ZISSEN
 10
71.0
 20
241.0
 30
0.0
 11
72.071797
 21
241.0
 31
0.0
  0
LINE
  8
L-ZISSEN
 10
138.0
 20
172.0
 30
0.0
 11
138.0
 21
183.0
 31
0.0
  0
LINE
  8
L-ZISSEN
 10
77.0
 20
153.5
 30
0.0
 11
77.0
 21
229.254033
 31
0.0
  0
LINE
  8
L-ZISSEN
 10
277.5
 20
246.0
 30
0.0
 11
277.5
 21
230.0
 31
0.0
  0
LINE
  8
L-ZISSEN
 10
255.0
 20
245.0
 30
0.0
 11
237.0
 21
245.0
 31
0.0
  0
LINE
  8
L-ZISSEN
 10
255.0
 20
245.0
 30
0.0
 11
255.0
 21
229.353846
 31
0.0
  0
LINE
  8
L-ZISSEN
 10
238.5
 20
246.0
 30
0.0
 11
301.5
 21
246.0
 31
0.0
  0
LINE
  8
L-ZISSEN
 10
298.0
 20
161.0
 30
0.0
 11
242.0
 21
161.0
 31
0.0
  0
LINE
  8
L-ZISSEN
 10
242.0
 20
153.5
 30
0.0
 11
242.0
 21
172.0
 31
0.0
  0
LINE
  8
L-ZISSEN
 10
298.0
 20
153.5
 30
0.0
 11
298.0
 21
172.0
 31
0.0
  0
LINE
  8
L-ZISSEN
 10
237.0
 20
172.0
 30
0.0
 11
237.0
 21
245.0
 31
0.0
  0
LINE
  8
L-ZISSEN
 10
303.0
 20
246.0
 30
0.0
 11
303.0
 21
172.0
 31
0.0
  0
LINE
  8
L-ZISSEN
 10
237.0
 20
172.0
 30
0.0
 11
303.0
 21
172.0
 31
0.0
  0
LINE
  8
L-ZISSEN
 10
151.0
 20
172.0
 30
0.0
 11
138.0
 21
172.0
 31
0.0
  0
LINE
  8
L-ZISSEN
 10
166.0
 20
222.5
 30
0.0
 11
158.5
 21
222.5
 31
0.0
  0
ARC
  8
L-ZISSEN
 10
79.0
 20
237.0
 30
0.0
 40
8.0
 50
292.024313
 51
255.522488
  0
LINE
  8
L-ZISSEN
 10
54.0
 20
177.5
 30
0.0
 11
61.5
 21
177.5
 31
0.0
  0
LINE
  8
L-ZISSEN
 10
54.0
 20
222.5
 30
0.0
 11
54.0
 21
177.5
 31
0.0
  0
LINE
  8
L-ZISSEN
 10
54.0
 20
222.5
 30
0.0
 11
61.5
 21
222.5
 31
0.0
  0
LINE
  8
L-ZISSEN
 10
69.0
 20
228.0
 30
0.0
 11
77.0
 21
228.0
 31
0.0
  0
LINE
  8
L-ZISSEN
 10
69.0
 20
172.0
 30
0.0
 11
82.0
 21
172.0
 31
0.0
  0
LINE
  8
L-ZISSEN
 10
40.0
 20
222.0
 30
0.0
 11
54.0
 21
222.0
 31
0.0
  0
LINE
  8
L-ZISSEN
 10
40.0
 20
246.0
 30
0.0
 11
40.0
 21
222.0
 31
0.0
  0
LINE
  8
L-ZISSEN
 10
40.0
 20
222.0
 30
0.0
 11
54.0
 21
222.0
 31
0.0
  0
LINE
  8
L-ZISSEN
 10
83.0
 20
259.0
 30
0.0
 11
83.0
 21
255.0
 31
0.0
  0
LINE
  8
L-ZISSEN
 10
93.0
 20
259.0
 30
0.0
 11
93.0
 21
255.0
 31
0.0
  0
LINE
  8
L-ZISSEN
 10
83.0
 20
259.0
 30
0.0
 11
93.0
 21
259.0
 31
0.0
  0
LINE
  8
L-ZISSEN
 10
131.0
 20
146.0
 30
0.0
 11
131.0
 21
153.5
 31
0.0
  0
LINE
  8
L-ZISSEN
 10
141.0
 20
146.0
 30
0.0
 11
141.0
 21
153.5
 31
0.0
  0
LINE
  8
L-ZISSEN
 10
61.5
 20
217.0
 30
0.0
 11
61.5
 21
227.0
 31
0.0
  0
LINE
  8
L-ZISSEN
 10
61.5
 20
227.0
 30
0.0
 11
69.0
 21
227.0
 31
0.0
  0
LINE
  8
L-ZISSEN
 10
61.5
 20
217.0
 30
0.0
 11
69.0
 21
217.0
 31
0.0
  0
LINE
  8
L-ZISSEN
 10
69.0
 20
228.0
 30
0.0
 11
69.0
 21
172.0
 31
0.0
  0
LINE
  8
L-ZISSEN
 10
61.5
 20
183.0
 30
0.0
 11
69.0
 21
183.0
 31
0.0
  0
LINE
  8
L-ZISSEN
 10
61.5
 20
173.0
 30
0.0
 11
69.0
 21
173.0
 31
0.0
  0
LINE
  8
L-ZISSEN
 10
61.5
 20
183.0
 30
0.0
 11
61.5
 21
173.0
 31
0.0
  0
LINE
  8
L-ZISSEN
 10
262.5
 20
230.0
 30
0.0
 11
277.5
 21
230.0
 31
0.0
  0
LINE
  8
L-ZISSEN
 10
285.0
 20
245.0
 30
0.0
 11
285.0
 21
229.353846
 31
0.0
  0
LINE
  8
L-ZISSEN
 10
285.0
 20
245.0
 30
0.0
 11
303.0
 21
245.0
 31
0.0
  0
LINE
  8
L-ZISSEN
 10
303.0
 20
229.353846
 30
0.0
 11
285.0
 21
229.353846
 31
0.0
  0
LINE
  8
L-ZISSEN
 10
262.5
 20
246.0
 30
0.0
 11
262.5
 21
230.0
 31
0.0
  0
LINE
  8
L-ZISSEN
 10
243.0
 20
259.0
 30
0.0
 11
243.0
 21
255.1
 31
0.0
  0
LINE
  8
L-ZISSEN
 10
253.0
 20
259.0
 30
0.0
 11
253.0
 21
255.1
 31
0.0
  0
LINE
  8
L-ZISSEN
 10
243.0
 20
259.0
 30
0.0
 11
253.0
 21
259.0
 31
0.0
  0
LINE
  8
L-ZISSEN
 10
287.0
 20
259.0
 30
0.0
 11
297.0
 21
259.0
 31
0.0
  0
LINE
  8
L-ZISSEN
 10
297.0
 20
259.0
 30
0.0
 11
297.0
 21
255.1
 31
0.0
  0
LINE
  8
L-ZISSEN
 10
287.0
 20
259.0
 30
0.0
 11
287.0
 21
255.1
 31
0.0
  0
LINE
  8
L-ZISSEN
 10
488.5
 20
183.0
 30
0.0
 11
488.5
 21
173.0
 31
0.0
  0
LINE
  8
L-ZISSEN
 10
488.5
 20
173.0
 30
0.0
 11
481.0
 21
173.0
 31
0.0
  0
LINE
  8
L-ZISSEN
 10
488.5
 20
183.0
 30
0.0
 11
481.0
 21
183.0
 31
0.0
  0
LINE
  8
L-ZISSEN
 10
481.0
 20
222.0
 30
0.0
 11
481.0
 21
172.0
 31
0.0
  0
LINE
  8
L-ZISSEN
 10
488.5
 20
217.0
 30
0.0
 11
481.0
 21
217.0
 31
0.0
  0
LINE
  8
L-ZISSEN
 10
488.5
 20
217.0
 30
0.0
 11
488.5
 21
222.0
 31
0.0
  0
LINE
  8
L-ZISSEN
 10
467.0
 20
259.0
 30
0.0
 11
457.0
 21
259.0
 31
0.0
  0
LINE
  8
L-ZISSEN
 10
457.0
 20
259.0
 30
0.0
 11
457.0
 21
255.0
 31
0.0
  0
LINE
  8
L-ZISSEN
 10
467.0
 20
259.0
 30
0.0
 11
467.0
 21
255.0
 31
0.0
  0
LINE
  8
L-ZISSEN
 10
510.0
 20
222.0
 30
0.0
 11
496.0
 21
222.0
 31
0.0
  0
LINE
  8
L-ZISSEN
 10
510.0
 20
246.0
 30
0.0
 11
510.0
 21
222.0
 31
0.0
  0
LINE
  8
L-ZISSEN
 10
510.0
 20
222.0
 30
0.0
 11
370.0
 21
222.0
 31
0.0
  0
LINE
  8
L-ZISSEN
 10
481.0
 20
172.0
 30
0.0
 11
468.0
 21
172.0
 31
0.0
  0
LINE
  8
L-ZISSEN
 10
496.0
 20
222.0
 30
0.0
 11
496.0
 21
177.5
 31
0.0
  0
LINE
  8
L-ZISSEN
 10
496.0
 20
177.5
 30
0.0
 11
488.5
 21
177.5
 31
0.0
  0
LINE
  8
L-ZISSEN
 10
399.0
 20
172.0
 30
0.0
 11
412.0
 21
172.0
 31
0.0
  0
LINE
  8
L-ZISSEN
 10
473.0
 20
153.5
 30
0.0
 11
473.0
 21
222.0
 31
0.0
  0
LINE
  8
L-ZISSEN
 10
412.0
 20
172.0
 30
0.0
 11
412.0
 21
183.0
 31
0.0
  0
ARC
  8
L-ZISSEN
 10
416.0
 20
192.0
 30
0.0
 40
9.0
 50
-90.0
 51
90.000015
  0
LINE
  8
L-ZISSEN
 10
416.0
 20
201.0
 30
0.0
 11
412.0
 21
201.0
 31
0.0
  0
LINE
  8
L-ZISSEN
 10
400.0
 20
222.0
 30
0.0
 11
400.0
 21
246.0
 31
0.0
  0
LINE
  8
L-ZISSEN
 10
407.0
 20
153.5
 30
0.0
 11
407.0
 21
222.0
 31
0.0
  0
LINE
  8
L-ZISSEN
 10
370.0
 20
246.0
 30
0.0
 11
510.0
 21
246.0
 31
0.0
  0
LINE
  8
L-TYUSIN
  6
CENTER
 62
     1
 10
440.0
 20
330.6
 30
0.0
 11
440.0
 21
141.0
 31
0.0
  0
LINE
  8
L-TYUSIN
  6
CENTER
 62
     1
 10
379.0
 20
200.0
 30
0.0
 11
501.0
 21
200.0
 31
0.0
  0
LINE
  8
L-ZISSEN
 10
412.0
 20
201.0
 30
0.0
 11
412.0
 21
222.0
 31
0.0
  0
LINE
  8
L-ZISSEN
 10
384.0
 20
222.0
 30
0.0
 11
384.0
 21
177.5
 31
0.0
  0
LINE
  8
L-ZISSEN
 10
384.0
 20
177.5
 30
0.0
 11
391.5
 21
177.5
 31
0.0
  0
LINE
  8
L-ZISSEN
 10
466.0
 20
264.1
 30
0.0
 11
466.0
 21
259.0
 31
0.0
  0
LINE
  8
L-ZISSEN
 10
390.5
 20
262.1
 30
0.0
 11
414.0
 21
262.1
 31
0.0
  0
LINE
  8
L-ZISSEN
 10
390.5
 20
246.0
 30
0.0
 11
390.5
 21
262.1
 31
0.0
  0
LINE
  8
L-ZISSEN
 10
479.0
 20
246.1
 30
0.0
 11
479.0
 21
255.0
 31
0.0
  0
LINE
  8
L-ZISSEN
 10
479.0
 20
255.0
 30
0.0
 11
408.5
 21
255.0
 31
0.0
  0
LINE
  8
L-ZISSEN
 10
455.7
 20
264.1
 30
0.0
 11
455.7
 21
255.0
 31
0.0
  0
LINE
  8
L-ZISSEN
 10
424.3
 20
264.1
 30
0.0
 11
424.3
 21
255.0
 31
0.0
  0
LINE
  8
L-ZISSEN
 10
414.0
 20
264.1
 30
0.0
 11
414.0
 21
259.0
 31
0.0
  0
LINE
  8
L-ZISSEN
 10
408.5
 20
255.0
 30
0.0
 11
408.5
 21
246.0
 31
0.0
  0
LINE
  8
L-ZISSEN
 10
423.0
 20
259.0
 30
0.0
 11
423.0
 21
255.0
 31
0.0
  0
LINE
  8
L-ZISSEN
 10
413.0
 20
259.0
 30
0.0
 11
413.0
 21
255.0
 31
0.0
  0
LINE
  8
L-ZISSEN
 10
423.0
 20
259.0
 30
0.0
 11
413.0
 21
259.0
 31
0.0
  0
LINE
  8
L-ZISSEN
 10
471.5
 20
255.0
 30
0.0
 11
471.5
 21
246.0
 31
0.0
  0
LINE
  8
L-TYUSIN
  6
CENTER
 62
     1
 10
385.5
 20
254.0
 30
0.0
 11
395.5
 21
254.0
 31
0.0
  0
LINE
  8
L-ZISSEN
 10
470.1
 20
264.1
 30
0.0
 11
401.9
 21
264.1
 31
0.0
  0
LINE
  8
L-TYUSIN
  6
CENTER
 62
     1
 10
461.0
 20
285.1
 30
0.0
 11
443.0
 21
285.1
 31
0.0
  0
LINE
  8
L-TYUSIN
  6
CENTER
 62
     1
 10
452.0
 20
276.1
 30
0.0
 11
452.0
 21
294.1
 31
0.0
  0
LINE
  8
L-ZISSEN
 10
468.0
 20
172.0
 30
0.0
 11
468.0
 21
222.0
 31
0.0
  0
LINE
  8
L-ZISSEN
 10
370.0
 20
246.0
 30
0.0
 11
370.0
 21
222.0
 31
0.0
  0
LINE
  8
L-TYUSIN
  6
CENTER
 62
     1
 10
370.5
 20
234.0
 30
0.0
 11
396.5
 21
234.0
 31
0.0
  0
LINE
  8
L-TYUSIN
  6
CENTER
 62
     1
 10
383.5
 20
242.5
 30
0.0
 11
383.5
 21
225.5
 31
0.0
  0
LINE
  8
L-TYUSIN
  6
CENTER
 62
     1
 10
496.5
 20
242.5
 30
0.0
 11
496.5
 21
225.5
 31
0.0
  0
LINE
  8
L-ZISSEN
 10
379.0
 20
238.5
 30
0.0
 11
388.0
 21
238.5
 31
0.0
  0
LINE
  8
L-ZISSEN
 10
378.999998
 20
229.5
 30
0.0
 11
387.999999
 21
229.5
 31
0.0
  0
ARC
  8
L-ZISSEN
 10
379.0
 20
234.0
 30
0.0
 40
4.5
 50
90.0
 51
269.999979
  0
ARC
  8
L-ZISSEN
 10
388.0
 20
234.0
 30
0.0
 40
4.5
 50
269.999986
 51
90.0
  0
ARC
  8
L-ZISSEN
 10
492.0
 20
234.0
 30
0.0
 40
4.5
 50
90.00001
 51
269.999993
  0
ARC
  8
L-ZISSEN
 10
501.0
 20
234.0
 30
0.0
 40
4.5
 50
269.999984
 51
90.000017
  0
LINE
  8
L-ZISSEN
 10
492.0
 20
238.5
 30
0.0
 11
500.999999
 21
238.5
 31
0.0
  0
LINE
  8
L-ZISSEN
 10
491.999999
 20
229.5
 30
0.0
 11
501.0
 21
229.5
 31
0.0
  0
LINE
  8
L-TYUSIN
  6
CENTER
 62
     1
 10
483.5
 20
234.0
 30
0.0
 11
509.5
 21
234.0
 31
0.0
  0
CIRCLE
  8
L-ZISSEN
 10
452.0
 20
285.1
 30
0.0
 40
5.7225
  0
CIRCLE
  8
L-ZISSEN
 10
296.0
 20
222.0
 30
0.0
 40
5.0
  0
CIRCLE
  8
L-ZISSEN
 10
244.0
 20
222.0
 30
0.0
 40
5.0
  0
CIRCLE
  8
L-ZISSEN
 10
244.0
 20
178.0
 30
0.0
 40
5.0
  0
CIRCLE
  8
L-ZISSEN
 10
296.0
 20
178.0
 30
0.0
 40
5.0
  0
CIRCLE
  8
L-ZISSEN
 10
409.0
 20
237.0
 30
0.0
 40
5.0
  0
CIRCLE
  8
L-ZISSEN
 10
471.0
 20
237.0
 30
0.0
 40
5.0
  0
LINE
  8
L-ZISSEN
 10
480.0
 20
222.0
 30
0.0
 11
480.0
 21
246.0
 31
0.0
  0
LINE
  8
L-ZISSEN
 10
1146.7
 20
619.0
 30
0.0
 11
1146.7
 21
581.0
 31
0.0
  0
LINE
  8
L-ZISSEN
 10
1136.1
 20
626.0
 30
0.0
 11
1136.1
 21
574.0
 31
0.0
  0
LINE
  8
L-ZISSEN
 10
1062.0
 20
626.0
 30
0.0
 11
1136.1
 21
626.0
 31
0.0
  0
LINE
  8
L-ZISSEN
 10
917.9
 20
574.0
 30
0.0
 11
1136.1
 21
574.0
 31
0.0
  0
LINE
  8
L-ZISSEN
 10
1140.74282
 20
619.0
 30
0.0
 11
1146.7
 21
619.0
 31
0.0
  0
LINE
  8
L-ZISSEN
 10
1140.74282
 20
581.0
 30
0.0
 11
1146.7
 21
581.0
 31
0.0
  0
LINE
  8
L-ZISSEN
 10
1140.74282
 20
624.49995
 30
0.0
 11
1136.1
 21
624.49995
 31
0.0
  0
LINE
  8
L-ZISSEN
 10
1146.7
 20
611.0
 30
0.0
 11
1147.7
 21
611.0
 31
0.0
  0
LINE
  8
L-ZISSEN
 10
1147.7
 20
589.0
 30
0.0
 11
1146.7
 21
589.0
 31
0.0
  0
LINE
  8
L-ZISSEN
 10
1147.7
 20
611.0
 30
0.0
 11
1147.7
 21
589.0
 31
0.0
  0
LINE
  8
L-ZISSEN
  6
CONTINUOUS
 62
     7
 10
1064.1
 20
574.0
 30
0.0
 11
1064.1
 21
626.0
 31
0.0
  0
LINE
  8
L-ZISSEN
 10
1140.74282
 20
615.50005
 30
0.0
 11
1140.74282
 21
624.49995
 31
0.0
  0
LINE
  8
L-ZISSEN
 10
1140.74282
 20
615.50005
 30
0.0
 11
1136.1
 21
615.50005
 31
0.0
  0
LINE
  8
L-ZISSEN
 10
1140.74282
 20
584.49995
 30
0.0
 11
1136.1
 21
584.49995
 31
0.0
  0
LINE
  8
L-ZISSEN
 10
1140.74282
 20
584.49995
 30
0.0
 11
1140.74282
 21
575.50005
 31
0.0
  0
LINE
  8
L-ZISSEN
 10
1140.74282
 20
575.50005
 30
0.0
 11
1136.1
 21
575.50005
 31
0.0
  0
CIRCLE
  8
L-ZISSEN
 10
1027.0
 20
621.0
 30
0.0
 40
9.3155
  0
LINE
  8
L-ZISSEN
  6
CONTINUOUS
 62
     7
 10
999.5
 20
639.1
 30
0.0
 11
992.5
 21
639.1
 31
0.0
  0
LINE
  8
L-ZISSEN
  6
CONTINUOUS
 62
     7
 10
999.5
 20
635.5
 30
0.0
 11
999.5
 21
639.1
 31
0.0
  0
LINE
  8
L-ZISSEN
  6
CONTINUOUS
 62
     7
 10
992.5
 20
635.5
 30
0.0
 11
992.5
 21
639.1
 31
0.0
  0
LINE
  8
L-ZISSEN
  6
CONTINUOUS
 62
     7
 10
992.0
 20
635.5
 30
0.0
 11
992.0
 21
626.0
 31
0.0
  0
LINE
  8
L-ZISSEN
  6
CONTINUOUS
 62
     7
 10
1061.5
 20
635.5
 30
0.0
 11
1061.5
 21
639.1
 31
0.0
  0
LINE
  8
L-ZISSEN
  6
CONTINUOUS
 62
     7
 10
1054.5
 20
635.5
 30
0.0
 11
1054.5
 21
639.1
 31
0.0
  0
LINE
  8
L-ZISSEN
  6
CONTINUOUS
 62
     7
 10
1054.5
 20
639.1
 30
0.0
 11
1061.5
 21
639.1
 31
0.0
  0
LINE
  8
L-ZISSEN
  6
CONTINUOUS
 62
     7
 10
1019.5
 20
634.0
 30
0.0
 11
1019.5
 21
631.618381
 31
0.0
  0
LINE
  8
L-ZISSEN
  6
CONTINUOUS
 62
     7
 10
1034.5
 20
634.0
 30
0.0
 11
1034.5
 21
631.618381
 31
0.0
  0
ARC
  8
L-ZISSEN
  6
CONTINUOUS
 62
     7
 10
1027.0
 20
621.0
 30
0.0
 40
13.0
 50
125.234418
 51
54.765582
  0
LINE
  8
L-ZISSEN
  6
CONTINUOUS
 62
     7
 10
1064.1
 20
574.0
 30
0.0
 11
1064.1
 21
626.0
 31
0.0
  0
LINE
  8
L-ZISSEN
  6
CONTINUOUS
 62
     7
 10
992.0
 20
635.5
 30
0.0
 11
1061.9
 21
635.5
 31
0.0
  0
LINE
  8
L-ZISSEN
  6
CONTINUOUS
 62
     7
 10
1062.0
 20
635.5
 30
0.0
 11
1062.0
 21
626.0
 31
0.0
  0
LINE
  8
L-ZISSEN
  6
CONTINUOUS
 62
     7
 10
1061.9
 20
634.0
 30
0.0
 11
992.0
 21
634.0
 31
0.0
  0
LINE
  8
L-TYUSIN
  6
CENTER
 62
     1
 10
110.0
 20
371.0
 30
0.0
 11
110.0
 21
448.7
 31
0.0
  0
LINE
  8
L-ZISSEN
 10
123.0
 20
382.0
 30
0.0
 11
97.0
 21
382.0
 31
0.0
  0
LINE
  8
L-ZISSEN
 10
123.0
 20
384.0
 30
0.0
 11
123.0
 21
382.0
 31
0.0
  0
LINE
  8
L-ZISSEN
 10
123.0
 20
438.0
 30
0.0
 11
97.0
 21
438.0
 31
0.0
  0
LINE
  8
L-ZISSEN
 10
123.0
 20
438.0
 30
0.0
 11
123.0
 21
436.0
 31
0.0
  0
LINE
  8
L-ZISSEN
 10
97.0
 20
438.0
 30
0.0
 11
97.0
 21
436.0
 31
0.0
  0
LINE
  8
L-ZISSEN
 10
97.0
 20
384.0
 30
0.0
 11
97.0
 21
382.0
 31
0.0
  0
LINE
  8
L-ZISSEN
  6
CONTINUOUS
 62
     7
 10
81.9
 20
384.0
 30
0.0
 11
81.9
 21
436.0
 31
0.0
  0
LINE
  8
L-ZISSEN
  6
CONTINUOUS
 62
     7
 10
79.9
 20
436.0
 30
0.0
 11
79.9
 21
384.0
 31
0.0
  0
LINE
  8
L-ZISSEN
  6
CONTINUOUS
 62
     7
 10
76.6
 20
434.5
 30
0.0
 11
76.6
 21
425.5
 31
0.0
  0
LINE
  8
L-ZISSEN
  6
CONTINUOUS
 62
     7
 10
79.9
 20
425.5
 30
0.0
 11
76.6
 21
425.5
 31
0.0
  0
LINE
  8
L-ZISSEN
  6
CONTINUOUS
 62
     7
 10
79.9
 20
434.5
 30
0.0
 11
76.6
 21
434.5
 31
0.0
  0
LINE
  8
L-ZISSEN
  6
CONTINUOUS
 62
     7
 10
79.9
 20
394.5
 30
0.0
 11
76.6
 21
394.5
 31
0.0
  0
LINE
  8
L-ZISSEN
  6
CONTINUOUS
 62
     7
 10
79.9
 20
385.5
 30
0.0
 11
76.6
 21
385.5
 31
0.0
  0
LINE
  8
L-ZISSEN
  6
CONTINUOUS
 62
     7
 10
76.6
 20
394.5
 30
0.0
 11
76.6
 21
385.5
 31
0.0
  0
LINE
  8
L-ZISSEN
  6
CONTINUOUS
 62
     7
 10
138.1
 20
384.0
 30
0.0
 11
138.1
 21
436.0
 31
0.0
  0
LINE
  8
L-ZISSEN
  6
CONTINUOUS
 62
     7
 10
148.1
 20
436.0
 30
0.0
 11
194.1
 21
434.393644
 31
0.0
  0
LINE
  8
L-ZISSEN
  6
CONTINUOUS
 62
     7
 10
195.1
 20
399.0
 30
0.0
 11
194.1
 21
399.0
 31
0.0
  0
LINE
  8
L-ZISSEN
  6
CONTINUOUS
 62
     7
 10
195.1
 20
421.0
 30
0.0
 11
195.1
 21
399.0
 31
0.0
  0
LINE
  8
L-ZISSEN
  6
CONTINUOUS
 62
     7
 10
195.1
 20
421.0
 30
0.0
 11
194.1
 21
421.0
 31
0.0
  0
LINE
  8
L-ZISSEN
  6
CONTINUOUS
 62
     7
 10
194.1
 20
385.606356
 30
0.0
 11
194.1
 21
434.393644
 31
0.0
  0
LINE
  8
L-ZISSEN
  6
CONTINUOUS
 62
     7
 10
148.1
 20
384.0
 30
0.0
 11
194.1
 21
385.606356
 31
0.0
  0
LINE
  8
L-ZISSEN
 10
148.1
 20
436.0
 30
0.0
 11
79.9
 21
436.0
 31
0.0
  0
LINE
  8
L-ZISSEN
 10
148.1
 20
384.0
 30
0.0
 11
79.9
 21
384.0
 31
0.0
  0
LINE
  8
L-ZISSEN
 10
84.0
 20
384.0
 30
0.0
 11
84.0
 21
436.0
 31
0.0
  0
LINE
  8
L-ZISSEN
 10
136.0
 20
384.0
 30
0.0
 11
136.0
 21
436.0
 31
0.0
  0
LINE
  8
L-ZISSEN
 10
1136.1
 20
664.0
 30
0.0
 11
917.9
 21
664.0
 31
0.0
  0
LINE
  8
L-ZISSEN
 10
1062.0
 20
664.0
 30
0.0
 11
1062.0
 21
716.0
 31
0.0
  0
LINE
  8
L-ZISSEN
  6
CONTINUOUS
 62
     7
 10
1064.1
 20
664.0
 30
0.0
 11
1064.1
 21
716.0
 31
0.0
  0
LINE
  8
L-ZISSEN
 10
1014.0
 20
662.0
 30
0.0
 11
1014.0
 21
664.0
 31
0.0
  0
LINE
  8
L-ZISSEN
 10
1040.0
 20
662.0
 30
0.0
 11
1014.0
 21
662.0
 31
0.0
  0
LINE
  8
L-ZISSEN
 10
1040.0
 20
662.0
 30
0.0
 11
1040.0
 21
664.0
 31
0.0
  0
LINE
  8
L-ZISSEN
 10
1136.1
 20
716.0
 30
0.0
 11
917.9
 21
716.0
 31
0.0
  0
LINE
  8
L-ZISSEN
 10
1040.0
 20
718.0
 30
0.0
 11
1040.0
 21
716.0
 31
0.0
  0
LINE
  8
L-ZISSEN
 10
1040.0
 20
718.0
 30
0.0
 11
1014.0
 21
718.0
 31
0.0
  0
LINE
  8
L-ZISSEN
 10
1014.0
 20
718.0
 30
0.0
 11
1014.0
 21
716.0
 31
0.0
  0
LINE
  8
L-ZISSEN
 10
1140.74282
 20
665.50005
 30
0.0
 11
1136.1
 21
665.50005
 31
0.0
  0
LINE
  8
L-ZISSEN
 10
1140.74282
 20
674.49995
 30
0.0
 11
1140.74282
 21
665.50005
 31
0.0
  0
LINE
  8
L-ZISSEN
 10
1140.74282
 20
674.49995
 30
0.0
 11
1136.1
 21
674.49995
 31
0.0
  0
LINE
  8
L-ZISSEN
 10
1140.74282
 20
705.50005
 30
0.0
 11
1136.1
 21
705.50005
 31
0.0
  0
LINE
  8
L-ZISSEN
 10
1140.74282
 20
705.50005
 30
0.0
 11
1140.74282
 21
714.49995
 31
0.0
  0
LINE
  8
L-ZISSEN
 10
1147.7
 20
701.0
 30
0.0
 11
1147.7
 21
679.0
 31
0.0
  0
LINE
  8
L-ZISSEN
 10
1147.7
 20
679.0
 30
0.0
 11
1146.7
 21
679.0
 31
0.0
  0
LINE
  8
L-ZISSEN
 10
1146.7
 20
701.0
 30
0.0
 11
1147.7
 21
701.0
 31
0.0
  0
LINE
  8
L-ZISSEN
 10
1140.74282
 20
714.49995
 30
0.0
 11
1136.1
 21
714.49995
 31
0.0
  0
LINE
  8
L-ZISSEN
 10
1140.74282
 20
671.0
 30
0.0
 11
1146.7
 21
671.0
 31
0.0
  0
LINE
  8
L-ZISSEN
 10
1140.74282
 20
709.0
 30
0.0
 11
1146.7
 21
709.0
 31
0.0
  0
LINE
  8
L-ZISSEN
 10
1136.1
 20
716.0
 30
0.0
 11
1136.1
 21
664.0
 31
0.0
  0
LINE
  8
L-ZISSEN
 10
1146.7
 20
709.0
 30
0.0
 11
1146.7
 21
671.0
 31
0.0
  0
CIRCLE
  8
L-ZISSEN
 10
1230.0
 20
600.0
 30
0.0
 40
11.0
  0
LINE
  8
L-ZISSEN
  6
CONTINUOUS
 62
     7
 10
1255.5
 20
635.5
 30
0.0
 11
1255.5
 21
639.1
 31
0.0
  0
LINE
  8
L-ZISSEN
  6
CONTINUOUS
 62
     7
 10
1248.5
 20
635.5
 30
0.0
 11
1248.5
 21
639.1
 31
0.0
  0
LINE
  8
L-ZISSEN
  6
CONTINUOUS
 62
     7
 10
1248.5
 20
639.1
 30
0.0
 11
1255.5
 21
639.1
 31
0.0
  0
LINE
  8
L-ZISSEN
 10
1256.0
 20
608.0
 30
0.0
 11
1258.0
 21
608.0
 31
0.0
  0
LINE
  8
L-ZISSEN
 10
1202.0
 20
608.0
 30
0.0
 11
1204.0
 21
608.0
 31
0.0
  0
LINE
  8
L-ZISSEN
  6
CONTINUOUS
 62
     7
 10
1211.5
 20
639.1
 30
0.0
 11
1204.5
 21
639.1
 31
0.0
  0
LINE
  8
L-ZISSEN
  6
CONTINUOUS
 62
     7
 10
1211.5
 20
635.5
 30
0.0
 11
1211.5
 21
639.1
 31
0.0
  0
LINE
  8
L-ZISSEN
  6
CONTINUOUS
 62
     7
 10
1204.5
 20
635.5
 30
0.0
 11
1204.5
 21
639.1
 31
0.0
  0
LINE
  8
L-ZISSEN
 10
1258.0
 20
608.0
 30
0.0
 11
1258.0
 21
634.0
 31
0.0
  0
LINE
  8
L-ZISSEN
 10
1204.0
 20
635.5
 30
0.0
 11
1256.0
 21
635.5
 31
0.0
  0
LINE
  8
L-ZISSEN
 10
1202.0
 20
634.0
 30
0.0
 11
1258.0
 21
634.0
 31
0.0
  0
LINE
  8
L-ZISSEN
 10
1256.0
 20
635.5
 30
0.0
 11
1256.0
 21
574.0
 31
0.0
  0
LINE
  8
L-ZISSEN
 10
1202.0
 20
608.0
 30
0.0
 11
1202.0
 21
634.0
 31
0.0
  0
LINE
  8
L-ZISSEN
 10
1204.0
 20
626.0
 30
0.0
 11
1256.0
 21
626.0
 31
0.0
  0
LINE
  8
L-ZISSEN
 10
1204.0
 20
574.0
 30
0.0
 11
1204.0
 21
635.5
 31
0.0
  0
LINE
  8
L-ZISSEN
 10
1204.0
 20
574.0
 30
0.0
 11
1256.0
 21
574.0
 31
0.0
  0
CIRCLE
  8
L-ZISSEN
 10
1230.0
 20
600.0
 30
0.0
 40
19.0
  0
CIRCLE
  8
L-ZISSEN
 10
1210.0
 20
620.0
 30
0.0
 40
4.49995
  0
CIRCLE
  8
L-ZISSEN
 10
1250.0
 20
620.0
 30
0.0
 40
4.49995
  0
CIRCLE
  8
L-ZISSEN
 10
1210.0
 20
580.0
 30
0.0
 40
4.49995
  0
CIRCLE
  8
L-ZISSEN
 10
1250.0
 20
580.0
 30
0.0
 40
4.49995
  0
LINE
  8
L-ZISSEN
 10
1454.0
 20
574.0
 30
0.0
 11
1454.0
 21
639.6
 31
0.0
  0
LINE
  8
L-ZISSEN
 10
1506.0
 20
639.6
 30
0.0
 11
1506.0
 21
574.0
 31
0.0
  0
LINE
  8
L-ZISSEN
 10
1452.0
 20
634.0
 30
0.0
 11
1508.0
 21
634.0
 31
0.0
  0
LINE
  8
L-ZISSEN
 10
1454.0
 20
639.6
 30
0.0
 11
1506.0
 21
639.6
 31
0.0
  0
LINE
  8
L-ZISSEN
  6
CONTINUOUS
 62
     7
 10
1454.5
 20
639.6
 30
0.0
 11
1454.5
 21
643.2
 31
0.0
  0
LINE
  8
L-ZISSEN
  6
CONTINUOUS
 62
     7
 10
1461.5
 20
639.6
 30
0.0
 11
1461.5
 21
643.2
 31
0.0
  0
LINE
  8
L-ZISSEN
  6
CONTINUOUS
 62
     7
 10
1461.5
 20
643.2
 30
0.0
 11
1454.5
 21
643.2
 31
0.0
  0
LINE
  8
L-ZISSEN
  6
CONTINUOUS
 62
     7
 10
1498.5
 20
643.2
 30
0.0
 11
1505.5
 21
643.2
 31
0.0
  0
LINE
  8
L-ZISSEN
  6
CONTINUOUS
 62
     7
 10
1498.5
 20
639.6
 30
0.0
 11
1498.5
 21
643.2
 31
0.0
  0
LINE
  8
L-ZISSEN
  6
CONTINUOUS
 62
     7
 10
1505.5
 20
639.6
 30
0.0
 11
1505.5
 21
643.2
 31
0.0
  0
LINE
  8
L-ZISSEN
  6
CONTINUOUS
 62
     7
 10
1412.0
 20
634.0
 30
0.0
 11
1342.0
 21
634.0
 31
0.0
  0
LINE
  8
L-ZISSEN
  6
CONTINUOUS
 62
     7
 10
1412.0
 20
639.6
 30
0.0
 11
1412.0
 21
626.0
 31
0.0
  0
LINE
  8
L-ZISSEN
  6
CONTINUOUS
 62
     7
 10
1342.0
 20
639.6
 30
0.0
 11
1412.0
 21
639.6
 31
0.0
  0
LINE
  8
L-ZISSEN
  6
CONTINUOUS
 62
     7
 10
1404.5
 20
643.2
 30
0.0
 11
1411.5
 21
643.2
 31
0.0
  0
LINE
  8
L-ZISSEN
  6
CONTINUOUS
 62
     7
 10
1404.5
 20
639.6
 30
0.0
 11
1404.5
 21
643.2
 31
0.0
  0
LINE
  8
L-ZISSEN
  6
CONTINUOUS
 62
     7
 10
1411.5
 20
639.6
 30
0.0
 11
1411.5
 21
643.2
 31
0.0
  0
LINE
  8
L-ZISSEN
  6
CONTINUOUS
 62
     7
 10
1342.0
 20
639.6
 30
0.0
 11
1342.0
 21
626.0
 31
0.0
  0
LINE
  8
L-ZISSEN
  6
CONTINUOUS
 62
     7
 10
1342.5
 20
639.6
 30
0.0
 11
1342.5
 21
643.2
 31
0.0
  0
LINE
  8
L-ZISSEN
  6
CONTINUOUS
 62
     7
 10
1349.5
 20
639.6
 30
0.0
 11
1349.5
 21
643.2
 31
0.0
  0
LINE
  8
L-ZISSEN
  6
CONTINUOUS
 62
     7
 10
1349.5
 20
643.2
 30
0.0
 11
1342.5
 21
643.2
 31
0.0
  0
LINE
  8
L-ZISSEN
 10
1396.0
 20
639.6
 30
0.0
 11
1396.0
 21
646.1
 31
0.0
  0
LINE
  8
L-ZISSEN
 10
1388.0
 20
646.1
 30
0.0
 11
1388.0
 21
639.6
 31
0.0
  0
CIRCLE
  8
L-ZISSEN
 10
1392.0
 20
708.0
 30
0.0
 40
4.0
  0
LINE
  8
L-ZISSEN
  6
CONTINUOUS
 62
     7
 10
1388.0
 20
646.1
 30
0.0
 11
1396.0
 21
646.1
 31
0.0
  0
LINE
  8
L-ZISSEN
  6
CONTINUOUS
 62
     7
 10
1502.0
 20
646.1
 30
0.0
 11
1494.0
 21
646.1
 31
0.0
  0
LINE
  8
L-ZISSEN
 10
1502.0
 20
646.1
 30
0.0
 11
1502.0
 21
643.2
 31
0.0
  0
LINE
  8
L-ZISSEN
 10
1494.0
 20
639.6
 30
0.0
 11
1494.0
 21
646.1
 31
0.0
  0
TEXT
  8
L-ZISSEN
 10
1340.0
 20
760.0
 30
0.0
 40
4.5
  1
PILOT LAMP
  0
LINE
  8
L-TYUSIN
 10
855.0
 20
1040.0
 30
0.0
 11
855.0
 21
40.0
 31
0.0
  0
LINE
  8
L-TYUSIN
 10
535.0
 20
540.0
 30
0.0
 11
1545.0
 21
540.0
 31
0.0
  0
LINE
  8
L-ZISSEN
  6
CONTINUOUS
 62
     7
 10
91.5
 20
329.1
 30
0.0
 11
84.5
 21
329.1
 31
0.0
  0
LINE
  8
L-ZISSEN
  6
CONTINUOUS
 62
     7
 10
91.5
 20
325.5
 30
0.0
 11
91.5
 21
329.1
 31
0.0
  0
LINE
  8
L-ZISSEN
  6
CONTINUOUS
 62
     7
 10
84.5
 20
325.5
 30
0.0
 11
84.5
 21
329.1
 31
0.0
  0
LINE
  8
L-ZISSEN
  6
CONTINUOUS
 62
     7
 10
76.6
 20
314.5
 30
0.0
 11
76.6
 21
305.5
 31
0.0
  0
LINE
  8
L-ZISSEN
  6
CONTINUOUS
 62
     7
 10
79.9
 20
305.5
 30
0.0
 11
76.6
 21
305.5
 31
0.0
  0
LINE
  8
L-ZISSEN
  6
CONTINUOUS
 62
     7
 10
79.9
 20
314.5
 30
0.0
 11
76.6
 21
314.5
 31
0.0
  0
LINE
  8
L-ZISSEN
  6
CONTINUOUS
 62
     7
 10
79.9
 20
274.5
 30
0.0
 11
76.6
 21
274.5
 31
0.0
  0
LINE
  8
L-ZISSEN
  6
CONTINUOUS
 62
     7
 10
79.9
 20
265.5
 30
0.0
 11
76.6
 21
265.5
 31
0.0
  0
LINE
  8
L-ZISSEN
  6
CONTINUOUS
 62
     7
 10
76.6
 20
274.5
 30
0.0
 11
76.6
 21
265.5
 31
0.0
  0
LINE
  8
L-ZISSEN
  6
CONTINUOUS
 62
     7
 10
148.1
 20
264.0
 30
0.0
 11
194.1
 21
265.606356
 31
0.0
  0
LINE
  8
L-ZISSEN
  6
CONTINUOUS
 62
     7
 10
148.1
 20
316.0
 30
0.0
 11
194.1
 21
314.393644
 31
0.0
  0
LINE
  8
L-ZISSEN
  6
CONTINUOUS
 62
     7
 10
195.1
 20
279.0
 30
0.0
 11
194.1
 21
279.0
 31
0.0
  0
LINE
  8
L-ZISSEN
  6
CONTINUOUS
 62
     7
 10
195.1
 20
301.0
 30
0.0
 11
195.1
 21
279.0
 31
0.0
  0
LINE
  8
L-ZISSEN
  6
CONTINUOUS
 62
     7
 10
195.1
 20
301.0
 30
0.0
 11
194.1
 21
301.0
 31
0.0
  0
LINE
  8
L-ZISSEN
  6
CONTINUOUS
 62
     7
 10
194.1
 20
265.606356
 30
0.0
 11
194.1
 21
314.393644
 31
0.0
  0
CIRCLE
  8
L-ZISSEN
 10
272.5
 20
290.0
 30
0.0
 40
11.0
  0
LINE
  8
L-ZISSEN
  6
CONTINUOUS
 62
     7
 10
298.0
 20
325.5
 30
0.0
 11
298.0
 21
329.1
 31
0.0
  0
LINE
  8
L-ZISSEN
  6
CONTINUOUS
 62
     7
 10
291.0
 20
325.5
 30
0.0
 11
291.0
 21
329.1
 31
0.0
  0
LINE
  8
L-ZISSEN
  6
CONTINUOUS
 62
     7
 10
291.0
 20
329.1
 30
0.0
 11
298.0
 21
329.1
 31
0.0
  0
LINE
  8
L-ZISSEN
 10
298.5
 20
298.0
 30
0.0
 11
300.5
 21
298.0
 31
0.0
  0
LINE
  8
L-ZISSEN
 10
244.5
 20
298.0
 30
0.0
 11
246.5
 21
298.0
 31
0.0
  0
LINE
  8
L-ZISSEN
  6
CONTINUOUS
 62
     7
 10
254.0
 20
329.1
 30
0.0
 11
247.0
 21
329.1
 31
0.0
  0
LINE
  8
L-ZISSEN
  6
CONTINUOUS
 62
     7
 10
254.0
 20
325.5
 30
0.0
 11
254.0
 21
329.1
 31
0.0
  0
LINE
  8
L-ZISSEN
  6
CONTINUOUS
 62
     7
 10
247.0
 20
325.5
 30
0.0
 11
247.0
 21
329.1
 31
0.0
  0
LINE
  8
L-ZISSEN
 10
300.5
 20
298.0
 30
0.0
 11
300.5
 21
324.0
 31
0.0
  0
LINE
  8
L-ZISSEN
 10
246.5
 20
325.5
 30
0.0
 11
298.5
 21
325.5
 31
0.0
  0
LINE
  8
L-ZISSEN
 10
244.5
 20
324.0
 30
0.0
 11
300.5
 21
324.0
 31
0.0
  0
LINE
  8
L-ZISSEN
 10
244.5
 20
298.0
 30
0.0
 11
244.5
 21
324.0
 31
0.0
  0
LINE
  8
L-ZISSEN
 10
246.5
 20
316.0
 30
0.0
 11
298.5
 21
316.0
 31
0.0
  0
LINE
  8
L-ZISSEN
 10
246.5
 20
259.0
 30
0.0
 11
246.5
 21
325.5
 31
0.0
  0
LINE
  8
L-ZISSEN
  6
CONTINUOUS
 62
     7
 10
128.5
 20
325.5
 30
0.0
 11
128.5
 21
329.1
 31
0.0
  0
LINE
  8
L-ZISSEN
  6
CONTINUOUS
 62
     7
 10
135.5
 20
325.5
 30
0.0
 11
135.5
 21
329.1
 31
0.0
  0
LINE
  8
L-ZISSEN
  6
CONTINUOUS
 62
     7
 10
135.5
 20
329.1
 30
0.0
 11
128.5
 21
329.1
 31
0.0
  0
CIRCLE
  8
L-ZISSEN
 10
270.0
 20
200.0
 30
0.0
 40
15.1455
  0
LINE
  8
L-ZISSEN
 10
907.3
 20
709.0
 30
0.0
 11
907.3
 21
671.0
 31
0.0
  0
LINE
  8
L-ZISSEN
 10
917.9
 20
716.0
 30
0.0
 11
917.9
 21
664.0
 31
0.0
  0
LINE
  8
L-ZISSEN
 10
913.25718
 20
709.0
 30
0.0
 11
907.3
 21
709.0
 31
0.0
  0
LINE
  8
L-ZISSEN
 10
913.25718
 20
671.0
 30
0.0
 11
907.3
 21
671.0
 31
0.0
  0
LINE
  8
L-ZISSEN
 10
913.25718
 20
714.49995
 30
0.0
 11
917.9
 21
714.49995
 31
0.0
  0
LINE
  8
L-ZISSEN
 10
907.3
 20
701.0
 30
0.0
 11
906.3
 21
701.0
 31
0.0
  0
LINE
  8
L-ZISSEN
 10
906.3
 20
679.0
 30
0.0
 11
907.3
 21
679.0
 31
0.0
  0
LINE
  8
L-ZISSEN
 10
906.3
 20
701.0
 30
0.0
 11
906.3
 21
679.0
 31
0.0
  0
LINE
  8
L-ZISSEN
 10
913.25718
 20
705.50005
 30
0.0
 11
913.25718
 21
714.49995
 31
0.0
  0
LINE
  8
L-ZISSEN
 10
913.25718
 20
705.50005
 30
0.0
 11
917.9
 21
705.50005
 31
0.0
  0
LINE
  8
L-ZISSEN
 10
913.25718
 20
674.49995
 30
0.0
 11
917.9
 21
674.49995
 31
0.0
  0
LINE
  8
L-ZISSEN
 10
913.25718
 20
674.49995
 30
0.0
 11
913.25718
 21
665.50005
 31
0.0
  0
LINE
  8
L-ZISSEN
 10
913.25718
 20
665.50005
 30
0.0
 11
917.9
 21
665.50005
 31
0.0
  0
LINE
  8
L-ZISSEN
  6
CONTINUOUS
 62
     7
 10
989.9
 20
664.0
 30
0.0
 11
989.9
 21
716.0
 31
0.0
  0
LINE
  8
L-ZISSEN
 10
992.0
 20
664.0
 30
0.0
 11
992.0
 21
716.0
 31
0.0
  0
LINE
  8
L-ZISSEN
  6
CONTINUOUS
 62
     7
 10
989.9
 20
574.0
 30
0.0
 11
989.9
 21
626.0
 31
0.0
  0
LINE
  8
L-ZISSEN
 10
913.25718
 20
575.50005
 30
0.0
 11
917.9
 21
575.50005
 31
0.0
  0
LINE
  8
L-ZISSEN
 10
913.25718
 20
584.49995
 30
0.0
 11
913.25718
 21
575.50005
 31
0.0
  0
LINE
  8
L-ZISSEN
 10
913.25718
 20
584.49995
 30
0.0
 11
917.9
 21
584.49995
 31
0.0
  0
LINE
  8
L-ZISSEN
 10
913.25718
 20
615.50005
 30
0.0
 11
917.9
 21
615.50005
 31
0.0
  0
LINE
  8
L-ZISSEN
 10
913.25718
 20
615.50005
 30
0.0
 11
913.25718
 21
624.49995
 31
0.0
  0
LINE
  8
L-ZISSEN
  6
CONTINUOUS
 62
     7
 10
989.9
 20
574.0
 30
0.0
 11
989.9
 21
626.0
 31
0.0
  0
LINE
  8
L-ZISSEN
 10
906.3
 20
611.0
 30
0.0
 11
906.3
 21
589.0
 31
0.0
  0
LINE
  8
L-ZISSEN
 10
906.3
 20
589.0
 30
0.0
 11
907.3
 21
589.0
 31
0.0
  0
LINE
  8
L-ZISSEN
 10
907.3
 20
611.0
 30
0.0
 11
906.3
 21
611.0
 31
0.0
  0
LINE
  8
L-ZISSEN
 10
913.25718
 20
624.49995
 30
0.0
 11
917.9
 21
624.49995
 31
0.0
  0
LINE
  8
L-ZISSEN
 10
913.25718
 20
581.0
 30
0.0
 11
907.3
 21
581.0
 31
0.0
  0
LINE
  8
L-ZISSEN
 10
913.25718
 20
619.0
 30
0.0
 11
907.3
 21
619.0
 31
0.0
  0
LINE
  8
L-ZISSEN
 10
992.0
 20
626.0
 30
0.0
 11
917.9
 21
626.0
 31
0.0
  0
LINE
  8
L-ZISSEN
 10
917.9
 20
626.0
 30
0.0
 11
917.9
 21
574.0
 31
0.0
  0
LINE
  8
L-ZISSEN
 10
907.3
 20
619.0
 30
0.0
 11
907.3
 21
581.0
 31
0.0
  0
CIRCLE
  8
L-ZISSEN
 10
1058.0
 20
668.0
 30
0.0
 40
3.5
  0
CIRCLE
  8
L-ZISSEN
 10
996.0
 20
668.0
 30
0.0
 40
3.5
  0
CIRCLE
  8
L-ZISSEN
 10
996.0
 20
712.0
 30
0.0
 40
3.5
  0
CIRCLE
  8
L-ZISSEN
 10
1058.0
 20
712.0
 30
0.0
 40
3.5
  0
LINE
  8
L-TYUSIN
 10
535.0
 20
790.0
 30
0.0
 11
1545.0
 21
790.0
 31
0.0
  0
LINE
  8
L-TYUSIN
 10
1295.0
 20
1040.0
 30
0.0
 11
1295.0
 21
40.0
 31
0.0
  0
CIRCLE
  8
L-ZISSEN
 10
1058.0
 20
462.0
 30
0.0
 40
3.5
  0
CIRCLE
  8
L-ZISSEN
 10
996.0
 20
462.0
 30
0.0
 40
3.5
  0
CIRCLE
  8
L-ZISSEN
 10
996.0
 20
418.0
 30
0.0
 40
3.5
  0
CIRCLE
  8
L-ZISSEN
 10
1058.0
 20
418.0
 30
0.0
 40
3.5
  0
LINE
  8
L-ZISSEN
  6
CONTINUOUS
 62
     7
 10
989.9
 20
324.0
 30
0.0
 11
989.9
 21
376.0
 31
0.0
  0
LINE
  8
L-ZISSEN
  6
CONTINUOUS
 62
     7
 10
989.9
 20
324.0
 30
0.0
 11
989.9
 21
376.0
 31
0.0
  0
LINE
  8
L-ZISSEN
 10
992.0
 20
414.0
 30
0.0
 11
992.0
 21
466.0
 31
0.0
  0
LINE
  8
L-ZISSEN
  6
CONTINUOUS
 62
     7
 10
989.9
 20
414.0
 30
0.0
 11
989.9
 21
466.0
 31
0.0
  0
LINE
  8
L-TYUSIN
 10
535.0
 20
290.0
 30
0.0
 11
1295.0
 21
290.0
 31
0.0
  0
LINE
  8
L-ZISSEN
 10
1204.0
 20
324.0
 30
0.0
 11
1256.0
 21
324.0
 31
0.0
  0
LINE
  8
L-ZISSEN
 10
1204.0
 20
324.0
 30
0.0
 11
1204.0
 21
385.5
 31
0.0
  0
LINE
  8
L-ZISSEN
 10
1204.0
 20
376.0
 30
0.0
 11
1256.0
 21
376.0
 31
0.0
  0
LINE
  8
L-ZISSEN
 10
1202.0
 20
358.0
 30
0.0
 11
1202.0
 21
384.0
 31
0.0
  0
LINE
  8
L-ZISSEN
 10
1256.0
 20
385.5
 30
0.0
 11
1256.0
 21
324.0
 31
0.0
  0
LINE
  8
L-ZISSEN
 10
1202.0
 20
384.0
 30
0.0
 11
1258.0
 21
384.0
 31
0.0
  0
LINE
  8
L-ZISSEN
 10
1204.0
 20
385.5
 30
0.0
 11
1256.0
 21
385.5
 31
0.0
  0
LINE
  8
L-ZISSEN
 10
1258.0
 20
358.0
 30
0.0
 11
1258.0
 21
384.0
 31
0.0
  0
LINE
  8
L-ZISSEN
  6
CONTINUOUS
 62
     7
 10
1204.5
 20
385.5
 30
0.0
 11
1204.5
 21
389.1
 31
0.0
  0
LINE
  8
L-ZISSEN
  6
CONTINUOUS
 62
     7
 10
1211.5
 20
385.5
 30
0.0
 11
1211.5
 21
389.1
 31
0.0
  0
LINE
  8
L-ZISSEN
  6
CONTINUOUS
 62
     7
 10
1211.5
 20
389.1
 30
0.0
 11
1204.5
 21
389.1
 31
0.0
  0
LINE
  8
L-ZISSEN
 10
1202.0
 20
358.0
 30
0.0
 11
1204.0
 21
358.0
 31
0.0
  0
LINE
  8
L-ZISSEN
 10
1256.0
 20
358.0
 30
0.0
 11
1258.0
 21
358.0
 31
0.0
  0
LINE
  8
L-ZISSEN
  6
CONTINUOUS
 62
     7
 10
1248.5
 20
389.1
 30
0.0
 11
1255.5
 21
389.1
 31
0.0
  0
LINE
  8
L-ZISSEN
  6
CONTINUOUS
 62
     7
 10
1248.5
 20
385.5
 30
0.0
 11
1248.5
 21
389.1
 31
0.0
  0
LINE
  8
L-ZISSEN
  6
CONTINUOUS
 62
     7
 10
1255.5
 20
385.5
 30
0.0
 11
1255.5
 21
389.1
 31
0.0
  0
LINE
  8
L-ZISSEN
 10
1014.0
 20
468.0
 30
0.0
 11
1014.0
 21
466.0
 31
0.0
  0
LINE
  8
L-ZISSEN
 10
1040.0
 20
468.0
 30
0.0
 11
1014.0
 21
468.0
 31
0.0
  0
LINE
  8
L-ZISSEN
 10
1040.0
 20
468.0
 30
0.0
 11
1040.0
 21
466.0
 31
0.0
  0
LINE
  8
L-ZISSEN
 10
1074.1
 20
466.0
 30
0.0
 11
979.9
 21
466.0
 31
0.0
  0
LINE
  8
L-ZISSEN
 10
1040.0
 20
412.0
 30
0.0
 11
1040.0
 21
414.0
 31
0.0
  0
LINE
  8
L-ZISSEN
 10
1040.0
 20
412.0
 30
0.0
 11
1014.0
 21
412.0
 31
0.0
  0
LINE
  8
L-ZISSEN
 10
1014.0
 20
412.0
 30
0.0
 11
1014.0
 21
414.0
 31
0.0
  0
LINE
  8
L-ZISSEN
  6
CONTINUOUS
 62
     7
 10
1064.1
 20
414.0
 30
0.0
 11
1064.1
 21
466.0
 31
0.0
  0
LINE
  8
L-ZISSEN
 10
1062.0
 20
414.0
 30
0.0
 11
1062.0
 21
466.0
 31
0.0
  0
LINE
  8
L-ZISSEN
 10
1074.1
 20
414.0
 30
0.0
 11
979.9
 21
414.0
 31
0.0
  0
LINE
  8
L-ZISSEN
  6
CONTINUOUS
 62
     7
 10
1061.9
 20
384.0
 30
0.0
 11
992.0
 21
384.0
 31
0.0
  0
LINE
  8
L-ZISSEN
  6
CONTINUOUS
 62
     7
 10
1062.0
 20
385.5
 30
0.0
 11
1062.0
 21
376.0
 31
0.0
  0
LINE
  8
L-ZISSEN
  6
CONTINUOUS
 62
     7
 10
992.0
 20
385.5
 30
0.0
 11
1061.9
 21
385.5
 31
0.0
  0
LINE
  8
L-ZISSEN
  6
CONTINUOUS
 62
     7
 10
1064.1
 20
324.0
 30
0.0
 11
1064.1
 21
376.0
 31
0.0
  0
ARC
  8
L-ZISSEN
  6
CONTINUOUS
 62
     7
 10
1027.0
 20
371.0
 30
0.0
 40
13.0
 50
125.234418
 51
54.765582
  0
LINE
  8
L-ZISSEN
  6
CONTINUOUS
 62
     7
 10
1034.5
 20
384.0
 30
0.0
 11
1034.5
 21
381.618381
 31
0.0
  0
LINE
  8
L-ZISSEN
  6
CONTINUOUS
 62
     7
 10
1019.5
 20
384.0
 30
0.0
 11
1019.5
 21
381.618381
 31
0.0
  0
LINE
  8
L-ZISSEN
  6
CONTINUOUS
 62
     7
 10
1054.5
 20
389.1
 30
0.0
 11
1061.5
 21
389.1
 31
0.0
  0
LINE
  8
L-ZISSEN
  6
CONTINUOUS
 62
     7
 10
1054.5
 20
385.5
 30
0.0
 11
1054.5
 21
389.1
 31
0.0
  0
LINE
  8
L-ZISSEN
  6
CONTINUOUS
 62
     7
 10
1061.5
 20
385.5
 30
0.0
 11
1061.5
 21
389.1
 31
0.0
  0
LINE
  8
L-ZISSEN
  6
CONTINUOUS
 62
     7
 10
992.0
 20
385.5
 30
0.0
 11
992.0
 21
376.0
 31
0.0
  0
LINE
  8
L-ZISSEN
  6
CONTINUOUS
 62
     7
 10
992.5
 20
385.5
 30
0.0
 11
992.5
 21
389.1
 31
0.0
  0
LINE
  8
L-ZISSEN
  6
CONTINUOUS
 62
     7
 10
999.5
 20
385.5
 30
0.0
 11
999.5
 21
389.1
 31
0.0
  0
LINE
  8
L-ZISSEN
  6
CONTINUOUS
 62
     7
 10
999.5
 20
389.1
 30
0.0
 11
992.5
 21
389.1
 31
0.0
  0
CIRCLE
  8
L-ZISSEN
 10
1027.0
 20
371.0
 30
0.0
 40
9.3155
  0
LINE
  8
L-ZISSEN
  6
CONTINUOUS
 62
     7
 10
1064.1
 20
324.0
 30
0.0
 11
1064.1
 21
376.0
 31
0.0
  0
LINE
  8
L-ZISSEN
 10
979.9
 20
324.0
 30
0.0
 11
1074.1
 21
324.0
 31
0.0
  0
LINE
  8
L-ZISSEN
 10
1062.0
 20
376.0
 30
0.0
 11
1074.1
 21
376.0
 31
0.0
  0
LINE
  8
L-ZISSEN
  6
CONTINUOUS
 62
     7
 10
1074.1
 20
324.0
 30
0.0
 11
1120.1
 21
325.606356
 31
0.0
  0
LINE
  8
L-ZISSEN
  6
CONTINUOUS
 62
     7
 10
1120.1
 20
325.606356
 30
0.0
 11
1120.1
 21
374.393644
 31
0.0
  0
LINE
  8
L-ZISSEN
 10
1120.1
 20
361.0
 30
0.0
 11
1133.1
 21
361.0
 31
0.0
  0
LINE
  8
L-ZISSEN
  6
CONTINUOUS
 62
     7
 10
1133.1
 20
359.0
 30
0.0
 11
1139.1
 21
359.0
 31
0.0
  0
LINE
  8
L-ZISSEN
  6
CONTINUOUS
 62
     7
 10
1139.1
 20
357.25
 30
0.0
 11
1146.1
 21
357.25
 31
0.0
  0
LINE
  8
L-ZISSEN
 10
1120.1
 20
339.0
 30
0.0
 11
1133.1
 21
339.0
 31
0.0
  0
LINE
  8
L-ZISSEN
  6
CONTINUOUS
 62
     7
 10
1139.1
 20
359.0
 30
0.0
 11
1139.1
 21
341.0
 31
0.0
  0
LINE
  8
L-ZISSEN
  6
CONTINUOUS
 62
     7
 10
1133.1
 20
341.0
 30
0.0
 11
1139.1
 21
341.0
 31
0.0
  0
LINE
  8
L-ZISSEN
  6
CONTINUOUS
 62
     7
 10
1139.1
 20
342.75
 30
0.0
 11
1146.1
 21
342.75
 31
0.0
  0
LINE
  8
L-ZISSEN
  6
CONTINUOUS
 62
     7
 10
1146.1
 20
357.25
 30
0.0
 11
1146.1
 21
342.75
 31
0.0
  0
LINE
  8
L-ZISSEN
  6
CONTINUOUS
 62
     7
 10
1133.1
 20
361.0
 30
0.0
 11
1133.1
 21
339.0
 31
0.0
  0
LINE
  8
L-ZISSEN
  6
CONTINUOUS
 62
     7
 10
1074.1
 20
376.0
 30
0.0
 11
1120.1
 21
374.393644
 31
0.0
  0
CIRCLE
  8
L-ZISSEN
 10
1230.0
 20
350.0
 30
0.0
 40
7.25
  0
CIRCLE
  8
L-ZISSEN
 10
1230.0
 20
350.0
 30
0.0
 40
9.0
  0
CIRCLE
  8
L-ZISSEN
 10
1230.0
 20
350.0
 30
0.0
 40
11.0
  0
LINE
  8
L-ZISSEN
  6
CONTINUOUS
 62
     7
 10
979.9
 20
376.0
 30
0.0
 11
933.9
 21
374.393644
 31
0.0
  0
LINE
  8
L-ZISSEN
  6
CONTINUOUS
 62
     7
 10
920.9
 20
361.0
 30
0.0
 11
920.9
 21
339.0
 31
0.0
  0
LINE
  8
L-ZISSEN
  6
CONTINUOUS
 62
     7
 10
907.9
 20
357.25
 30
0.0
 11
907.9
 21
342.75
 31
0.0
  0
LINE
  8
L-ZISSEN
  6
CONTINUOUS
 62
     7
 10
914.9
 20
342.75
 30
0.0
 11
907.9
 21
342.75
 31
0.0
  0
LINE
  8
L-ZISSEN
  6
CONTINUOUS
 62
     7
 10
920.9
 20
341.0
 30
0.0
 11
914.9
 21
341.0
 31
0.0
  0
LINE
  8
L-ZISSEN
  6
CONTINUOUS
 62
     7
 10
914.9
 20
359.0
 30
0.0
 11
914.9
 21
341.0
 31
0.0
  0
LINE
  8
L-ZISSEN
 10
933.9
 20
339.0
 30
0.0
 11
920.9
 21
339.0
 31
0.0
  0
LINE
  8
L-ZISSEN
  6
CONTINUOUS
 62
     7
 10
914.9
 20
357.25
 30
0.0
 11
907.9
 21
357.25
 31
0.0
  0
LINE
  8
L-ZISSEN
  6
CONTINUOUS
 62
     7
 10
920.9
 20
359.0
 30
0.0
 11
914.9
 21
359.0
 31
0.0
  0
LINE
  8
L-ZISSEN
 10
933.9
 20
361.0
 30
0.0
 11
920.9
 21
361.0
 31
0.0
  0
LINE
  8
L-ZISSEN
  6
CONTINUOUS
 62
     7
 10
933.9
 20
325.606356
 30
0.0
 11
933.9
 21
374.393644
 31
0.0
  0
LINE
  8
L-ZISSEN
  6
CONTINUOUS
 62
     7
 10
979.9
 20
324.0
 30
0.0
 11
933.9
 21
325.606356
 31
0.0
  0
LINE
  8
L-ZISSEN
 10
992.0
 20
376.0
 30
0.0
 11
979.9
 21
376.0
 31
0.0
  0
LINE
  8
L-ZISSEN
  6
CONTINUOUS
 62
     7
 10
989.9
 20
324.0
 30
0.0
 11
989.9
 21
376.0
 31
0.0
  0
LINE
  8
L-ZISSEN
  6
CONTINUOUS
 62
     7
 10
989.9
 20
324.0
 30
0.0
 11
989.9
 21
376.0
 31
0.0
  0
LINE
  8
L-ZISSEN
  6
CONTINUOUS
 62
     7
 10
1074.1
 20
466.0
 30
0.0
 11
1120.1
 21
464.393644
 31
0.0
  0
LINE
  8
L-ZISSEN
  6
CONTINUOUS
 62
     7
 10
1133.1
 20
451.0
 30
0.0
 11
1133.1
 21
429.0
 31
0.0
  0
LINE
  8
L-ZISSEN
  6
CONTINUOUS
 62
     7
 10
1146.1
 20
447.25
 30
0.0
 11
1146.1
 21
432.75
 31
0.0
  0
LINE
  8
L-ZISSEN
  6
CONTINUOUS
 62
     7
 10
1139.1
 20
432.75
 30
0.0
 11
1146.1
 21
432.75
 31
0.0
  0
LINE
  8
L-ZISSEN
  6
CONTINUOUS
 62
     7
 10
1133.1
 20
431.0
 30
0.0
 11
1139.1
 21
431.0
 31
0.0
  0
LINE
  8
L-ZISSEN
  6
CONTINUOUS
 62
     7
 10
1139.1
 20
449.0
 30
0.0
 11
1139.1
 21
431.0
 31
0.0
  0
LINE
  8
L-ZISSEN
 10
1120.1
 20
429.0
 30
0.0
 11
1133.1
 21
429.0
 31
0.0
  0
LINE
  8
L-ZISSEN
  6
CONTINUOUS
 62
     7
 10
1139.1
 20
447.25
 30
0.0
 11
1146.1
 21
447.25
 31
0.0
  0
LINE
  8
L-ZISSEN
  6
CONTINUOUS
 62
     7
 10
1133.1
 20
449.0
 30
0.0
 11
1139.1
 21
449.0
 31
0.0
  0
LINE
  8
L-ZISSEN
 10
1120.1
 20
451.0
 30
0.0
 11
1133.1
 21
451.0
 31
0.0
  0
LINE
  8
L-ZISSEN
  6
CONTINUOUS
 62
     7
 10
1120.1
 20
415.606356
 30
0.0
 11
1120.1
 21
464.393644
 31
0.0
  0
LINE
  8
L-ZISSEN
  6
CONTINUOUS
 62
     7
 10
1074.1
 20
414.0
 30
0.0
 11
1120.1
 21
415.606356
 31
0.0
  0
LINE
  8
L-ZISSEN
  6
CONTINUOUS
 62
     7
 10
979.9
 20
414.0
 30
0.0
 11
933.9
 21
415.606356
 31
0.0
  0
LINE
  8
L-ZISSEN
  6
CONTINUOUS
 62
     7
 10
933.9
 20
415.606356
 30
0.0
 11
933.9
 21
464.393644
 31
0.0
  0
LINE
  8
L-ZISSEN
 10
933.9
 20
451.0
 30
0.0
 11
920.9
 21
451.0
 31
0.0
  0
LINE
  8
L-ZISSEN
  6
CONTINUOUS
 62
     7
 10
920.9
 20
449.0
 30
0.0
 11
914.9
 21
449.0
 31
0.0
  0
LINE
  8
L-ZISSEN
  6
CONTINUOUS
 62
     7
 10
914.9
 20
447.25
 30
0.0
 11
907.9
 21
447.25
 31
0.0
  0
LINE
  8
L-ZISSEN
 10
933.9
 20
429.0
 30
0.0
 11
920.9
 21
429.0
 31
0.0
  0
LINE
  8
L-ZISSEN
  6
CONTINUOUS
 62
     7
 10
914.9
 20
449.0
 30
0.0
 11
914.9
 21
431.0
 31
0.0
  0
LINE
  8
L-ZISSEN
  6
CONTINUOUS
 62
     7
 10
920.9
 20
431.0
 30
0.0
 11
914.9
 21
431.0
 31
0.0
  0
LINE
  8
L-ZISSEN
  6
CONTINUOUS
 62
     7
 10
914.9
 20
432.75
 30
0.0
 11
907.9
 21
432.75
 31
0.0
  0
LINE
  8
L-ZISSEN
  6
CONTINUOUS
 62
     7
 10
907.9
 20
447.25
 30
0.0
 11
907.9
 21
432.75
 31
0.0
  0
LINE
  8
L-ZISSEN
  6
CONTINUOUS
 62
     7
 10
920.9
 20
451.0
 30
0.0
 11
920.9
 21
429.0
 31
0.0
  0
LINE
  8
L-ZISSEN
  6
CONTINUOUS
 62
     7
 10
979.9
 20
466.0
 30
0.0
 11
933.9
 21
464.393644
 31
0.0
  0
CIRCLE
  8
L-ZISSEN
 10
1058.0
 20
212.0
 30
0.0
 40
3.5
  0
CIRCLE
  8
L-ZISSEN
 10
996.0
 20
212.0
 30
0.0
 40
3.5
  0
CIRCLE
  8
L-ZISSEN
 10
996.0
 20
168.0
 30
0.0
 40
3.5
  0
CIRCLE
  8
L-ZISSEN
 10
1058.0
 20
168.0
 30
0.0
 40
3.5
  0
LINE
  8
L-ZISSEN
 10
907.3
 20
119.0
 30
0.0
 11
907.3
 21
81.0
 31
0.0
  0
LINE
  8
L-ZISSEN
 10
917.9
 20
126.0
 30
0.0
 11
917.9
 21
74.0
 31
0.0
  0
LINE
  8
L-ZISSEN
 10
992.0
 20
126.0
 30
0.0
 11
917.9
 21
126.0
 31
0.0
  0
LINE
  8
L-ZISSEN
 10
913.25718
 20
119.0
 30
0.0
 11
907.3
 21
119.0
 31
0.0
  0
LINE
  8
L-ZISSEN
 10
913.25718
 20
81.0
 30
0.0
 11
907.3
 21
81.0
 31
0.0
  0
LINE
  8
L-ZISSEN
 10
913.25718
 20
124.49995
 30
0.0
 11
917.9
 21
124.49995
 31
0.0
  0
LINE
  8
L-ZISSEN
  6
CONTINUOUS
 62
     7
 10
989.9
 20
74.0
 30
0.0
 11
989.9
 21
126.0
 31
0.0
  0
LINE
  8
L-ZISSEN
 10
913.25718
 20
115.50005
 30
0.0
 11
913.25718
 21
124.49995
 31
0.0
  0
LINE
  8
L-ZISSEN
 10
913.25718
 20
115.50005
 30
0.0
 11
917.9
 21
115.50005
 31
0.0
  0
LINE
  8
L-ZISSEN
 10
913.25718
 20
84.49995
 30
0.0
 11
917.9
 21
84.49995
 31
0.0
  0
LINE
  8
L-ZISSEN
 10
913.25718
 20
84.49995
 30
0.0
 11
913.25718
 21
75.50005
 31
0.0
  0
LINE
  8
L-ZISSEN
 10
913.25718
 20
75.50005
 30
0.0
 11
917.9
 21
75.50005
 31
0.0
  0
LINE
  8
L-ZISSEN
  6
CONTINUOUS
 62
     7
 10
989.9
 20
74.0
 30
0.0
 11
989.9
 21
126.0
 31
0.0
  0
LINE
  8
L-ZISSEN
 10
992.0
 20
164.0
 30
0.0
 11
992.0
 21
216.0
 31
0.0
  0
LINE
  8
L-ZISSEN
  6
CONTINUOUS
 62
     7
 10
989.9
 20
164.0
 30
0.0
 11
989.9
 21
216.0
 31
0.0
  0
LINE
  8
L-ZISSEN
 10
913.25718
 20
165.50005
 30
0.0
 11
917.9
 21
165.50005
 31
0.0
  0
LINE
  8
L-ZISSEN
 10
913.25718
 20
174.49995
 30
0.0
 11
913.25718
 21
165.50005
 31
0.0
  0
LINE
  8
L-ZISSEN
 10
913.25718
 20
174.49995
 30
0.0
 11
917.9
 21
174.49995
 31
0.0
  0
LINE
  8
L-ZISSEN
 10
913.25718
 20
205.50005
 30
0.0
 11
917.9
 21
205.50005
 31
0.0
  0
LINE
  8
L-ZISSEN
 10
913.25718
 20
205.50005
 30
0.0
 11
913.25718
 21
214.49995
 31
0.0
  0
LINE
  8
L-ZISSEN
 10
913.25718
 20
214.49995
 30
0.0
 11
917.9
 21
214.49995
 31
0.0
  0
LINE
  8
L-ZISSEN
 10
913.25718
 20
171.0
 30
0.0
 11
907.3
 21
171.0
 31
0.0
  0
LINE
  8
L-ZISSEN
 10
913.25718
 20
209.0
 30
0.0
 11
907.3
 21
209.0
 31
0.0
  0
LINE
  8
L-ZISSEN
 10
917.9
 20
216.0
 30
0.0
 11
917.9
 21
164.0
 31
0.0
  0
LINE
  8
L-ZISSEN
 10
907.3
 20
209.0
 30
0.0
 11
907.3
 21
171.0
 31
0.0
  0
CIRCLE
  8
L-ZISSEN
 10
1250.0
 20
80.0
 30
0.0
 40
4.49995
  0
CIRCLE
  8
L-ZISSEN
 10
1210.0
 20
80.0
 30
0.0
 40
4.49995
  0
CIRCLE
  8
L-ZISSEN
 10
1250.0
 20
120.0
 30
0.0
 40
4.49995
  0
CIRCLE
  8
L-ZISSEN
 10
1210.0
 20
120.0
 30
0.0
 40
4.49995
  0
CIRCLE
  8
L-ZISSEN
 10
1230.0
 20
100.0
 30
0.0
 40
19.0
  0
LINE
  8
L-ZISSEN
 10
1204.0
 20
74.0
 30
0.0
 11
1256.0
 21
74.0
 31
0.0
  0
LINE
  8
L-ZISSEN
 10
1204.0
 20
74.0
 30
0.0
 11
1204.0
 21
135.5
 31
0.0
  0
LINE
  8
L-ZISSEN
 10
1204.0
 20
126.0
 30
0.0
 11
1256.0
 21
126.0
 31
0.0
  0
LINE
  8
L-ZISSEN
 10
1202.0
 20
108.0
 30
0.0
 11
1202.0
 21
134.0
 31
0.0
  0
LINE
  8
L-ZISSEN
 10
1256.0
 20
135.5
 30
0.0
 11
1256.0
 21
74.0
 31
0.0
  0
LINE
  8
L-ZISSEN
 10
1202.0
 20
134.0
 30
0.0
 11
1258.0
 21
134.0
 31
0.0
  0
LINE
  8
L-ZISSEN
 10
1204.0
 20
135.5
 30
0.0
 11
1256.0
 21
135.5
 31
0.0
  0
LINE
  8
L-ZISSEN
 10
1258.0
 20
108.0
 30
0.0
 11
1258.0
 21
134.0
 31
0.0
  0
LINE
  8
L-ZISSEN
  6
CONTINUOUS
 62
     7
 10
1204.5
 20
135.5
 30
0.0
 11
1204.5
 21
139.1
 31
0.0
  0
LINE
  8
L-ZISSEN
  6
CONTINUOUS
 62
     7
 10
1211.5
 20
135.5
 30
0.0
 11
1211.5
 21
139.1
 31
0.0
  0
LINE
  8
L-ZISSEN
  6
CONTINUOUS
 62
     7
 10
1211.5
 20
139.1
 30
0.0
 11
1204.5
 21
139.1
 31
0.0
  0
LINE
  8
L-ZISSEN
 10
1202.0
 20
108.0
 30
0.0
 11
1204.0
 21
108.0
 31
0.0
  0
LINE
  8
L-ZISSEN
 10
1256.0
 20
108.0
 30
0.0
 11
1258.0
 21
108.0
 31
0.0
  0
LINE
  8
L-ZISSEN
  6
CONTINUOUS
 62
     7
 10
1248.5
 20
139.1
 30
0.0
 11
1255.5
 21
139.1
 31
0.0
  0
LINE
  8
L-ZISSEN
  6
CONTINUOUS
 62
     7
 10
1248.5
 20
135.5
 30
0.0
 11
1248.5
 21
139.1
 31
0.0
  0
LINE
  8
L-ZISSEN
  6
CONTINUOUS
 62
     7
 10
1255.5
 20
135.5
 30
0.0
 11
1255.5
 21
139.1
 31
0.0
  0
LINE
  8
L-ZISSEN
 10
1146.7
 20
209.0
 30
0.0
 11
1146.7
 21
171.0
 31
0.0
  0
LINE
  8
L-ZISSEN
 10
1136.1
 20
216.0
 30
0.0
 11
1136.1
 21
164.0
 31
0.0
  0
LINE
  8
L-ZISSEN
 10
1140.74282
 20
209.0
 30
0.0
 11
1146.7
 21
209.0
 31
0.0
  0
LINE
  8
L-ZISSEN
 10
1140.74282
 20
171.0
 30
0.0
 11
1146.7
 21
171.0
 31
0.0
  0
LINE
  8
L-ZISSEN
 10
1140.74282
 20
214.49995
 30
0.0
 11
1136.1
 21
214.49995
 31
0.0
  0
LINE
  8
L-ZISSEN
 10
1140.74282
 20
205.50005
 30
0.0
 11
1140.74282
 21
214.49995
 31
0.0
  0
LINE
  8
L-ZISSEN
 10
1140.74282
 20
205.50005
 30
0.0
 11
1136.1
 21
205.50005
 31
0.0
  0
LINE
  8
L-ZISSEN
 10
1140.74282
 20
174.49995
 30
0.0
 11
1136.1
 21
174.49995
 31
0.0
  0
LINE
  8
L-ZISSEN
 10
1140.74282
 20
174.49995
 30
0.0
 11
1140.74282
 21
165.50005
 31
0.0
  0
LINE
  8
L-ZISSEN
 10
1140.74282
 20
165.50005
 30
0.0
 11
1136.1
 21
165.50005
 31
0.0
  0
LINE
  8
L-ZISSEN
 10
1014.0
 20
218.0
 30
0.0
 11
1014.0
 21
216.0
 31
0.0
  0
LINE
  8
L-ZISSEN
 10
1040.0
 20
218.0
 30
0.0
 11
1014.0
 21
218.0
 31
0.0
  0
LINE
  8
L-ZISSEN
 10
1040.0
 20
218.0
 30
0.0
 11
1040.0
 21
216.0
 31
0.0
  0
LINE
  8
L-ZISSEN
 10
1136.1
 20
216.0
 30
0.0
 11
917.9
 21
216.0
 31
0.0
  0
LINE
  8
L-ZISSEN
 10
1040.0
 20
162.0
 30
0.0
 11
1040.0
 21
164.0
 31
0.0
  0
LINE
  8
L-ZISSEN
 10
1040.0
 20
162.0
 30
0.0
 11
1014.0
 21
162.0
 31
0.0
  0
LINE
  8
L-ZISSEN
 10
1014.0
 20
162.0
 30
0.0
 11
1014.0
 21
164.0
 31
0.0
  0
LINE
  8
L-ZISSEN
  6
CONTINUOUS
 62
     7
 10
1064.1
 20
164.0
 30
0.0
 11
1064.1
 21
216.0
 31
0.0
  0
LINE
  8
L-ZISSEN
 10
1062.0
 20
164.0
 30
0.0
 11
1062.0
 21
216.0
 31
0.0
  0
LINE
  8
L-ZISSEN
 10
1136.1
 20
164.0
 30
0.0
 11
917.9
 21
164.0
 31
0.0
  0
LINE
  8
L-ZISSEN
  6
CONTINUOUS
 62
     7
 10
1061.9
 20
134.0
 30
0.0
 11
992.0
 21
134.0
 31
0.0
  0
LINE
  8
L-ZISSEN
  6
CONTINUOUS
 62
     7
 10
1062.0
 20
135.5
 30
0.0
 11
1062.0
 21
126.0
 31
0.0
  0
LINE
  8
L-ZISSEN
  6
CONTINUOUS
 62
     7
 10
992.0
 20
135.5
 30
0.0
 11
1061.9
 21
135.5
 31
0.0
  0
LINE
  8
L-ZISSEN
  6
CONTINUOUS
 62
     7
 10
1064.1
 20
74.0
 30
0.0
 11
1064.1
 21
126.0
 31
0.0
  0
ARC
  8
L-ZISSEN
  6
CONTINUOUS
 62
     7
 10
1027.0
 20
121.0
 30
0.0
 40
13.0
 50
125.234418
 51
54.765582
  0
LINE
  8
L-ZISSEN
  6
CONTINUOUS
 62
     7
 10
1034.5
 20
134.0
 30
0.0
 11
1034.5
 21
131.618381
 31
0.0
  0
LINE
  8
L-ZISSEN
  6
CONTINUOUS
 62
     7
 10
1019.5
 20
134.0
 30
0.0
 11
1019.5
 21
131.618381
 31
0.0
  0
LINE
  8
L-ZISSEN
  6
CONTINUOUS
 62
     7
 10
1054.5
 20
139.1
 30
0.0
 11
1061.5
 21
139.1
 31
0.0
  0
LINE
  8
L-ZISSEN
  6
CONTINUOUS
 62
     7
 10
1054.5
 20
135.5
 30
0.0
 11
1054.5
 21
139.1
 31
0.0
  0
LINE
  8
L-ZISSEN
  6
CONTINUOUS
 62
     7
 10
1061.5
 20
135.5
 30
0.0
 11
1061.5
 21
139.1
 31
0.0
  0
LINE
  8
L-ZISSEN
  6
CONTINUOUS
 62
     7
 10
992.0
 20
135.5
 30
0.0
 11
992.0
 21
126.0
 31
0.0
  0
LINE
  8
L-ZISSEN
  6
CONTINUOUS
 62
     7
 10
992.5
 20
135.5
 30
0.0
 11
992.5
 21
139.1
 31
0.0
  0
LINE
  8
L-ZISSEN
  6
CONTINUOUS
 62
     7
 10
999.5
 20
135.5
 30
0.0
 11
999.5
 21
139.1
 31
0.0
  0
LINE
  8
L-ZISSEN
  6
CONTINUOUS
 62
     7
 10
999.5
 20
139.1
 30
0.0
 11
992.5
 21
139.1
 31
0.0
  0
CIRCLE
  8
L-ZISSEN
 10
1027.0
 20
121.0
 30
0.0
 40
9.3155
  0
LINE
  8
L-ZISSEN
 10
1140.74282
 20
75.50005
 30
0.0
 11
1136.1
 21
75.50005
 31
0.0
  0
LINE
  8
L-ZISSEN
 10
1140.74282
 20
84.49995
 30
0.0
 11
1140.74282
 21
75.50005
 31
0.0
  0
LINE
  8
L-ZISSEN
 10
1140.74282
 20
84.49995
 30
0.0
 11
1136.1
 21
84.49995
 31
0.0
  0
LINE
  8
L-ZISSEN
 10
1140.74282
 20
115.50005
 30
0.0
 11
1136.1
 21
115.50005
 31
0.0
  0
LINE
  8
L-ZISSEN
 10
1140.74282
 20
115.50005
 30
0.0
 11
1140.74282
 21
124.49995
 31
0.0
  0
LINE
  8
L-ZISSEN
  6
CONTINUOUS
 62
     7
 10
1064.1
 20
74.0
 30
0.0
 11
1064.1
 21
126.0
 31
0.0
  0
LINE
  8
L-ZISSEN
 10
1140.74282
 20
124.49995
 30
0.0
 11
1136.1
 21
124.49995
 31
0.0
  0
LINE
  8
L-ZISSEN
 10
1140.74282
 20
81.0
 30
0.0
 11
1146.7
 21
81.0
 31
0.0
  0
LINE
  8
L-ZISSEN
 10
1140.74282
 20
119.0
 30
0.0
 11
1146.7
 21
119.0
 31
0.0
  0
LINE
  8
L-ZISSEN
 10
917.9
 20
74.0
 30
0.0
 11
1136.1
 21
74.0
 31
0.0
  0
LINE
  8
L-ZISSEN
 10
1062.0
 20
126.0
 30
0.0
 11
1136.1
 21
126.0
 31
0.0
  0
LINE
  8
L-ZISSEN
 10
1136.1
 20
126.0
 30
0.0
 11
1136.1
 21
74.0
 31
0.0
  0
LINE
  8
L-ZISSEN
 10
1146.7
 20
119.0
 30
0.0
 11
1146.7
 21
81.0
 31
0.0
  0
LINE
  8
L-ZISSEN
  6
CONTINUOUS
 62
     7
 10
1159.7
 20
201.0
 30
0.0
 11
1159.7
 21
179.0
 31
0.0
  0
LINE
  8
L-ZISSEN
  6
CONTINUOUS
 62
     7
 10
1173.0
 20
197.25
 30
0.0
 11
1173.0
 21
182.75
 31
0.0
  0
LINE
  8
L-ZISSEN
  6
CONTINUOUS
 62
     7
 10
1165.7
 20
182.75
 30
0.0
 11
1173.0
 21
182.75
 31
0.0
  0
LINE
  8
L-ZISSEN
  6
CONTINUOUS
 62
     7
 10
1159.7
 20
181.0
 30
0.0
 11
1165.7
 21
181.0
 31
0.0
  0
LINE
  8
L-ZISSEN
  6
CONTINUOUS
 62
     7
 10
1165.7
 20
199.0
 30
0.0
 11
1165.7
 21
181.0
 31
0.0
  0
LINE
  8
L-ZISSEN
 10
1146.7
 20
179.0
 30
0.0
 11
1159.7
 21
179.0
 31
0.0
  0
LINE
  8
L-ZISSEN
  6
CONTINUOUS
 62
     7
 10
1165.7
 20
197.25
 30
0.0
 11
1173.0
 21
197.25
 31
0.0
  0
LINE
  8
L-ZISSEN
  6
CONTINUOUS
 62
     7
 10
1159.7
 20
199.0
 30
0.0
 11
1165.7
 21
199.0
 31
0.0
  0
LINE
  8
L-ZISSEN
 10
1146.7
 20
201.0
 30
0.0
 11
1159.7
 21
201.0
 31
0.0
  0
LINE
  8
L-ZISSEN
 10
907.3
 20
201.0
 30
0.0
 11
894.3
 21
201.0
 31
0.0
  0
LINE
  8
L-ZISSEN
  6
CONTINUOUS
 62
     7
 10
894.3
 20
199.0
 30
0.0
 11
888.3
 21
199.0
 31
0.0
  0
LINE
  8
L-ZISSEN
  6
CONTINUOUS
 62
     7
 10
888.3
 20
197.25
 30
0.0
 11
881.0
 21
197.25
 31
0.0
  0
LINE
  8
L-ZISSEN
 10
907.3
 20
179.0
 30
0.0
 11
894.3
 21
179.0
 31
0.0
  0
LINE
  8
L-ZISSEN
  6
CONTINUOUS
 62
     7
 10
888.3
 20
199.0
 30
0.0
 11
888.3
 21
181.0
 31
0.0
  0
LINE
  8
L-ZISSEN
  6
CONTINUOUS
 62
     7
 10
894.3
 20
181.0
 30
0.0
 11
888.3
 21
181.0
 31
0.0
  0
LINE
  8
L-ZISSEN
  6
CONTINUOUS
 62
     7
 10
888.3
 20
182.75
 30
0.0
 11
881.0
 21
182.75
 31
0.0
  0
LINE
  8
L-ZISSEN
  6
CONTINUOUS
 62
     7
 10
881.0
 20
197.25
 30
0.0
 11
881.0
 21
182.75
 31
0.0
  0
LINE
  8
L-ZISSEN
  6
CONTINUOUS
 62
     7
 10
894.3
 20
201.0
 30
0.0
 11
894.3
 21
179.0
 31
0.0
  0
LINE
  8
L-ZISSEN
 10
1146.7
 20
111.0
 30
0.0
 11
1159.7
 21
111.0
 31
0.0
  0
LINE
  8
L-ZISSEN
  6
CONTINUOUS
 62
     7
 10
1159.7
 20
109.0
 30
0.0
 11
1165.7
 21
109.0
 31
0.0
  0
LINE
  8
L-ZISSEN
  6
CONTINUOUS
 62
     7
 10
1165.7
 20
107.25
 30
0.0
 11
1173.0
 21
107.25
 31
0.0
  0
LINE
  8
L-ZISSEN
 10
1146.7
 20
89.0
 30
0.0
 11
1159.7
 21
89.0
 31
0.0
  0
LINE
  8
L-ZISSEN
  6
CONTINUOUS
 62
     7
 10
1165.7
 20
109.0
 30
0.0
 11
1165.7
 21
91.0
 31
0.0
  0
LINE
  8
L-ZISSEN
  6
CONTINUOUS
 62
     7
 10
1159.7
 20
91.0
 30
0.0
 11
1165.7
 21
91.0
 31
0.0
  0
LINE
  8
L-ZISSEN
  6
CONTINUOUS
 62
     7
 10
1165.7
 20
92.75
 30
0.0
 11
1173.0
 21
92.75
 31
0.0
  0
LINE
  8
L-ZISSEN
  6
CONTINUOUS
 62
     7
 10
1173.0
 20
107.25
 30
0.0
 11
1173.0
 21
92.75
 31
0.0
  0
LINE
  8
L-ZISSEN
  6
CONTINUOUS
 62
     7
 10
1159.7
 20
111.0
 30
0.0
 11
1159.7
 21
89.0
 31
0.0
  0
LINE
  8
L-ZISSEN
  6
CONTINUOUS
 62
     7
 10
894.3
 20
111.0
 30
0.0
 11
894.3
 21
89.0
 31
0.0
  0
LINE
  8
L-ZISSEN
  6
CONTINUOUS
 62
     7
 10
881.0
 20
107.25
 30
0.0
 11
881.0
 21
92.75
 31
0.0
  0
LINE
  8
L-ZISSEN
  6
CONTINUOUS
 62
     7
 10
888.3
 20
92.75
 30
0.0
 11
881.0
 21
92.75
 31
0.0
  0
LINE
  8
L-ZISSEN
  6
CONTINUOUS
 62
     7
 10
894.3
 20
91.0
 30
0.0
 11
888.3
 21
91.0
 31
0.0
  0
LINE
  8
L-ZISSEN
  6
CONTINUOUS
 62
     7
 10
888.3
 20
109.0
 30
0.0
 11
888.3
 21
91.0
 31
0.0
  0
LINE
  8
L-ZISSEN
 10
907.3
 20
89.0
 30
0.0
 11
894.3
 21
89.0
 31
0.0
  0
LINE
  8
L-ZISSEN
  6
CONTINUOUS
 62
     7
 10
888.3
 20
107.25
 30
0.0
 11
881.0
 21
107.25
 31
0.0
  0
LINE
  8
L-ZISSEN
  6
CONTINUOUS
 62
     7
 10
894.3
 20
109.0
 30
0.0
 11
888.3
 21
109.0
 31
0.0
  0
LINE
  8
L-ZISSEN
 10
907.3
 20
111.0
 30
0.0
 11
894.3
 21
111.0
 31
0.0
  0
CIRCLE
  8
L-ZISSEN
 10
1230.0
 20
100.0
 30
0.0
 40
7.25
  0
CIRCLE
  8
L-ZISSEN
 10
1230.0
 20
100.0
 30
0.0
 40
9.0
  0
CIRCLE
  8
L-ZISSEN
 10
1230.0
 20
100.0
 30
0.0
 40
11.0
  0
LINE
  8
L-ZISSEN
  6
CONTINUOUS
 62
     7
 10
1366.0
 20
646.1
 30
0.0
 11
1358.0
 21
646.1
 31
0.0
  0
LINE
  8
L-ZISSEN
 10
1366.0
 20
646.1
 30
0.0
 11
1366.0
 21
639.6
 31
0.0
  0
LINE
  8
L-ZISSEN
 10
1358.0
 20
639.6
 30
0.0
 11
1358.0
 21
646.1
 31
0.0
  0
CIRCLE
  8
L-ZISSEN
 10
1362.0
 20
708.0
 30
0.0
 40
4.0
  0
TEXT
  8
L-ZISSEN
 10
1340.0
 20
750.0
 30
0.0
 40
4.5
  1
MODEL NO. : 368-*00-9**2
  0
LINE
  8
L-ZISSEN
  6
CONTINUOUS
 62
     7
 10
414.5
 20
329.2
 30
0.0
 11
421.5
 21
329.2
 31
0.0
  0
LINE
  8
L-ZISSEN
  6
CONTINUOUS
 62
     7
 10
414.5
 20
325.6
 30
0.0
 11
414.5
 21
329.2
 31
0.0
  0
LINE
  8
L-ZISSEN
  6
CONTINUOUS
 62
     7
 10
421.5
 20
325.6
 30
0.0
 11
421.5
 21
329.2
 31
0.0
  0
LINE
  8
L-ZISSEN
  6
CONTINUOUS
 62
     7
 10
355.9
 20
265.706356
 30
0.0
 11
355.9
 21
314.493644
 31
0.0
  0
LINE
  8
L-ZISSEN
  6
CONTINUOUS
 62
     7
 10
354.9
 20
301.1
 30
0.0
 11
355.9
 21
301.1
 31
0.0
  0
LINE
  8
L-ZISSEN
  6
CONTINUOUS
 62
     7
 10
354.9
 20
301.1
 30
0.0
 11
354.9
 21
279.1
 31
0.0
  0
LINE
  8
L-ZISSEN
  6
CONTINUOUS
 62
     7
 10
354.9
 20
279.1
 30
0.0
 11
355.9
 21
279.1
 31
0.0
  0
LINE
  8
L-ZISSEN
  6
CONTINUOUS
 62
     7
 10
401.9
 20
316.1
 30
0.0
 11
355.9
 21
314.493644
 31
0.0
  0
LINE
  8
L-ZISSEN
  6
CONTINUOUS
 62
     7
 10
473.4
 20
274.6
 30
0.0
 11
473.4
 21
265.6
 31
0.0
  0
LINE
  8
L-ZISSEN
  6
CONTINUOUS
 62
     7
 10
470.1
 20
265.6
 30
0.0
 11
473.4
 21
265.6
 31
0.0
  0
LINE
  8
L-ZISSEN
  6
CONTINUOUS
 62
     7
 10
470.1
 20
274.6
 30
0.0
 11
473.4
 21
274.6
 31
0.0
  0
LINE
  8
L-ZISSEN
  6
CONTINUOUS
 62
     7
 10
470.1
 20
314.6
 30
0.0
 11
473.4
 21
314.6
 31
0.0
  0
LINE
  8
L-ZISSEN
  6
CONTINUOUS
 62
     7
 10
470.1
 20
305.6
 30
0.0
 11
473.4
 21
305.6
 31
0.0
  0
LINE
  8
L-ZISSEN
  6
CONTINUOUS
 62
     7
 10
473.4
 20
314.6
 30
0.0
 11
473.4
 21
305.6
 31
0.0
  0
LINE
  8
L-ZISSEN
  6
CONTINUOUS
 62
     7
 10
465.5
 20
325.6
 30
0.0
 11
465.5
 21
329.2
 31
0.0
  0
LINE
  8
L-ZISSEN
  6
CONTINUOUS
 62
     7
 10
458.5
 20
325.6
 30
0.0
 11
458.5
 21
329.2
 31
0.0
  0
LINE
  8
L-ZISSEN
  6
CONTINUOUS
 62
     7
 10
458.5
 20
329.2
 30
0.0
 11
465.5
 21
329.2
 31
0.0
  0
LINE
  8
L-ZISSEN
 10
466.0
 20
325.6
 30
0.0
 11
414.0
 21
325.6
 31
0.0
  0
LINE
  8
L-ZISSEN
 10
414.0
 20
316.1
 30
0.0
 11
401.9
 21
316.1
 31
0.0
  0
LINE
  8
L-ZISSEN
 10
470.1
 20
316.1
 30
0.0
 11
466.0
 21
316.1
 31
0.0
  0
LINE
  8
L-ZISSEN
 10
466.0
 20
325.6
 30
0.0
 11
466.0
 21
316.1
 31
0.0
  0
LINE
  8
L-ZISSEN
 10
414.0
 20
325.6
 30
0.0
 11
414.0
 21
316.1
 31
0.0
  0
LINE
  8
L-ZISSEN
 10
447.5
 20
324.1
 30
0.0
 11
447.5
 21
321.718381
 31
0.0
  0
LINE
  8
L-ZISSEN
 10
432.5
 20
324.1
 30
0.0
 11
432.5
 21
321.718381
 31
0.0
  0
CIRCLE
  8
L-ZISSEN
 10
440.0
 20
311.1
 30
0.0
 40
9.3
  0
ARC
  8
L-ZISSEN
 10
440.0
 20
311.1
 30
0.0
 40
13.0
 50
125.234418
 51
54.765582
  0
LINE
  8
L-ZISSEN
 10
414.0
 20
324.1
 30
0.0
 11
466.0
 21
324.1
 31
0.0
  0
LINE
  8
L-ZISSEN
  6
CONTINUOUS
 62
     7
 10
401.9
 20
264.1
 30
0.0
 11
355.9
 21
265.706356
 31
0.0
  0
LINE
  8
L-ZISSEN
 10
411.9
 20
316.1
 30
0.0
 11
411.9
 21
264.1
 31
0.0
  0
LINE
  8
L-ZISSEN
 10
470.1
 20
316.1
 30
0.0
 11
470.1
 21
264.1
 31
0.0
  0
LINE
  8
L-ZISSEN
 10
468.1
 20
316.1
 30
0.0
 11
468.1
 21
264.1
 31
0.0
  0
LINE
  8
L-TYUSIN
 10
535.0
 20
1040.0
 30
0.0
 11
535.0
 21
290.0
 31
0.0
  0
CIRCLE
  8
L-ZISSEN
 10
810.0
 20
830.0
 30
0.0
 40
4.49995
  0
CIRCLE
  8
L-ZISSEN
 10
770.0
 20
830.0
 30
0.0
 40
4.49995
  0
CIRCLE
  8
L-ZISSEN
 10
810.0
 20
870.0
 30
0.0
 40
4.49995
  0
CIRCLE
  8
L-ZISSEN
 10
770.0
 20
870.0
 30
0.0
 40
4.49995
  0
CIRCLE
  8
L-ZISSEN
 10
790.0
 20
850.0
 30
0.0
 40
19.0
  0
LINE
  8
L-ZISSEN
 10
764.0
 20
824.0
 30
0.0
 11
816.0
 21
824.0
 31
0.0
  0
LINE
  8
L-ZISSEN
 10
764.0
 20
824.0
 30
0.0
 11
764.0
 21
885.5
 31
0.0
  0
LINE
  8
L-ZISSEN
 10
764.0
 20
876.0
 30
0.0
 11
816.0
 21
876.0
 31
0.0
  0
LINE
  8
L-ZISSEN
 10
762.0
 20
858.0
 30
0.0
 11
762.0
 21
884.0
 31
0.0
  0
LINE
  8
L-ZISSEN
 10
816.0
 20
885.5
 30
0.0
 11
816.0
 21
824.0
 31
0.0
  0
LINE
  8
L-ZISSEN
 10
762.0
 20
884.0
 30
0.0
 11
818.0
 21
884.0
 31
0.0
  0
LINE
  8
L-ZISSEN
 10
764.0
 20
885.5
 30
0.0
 11
816.0
 21
885.5
 31
0.0
  0
LINE
  8
L-ZISSEN
 10
818.0
 20
858.0
 30
0.0
 11
818.0
 21
884.0
 31
0.0
  0
LINE
  8
L-ZISSEN
  6
CONTINUOUS
 62
     7
 10
764.5
 20
885.5
 30
0.0
 11
764.5
 21
889.1
 31
0.0
  0
LINE
  8
L-ZISSEN
  6
CONTINUOUS
 62
     7
 10
771.5
 20
885.5
 30
0.0
 11
771.5
 21
889.1
 31
0.0
  0
LINE
  8
L-ZISSEN
  6
CONTINUOUS
 62
     7
 10
771.5
 20
889.1
 30
0.0
 11
764.5
 21
889.1
 31
0.0
  0
LINE
  8
L-ZISSEN
 10
762.0
 20
858.0
 30
0.0
 11
764.0
 21
858.0
 31
0.0
  0
LINE
  8
L-ZISSEN
 10
816.0
 20
858.0
 30
0.0
 11
818.0
 21
858.0
 31
0.0
  0
LINE
  8
L-ZISSEN
  6
CONTINUOUS
 62
     7
 10
808.5
 20
889.1
 30
0.0
 11
815.5
 21
889.1
 31
0.0
  0
LINE
  8
L-ZISSEN
  6
CONTINUOUS
 62
     7
 10
808.5
 20
885.5
 30
0.0
 11
808.5
 21
889.1
 31
0.0
  0
LINE
  8
L-ZISSEN
  6
CONTINUOUS
 62
     7
 10
815.5
 20
885.5
 30
0.0
 11
815.5
 21
889.1
 31
0.0
  0
CIRCLE
  8
L-ZISSEN
 10
790.0
 20
850.0
 30
0.0
 40
11.0
  0
LINE
  8
L-ZISSEN
  6
CONTINUOUS
 62
     7
 10
612.5
 20
889.1
 30
0.0
 11
605.5
 21
889.1
 31
0.0
  0
LINE
  8
L-ZISSEN
  6
CONTINUOUS
 62
     7
 10
612.5
 20
885.5
 30
0.0
 11
612.5
 21
889.1
 31
0.0
  0
LINE
  8
L-ZISSEN
  6
CONTINUOUS
 62
     7
 10
605.5
 20
885.5
 30
0.0
 11
605.5
 21
889.1
 31
0.0
  0
LINE
  8
L-ZISSEN
  6
CONTINUOUS
 62
     7
 10
553.6
 20
834.5
 30
0.0
 11
553.6
 21
825.5
 31
0.0
  0
LINE
  8
L-ZISSEN
  6
CONTINUOUS
 62
     7
 10
556.9
 20
825.5
 30
0.0
 11
553.6
 21
825.5
 31
0.0
  0
LINE
  8
L-ZISSEN
  6
CONTINUOUS
 62
     7
 10
556.9
 20
834.5
 30
0.0
 11
553.6
 21
834.5
 31
0.0
  0
LINE
  8
L-ZISSEN
  6
CONTINUOUS
 62
     7
 10
556.9
 20
874.5
 30
0.0
 11
553.6
 21
874.5
 31
0.0
  0
LINE
  8
L-ZISSEN
  6
CONTINUOUS
 62
     7
 10
556.9
 20
865.5
 30
0.0
 11
553.6
 21
865.5
 31
0.0
  0
LINE
  8
L-ZISSEN
  6
CONTINUOUS
 62
     7
 10
553.6
 20
874.5
 30
0.0
 11
553.6
 21
865.5
 31
0.0
  0
LINE
  8
L-ZISSEN
  6
CONTINUOUS
 62
     7
 10
561.5
 20
885.5
 30
0.0
 11
561.5
 21
889.1
 31
0.0
  0
LINE
  8
L-ZISSEN
  6
CONTINUOUS
 62
     7
 10
568.5
 20
885.5
 30
0.0
 11
568.5
 21
889.1
 31
0.0
  0
LINE
  8
L-ZISSEN
  6
CONTINUOUS
 62
     7
 10
568.5
 20
889.1
 30
0.0
 11
561.5
 21
889.1
 31
0.0
  0
LINE
  8
L-ZISSEN
 10
561.0
 20
885.5
 30
0.0
 11
613.0
 21
885.5
 31
0.0
  0
LINE
  8
L-ZISSEN
 10
613.0
 20
876.0
 30
0.0
 11
687.1
 21
876.0
 31
0.0
  0
LINE
  8
L-ZISSEN
 10
556.9
 20
876.0
 30
0.0
 11
561.0
 21
876.0
 31
0.0
  0
LINE
  8
L-ZISSEN
 10
561.0
 20
885.5
 30
0.0
 11
561.0
 21
876.0
 31
0.0
  0
LINE
  8
L-ZISSEN
 10
613.0
 20
885.5
 30
0.0
 11
613.0
 21
876.0
 31
0.0
  0
LINE
  8
L-ZISSEN
 10
579.5
 20
884.0
 30
0.0
 11
579.5
 21
881.618381
 31
0.0
  0
LINE
  8
L-ZISSEN
 10
594.5
 20
884.0
 30
0.0
 11
594.5
 21
881.618381
 31
0.0
  0
CIRCLE
  8
L-ZISSEN
 10
587.0
 20
871.0
 30
0.0
 40
9.3
  0
ARC
  8
L-ZISSEN
 10
587.0
 20
871.0
 30
0.0
 40
13.0
 50
125.234418
 51
54.765582
  0
LINE
  8
L-ZISSEN
 10
613.0
 20
884.0
 30
0.0
 11
561.0
 21
884.0
 31
0.0
  0
LINE
  8
L-ZISSEN
 10
615.1
 20
876.0
 30
0.0
 11
615.1
 21
824.0
 31
0.0
  0
LINE
  8
L-ZISSEN
 10
558.9
 20
876.0
 30
0.0
 11
558.9
 21
824.0
 31
0.0
  0
LINE
  8
L-ZISSEN
 10
556.9
 20
876.0
 30
0.0
 11
556.9
 21
824.0
 31
0.0
  0
LINE
  8
L-ZISSEN
 10
556.9
 20
824.0
 30
0.0
 11
687.1
 21
824.0
 31
0.0
  0
CIRCLE
  8
L-ZISSEN
 10
132.0
 20
388.0
 30
0.0
 40
3.5
  0
CIRCLE
  8
L-ZISSEN
 10
132.0
 20
432.0
 30
0.0
 40
3.5
  0
CIRCLE
  8
L-ZISSEN
 10
88.0
 20
432.0
 30
0.0
 40
3.5
  0
CIRCLE
  8
L-ZISSEN
 10
88.0
 20
388.0
 30
0.0
 40
3.5
  0
CIRCLE
  8
L-ZISSEN
 10
565.0
 20
918.0
 30
0.0
 40
3.5
  0
CIRCLE
  8
L-ZISSEN
 10
565.0
 20
962.0
 30
0.0
 40
3.5
  0
CIRCLE
  8
L-ZISSEN
 10
609.0
 20
962.0
 30
0.0
 40
3.5
  0
CIRCLE
  8
L-ZISSEN
 10
609.0
 20
918.0
 30
0.0
 40
3.5
  0
LINE
  8
L-ZISSEN
 10
613.0
 20
914.0
 30
0.0
 11
613.0
 21
966.0
 31
0.0
  0
LINE
  8
L-ZISSEN
 10
561.0
 20
914.0
 30
0.0
 11
561.0
 21
966.0
 31
0.0
  0
LINE
  8
L-ZISSEN
 10
687.1
 20
914.0
 30
0.0
 11
556.9
 21
914.0
 31
0.0
  0
LINE
  8
L-ZISSEN
 10
687.1
 20
966.0
 30
0.0
 11
556.9
 21
966.0
 31
0.0
  0
LINE
  8
L-ZISSEN
 10
615.1
 20
914.0
 30
0.0
 11
615.1
 21
966.0
 31
0.0
  0
LINE
  8
L-ZISSEN
  6
CONTINUOUS
 62
     7
 10
553.6
 20
924.5
 30
0.0
 11
553.6
 21
915.5
 31
0.0
  0
LINE
  8
L-ZISSEN
  6
CONTINUOUS
 62
     7
 10
556.9
 20
915.5
 30
0.0
 11
553.6
 21
915.5
 31
0.0
  0
LINE
  8
L-ZISSEN
  6
CONTINUOUS
 62
     7
 10
556.9
 20
924.5
 30
0.0
 11
553.6
 21
924.5
 31
0.0
  0
LINE
  8
L-ZISSEN
  6
CONTINUOUS
 62
     7
 10
556.9
 20
964.5
 30
0.0
 11
553.6
 21
964.5
 31
0.0
  0
LINE
  8
L-ZISSEN
  6
CONTINUOUS
 62
     7
 10
556.9
 20
955.5
 30
0.0
 11
553.6
 21
955.5
 31
0.0
  0
LINE
  8
L-ZISSEN
  6
CONTINUOUS
 62
     7
 10
553.6
 20
964.5
 30
0.0
 11
553.6
 21
955.5
 31
0.0
  0
LINE
  8
L-ZISSEN
  6
CONTINUOUS
 62
     7
 10
556.9
 20
966.0
 30
0.0
 11
556.9
 21
914.0
 31
0.0
  0
LINE
  8
L-ZISSEN
  6
CONTINUOUS
 62
     7
 10
558.9
 20
914.0
 30
0.0
 11
558.9
 21
966.0
 31
0.0
  0
LINE
  8
L-ZISSEN
 10
574.0
 20
914.0
 30
0.0
 11
574.0
 21
912.0
 31
0.0
  0
LINE
  8
L-ZISSEN
 10
574.0
 20
968.0
 30
0.0
 11
574.0
 21
966.0
 31
0.0
  0
LINE
  8
L-ZISSEN
 10
600.0
 20
968.0
 30
0.0
 11
600.0
 21
966.0
 31
0.0
  0
LINE
  8
L-ZISSEN
 10
600.0
 20
968.0
 30
0.0
 11
574.0
 21
968.0
 31
0.0
  0
LINE
  8
L-ZISSEN
 10
600.0
 20
914.0
 30
0.0
 11
600.0
 21
912.0
 31
0.0
  0
LINE
  8
L-ZISSEN
 10
600.0
 20
912.0
 30
0.0
 11
574.0
 21
912.0
 31
0.0
  0
LINE
  8
L-ZISSEN
 10
600.0
 20
662.0
 30
0.0
 11
574.0
 21
662.0
 31
0.0
  0
LINE
  8
L-ZISSEN
 10
600.0
 20
664.0
 30
0.0
 11
600.0
 21
662.0
 31
0.0
  0
LINE
  8
L-ZISSEN
 10
600.0
 20
718.0
 30
0.0
 11
574.0
 21
718.0
 31
0.0
  0
LINE
  8
L-ZISSEN
 10
600.0
 20
718.0
 30
0.0
 11
600.0
 21
716.0
 31
0.0
  0
LINE
  8
L-ZISSEN
 10
574.0
 20
718.0
 30
0.0
 11
574.0
 21
716.0
 31
0.0
  0
LINE
  8
L-ZISSEN
 10
574.0
 20
664.0
 30
0.0
 11
574.0
 21
662.0
 31
0.0
  0
LINE
  8
L-ZISSEN
  6
CONTINUOUS
 62
     7
 10
558.9
 20
664.0
 30
0.0
 11
558.9
 21
716.0
 31
0.0
  0
LINE
  8
L-ZISSEN
  6
CONTINUOUS
 62
     7
 10
556.9
 20
716.0
 30
0.0
 11
556.9
 21
664.0
 31
0.0
  0
LINE
  8
L-ZISSEN
  6
CONTINUOUS
 62
     7
 10
553.6
 20
714.5
 30
0.0
 11
553.6
 21
705.5
 31
0.0
  0
LINE
  8
L-ZISSEN
  6
CONTINUOUS
 62
     7
 10
556.9
 20
705.5
 30
0.0
 11
553.6
 21
705.5
 31
0.0
  0
LINE
  8
L-ZISSEN
  6
CONTINUOUS
 62
     7
 10
556.9
 20
714.5
 30
0.0
 11
553.6
 21
714.5
 31
0.0
  0
LINE
  8
L-ZISSEN
  6
CONTINUOUS
 62
     7
 10
556.9
 20
674.5
 30
0.0
 11
553.6
 21
674.5
 31
0.0
  0
LINE
  8
L-ZISSEN
  6
CONTINUOUS
 62
     7
 10
556.9
 20
665.5
 30
0.0
 11
553.6
 21
665.5
 31
0.0
  0
LINE
  8
L-ZISSEN
  6
CONTINUOUS
 62
     7
 10
553.6
 20
674.5
 30
0.0
 11
553.6
 21
665.5
 31
0.0
  0
LINE
  8
L-ZISSEN
  6
CONTINUOUS
 62
     7
 10
615.1
 20
664.0
 30
0.0
 11
615.1
 21
716.0
 31
0.0
  0
LINE
  8
L-ZISSEN
  6
CONTINUOUS
 62
     7
 10
625.1
 20
716.0
 30
0.0
 11
671.1
 21
714.393644
 31
0.0
  0
LINE
  8
L-ZISSEN
  6
CONTINUOUS
 62
     7
 10
671.1
 20
665.606356
 30
0.0
 11
671.1
 21
714.393644
 31
0.0
  0
LINE
  8
L-ZISSEN
  6
CONTINUOUS
 62
     7
 10
625.1
 20
664.0
 30
0.0
 11
671.1
 21
665.606356
 31
0.0
  0
LINE
  8
L-ZISSEN
 10
625.1
 20
716.0
 30
0.0
 11
556.9
 21
716.0
 31
0.0
  0
LINE
  8
L-ZISSEN
 10
625.1
 20
664.0
 30
0.0
 11
556.9
 21
664.0
 31
0.0
  0
LINE
  8
L-ZISSEN
 10
561.0
 20
664.0
 30
0.0
 11
561.0
 21
716.0
 31
0.0
  0
LINE
  8
L-ZISSEN
 10
613.0
 20
664.0
 30
0.0
 11
613.0
 21
716.0
 31
0.0
  0
CIRCLE
  8
L-ZISSEN
 10
609.0
 20
668.0
 30
0.0
 40
3.5
  0
CIRCLE
  8
L-ZISSEN
 10
609.0
 20
712.0
 30
0.0
 40
3.5
  0
CIRCLE
  8
L-ZISSEN
 10
565.0
 20
712.0
 30
0.0
 40
3.5
  0
CIRCLE
  8
L-ZISSEN
 10
565.0
 20
668.0
 30
0.0
 40
3.5
  0
LINE
  8
L-ZISSEN
 10
556.9
 20
574.0
 30
0.0
 11
625.1
 21
574.0
 31
0.0
  0
LINE
  8
L-ZISSEN
 10
556.9
 20
626.0
 30
0.0
 11
556.9
 21
574.0
 31
0.0
  0
LINE
  8
L-ZISSEN
 10
558.9
 20
626.0
 30
0.0
 11
558.9
 21
574.0
 31
0.0
  0
LINE
  8
L-ZISSEN
  6
CONTINUOUS
 62
     7
 10
625.1
 20
574.0
 30
0.0
 11
671.1
 21
575.606356
 31
0.0
  0
LINE
  8
L-ZISSEN
 10
615.1
 20
626.0
 30
0.0
 11
615.1
 21
574.0
 31
0.0
  0
LINE
  8
L-ZISSEN
 10
613.0
 20
634.0
 30
0.0
 11
561.0
 21
634.0
 31
0.0
  0
ARC
  8
L-ZISSEN
 10
587.0
 20
621.0
 30
0.0
 40
13.0
 50
125.234418
 51
54.765582
  0
CIRCLE
  8
L-ZISSEN
 10
587.0
 20
621.0
 30
0.0
 40
9.3
  0
LINE
  8
L-ZISSEN
 10
594.5
 20
634.0
 30
0.0
 11
594.5
 21
631.618381
 31
0.0
  0
LINE
  8
L-ZISSEN
 10
579.5
 20
634.0
 30
0.0
 11
579.5
 21
631.618381
 31
0.0
  0
LINE
  8
L-ZISSEN
 10
613.0
 20
635.5
 30
0.0
 11
613.0
 21
626.0
 31
0.0
  0
LINE
  8
L-ZISSEN
 10
561.0
 20
635.5
 30
0.0
 11
561.0
 21
626.0
 31
0.0
  0
LINE
  8
L-ZISSEN
 10
556.9
 20
626.0
 30
0.0
 11
561.0
 21
626.0
 31
0.0
  0
LINE
  8
L-ZISSEN
 10
613.0
 20
626.0
 30
0.0
 11
625.1
 21
626.0
 31
0.0
  0
LINE
  8
L-ZISSEN
 10
561.0
 20
635.5
 30
0.0
 11
613.0
 21
635.5
 31
0.0
  0
LINE
  8
L-ZISSEN
  6
CONTINUOUS
 62
     7
 10
568.5
 20
639.1
 30
0.0
 11
561.5
 21
639.1
 31
0.0
  0
LINE
  8
L-ZISSEN
  6
CONTINUOUS
 62
     7
 10
568.5
 20
635.5
 30
0.0
 11
568.5
 21
639.1
 31
0.0
  0
LINE
  8
L-ZISSEN
  6
CONTINUOUS
 62
     7
 10
561.5
 20
635.5
 30
0.0
 11
561.5
 21
639.1
 31
0.0
  0
LINE
  8
L-ZISSEN
  6
CONTINUOUS
 62
     7
 10
553.6
 20
624.5
 30
0.0
 11
553.6
 21
615.5
 31
0.0
  0
LINE
  8
L-ZISSEN
  6
CONTINUOUS
 62
     7
 10
556.9
 20
615.5
 30
0.0
 11
553.6
 21
615.5
 31
0.0
  0
LINE
  8
L-ZISSEN
  6
CONTINUOUS
 62
     7
 10
556.9
 20
624.5
 30
0.0
 11
553.6
 21
624.5
 31
0.0
  0
LINE
  8
L-ZISSEN
  6
CONTINUOUS
 62
     7
 10
556.9
 20
584.5
 30
0.0
 11
553.6
 21
584.5
 31
0.0
  0
LINE
  8
L-ZISSEN
  6
CONTINUOUS
 62
     7
 10
556.9
 20
575.5
 30
0.0
 11
553.6
 21
575.5
 31
0.0
  0
LINE
  8
L-ZISSEN
  6
CONTINUOUS
 62
     7
 10
553.6
 20
584.5
 30
0.0
 11
553.6
 21
575.5
 31
0.0
  0
LINE
  8
L-ZISSEN
  6
CONTINUOUS
 62
     7
 10
625.1
 20
626.0
 30
0.0
 11
671.1
 21
624.393644
 31
0.0
  0
LINE
  8
L-ZISSEN
  6
CONTINUOUS
 62
     7
 10
671.1
 20
575.606356
 30
0.0
 11
671.1
 21
624.393644
 31
0.0
  0
LINE
  8
L-ZISSEN
  6
CONTINUOUS
 62
     7
 10
605.5
 20
635.5
 30
0.0
 11
605.5
 21
639.1
 31
0.0
  0
LINE
  8
L-ZISSEN
  6
CONTINUOUS
 62
     7
 10
612.5
 20
635.5
 30
0.0
 11
612.5
 21
639.1
 31
0.0
  0
LINE
  8
L-ZISSEN
  6
CONTINUOUS
 62
     7
 10
612.5
 20
639.1
 30
0.0
 11
605.5
 21
639.1
 31
0.0
  0
LINE
  8
L-ZISSEN
 10
691.74282
 20
825.50005
 30
0.0
 11
687.1
 21
825.50005
 31
0.0
  0
LINE
  8
L-ZISSEN
 10
691.74282
 20
834.49995
 30
0.0
 11
691.74282
 21
825.50005
 31
0.0
  0
LINE
  8
L-ZISSEN
 10
691.74282
 20
834.49995
 30
0.0
 11
687.1
 21
834.49995
 31
0.0
  0
LINE
  8
L-ZISSEN
 10
691.74282
 20
865.50005
 30
0.0
 11
687.1
 21
865.50005
 31
0.0
  0
LINE
  8
L-ZISSEN
 10
691.74282
 20
865.50005
 30
0.0
 11
691.74282
 21
874.49995
 31
0.0
  0
LINE
  8
L-ZISSEN
 10
698.7
 20
861.0
 30
0.0
 11
698.7
 21
839.0
 31
0.0
  0
LINE
  8
L-ZISSEN
 10
698.7
 20
839.0
 30
0.0
 11
697.7
 21
839.0
 31
0.0
  0
LINE
  8
L-ZISSEN
 10
697.7
 20
861.0
 30
0.0
 11
698.7
 21
861.0
 31
0.0
  0
LINE
  8
L-ZISSEN
 10
691.74282
 20
874.49995
 30
0.0
 11
687.1
 21
874.49995
 31
0.0
  0
LINE
  8
L-ZISSEN
 10
691.74282
 20
831.0
 30
0.0
 11
697.7
 21
831.0
 31
0.0
  0
LINE
  8
L-ZISSEN
 10
691.74282
 20
869.0
 30
0.0
 11
697.7
 21
869.0
 31
0.0
  0
LINE
  8
L-ZISSEN
 10
687.1
 20
876.0
 30
0.0
 11
687.1
 21
824.0
 31
0.0
  0
LINE
  8
L-ZISSEN
 10
697.7
 20
869.0
 30
0.0
 11
697.7
 21
831.0
 31
0.0
  0
LINE
  8
L-ZISSEN
 10
697.7
 20
959.0
 30
0.0
 11
697.7
 21
921.0
 31
0.0
  0
LINE
  8
L-ZISSEN
 10
687.1
 20
966.0
 30
0.0
 11
687.1
 21
914.0
 31
0.0
  0
LINE
  8
L-ZISSEN
 10
691.74282
 20
959.0
 30
0.0
 11
697.7
 21
959.0
 31
0.0
  0
LINE
  8
L-ZISSEN
 10
691.74282
 20
921.0
 30
0.0
 11
697.7
 21
921.0
 31
0.0
  0
LINE
  8
L-ZISSEN
 10
691.74282
 20
964.49995
 30
0.0
 11
687.1
 21
964.49995
 31
0.0
  0
LINE
  8
L-ZISSEN
 10
697.7
 20
951.0
 30
0.0
 11
698.7
 21
951.0
 31
0.0
  0
LINE
  8
L-ZISSEN
 10
698.7
 20
929.0
 30
0.0
 11
697.7
 21
929.0
 31
0.0
  0
LINE
  8
L-ZISSEN
 10
698.7
 20
951.0
 30
0.0
 11
698.7
 21
929.0
 31
0.0
  0
LINE
  8
L-ZISSEN
 10
691.74282
 20
955.50005
 30
0.0
 11
691.74282
 21
964.49995
 31
0.0
  0
LINE
  8
L-ZISSEN
 10
691.74282
 20
955.50005
 30
0.0
 11
687.1
 21
955.50005
 31
0.0
  0
LINE
  8
L-ZISSEN
 10
691.74282
 20
924.49995
 30
0.0
 11
687.1
 21
924.49995
 31
0.0
  0
LINE
  8
L-ZISSEN
 10
691.74282
 20
924.49995
 30
0.0
 11
691.74282
 21
915.50005
 31
0.0
  0
LINE
  8
L-ZISSEN
 10
691.74282
 20
915.50005
 30
0.0
 11
687.1
 21
915.50005
 31
0.0
  0
CIRCLE
  8
L-ZISSEN
 10
790.0
 20
600.0
 30
0.0
 40
11.0
  0
CIRCLE
  8
L-ZISSEN
 10
790.0
 20
600.0
 30
0.0
 40
9.0
  0
CIRCLE
  8
L-ZISSEN
 10
790.0
 20
600.0
 30
0.0
 40
7.25
  0
LINE
  8
L-ZISSEN
  6
CONTINUOUS
 62
     7
 10
815.5
 20
635.5
 30
0.0
 11
815.5
 21
639.1
 31
0.0
  0
LINE
  8
L-ZISSEN
  6
CONTINUOUS
 62
     7
 10
808.5
 20
635.5
 30
0.0
 11
808.5
 21
639.1
 31
0.0
  0
LINE
  8
L-ZISSEN
  6
CONTINUOUS
 62
     7
 10
808.5
 20
639.1
 30
0.0
 11
815.5
 21
639.1
 31
0.0
  0
LINE
  8
L-ZISSEN
 10
816.0
 20
608.0
 30
0.0
 11
818.0
 21
608.0
 31
0.0
  0
LINE
  8
L-ZISSEN
 10
762.0
 20
608.0
 30
0.0
 11
764.0
 21
608.0
 31
0.0
  0
LINE
  8
L-ZISSEN
  6
CONTINUOUS
 62
     7
 10
771.5
 20
639.1
 30
0.0
 11
764.5
 21
639.1
 31
0.0
  0
LINE
  8
L-ZISSEN
  6
CONTINUOUS
 62
     7
 10
771.5
 20
635.5
 30
0.0
 11
771.5
 21
639.1
 31
0.0
  0
LINE
  8
L-ZISSEN
  6
CONTINUOUS
 62
     7
 10
764.5
 20
635.5
 30
0.0
 11
764.5
 21
639.1
 31
0.0
  0
LINE
  8
L-ZISSEN
 10
818.0
 20
608.0
 30
0.0
 11
818.0
 21
634.0
 31
0.0
  0
LINE
  8
L-ZISSEN
 10
764.0
 20
635.5
 30
0.0
 11
816.0
 21
635.5
 31
0.0
  0
LINE
  8
L-ZISSEN
 10
762.0
 20
634.0
 30
0.0
 11
818.0
 21
634.0
 31
0.0
  0
LINE
  8
L-ZISSEN
 10
816.0
 20
635.5
 30
0.0
 11
816.0
 21
574.0
 31
0.0
  0
LINE
  8
L-ZISSEN
 10
762.0
 20
608.0
 30
0.0
 11
762.0
 21
634.0
 31
0.0
  0
LINE
  8
L-ZISSEN
 10
764.0
 20
626.0
 30
0.0
 11
816.0
 21
626.0
 31
0.0
  0
LINE
  8
L-ZISSEN
 10
764.0
 20
574.0
 30
0.0
 11
764.0
 21
635.5
 31
0.0
  0
LINE
  8
L-ZISSEN
 10
764.0
 20
574.0
 30
0.0
 11
816.0
 21
574.0
 31
0.0
  0
LINE
  8
L-ZISSEN
 10
671.1
 20
701.0
 30
0.0
 11
684.1
 21
701.0
 31
0.0
  0
LINE
  8
L-ZISSEN
  6
CONTINUOUS
 62
     7
 10
684.1
 20
699.0
 30
0.0
 11
690.1
 21
699.0
 31
0.0
  0
LINE
  8
L-ZISSEN
  6
CONTINUOUS
 62
     7
 10
690.1
 20
697.25
 30
0.0
 11
697.1
 21
697.25
 31
0.0
  0
LINE
  8
L-ZISSEN
 10
671.1
 20
679.0
 30
0.0
 11
684.1
 21
679.0
 31
0.0
  0
LINE
  8
L-ZISSEN
  6
CONTINUOUS
 62
     7
 10
690.1
 20
699.0
 30
0.0
 11
690.1
 21
681.0
 31
0.0
  0
LINE
  8
L-ZISSEN
  6
CONTINUOUS
 62
     7
 10
684.1
 20
681.0
 30
0.0
 11
690.1
 21
681.0
 31
0.0
  0
LINE
  8
L-ZISSEN
  6
CONTINUOUS
 62
     7
 10
690.1
 20
682.75
 30
0.0
 11
697.1
 21
682.75
 31
0.0
  0
LINE
  8
L-ZISSEN
  6
CONTINUOUS
 62
     7
 10
697.1
 20
697.25
 30
0.0
 11
697.1
 21
682.75
 31
0.0
  0
LINE
  8
L-ZISSEN
  6
CONTINUOUS
 62
     7
 10
684.1
 20
701.0
 30
0.0
 11
684.1
 21
679.0
 31
0.0
  0
LINE
  8
L-ZISSEN
  6
CONTINUOUS
 62
     7
 10
684.1
 20
611.0
 30
0.0
 11
684.1
 21
589.0
 31
0.0
  0
LINE
  8
L-ZISSEN
  6
CONTINUOUS
 62
     7
 10
697.1
 20
607.25
 30
0.0
 11
697.1
 21
592.75
 31
0.0
  0
LINE
  8
L-ZISSEN
  6
CONTINUOUS
 62
     7
 10
690.1
 20
592.75
 30
0.0
 11
697.1
 21
592.75
 31
0.0
  0
LINE
  8
L-ZISSEN
  6
CONTINUOUS
 62
     7
 10
684.1
 20
591.0
 30
0.0
 11
690.1
 21
591.0
 31
0.0
  0
LINE
  8
L-ZISSEN
  6
CONTINUOUS
 62
     7
 10
690.1
 20
609.0
 30
0.0
 11
690.1
 21
591.0
 31
0.0
  0
LINE
  8
L-ZISSEN
 10
671.1
 20
589.0
 30
0.0
 11
684.1
 21
589.0
 31
0.0
  0
LINE
  8
L-ZISSEN
  6
CONTINUOUS
 62
     7
 10
690.1
 20
607.25
 30
0.0
 11
697.1
 21
607.25
 31
0.0
  0
LINE
  8
L-ZISSEN
  6
CONTINUOUS
 62
     7
 10
684.1
 20
609.0
 30
0.0
 11
690.1
 21
609.0
 31
0.0
  0
LINE
  8
L-ZISSEN
 10
671.1
 20
611.0
 30
0.0
 11
684.1
 21
611.0
 31
0.0
  0
LINE
  8
L-ZISSEN
  6
CONTINUOUS
 62
     7
 10
612.5
 20
389.1
 30
0.0
 11
605.5
 21
389.1
 31
0.0
  0
LINE
  8
L-ZISSEN
  6
CONTINUOUS
 62
     7
 10
612.5
 20
385.5
 30
0.0
 11
612.5
 21
389.1
 31
0.0
  0
LINE
  8
L-ZISSEN
  6
CONTINUOUS
 62
     7
 10
605.5
 20
385.5
 30
0.0
 11
605.5
 21
389.1
 31
0.0
  0
LINE
  8
L-ZISSEN
  6
CONTINUOUS
 62
     7
 10
553.6
 20
334.5
 30
0.0
 11
553.6
 21
325.5
 31
0.0
  0
LINE
  8
L-ZISSEN
  6
CONTINUOUS
 62
     7
 10
556.9
 20
325.5
 30
0.0
 11
553.6
 21
325.5
 31
0.0
  0
LINE
  8
L-ZISSEN
  6
CONTINUOUS
 62
     7
 10
556.9
 20
334.5
 30
0.0
 11
553.6
 21
334.5
 31
0.0
  0
LINE
  8
L-ZISSEN
  6
CONTINUOUS
 62
     7
 10
556.9
 20
374.5
 30
0.0
 11
553.6
 21
374.5
 31
0.0
  0
LINE
  8
L-ZISSEN
  6
CONTINUOUS
 62
     7
 10
556.9
 20
365.5
 30
0.0
 11
553.6
 21
365.5
 31
0.0
  0
LINE
  8
L-ZISSEN
  6
CONTINUOUS
 62
     7
 10
553.6
 20
374.5
 30
0.0
 11
553.6
 21
365.5
 31
0.0
  0
LINE
  8
L-ZISSEN
  6
CONTINUOUS
 62
     7
 10
561.5
 20
385.5
 30
0.0
 11
561.5
 21
389.1
 31
0.0
  0
LINE
  8
L-ZISSEN
  6
CONTINUOUS
 62
     7
 10
568.5
 20
385.5
 30
0.0
 11
568.5
 21
389.1
 31
0.0
  0
LINE
  8
L-ZISSEN
  6
CONTINUOUS
 62
     7
 10
568.5
 20
389.1
 30
0.0
 11
561.5
 21
389.1
 31
0.0
  0
LINE
  8
L-ZISSEN
 10
561.0
 20
385.5
 30
0.0
 11
613.0
 21
385.5
 31
0.0
  0
LINE
  8
L-ZISSEN
 10
613.0
 20
376.0
 30
0.0
 11
687.1
 21
376.0
 31
0.0
  0
LINE
  8
L-ZISSEN
 10
556.9
 20
376.0
 30
0.0
 11
561.0
 21
376.0
 31
0.0
  0
LINE
  8
L-ZISSEN
 10
561.0
 20
385.5
 30
0.0
 11
561.0
 21
376.0
 31
0.0
  0
LINE
  8
L-ZISSEN
 10
613.0
 20
385.5
 30
0.0
 11
613.0
 21
376.0
 31
0.0
  0
LINE
  8
L-ZISSEN
 10
579.5
 20
384.0
 30
0.0
 11
579.5
 21
381.618381
 31
0.0
  0
LINE
  8
L-ZISSEN
 10
594.5
 20
384.0
 30
0.0
 11
594.5
 21
381.618381
 31
0.0
  0
CIRCLE
  8
L-ZISSEN
 10
587.0
 20
371.0
 30
0.0
 40
9.3
  0
ARC
  8
L-ZISSEN
 10
587.0
 20
371.0
 30
0.0
 40
13.0
 50
125.234418
 51
54.765582
  0
LINE
  8
L-ZISSEN
 10
613.0
 20
384.0
 30
0.0
 11
561.0
 21
384.0
 31
0.0
  0
LINE
  8
L-ZISSEN
 10
615.1
 20
376.0
 30
0.0
 11
615.1
 21
324.0
 31
0.0
  0
LINE
  8
L-ZISSEN
 10
558.9
 20
376.0
 30
0.0
 11
558.9
 21
324.0
 31
0.0
  0
LINE
  8
L-ZISSEN
 10
556.9
 20
376.0
 30
0.0
 11
556.9
 21
324.0
 31
0.0
  0
LINE
  8
L-ZISSEN
 10
556.9
 20
324.0
 30
0.0
 11
687.1
 21
324.0
 31
0.0
  0
CIRCLE
  8
L-ZISSEN
 10
565.0
 20
418.0
 30
0.0
 40
3.5
  0
CIRCLE
  8
L-ZISSEN
 10
565.0
 20
462.0
 30
0.0
 40
3.5
  0
CIRCLE
  8
L-ZISSEN
 10
609.0
 20
462.0
 30
0.0
 40
3.5
  0
CIRCLE
  8
L-ZISSEN
 10
609.0
 20
418.0
 30
0.0
 40
3.5
  0
LINE
  8
L-ZISSEN
 10
613.0
 20
414.0
 30
0.0
 11
613.0
 21
466.0
 31
0.0
  0
LINE
  8
L-ZISSEN
 10
561.0
 20
414.0
 30
0.0
 11
561.0
 21
466.0
 31
0.0
  0
LINE
  8
L-ZISSEN
 10
687.1
 20
414.0
 30
0.0
 11
556.9
 21
414.0
 31
0.0
  0
LINE
  8
L-ZISSEN
 10
687.1
 20
466.0
 30
0.0
 11
556.9
 21
466.0
 31
0.0
  0
LINE
  8
L-ZISSEN
 10
615.1
 20
414.0
 30
0.0
 11
615.1
 21
466.0
 31
0.0
  0
LINE
  8
L-ZISSEN
  6
CONTINUOUS
 62
     7
 10
553.6
 20
424.5
 30
0.0
 11
553.6
 21
415.5
 31
0.0
  0
LINE
  8
L-ZISSEN
  6
CONTINUOUS
 62
     7
 10
556.9
 20
415.5
 30
0.0
 11
553.6
 21
415.5
 31
0.0
  0
LINE
  8
L-ZISSEN
  6
CONTINUOUS
 62
     7
 10
556.9
 20
424.5
 30
0.0
 11
553.6
 21
424.5
 31
0.0
  0
LINE
  8
L-ZISSEN
  6
CONTINUOUS
 62
     7
 10
556.9
 20
464.5
 30
0.0
 11
553.6
 21
464.5
 31
0.0
  0
LINE
  8
L-ZISSEN
  6
CONTINUOUS
 62
     7
 10
556.9
 20
455.5
 30
0.0
 11
553.6
 21
455.5
 31
0.0
  0
LINE
  8
L-ZISSEN
  6
CONTINUOUS
 62
     7
 10
553.6
 20
464.5
 30
0.0
 11
553.6
 21
455.5
 31
0.0
  0
LINE
  8
L-ZISSEN
  6
CONTINUOUS
 62
     7
 10
556.9
 20
466.0
 30
0.0
 11
556.9
 21
414.0
 31
0.0
  0
LINE
  8
L-ZISSEN
  6
CONTINUOUS
 62
     7
 10
558.9
 20
414.0
 30
0.0
 11
558.9
 21
466.0
 31
0.0
  0
LINE
  8
L-ZISSEN
 10
574.0
 20
414.0
 30
0.0
 11
574.0
 21
412.0
 31
0.0
  0
LINE
  8
L-ZISSEN
 10
574.0
 20
468.0
 30
0.0
 11
574.0
 21
466.0
 31
0.0
  0
LINE
  8
L-ZISSEN
 10
600.0
 20
468.0
 30
0.0
 11
600.0
 21
466.0
 31
0.0
  0
LINE
  8
L-ZISSEN
 10
600.0
 20
468.0
 30
0.0
 11
574.0
 21
468.0
 31
0.0
  0
LINE
  8
L-ZISSEN
 10
600.0
 20
414.0
 30
0.0
 11
600.0
 21
412.0
 31
0.0
  0
LINE
  8
L-ZISSEN
 10
600.0
 20
412.0
 30
0.0
 11
574.0
 21
412.0
 31
0.0
  0
CIRCLE
  8
L-ZISSEN
 10
790.0
 20
350.0
 30
0.0
 40
11.0
  0
CIRCLE
  8
L-ZISSEN
 10
790.0
 20
350.0
 30
0.0
 40
9.0
  0
CIRCLE
  8
L-ZISSEN
 10
790.0
 20
350.0
 30
0.0
 40
7.25
  0
LINE
  8
L-ZISSEN
  6
CONTINUOUS
 62
     7
 10
815.5
 20
385.5
 30
0.0
 11
815.5
 21
389.1
 31
0.0
  0
LINE
  8
L-ZISSEN
  6
CONTINUOUS
 62
     7
 10
808.5
 20
385.5
 30
0.0
 11
808.5
 21
389.1
 31
0.0
  0
LINE
  8
L-ZISSEN
  6
CONTINUOUS
 62
     7
 10
808.5
 20
389.1
 30
0.0
 11
815.5
 21
389.1
 31
0.0
  0
LINE
  8
L-ZISSEN
 10
816.0
 20
358.0
 30
0.0
 11
818.0
 21
358.0
 31
0.0
  0
LINE
  8
L-ZISSEN
 10
762.0
 20
358.0
 30
0.0
 11
764.0
 21
358.0
 31
0.0
  0
LINE
  8
L-ZISSEN
  6
CONTINUOUS
 62
     7
 10
771.5
 20
389.1
 30
0.0
 11
764.5
 21
389.1
 31
0.0
  0
LINE
  8
L-ZISSEN
  6
CONTINUOUS
 62
     7
 10
771.5
 20
385.5
 30
0.0
 11
771.5
 21
389.1
 31
0.0
  0
LINE
  8
L-ZISSEN
  6
CONTINUOUS
 62
     7
 10
764.5
 20
385.5
 30
0.0
 11
764.5
 21
389.1
 31
0.0
  0
LINE
  8
L-ZISSEN
 10
818.0
 20
358.0
 30
0.0
 11
818.0
 21
384.0
 31
0.0
  0
LINE
  8
L-ZISSEN
 10
764.0
 20
385.5
 30
0.0
 11
816.0
 21
385.5
 31
0.0
  0
LINE
  8
L-ZISSEN
 10
762.0
 20
384.0
 30
0.0
 11
818.0
 21
384.0
 31
0.0
  0
LINE
  8
L-ZISSEN
 10
816.0
 20
385.5
 30
0.0
 11
816.0
 21
324.0
 31
0.0
  0
LINE
  8
L-ZISSEN
 10
762.0
 20
358.0
 30
0.0
 11
762.0
 21
384.0
 31
0.0
  0
LINE
  8
L-ZISSEN
 10
764.0
 20
376.0
 30
0.0
 11
816.0
 21
376.0
 31
0.0
  0
LINE
  8
L-ZISSEN
 10
764.0
 20
324.0
 30
0.0
 11
764.0
 21
385.5
 31
0.0
  0
LINE
  8
L-ZISSEN
 10
764.0
 20
324.0
 30
0.0
 11
816.0
 21
324.0
 31
0.0
  0
CIRCLE
  8
L-ZISSEN
 10
790.0
 20
350.0
 30
0.0
 40
19.0
  0
CIRCLE
  8
L-ZISSEN
 10
770.0
 20
370.0
 30
0.0
 40
4.49995
  0
CIRCLE
  8
L-ZISSEN
 10
810.0
 20
370.0
 30
0.0
 40
4.49995
  0
CIRCLE
  8
L-ZISSEN
 10
770.0
 20
330.0
 30
0.0
 40
4.49995
  0
CIRCLE
  8
L-ZISSEN
 10
810.0
 20
330.0
 30
0.0
 40
4.49995
  0
LINE
  8
L-ZISSEN
  6
CONTINUOUS
 62
     7
 10
710.7
 20
361.0
 30
0.0
 11
710.7
 21
339.0
 31
0.0
  0
LINE
  8
L-ZISSEN
  6
CONTINUOUS
 62
     7
 10
724.0
 20
357.25
 30
0.0
 11
724.0
 21
342.75
 31
0.0
  0
LINE
  8
L-ZISSEN
  6
CONTINUOUS
 62
     7
 10
716.7
 20
342.75
 30
0.0
 11
724.0
 21
342.75
 31
0.0
  0
LINE
  8
L-ZISSEN
  6
CONTINUOUS
 62
     7
 10
710.7
 20
341.0
 30
0.0
 11
716.7
 21
341.0
 31
0.0
  0
LINE
  8
L-ZISSEN
  6
CONTINUOUS
 62
     7
 10
716.7
 20
359.0
 30
0.0
 11
716.7
 21
341.0
 31
0.0
  0
LINE
  8
L-ZISSEN
 10
697.7
 20
339.0
 30
0.0
 11
710.7
 21
339.0
 31
0.0
  0
LINE
  8
L-ZISSEN
  6
CONTINUOUS
 62
     7
 10
716.7
 20
357.25
 30
0.0
 11
724.0
 21
357.25
 31
0.0
  0
LINE
  8
L-ZISSEN
  6
CONTINUOUS
 62
     7
 10
710.7
 20
359.0
 30
0.0
 11
716.7
 21
359.0
 31
0.0
  0
LINE
  8
L-ZISSEN
 10
697.7
 20
361.0
 30
0.0
 11
710.7
 21
361.0
 31
0.0
  0
LINE
  8
L-ZISSEN
 10
697.7
 20
451.0
 30
0.0
 11
710.7
 21
451.0
 31
0.0
  0
LINE
  8
L-ZISSEN
  6
CONTINUOUS
 62
     7
 10
710.7
 20
449.0
 30
0.0
 11
716.7
 21
449.0
 31
0.0
  0
LINE
  8
L-ZISSEN
  6
CONTINUOUS
 62
     7
 10
716.7
 20
447.25
 30
0.0
 11
724.0
 21
447.25
 31
0.0
  0
LINE
  8
L-ZISSEN
 10
697.7
 20
429.0
 30
0.0
 11
710.7
 21
429.0
 31
0.0
  0
LINE
  8
L-ZISSEN
  6
CONTINUOUS
 62
     7
 10
716.7
 20
449.0
 30
0.0
 11
716.7
 21
431.0
 31
0.0
  0
LINE
  8
L-ZISSEN
  6
CONTINUOUS
 62
     7
 10
710.7
 20
431.0
 30
0.0
 11
716.7
 21
431.0
 31
0.0
  0
LINE
  8
L-ZISSEN
  6
CONTINUOUS
 62
     7
 10
716.7
 20
432.75
 30
0.0
 11
724.0
 21
432.75
 31
0.0
  0
LINE
  8
L-ZISSEN
  6
CONTINUOUS
 62
     7
 10
724.0
 20
447.25
 30
0.0
 11
724.0
 21
432.75
 31
0.0
  0
LINE
  8
L-ZISSEN
  6
CONTINUOUS
 62
     7
 10
710.7
 20
451.0
 30
0.0
 11
710.7
 21
429.0
 31
0.0
  0
LINE
  8
L-ZISSEN
 10
697.7
 20
369.0
 30
0.0
 11
697.7
 21
331.0
 31
0.0
  0
LINE
  8
L-ZISSEN
 10
687.1
 20
376.0
 30
0.0
 11
687.1
 21
324.0
 31
0.0
  0
LINE
  8
L-ZISSEN
 10
691.74282
 20
369.0
 30
0.0
 11
697.7
 21
369.0
 31
0.0
  0
LINE
  8
L-ZISSEN
 10
691.74282
 20
331.0
 30
0.0
 11
697.7
 21
331.0
 31
0.0
  0
LINE
  8
L-ZISSEN
 10
691.74282
 20
374.49995
 30
0.0
 11
687.1
 21
374.49995
 31
0.0
  0
LINE
  8
L-ZISSEN
 10
691.74282
 20
365.50005
 30
0.0
 11
691.74282
 21
374.49995
 31
0.0
  0
LINE
  8
L-ZISSEN
 10
691.74282
 20
365.50005
 30
0.0
 11
687.1
 21
365.50005
 31
0.0
  0
LINE
  8
L-ZISSEN
 10
691.74282
 20
334.49995
 30
0.0
 11
687.1
 21
334.49995
 31
0.0
  0
LINE
  8
L-ZISSEN
 10
691.74282
 20
334.49995
 30
0.0
 11
691.74282
 21
325.50005
 31
0.0
  0
LINE
  8
L-ZISSEN
 10
691.74282
 20
325.50005
 30
0.0
 11
687.1
 21
325.50005
 31
0.0
  0
LINE
  8
L-ZISSEN
 10
691.74282
 20
415.50005
 30
0.0
 11
687.1
 21
415.50005
 31
0.0
  0
LINE
  8
L-ZISSEN
 10
691.74282
 20
424.49995
 30
0.0
 11
691.74282
 21
415.50005
 31
0.0
  0
LINE
  8
L-ZISSEN
 10
691.74282
 20
424.49995
 30
0.0
 11
687.1
 21
424.49995
 31
0.0
  0
LINE
  8
L-ZISSEN
 10
691.74282
 20
455.50005
 30
0.0
 11
687.1
 21
455.50005
 31
0.0
  0
LINE
  8
L-ZISSEN
 10
691.74282
 20
455.50005
 30
0.0
 11
691.74282
 21
464.49995
 31
0.0
  0
LINE
  8
L-ZISSEN
 10
691.74282
 20
464.49995
 30
0.0
 11
687.1
 21
464.49995
 31
0.0
  0
LINE
  8
L-ZISSEN
 10
691.74282
 20
421.0
 30
0.0
 11
697.7
 21
421.0
 31
0.0
  0
LINE
  8
L-ZISSEN
 10
691.74282
 20
459.0
 30
0.0
 11
697.7
 21
459.0
 31
0.0
  0
LINE
  8
L-ZISSEN
 10
687.1
 20
466.0
 30
0.0
 11
687.1
 21
414.0
 31
0.0
  0
LINE
  8
L-ZISSEN
 10
697.7
 20
459.0
 30
0.0
 11
697.7
 21
421.0
 31
0.0
  0
LINE
  8
L-ZISSEN
 10
1403.0
 20
884.0
 30
0.0
 11
1351.0
 21
884.0
 31
0.0
  0
LINE
  8
L-ZISSEN
 10
1403.0
 20
889.6
 30
0.0
 11
1403.0
 21
876.0
 31
0.0
  0
LINE
  8
L-ZISSEN
 10
1351.0
 20
889.6
 30
0.0
 11
1351.0
 21
876.0
 31
0.0
  0
LINE
  8
L-ZISSEN
 10
1351.0
 20
889.6
 30
0.0
 11
1403.0
 21
889.6
 31
0.0
  0
LINE
  8
L-ZISSEN
  6
CONTINUOUS
 62
     7
 10
1358.5
 20
893.2
 30
0.0
 11
1351.5
 21
893.2
 31
0.0
  0
LINE
  8
L-ZISSEN
  6
CONTINUOUS
 62
     7
 10
1358.5
 20
889.6
 30
0.0
 11
1358.5
 21
893.2
 31
0.0
  0
LINE
  8
L-ZISSEN
  6
CONTINUOUS
 62
     7
 10
1351.5
 20
889.6
 30
0.0
 11
1351.5
 21
893.2
 31
0.0
  0
LINE
  8
L-ZISSEN
  6
CONTINUOUS
 62
     7
 10
1395.5
 20
889.6
 30
0.0
 11
1395.5
 21
893.2
 31
0.0
  0
LINE
  8
L-ZISSEN
  6
CONTINUOUS
 62
     7
 10
1402.5
 20
889.6
 30
0.0
 11
1402.5
 21
893.2
 31
0.0
  0
LINE
  8
L-ZISSEN
  6
CONTINUOUS
 62
     7
 10
1402.5
 20
893.2
 30
0.0
 11
1395.5
 21
893.2
 31
0.0
  0
LINE
  8
L-ZISSEN
 10
1494.0
 20
889.6
 30
0.0
 11
1494.0
 21
896.1
 31
0.0
  0
LINE
  8
L-ZISSEN
 10
1502.0
 20
896.1
 30
0.0
 11
1502.0
 21
893.2
 31
0.0
  0
LINE
  8
L-ZISSEN
  6
CONTINUOUS
 62
     7
 10
1502.0
 20
896.1
 30
0.0
 11
1494.0
 21
896.1
 31
0.0
  0
LINE
  8
L-ZISSEN
  6
CONTINUOUS
 62
     7
 10
1505.5
 20
889.6
 30
0.0
 11
1505.5
 21
893.2
 31
0.0
  0
LINE
  8
L-ZISSEN
  6
CONTINUOUS
 62
     7
 10
1498.5
 20
889.6
 30
0.0
 11
1498.5
 21
893.2
 31
0.0
  0
LINE
  8
L-ZISSEN
  6
CONTINUOUS
 62
     7
 10
1498.5
 20
893.2
 30
0.0
 11
1505.5
 21
893.2
 31
0.0
  0
LINE
  8
L-ZISSEN
  6
CONTINUOUS
 62
     7
 10
1461.5
 20
893.2
 30
0.0
 11
1454.5
 21
893.2
 31
0.0
  0
LINE
  8
L-ZISSEN
  6
CONTINUOUS
 62
     7
 10
1461.5
 20
889.6
 30
0.0
 11
1461.5
 21
893.2
 31
0.0
  0
LINE
  8
L-ZISSEN
  6
CONTINUOUS
 62
     7
 10
1454.5
 20
889.6
 30
0.0
 11
1454.5
 21
893.2
 31
0.0
  0
LINE
  8
L-ZISSEN
 10
1454.0
 20
889.6
 30
0.0
 11
1506.0
 21
889.6
 31
0.0
  0
LINE
  8
L-ZISSEN
 10
1452.0
 20
884.0
 30
0.0
 11
1508.0
 21
884.0
 31
0.0
  0
LINE
  8
L-ZISSEN
 10
1506.0
 20
889.6
 30
0.0
 11
1506.0
 21
824.0
 31
0.0
  0
LINE
  8
L-ZISSEN
 10
1454.0
 20
824.0
 30
0.0
 11
1454.0
 21
889.6
 31
0.0
  0
TEXT
  8
L-ZISSEN
 10
1340.0
 20
1010.0
 30
0.0
 40
4.5
  1
PILOT LAMP
  0
CIRCLE
  8
L-ZISSEN
 10
1392.0
 20
958.0
 30
0.0
 40
4.0
  0
LINE
  8
L-ZISSEN
  6
CONTINUOUS
 62
     7
 10
1388.0
 20
896.1
 30
0.0
 11
1396.0
 21
896.1
 31
0.0
  0
LINE
  8
L-ZISSEN
 10
1388.0
 20
896.1
 30
0.0
 11
1388.0
 21
889.6
 31
0.0
  0
LINE
  8
L-ZISSEN
 10
1396.0
 20
893.2
 30
0.0
 11
1396.0
 21
896.1
 31
0.0
  0
LINE
  8
L-ZISSEN
 10
141.5
 20
376.0
 30
0.0
 11
78.5
 21
376.0
 31
0.0
  0
LINE
  8
L-ZISSEN
 10
141.5
 20
439.0
 30
0.0
 11
78.5
 21
439.0
 31
0.0
  0
LINE
  8
L-ZISSEN
 10
78.5
 20
376.0
 30
0.0
 11
78.5
 21
385.5
 31
0.0
  0
LINE
  8
L-ZISSEN
 10
141.5
 20
376.0
 30
0.0
 11
141.5
 21
384.0
 31
0.0
  0
LINE
  8
L-ZISSEN
 10
141.5
 20
436.0
 30
0.0
 11
141.5
 21
439.0
 31
0.0
  0
LINE
  8
L-ZISSEN
 10
78.5
 20
394.5
 30
0.0
 11
78.5
 21
425.5
 31
0.0
  0
LINE
  8
L-ZISSEN
 10
78.5
 20
434.5
 30
0.0
 11
78.5
 21
439.0
 31
0.0
  0
LINE
  8
L-ZISSEN
 10
149.0
 20
374.5
 30
0.0
 11
149.0
 21
384.031429
 31
0.0
  0
LINE
  8
L-ZISSEN
 10
71.0
 20
374.5
 30
0.0
 11
71.0
 21
392.5
 31
0.0
  0
LINE
  8
L-ZISSEN
 10
151.0
 20
374.5
 30
0.0
 11
125.0
 21
374.5
 31
0.0
  0
LINE
  8
L-ZISSEN
 10
133.0
 20
374.5
 30
0.0
 11
133.0
 21
376.0
 31
0.0
  0
LINE
  8
L-ZISSEN
 10
87.0
 20
374.5
 30
0.0
 11
87.0
 21
376.0
 31
0.0
  0
LINE
  8
L-ZISSEN
 10
87.0
 20
374.5
 30
0.0
 11
69.0
 21
374.5
 31
0.0
  0
LINE
  8
L-ZISSEN
 10
153.2
 20
440.5
 30
0.0
 11
66.8
 21
440.5
 31
0.0
  0
LINE
  8
L-ZISSEN
 10
133.0
 20
439.0
 30
0.0
 11
133.0
 21
440.5
 31
0.0
  0
LINE
  8
L-ZISSEN
 10
87.0
 20
439.0
 30
0.0
 11
87.0
 21
440.5
 31
0.0
  0
LINE
  8
L-ZISSEN
 10
149.0
 20
435.968571
 30
0.0
 11
149.0
 21
440.5
 31
0.0
  0
LINE
  8
L-ZISSEN
 10
151.0
 20
374.5
 30
0.0
 11
151.0
 21
384.10127
 31
0.0
  0
LINE
  8
L-ZISSEN
 10
54.0
 20
385.0
 30
0.0
 11
54.0
 21
430.0
 31
0.0
  0
LINE
  8
L-ZISSEN
 10
69.0
 20
374.5
 30
0.0
 11
69.0
 21
440.5
 31
0.0
  0
LINE
  8
L-ZISSEN
 10
151.0
 20
435.89873
 30
0.0
 11
151.0
 21
440.5
 31
0.0
  0
LINE
  8
L-ZISSEN
 10
61.5
 20
385.0
 30
0.0
 11
54.0
 21
385.0
 31
0.0
  0
LINE
  8
L-TYUSIN
  6
CENTER
 62
     1
 10
49.0
 20
407.5
 30
0.0
 11
200.1
 21
407.5
 31
0.0
  0
LINE
  8
L-ZISSEN
 10
61.5
 20
376.5
 30
0.0
 11
61.5
 21
386.5
 31
0.0
  0
LINE
  8
L-ZISSEN
 10
61.5
 20
386.5
 30
0.0
 11
69.0
 21
386.5
 31
0.0
  0
LINE
  8
L-ZISSEN
 10
61.5
 20
376.5
 30
0.0
 11
69.0
 21
376.5
 31
0.0
  0
LINE
  8
L-ZISSEN
 10
61.5
 20
438.5
 30
0.0
 11
69.0
 21
438.5
 31
0.0
  0
LINE
  8
L-ZISSEN
 10
61.5
 20
428.5
 30
0.0
 11
69.0
 21
428.5
 31
0.0
  0
LINE
  8
L-ZISSEN
 10
61.5
 20
438.5
 30
0.0
 11
61.5
 21
428.5
 31
0.0
  0
LINE
  8
L-ZISSEN
 10
61.5
 20
430.0
 30
0.0
 11
54.0
 21
430.0
 31
0.0
  0
LINE
  8
L-ZISSEN
 10
70.0
 20
463.5
 30
0.0
 11
40.0
 21
463.5
 31
0.0
  0
LINE
  8
L-ZISSEN
 10
40.0
 20
460.3
 30
0.0
 11
40.0
 21
463.5
 31
0.0
  0
LINE
  8
L-ZISSEN
 10
70.0
 20
443.7
 30
0.0
 11
70.0
 21
463.5
 31
0.0
  0
LINE
  8
L-ZISSEN
 10
66.8
 20
440.5
 30
0.0
 11
66.8
 21
460.3
 31
0.0
  0
LINE
  8
L-ZISSEN
 10
150.0
 20
443.7
 30
0.0
 11
70.0
 21
443.7
 31
0.0
  0
LINE
  8
L-ZISSEN
 10
66.8
 20
460.3
 30
0.0
 11
40.0
 21
460.3
 31
0.0
  0
LINE
  8
L-ZISSEN
 10
153.2
 20
460.3
 30
0.0
 11
180.0
 21
460.3
 31
0.0
  0
LINE
  8
L-ZISSEN
 10
180.0
 20
460.3
 30
0.0
 11
180.0
 21
463.5
 31
0.0
  0
LINE
  8
L-ZISSEN
 10
150.0
 20
463.5
 30
0.0
 11
180.0
 21
463.5
 31
0.0
  0
LINE
  8
L-ZISSEN
 10
153.2
 20
440.5
 30
0.0
 11
153.2
 21
460.3
 31
0.0
  0
LINE
  8
L-ZISSEN
 10
150.0
 20
443.7
 30
0.0
 11
150.0
 21
463.5
 31
0.0
  0
LINE
  8
L-ZISSEN
 10
146.0
 20
451.2
 30
0.0
 11
136.0
 21
451.2
 31
0.0
  0
LINE
  8
L-ZISSEN
 10
136.0
 20
451.2
 30
0.0
 11
136.0
 21
443.7
 31
0.0
  0
LINE
  8
L-ZISSEN
 10
146.0
 20
451.2
 30
0.0
 11
146.0
 21
443.7
 31
0.0
  0
LINE
  8
L-ZISSEN
 10
74.0
 20
451.2
 30
0.0
 11
74.0
 21
443.7
 31
0.0
  0
LINE
  8
L-ZISSEN
 10
84.0
 20
451.2
 30
0.0
 11
84.0
 21
443.7
 31
0.0
  0
LINE
  8
L-ZISSEN
 10
74.0
 20
451.2
 30
0.0
 11
84.0
 21
451.2
 31
0.0
  0
LINE
  8
L-ZISSEN
 10
158.5
 20
183.0
 30
0.0
 11
158.5
 21
173.0
 31
0.0
  0
LINE
  8
L-ZISSEN
 10
158.5
 20
173.0
 30
0.0
 11
151.0
 21
173.0
 31
0.0
  0
LINE
  8
L-ZISSEN
 10
158.5
 20
183.0
 30
0.0
 11
151.0
 21
183.0
 31
0.0
  0
LINE
  8
L-ZISSEN
 10
151.0
 20
228.0
 30
0.0
 11
151.0
 21
172.0
 31
0.0
  0
LINE
  8
L-ZISSEN
 10
158.5
 20
217.0
 30
0.0
 11
151.0
 21
217.0
 31
0.0
  0
LINE
  8
L-ZISSEN
 10
158.5
 20
227.0
 30
0.0
 11
151.0
 21
227.0
 31
0.0
  0
LINE
  8
L-ZISSEN
 10
158.5
 20
217.0
 30
0.0
 11
158.5
 21
227.0
 31
0.0
  0
LINE
  8
L-ZISSEN
 10
391.5
 20
217.0
 30
0.0
 11
391.5
 21
222.0
 31
0.0
  0
LINE
  8
L-ZISSEN
 10
391.5
 20
217.0
 30
0.0
 11
399.0
 21
217.0
 31
0.0
  0
LINE
  8
L-ZISSEN
 10
399.0
 20
222.0
 30
0.0
 11
399.0
 21
172.0
 31
0.0
  0
LINE
  8
L-ZISSEN
 10
391.5
 20
183.0
 30
0.0
 11
399.0
 21
183.0
 31
0.0
  0
LINE
  8
L-ZISSEN
 10
391.5
 20
173.0
 30
0.0
 11
399.0
 21
173.0
 31
0.0
  0
LINE
  8
L-ZISSEN
 10
391.5
 20
183.0
 30
0.0
 11
391.5
 21
173.0
 31
0.0
  0
TEXT
  8
L-ZISSEN
 10
143.0
 20
500.0
 30
0.0
 40
4.5
  1
AC-100V
  0
TEXT
  8
L-ZISSEN
 10
143.0
 20
490.0
 30
0.0
 40
4.5
  1
AC-200V
  0
TEXT
  8
L-ZISSEN
 10
555.0
 20
1010.0
 30
0.0
 40
4.5
  1
PILOT VALVE
  0
TEXT
  8
L-ZISSEN
 10
660.0
 20
1005.0
 30
0.0
 40
4.5
  1
DC-24V
  0
TEXT
  8
L-ZISSEN
 10
660.0
 20
995.0
 30
0.0
 40
4.5
  1
DC-100V
  0
TEXT
  8
L-ZISSEN
 10
910.0
 20
760.0
 30
0.0
 40
4.5
  1
PILOT VALVE
  0
TEXT
  8
L-ZISSEN
 10
1015.0
 20
755.0
 30
0.0
 40
4.5
  1
DC-24V
  0
TEXT
  8
L-ZISSEN
 10
1015.0
 20
745.0
 30
0.0
 40
4.5
  1
DC-100V
  0
TEXT
  8
L-ZISSEN
 10
910.0
 20
500.0
 30
0.0
 40
4.5
  1
MODEL NO. : 368-*00-9*R0
  0
TEXT
  8
L-ZISSEN
 10
910.0
 20
510.0
 30
0.0
 40
4.5
  1
PILOT VALVE
  0
TEXT
  8
L-ZISSEN
 10
1015.0
 20
505.0
 30
0.0
 40
4.5
  1
AC-100V
  0
TEXT
  8
L-ZISSEN
 10
1015.0
 20
495.0
 30
0.0
 40
4.5
  1
AC-200V
  0
TEXT
  8
L-ZISSEN
 10
555.0
 20
760.0
 30
0.0
 40
4.5
  1
PILOT VALVE
  0
TEXT
  8
L-ZISSEN
 10
555.0
 20
750.0
 30
0.0
 40
4.5
  1
MODEL NO. : 368-*00-8*R0
  0
TEXT
  8
L-ZISSEN
 10
660.0
 20
755.0
 30
0.0
 40
4.5
  1
AC-100V
  0
TEXT
  8
L-ZISSEN
 10
660.0
 20
745.0
 30
0.0
 40
4.5
  1
AC-200V
  0
TEXT
  8
L-ZISSEN
 10
555.0
 20
1000.0
 30
0.0
 40
4.5
  1
MODEL NO. : 268-*00-8*B0
  0
TEXT
  8
L-ZISSEN
 10
555.0
 20
500.0
 30
0.0
 40
4.5
  1
MODEL NO. : 368-*00-8*R0
  0
TEXT
  8
L-ZISSEN
 10
660.0
 20
495.0
 30
0.0
 40
4.5
  1
DC-100V
  0
TEXT
  8
L-ZISSEN
 10
660.0
 20
505.0
 30
0.0
 40
4.5
  1
DC-24V
  0
TEXT
  8
L-ZISSEN
 10
555.0
 20
510.0
 30
0.0
 40
4.5
  1
PILOT VALVE
  0
TEXT
  8
L-ZISSEN
 10
1015.0
 20
245.0
 30
0.0
 40
4.5
  1
DC-100V
  0
TEXT
  8
L-ZISSEN
 10
1015.0
 20
255.0
 30
0.0
 40
4.5
  1
DC-24V
  0
TEXT
  8
L-ZISSEN
 10
910.0
 20
260.0
 30
0.0
 40
4.5
  1
PILOT VALVE
  0
TEXT
  8
L-ZISSEN
 10
1340.0
 20
1000.0
 30
0.0
 40
4.5
  1
MODEL NO. : 368-*00-8**2
  0
TEXT
  8
L-ZISSEN
 10
40.0
 20
495.0
 30
0.0
 40
4.5
  1
MODEL NO. : 368- 00-8 B0
  0
SOLID
  8
L-ZISSEN
 10
108.664824
 20
265.525915
 30
0.0
 11
108.242105
 21
265.010403
 31
0.0
 12
110.0
 22
264.0
 32
0.0
 13
110.0
 23
264.0
 33
0.0
  0
LINE
  8
L-ZISSEN
 10
108.453464
 20
265.268159
 30
0.0
 11
60.0
 21
305.0
 31
0.0
  0
LINE
  8
L-ZISSEN
 10
60.0
 20
305.0
 30
0.0
 11
58.0
 21
305.0
 31
0.0
  0
TEXT
  8
L-ZISSEN
 10
47.0
 20
302.75
 30
0.0
 40
4.5
  1
P.P
  0
SOLID
  8
L-ZISSEN
 10
274.441569
 20
264.584311
 30
0.0
 11
274.147113
 21
265.182425
 31
0.0
 12
272.5
 22
264.0
 32
0.0
 13
272.5
 23
264.0
 33
0.0
  0
LINE
  8
L-ZISSEN
 10
274.294341
 20
264.883368
 30
0.0
 11
305.0
 21
280.0
 31
0.0
  0
LINE
  8
L-ZISSEN
 10
305.0
 20
280.0
 30
0.0
 11
307.0
 21
280.0
 31
0.0
  0
TEXT
  8
L-ZISSEN
 10
309.0
 20
277.75
 30
0.0
 40
4.5
  1
P.P
  0
SOLID
  8
L-ZISSEN
 10
587.707973
 20
938.10003
 30
0.0
 11
588.285911
 21
938.432344
 31
0.0
 12
587.0
 22
940.0
 32
0.0
 13
587.0
 23
940.0
 33
0.0
  0
LINE
  8
L-ZISSEN
 10
587.996942
 20
938.266187
 30
0.0
 11
610.0
 21
900.0
 31
0.0
  0
LINE
  8
L-ZISSEN
 10
610.0
 20
900.0
 30
0.0
 11
612.0
 21
900.0
 31
0.0
  0
TEXT
  8
L-ZISSEN
 10
614.0
 20
897.75
 30
0.0
 40
4.5
  1
P.P
  0
SOLID
  8
L-ZISSEN
 10
588.133505
 20
822.318846
 30
0.0
 11
588.617474
 21
822.777343
 31
0.0
 12
587.0
 22
824.0
 32
0.0
 13
587.0
 23
824.0
 33
0.0
  0
LINE
  8
L-ZISSEN
 10
588.375489
 20
822.548095
 30
0.0
 11
605.0
 21
805.0
 31
0.0
  0
LINE
  8
L-ZISSEN
 10
605.0
 20
805.0
 30
0.0
 11
607.0
 21
805.0
 31
0.0
  0
TEXT
  8
L-ZISSEN
 10
609.0
 20
802.75
 30
0.0
 40
4.5
  1
P.P
  0
SOLID
  8
L-ZISSEN
 10
790.977661
 20
822.223686
 30
0.0
 11
791.500916
 21
822.636783
 31
0.0
 12
790.0
 22
824.0
 32
0.0
 13
790.0
 23
824.0
 33
0.0
  0
LINE
  8
L-ZISSEN
 10
791.239289
 20
822.430234
 30
0.0
 11
805.0
 21
805.0
 31
0.0
  0
LINE
  8
L-ZISSEN
 10
805.0
 20
805.0
 30
0.0
 11
807.0
 21
805.0
 31
0.0
  0
TEXT
  8
L-ZISSEN
 10
809.0
 20
802.75
 30
0.0
 40
4.5
  1
P.P
  0
TEXT
  8
L-ZISSEN
 10
609.0
 20
552.75
 30
0.0
 40
4.5
  1
P.P
  0
LINE
  8
L-ZISSEN
 10
605.0
 20
555.0
 30
0.0
 11
607.0
 21
555.0
 31
0.0
  0
LINE
  8
L-ZISSEN
 10
588.375489
 20
572.548095
 30
0.0
 11
605.0
 21
555.0
 31
0.0
  0
SOLID
  8
L-ZISSEN
 10
588.133505
 20
572.318846
 30
0.0
 11
588.617474
 21
572.777343
 31
0.0
 12
587.0
 22
574.0
 32
0.0
 13
587.0
 23
574.0
 33
0.0
  0
TEXT
  8
L-ZISSEN
 10
809.0
 20
552.75
 30
0.0
 40
4.5
  1
P.P
  0
LINE
  8
L-ZISSEN
 10
805.0
 20
555.0
 30
0.0
 11
807.0
 21
555.0
 31
0.0
  0
LINE
  8
L-ZISSEN
 10
791.239289
 20
572.430234
 30
0.0
 11
805.0
 21
555.0
 31
0.0
  0
SOLID
  8
L-ZISSEN
 10
790.977661
 20
572.223686
 30
0.0
 11
791.500916
 21
572.636783
 31
0.0
 12
790.0
 22
574.0
 32
0.0
 13
790.0
 23
574.0
 33
0.0
  0
SOLID
  8
L-ZISSEN
 10
587.707973
 20
688.10003
 30
0.0
 11
588.285911
 21
688.432344
 31
0.0
 12
587.0
 22
690.0
 32
0.0
 13
587.0
 23
690.0
 33
0.0
  0
LINE
  8
L-ZISSEN
 10
587.996942
 20
688.266187
 30
0.0
 11
610.0
 21
650.0
 31
0.0
  0
TEXT
  8
L-ZISSEN
 10
614.0
 20
647.75
 30
0.0
 40
4.5
  1
P.P
  0
LINE
  8
L-ZISSEN
 10
610.0
 20
650.0
 30
0.0
 11
612.0
 21
650.0
 31
0.0
  0
SOLID
  8
L-ZISSEN
 10
588.133505
 20
322.318846
 30
0.0
 11
588.617474
 21
322.777343
 31
0.0
 12
587.0
 22
324.0
 32
0.0
 13
587.0
 23
324.0
 33
0.0
  0
LINE
  8
L-ZISSEN
 10
588.375489
 20
322.548095
 30
0.0
 11
605.0
 21
305.0
 31
0.0
  0
LINE
  8
L-ZISSEN
 10
605.0
 20
305.0
 30
0.0
 11
607.0
 21
305.0
 31
0.0
  0
TEXT
  8
L-ZISSEN
 10
609.0
 20
302.75
 30
0.0
 40
4.5
  1
P.P
  0
SOLID
  8
L-ZISSEN
 10
790.977661
 20
322.223686
 30
0.0
 11
791.500916
 21
322.636783
 31
0.0
 12
790.0
 22
324.0
 32
0.0
 13
790.0
 23
324.0
 33
0.0
  0
LINE
  8
L-ZISSEN
 10
791.239289
 20
322.430234
 30
0.0
 11
805.0
 21
305.0
 31
0.0
  0
LINE
  8
L-ZISSEN
 10
805.0
 20
305.0
 30
0.0
 11
807.0
 21
305.0
 31
0.0
  0
TEXT
  8
L-ZISSEN
 10
809.0
 20
302.75
 30
0.0
 40
4.5
  1
P.P
  0
SOLID
  8
L-ZISSEN
 10
587.707973
 20
438.10003
 30
0.0
 11
588.285911
 21
438.432344
 31
0.0
 12
587.0
 22
440.0
 32
0.0
 13
587.0
 23
440.0
 33
0.0
  0
LINE
  8
L-ZISSEN
 10
587.996942
 20
438.266187
 30
0.0
 11
610.0
 21
400.0
 31
0.0
  0
LINE
  8
L-ZISSEN
 10
610.0
 20
400.0
 30
0.0
 11
612.0
 21
400.0
 31
0.0
  0
TEXT
  8
L-ZISSEN
 10
614.0
 20
397.75
 30
0.0
 40
4.5
  1
P.P
  0
TEXT
  8
L-ZISSEN
 10
1249.0
 20
552.75
 30
0.0
 40
4.5
  1
P.P
  0
LINE
  8
L-ZISSEN
 10
1245.0
 20
555.0
 30
0.0
 11
1247.0
 21
555.0
 31
0.0
  0
LINE
  8
L-ZISSEN
 10
1231.239289
 20
572.430234
 30
0.0
 11
1245.0
 21
555.0
 31
0.0
  0
SOLID
  8
L-ZISSEN
 10
1230.977661
 20
572.223686
 30
0.0
 11
1231.500916
 21
572.636783
 31
0.0
 12
1230.0
 22
574.0
 32
0.0
 13
1230.0
 23
574.0
 33
0.0
  0
SOLID
  8
L-ZISSEN
 10
1027.707973
 20
688.10003
 30
0.0
 11
1028.285911
 21
688.432344
 31
0.0
 12
1027.0
 22
690.0
 32
0.0
 13
1027.0
 23
690.0
 33
0.0
  0
LINE
  8
L-ZISSEN
 10
1027.996942
 20
688.266187
 30
0.0
 11
1050.0
 21
650.0
 31
0.0
  0
TEXT
  8
L-ZISSEN
 10
1054.0
 20
647.75
 30
0.0
 40
4.5
  1
P.P
  0
LINE
  8
L-ZISSEN
 10
1050.0
 20
650.0
 30
0.0
 11
1052.0
 21
650.0
 31
0.0
  0
TEXT
  8
L-ZISSEN
 10
1049.0
 20
552.75
 30
0.0
 40
4.5
  1
P.P
  0
LINE
  8
L-ZISSEN
 10
1045.0
 20
555.0
 30
0.0
 11
1047.0
 21
555.0
 31
0.0
  0
LINE
  8
L-ZISSEN
 10
1028.375489
 20
572.548095
 30
0.0
 11
1045.0
 21
555.0
 31
0.0
  0
SOLID
  8
L-ZISSEN
 10
1028.133505
 20
572.318846
 30
0.0
 11
1028.617474
 21
572.777343
 31
0.0
 12
1027.0
 22
574.0
 32
0.0
 13
1027.0
 23
574.0
 33
0.0
  0
SOLID
  8
L-ZISSEN
 10
1230.977661
 20
322.223686
 30
0.0
 11
1231.500916
 21
322.636783
 31
0.0
 12
1230.0
 22
324.0
 32
0.0
 13
1230.0
 23
324.0
 33
0.0
  0
LINE
  8
L-ZISSEN
 10
1231.239289
 20
322.430234
 30
0.0
 11
1245.0
 21
305.0
 31
0.0
  0
LINE
  8
L-ZISSEN
 10
1245.0
 20
305.0
 30
0.0
 11
1247.0
 21
305.0
 31
0.0
  0
TEXT
  8
L-ZISSEN
 10
1249.0
 20
302.75
 30
0.0
 40
4.5
  1
P.P
  0
SOLID
  8
L-ZISSEN
 10
1028.133505
 20
322.318846
 30
0.0
 11
1028.617474
 21
322.777343
 31
0.0
 12
1027.0
 22
324.0
 32
0.0
 13
1027.0
 23
324.0
 33
0.0
  0
LINE
  8
L-ZISSEN
 10
1028.375489
 20
322.548095
 30
0.0
 11
1045.0
 21
305.0
 31
0.0
  0
LINE
  8
L-ZISSEN
 10
1045.0
 20
305.0
 30
0.0
 11
1047.0
 21
305.0
 31
0.0
  0
TEXT
  8
L-ZISSEN
 10
1049.0
 20
302.75
 30
0.0
 40
4.5
  1
P.P
  0
SOLID
  8
L-ZISSEN
 10
1027.707973
 20
438.10003
 30
0.0
 11
1028.285911
 21
438.432344
 31
0.0
 12
1027.0
 22
440.0
 32
0.0
 13
1027.0
 23
440.0
 33
0.0
  0
LINE
  8
L-ZISSEN
 10
1027.996942
 20
438.266187
 30
0.0
 11
1050.0
 21
400.0
 31
0.0
  0
LINE
  8
L-ZISSEN
 10
1050.0
 20
400.0
 30
0.0
 11
1052.0
 21
400.0
 31
0.0
  0
TEXT
  8
L-ZISSEN
 10
1054.0
 20
397.75
 30
0.0
 40
4.5
  1
P.P
  0
TEXT
  8
L-ZISSEN
 10
1049.0
 20
52.75
 30
0.0
 40
4.5
  1
P.P
  0
LINE
  8
L-ZISSEN
 10
1045.0
 20
55.0
 30
0.0
 11
1047.0
 21
55.0
 31
0.0
  0
LINE
  8
L-ZISSEN
 10
1028.375489
 20
72.548095
 30
0.0
 11
1045.0
 21
55.0
 31
0.0
  0
SOLID
  8
L-ZISSEN
 10
1028.133505
 20
72.318846
 30
0.0
 11
1028.617474
 21
72.777343
 31
0.0
 12
1027.0
 22
74.0
 32
0.0
 13
1027.0
 23
74.0
 33
0.0
  0
TEXT
  8
L-ZISSEN
 10
1249.0
 20
52.75
 30
0.0
 40
4.5
  1
P.P
  0
LINE
  8
L-ZISSEN
 10
1245.0
 20
55.0
 30
0.0
 11
1247.0
 21
55.0
 31
0.0
  0
LINE
  8
L-ZISSEN
 10
1231.239289
 20
72.430234
 30
0.0
 11
1245.0
 21
55.0
 31
0.0
  0
SOLID
  8
L-ZISSEN
 10
1230.977661
 20
72.223686
 30
0.0
 11
1231.500916
 21
72.636783
 31
0.0
 12
1230.0
 22
74.0
 32
0.0
 13
1230.0
 23
74.0
 33
0.0
  0
TEXT
  8
L-ZISSEN
 10
1054.0
 20
147.75
 30
0.0
 40
4.5
  1
P.P
  0
LINE
  8
L-ZISSEN
 10
1050.0
 20
150.0
 30
0.0
 11
1052.0
 21
150.0
 31
0.0
  0
LINE
  8
L-ZISSEN
 10
1027.996942
 20
188.266187
 30
0.0
 11
1050.0
 21
150.0
 31
0.0
  0
SOLID
  8
L-ZISSEN
 10
1027.707973
 20
188.10003
 30
0.0
 11
1028.285911
 21
188.432344
 31
0.0
 12
1027.0
 22
190.0
 32
0.0
 13
1027.0
 23
190.0
 33
0.0
  0
SOLID
  8
L-ZISSEN
 10
110.596285
 20
408.062074
 30
0.0
 11
111.19257
 21
408.360217
 31
0.0
 12
110.0
 22
410.0
 32
0.0
 13
110.0
 23
410.0
 33
0.0
  0
LINE
  8
L-ZISSEN
 10
110.894427
 20
408.211146
 30
0.0
 11
135.0
 21
360.0
 31
0.0
  0
LINE
  8
L-ZISSEN
 10
135.0
 20
360.0
 30
0.0
 11
137.0
 21
360.0
 31
0.0
  0
TEXT
  8
L-ZISSEN
 10
139.0
 20
357.75
 30
0.0
 40
4.5
  1
P.P
  0
SOLID
  8
L-ZISSEN
 10
1377.935184
 20
691.799039
 30
0.0
 11
1377.301161
 21
692.005097
 31
0.0
 12
1377.0
 22
690.0
 32
0.0
 13
1377.0
 23
690.0
 33
0.0
  0
LINE
  8
L-ZISSEN
 10
1377.618172
 20
691.902068
 30
0.0
 11
1390.0
 21
730.0
 31
0.0
  0
LINE
  8
L-ZISSEN
 10
1390.0
 20
730.0
 30
0.0
 11
1392.0
 21
730.0
 31
0.0
  0
TEXT
  8
L-ZISSEN
 10
1394.0
 20
727.75
 30
0.0
 40
4.5
  1
P.P
  0
SOLID
  8
L-ZISSEN
 10
1377.935184
 20
941.799039
 30
0.0
 11
1377.301161
 21
942.005097
 31
0.0
 12
1377.0
 22
940.0
 32
0.0
 13
1377.0
 23
940.0
 33
0.0
  0
LINE
  8
L-ZISSEN
 10
1377.618172
 20
941.902068
 30
0.0
 11
1390.0
 21
980.0
 31
0.0
  0
TEXT
  8
L-ZISSEN
 10
1394.0
 20
977.75
 30
0.0
 40
4.5
  1
P.P
  0
LINE
  8
L-ZISSEN
 10
1390.0
 20
980.0
 30
0.0
 11
1392.0
 21
980.0
 31
0.0
  0
LINE
  8
L-ZISSEN
 10
253.0
 20
146.0
 30
0.0
 11
253.0
 21
153.5
 31
0.0
  0
LINE
  8
L-ZISSEN
 10
243.0
 20
146.0
 30
0.0
 11
243.0
 21
153.5
 31
0.0
  0
LINE
  8
L-ZISSEN
 10
287.0
 20
146.0
 30
0.0
 11
287.0
 21
153.5
 31
0.0
  0
LINE
  8
L-ZISSEN
 10
297.5
 20
146.0
 30
0.0
 11
242.5
 21
146.0
 31
0.0
  0
LINE
  8
L-ZISSEN
 10
297.0
 20
146.0
 30
0.0
 11
297.0
 21
153.5
 31
0.0
  0
TEXT
  8
L-ZISSEN
 10
1054.0
 20
897.75
 30
0.0
 40
4.5
  1
P.P
  0
LINE
  8
L-ZISSEN
 10
1050.0
 20
900.0
 30
0.0
 11
1052.0
 21
900.0
 31
0.0
  0
LINE
  8
L-ZISSEN
 10
1027.996942
 20
938.266187
 30
0.0
 11
1050.0
 21
900.0
 31
0.0
  0
SOLID
  8
L-ZISSEN
 10
1027.707973
 20
938.10003
 30
0.0
 11
1028.285911
 21
938.432344
 31
0.0
 12
1027.0
 22
940.0
 32
0.0
 13
1027.0
 23
940.0
 33
0.0
  0
TEXT
  8
L-ZISSEN
 10
1049.0
 20
802.75
 30
0.0
 40
4.5
  1
P.P
  0
LINE
  8
L-ZISSEN
 10
1045.0
 20
805.0
 30
0.0
 11
1047.0
 21
805.0
 31
0.0
  0
LINE
  8
L-ZISSEN
 10
1028.375489
 20
822.548095
 30
0.0
 11
1045.0
 21
805.0
 31
0.0
  0
SOLID
  8
L-ZISSEN
 10
1028.133505
 20
822.318846
 30
0.0
 11
1028.617474
 21
822.777343
 31
0.0
 12
1027.0
 22
824.0
 32
0.0
 13
1027.0
 23
824.0
 33
0.0
  0
TEXT
  8
L-ZISSEN
 10
1249.0
 20
802.75
 30
0.0
 40
4.5
  1
P.P
  0
LINE
  8
L-ZISSEN
 10
1245.0
 20
805.0
 30
0.0
 11
1247.0
 21
805.0
 31
0.0
  0
LINE
  8
L-ZISSEN
 10
1231.239289
 20
822.430234
 30
0.0
 11
1245.0
 21
805.0
 31
0.0
  0
SOLID
  8
L-ZISSEN
 10
1230.977661
 20
822.223686
 30
0.0
 11
1231.500916
 21
822.636783
 31
0.0
 12
1230.0
 22
824.0
 32
0.0
 13
1230.0
 23
824.0
 33
0.0
  0
TEXT
  8
L-ZISSEN
 10
1015.0
 20
995.0
 30
0.0
 40
4.5
  1
AC-200V
  0
TEXT
  8
L-ZISSEN
 10
1015.0
 20
1005.0
 30
0.0
 40
4.5
  1
AC-100V
  0
TEXT
  8
L-ZISSEN
 10
910.0
 20
1010.0
 30
0.0
 40
4.5
  1
PILOT VALVE
  0
TEXT
  8
L-ZISSEN
 10
910.0
 20
1000.0
 30
0.0
 40
4.5
  1
MODEL NO. : 368-*00-9*B0
  0
LINE
  8
L-ZISSEN
  6
CONTINUOUS
 62
     7
 10
979.9
 20
966.0
 30
0.0
 11
933.9
 21
964.393644
 31
0.0
  0
LINE
  8
L-ZISSEN
  6
CONTINUOUS
 62
     7
 10
933.9
 20
915.606356
 30
0.0
 11
933.9
 21
964.393644
 31
0.0
  0
LINE
  8
L-ZISSEN
  6
CONTINUOUS
 62
     7
 10
979.9
 20
914.0
 30
0.0
 11
933.9
 21
915.606356
 31
0.0
  0
LINE
  8
L-ZISSEN
  6
CONTINUOUS
 62
     7
 10
1074.1
 20
914.0
 30
0.0
 11
1120.1
 21
915.606356
 31
0.0
  0
LINE
  8
L-ZISSEN
  6
CONTINUOUS
 62
     7
 10
1120.1
 20
915.606356
 30
0.0
 11
1120.1
 21
964.393644
 31
0.0
  0
LINE
  8
L-ZISSEN
  6
CONTINUOUS
 62
     7
 10
1074.1
 20
966.0
 30
0.0
 11
1120.1
 21
964.393644
 31
0.0
  0
LINE
  8
L-ZISSEN
  6
CONTINUOUS
 62
     7
 10
989.9
 20
824.0
 30
0.0
 11
989.9
 21
876.0
 31
0.0
  0
LINE
  8
L-ZISSEN
  6
CONTINUOUS
 62
     7
 10
989.9
 20
824.0
 30
0.0
 11
989.9
 21
876.0
 31
0.0
  0
LINE
  8
L-ZISSEN
 10
992.0
 20
876.0
 30
0.0
 11
979.9
 21
876.0
 31
0.0
  0
LINE
  8
L-ZISSEN
  6
CONTINUOUS
 62
     7
 10
979.9
 20
824.0
 30
0.0
 11
933.9
 21
825.606356
 31
0.0
  0
LINE
  8
L-ZISSEN
  6
CONTINUOUS
 62
     7
 10
933.9
 20
825.606356
 30
0.0
 11
933.9
 21
874.393644
 31
0.0
  0
LINE
  8
L-ZISSEN
  6
CONTINUOUS
 62
     7
 10
979.9
 20
876.0
 30
0.0
 11
933.9
 21
874.393644
 31
0.0
  0
LINE
  8
L-ZISSEN
  6
CONTINUOUS
 62
     7
 10
1074.1
 20
876.0
 30
0.0
 11
1120.1
 21
874.393644
 31
0.0
  0
LINE
  8
L-ZISSEN
  6
CONTINUOUS
 62
     7
 10
1120.1
 20
825.606356
 30
0.0
 11
1120.1
 21
874.393644
 31
0.0
  0
LINE
  8
L-ZISSEN
  6
CONTINUOUS
 62
     7
 10
1074.1
 20
824.0
 30
0.0
 11
1120.1
 21
825.606356
 31
0.0
  0
LINE
  8
L-ZISSEN
 10
1062.0
 20
876.0
 30
0.0
 11
1074.1
 21
876.0
 31
0.0
  0
LINE
  8
L-ZISSEN
 10
979.9
 20
824.0
 30
0.0
 11
1074.1
 21
824.0
 31
0.0
  0
LINE
  8
L-ZISSEN
  6
CONTINUOUS
 62
     7
 10
1064.1
 20
824.0
 30
0.0
 11
1064.1
 21
876.0
 31
0.0
  0
CIRCLE
  8
L-ZISSEN
 10
1027.0
 20
871.0
 30
0.0
 40
9.3155
  0
LINE
  8
L-ZISSEN
  6
CONTINUOUS
 62
     7
 10
999.5
 20
889.1
 30
0.0
 11
992.5
 21
889.1
 31
0.0
  0
LINE
  8
L-ZISSEN
  6
CONTINUOUS
 62
     7
 10
999.5
 20
885.5
 30
0.0
 11
999.5
 21
889.1
 31
0.0
  0
LINE
  8
L-ZISSEN
  6
CONTINUOUS
 62
     7
 10
992.5
 20
885.5
 30
0.0
 11
992.5
 21
889.1
 31
0.0
  0
LINE
  8
L-ZISSEN
  6
CONTINUOUS
 62
     7
 10
992.0
 20
885.5
 30
0.0
 11
992.0
 21
876.0
 31
0.0
  0
LINE
  8
L-ZISSEN
  6
CONTINUOUS
 62
     7
 10
1061.5
 20
885.5
 30
0.0
 11
1061.5
 21
889.1
 31
0.0
  0
LINE
  8
L-ZISSEN
  6
CONTINUOUS
 62
     7
 10
1054.5
 20
885.5
 30
0.0
 11
1054.5
 21
889.1
 31
0.0
  0
LINE
  8
L-ZISSEN
  6
CONTINUOUS
 62
     7
 10
1054.5
 20
889.1
 30
0.0
 11
1061.5
 21
889.1
 31
0.0
  0
LINE
  8
L-ZISSEN
  6
CONTINUOUS
 62
     7
 10
1019.5
 20
884.0
 30
0.0
 11
1019.5
 21
881.618381
 31
0.0
  0
LINE
  8
L-ZISSEN
  6
CONTINUOUS
 62
     7
 10
1034.5
 20
884.0
 30
0.0
 11
1034.5
 21
881.618381
 31
0.0
  0
ARC
  8
L-ZISSEN
  6
CONTINUOUS
 62
     7
 10
1027.0
 20
871.0
 30
0.0
 40
13.0
 50
125.234418
 51
54.765582
  0
LINE
  8
L-ZISSEN
  6
CONTINUOUS
 62
     7
 10
1064.1
 20
824.0
 30
0.0
 11
1064.1
 21
876.0
 31
0.0
  0
LINE
  8
L-ZISSEN
  6
CONTINUOUS
 62
     7
 10
992.0
 20
885.5
 30
0.0
 11
1061.9
 21
885.5
 31
0.0
  0
LINE
  8
L-ZISSEN
  6
CONTINUOUS
 62
     7
 10
1062.0
 20
885.5
 30
0.0
 11
1062.0
 21
876.0
 31
0.0
  0
LINE
  8
L-ZISSEN
  6
CONTINUOUS
 62
     7
 10
1061.9
 20
884.0
 30
0.0
 11
992.0
 21
884.0
 31
0.0
  0
LINE
  8
L-ZISSEN
 10
1074.1
 20
914.0
 30
0.0
 11
979.9
 21
914.0
 31
0.0
  0
LINE
  8
L-ZISSEN
 10
1062.0
 20
914.0
 30
0.0
 11
1062.0
 21
966.0
 31
0.0
  0
LINE
  8
L-ZISSEN
  6
CONTINUOUS
 62
     7
 10
1064.1
 20
914.0
 30
0.0
 11
1064.1
 21
966.0
 31
0.0
  0
LINE
  8
L-ZISSEN
 10
1014.0
 20
912.0
 30
0.0
 11
1014.0
 21
914.0
 31
0.0
  0
LINE
  8
L-ZISSEN
 10
1040.0
 20
912.0
 30
0.0
 11
1014.0
 21
912.0
 31
0.0
  0
LINE
  8
L-ZISSEN
 10
1040.0
 20
912.0
 30
0.0
 11
1040.0
 21
914.0
 31
0.0
  0
LINE
  8
L-ZISSEN
 10
1074.1
 20
966.0
 30
0.0
 11
979.9
 21
966.0
 31
0.0
  0
LINE
  8
L-ZISSEN
 10
1040.0
 20
968.0
 30
0.0
 11
1040.0
 21
966.0
 31
0.0
  0
LINE
  8
L-ZISSEN
 10
1040.0
 20
968.0
 30
0.0
 11
1014.0
 21
968.0
 31
0.0
  0
LINE
  8
L-ZISSEN
 10
1014.0
 20
968.0
 30
0.0
 11
1014.0
 21
966.0
 31
0.0
  0
LINE
  8
L-ZISSEN
  6
CONTINUOUS
 62
     7
 10
1255.5
 20
885.5
 30
0.0
 11
1255.5
 21
889.1
 31
0.0
  0
LINE
  8
L-ZISSEN
  6
CONTINUOUS
 62
     7
 10
1248.5
 20
885.5
 30
0.0
 11
1248.5
 21
889.1
 31
0.0
  0
LINE
  8
L-ZISSEN
  6
CONTINUOUS
 62
     7
 10
1248.5
 20
889.1
 30
0.0
 11
1255.5
 21
889.1
 31
0.0
  0
LINE
  8
L-ZISSEN
 10
1256.0
 20
858.0
 30
0.0
 11
1258.0
 21
858.0
 31
0.0
  0
LINE
  8
L-ZISSEN
 10
1202.0
 20
858.0
 30
0.0
 11
1204.0
 21
858.0
 31
0.0
  0
LINE
  8
L-ZISSEN
  6
CONTINUOUS
 62
     7
 10
1211.5
 20
889.1
 30
0.0
 11
1204.5
 21
889.1
 31
0.0
  0
LINE
  8
L-ZISSEN
  6
CONTINUOUS
 62
     7
 10
1211.5
 20
885.5
 30
0.0
 11
1211.5
 21
889.1
 31
0.0
  0
LINE
  8
L-ZISSEN
  6
CONTINUOUS
 62
     7
 10
1204.5
 20
885.5
 30
0.0
 11
1204.5
 21
889.1
 31
0.0
  0
LINE
  8
L-ZISSEN
 10
1258.0
 20
858.0
 30
0.0
 11
1258.0
 21
884.0
 31
0.0
  0
LINE
  8
L-ZISSEN
 10
1204.0
 20
885.5
 30
0.0
 11
1256.0
 21
885.5
 31
0.0
  0
LINE
  8
L-ZISSEN
 10
1202.0
 20
884.0
 30
0.0
 11
1258.0
 21
884.0
 31
0.0
  0
LINE
  8
L-ZISSEN
 10
1256.0
 20
885.5
 30
0.0
 11
1256.0
 21
824.0
 31
0.0
  0
LINE
  8
L-ZISSEN
 10
1202.0
 20
858.0
 30
0.0
 11
1202.0
 21
884.0
 31
0.0
  0
LINE
  8
L-ZISSEN
 10
1204.0
 20
876.0
 30
0.0
 11
1256.0
 21
876.0
 31
0.0
  0
LINE
  8
L-ZISSEN
 10
1204.0
 20
824.0
 30
0.0
 11
1204.0
 21
885.5
 31
0.0
  0
LINE
  8
L-ZISSEN
 10
1204.0
 20
824.0
 30
0.0
 11
1256.0
 21
824.0
 31
0.0
  0
LINE
  8
L-ZISSEN
  6
CONTINUOUS
 62
     7
 10
989.9
 20
914.0
 30
0.0
 11
989.9
 21
966.0
 31
0.0
  0
LINE
  8
L-ZISSEN
 10
992.0
 20
914.0
 30
0.0
 11
992.0
 21
966.0
 31
0.0
  0
LINE
  8
L-ZISSEN
  6
CONTINUOUS
 62
     7
 10
989.9
 20
824.0
 30
0.0
 11
989.9
 21
876.0
 31
0.0
  0
LINE
  8
L-ZISSEN
  6
CONTINUOUS
 62
     7
 10
989.9
 20
824.0
 30
0.0
 11
989.9
 21
876.0
 31
0.0
  0
CIRCLE
  8
L-ZISSEN
 10
1058.0
 20
918.0
 30
0.0
 40
3.5
  0
CIRCLE
  8
L-ZISSEN
 10
996.0
 20
918.0
 30
0.0
 40
3.5
  0
CIRCLE
  8
L-ZISSEN
 10
996.0
 20
962.0
 30
0.0
 40
3.5
  0
CIRCLE
  8
L-ZISSEN
 10
1058.0
 20
962.0
 30
0.0
 40
3.5
  0
LINE
  8
L-ZISSEN
  6
CONTINUOUS
 62
     7
 10
1121.1
 20
951.0
 30
0.0
 11
1120.1
 21
951.0
 31
0.0
  0
LINE
  8
L-ZISSEN
  6
CONTINUOUS
 62
     7
 10
1121.1
 20
951.0
 30
0.0
 11
1121.1
 21
929.0
 31
0.0
  0
LINE
  8
L-ZISSEN
  6
CONTINUOUS
 62
     7
 10
1121.1
 20
929.0
 30
0.0
 11
1120.1
 21
929.0
 31
0.0
  0
CIRCLE
  8
L-ZISSEN
 10
1230.0
 20
850.0
 30
0.0
 40
11.0
  0
LINE
  8
L-ZISSEN
  6
CONTINUOUS
 62
     7
 10
932.9
 20
929.0
 30
0.0
 11
933.9
 21
929.0
 31
0.0
  0
LINE
  8
L-ZISSEN
  6
CONTINUOUS
 62
     7
 10
932.9
 20
951.0
 30
0.0
 11
932.9
 21
929.0
 31
0.0
  0
LINE
  8
L-ZISSEN
  6
CONTINUOUS
 62
     7
 10
932.9
 20
951.0
 30
0.0
 11
933.9
 21
951.0
 31
0.0
  0
LINE
  8
L-ZISSEN
  6
CONTINUOUS
 62
     7
 10
932.9
 20
861.0
 30
0.0
 11
933.9
 21
861.0
 31
0.0
  0
LINE
  8
L-ZISSEN
  6
CONTINUOUS
 62
     7
 10
932.9
 20
861.0
 30
0.0
 11
932.9
 21
839.0
 31
0.0
  0
LINE
  8
L-ZISSEN
  6
CONTINUOUS
 62
     7
 10
932.9
 20
839.0
 30
0.0
 11
933.9
 21
839.0
 31
0.0
  0
LINE
  8
L-ZISSEN
  6
CONTINUOUS
 62
     7
 10
1121.1
 20
839.0
 30
0.0
 11
1120.1
 21
839.0
 31
0.0
  0
LINE
  8
L-ZISSEN
  6
CONTINUOUS
 62
     7
 10
1121.1
 20
861.0
 30
0.0
 11
1121.1
 21
839.0
 31
0.0
  0
LINE
  8
L-ZISSEN
  6
CONTINUOUS
 62
     7
 10
1121.1
 20
861.0
 30
0.0
 11
1120.1
 21
861.0
 31
0.0
  0
SOLID
  8
L-ZISSEN
 10
167.120951
 20
198.31045
 30
0.0
 11
167.608322
 21
198.765329
 31
0.0
 12
166.0
 22
200.0
 32
0.0
 13
166.0
 23
200.0
 33
0.0
  0
LINE
  8
L-ZISSEN
 10
167.364637
 20
198.537889
 30
0.0
 11
180.0
 21
185.0
 31
0.0
  0
LINE
  8
L-ZISSEN
 10
180.0
 20
185.0
 30
0.0
 11
182.0
 21
185.0
 31
0.0
  0
TEXT
  8
L-ZISSEN
 10
184.0
 20
182.75
 30
0.0
 40
4.5
  1
IN
  0
TEXT
  8
L-ZISSEN
 10
185.0
 20
175.0
 30
0.0
 40
4.5
  1
Rc 1/2
  0
TEXT
  8
L-ZISSEN
 10
185.0
 20
165.0
 30
0.0
 40
4.5
  1
Rc 3/4
  0
TEXT
  8
L-ZISSEN
 10
185.0
 20
155.0
 30
0.0
 40
4.5
  1
Rc 1
  0
TEXT
  8
L-ZISSEN
 10
185.0
 20
145.0
 30
0.0
 40
4.5
  1
Rc 1-1/4
  0
TEXT
  8
L-ZISSEN
 10
128.0
 20
499.0
 30
0.0
 40
4.5
  1
0
  0
TEXT
  8
L-ZISSEN
 10
128.0
 20
493.0
 30
0.0
 40
4.5
  1
1
  0
TEXT
  8
L-ZISSEN
 10
106.0
 20
505.0
 30
0.0
 40
4.5
  1
4
  0
TEXT
  8
L-ZISSEN
 10
106.0
 20
499.0
 30
0.0
 40
4.5
  1
6
  0
TEXT
  8
L-ZISSEN
 10
106.0
 20
493.0
 30
0.0
 40
4.5
  1
8
  0
TEXT
  8
L-ZISSEN
 10
106.0
 20
487.0
 30
0.0
 40
4.5
  1
A
  0
SOLID
  8
L-ZISSEN
 10
1375.664824
 20
575.525915
 30
0.0
 11
1375.242105
 21
575.010403
 31
0.0
 12
1377.0
 22
574.0
 32
0.0
 13
1377.0
 23
574.0
 33
0.0
  0
LINE
  8
L-ZISSEN
 10
1375.453464
 20
575.268159
 30
0.0
 11
1327.0
 21
615.0
 31
0.0
  0
LINE
  8
L-ZISSEN
 10
1327.0
 20
615.0
 30
0.0
 11
1325.0
 21
615.0
 31
0.0
  0
TEXT
  8
L-ZISSEN
 10
1314.0
 20
612.75
 30
0.0
 40
4.5
  1
P.P
  0
TEXT
  8
L-ZISSEN
 10
1314.0
 20
862.75
 30
0.0
 40
4.5
  1
P.P
  0
LINE
  8
L-ZISSEN
 10
1327.0
 20
865.0
 30
0.0
 11
1325.0
 21
865.0
 31
0.0
  0
LINE
  8
L-ZISSEN
 10
1375.453464
 20
825.268159
 30
0.0
 11
1327.0
 21
865.0
 31
0.0
  0
SOLID
  8
L-ZISSEN
 10
1375.664824
 20
825.525915
 30
0.0
 11
1375.242105
 21
825.010403
 31
0.0
 12
1377.0
 22
824.0
 32
0.0
 13
1377.0
 23
824.0
 33
0.0
  0
SOLID
  8
L-ZISSEN
 10
1481.941569
 20
574.584311
 30
0.0
 11
1481.647113
 21
575.182425
 31
0.0
 12
1480.0
 22
574.0
 32
0.0
 13
1480.0
 23
574.0
 33
0.0
  0
LINE
  8
L-ZISSEN
 10
1481.794341
 20
574.883368
 30
0.0
 11
1512.5
 21
590.0
 31
0.0
  0
LINE
  8
L-ZISSEN
 10
1512.5
 20
590.0
 30
0.0
 11
1514.5
 21
590.0
 31
0.0
  0
TEXT
  8
L-ZISSEN
 10
1516.5
 20
587.75
 30
0.0
 40
4.5
  1
P.P
  0
TEXT
  8
L-ZISSEN
 10
1516.5
 20
837.75
 30
0.0
 40
4.5
  1
P.P
  0
LINE
  8
L-ZISSEN
 10
1512.5
 20
840.0
 30
0.0
 11
1514.5
 21
840.0
 31
0.0
  0
LINE
  8
L-ZISSEN
 10
1481.794341
 20
824.883368
 30
0.0
 11
1512.5
 21
840.0
 31
0.0
  0
SOLID
  8
L-ZISSEN
 10
1481.941569
 20
824.584311
 30
0.0
 11
1481.647113
 21
825.182425
 31
0.0
 12
1480.0
 22
824.0
 32
0.0
 13
1480.0
 23
824.0
 33
0.0
  0
TEXT
  8
L-ZISSEN
 10
910.0
 20
750.0
 30
0.0
 40
4.5
  1
MODEL NO. : 368-*00-9*B0
  0
TEXT
  8
L-ZISSEN
 10
910.0
 20
250.0
 30
0.0
 40
4.5
  1
MODEL NO. : 368-*00-9*R0
  0
LINE
  8
L-ZISSEN
 10
74.0
 20
41.3
 30
0.0
 11
84.0
 21
41.3
 31
0.0
  0
LINE
  8
L-ZISSEN
 10
84.0
 20
41.3
 30
0.0
 11
84.0
 21
48.8
 31
0.0
  0
LINE
  8
L-ZISSEN
 10
74.0
 20
41.3
 30
0.0
 11
74.0
 21
48.8
 31
0.0
  0
LINE
  8
L-ZISSEN
 10
146.0
 20
41.3
 30
0.0
 11
146.0
 21
48.8
 31
0.0
  0
LINE
  8
L-ZISSEN
 10
136.0
 20
41.3
 30
0.0
 11
136.0
 21
48.8
 31
0.0
  0
LINE
  8
L-ZISSEN
 10
146.0
 20
41.3
 30
0.0
 11
136.0
 21
41.3
 31
0.0
  0
LINE
  8
L-ZISSEN
 10
150.0
 20
48.8
 30
0.0
 11
150.0
 21
29.0
 31
0.0
  0
LINE
  8
L-ZISSEN
 10
153.2
 20
52.0
 30
0.0
 11
153.2
 21
32.2
 31
0.0
  0
LINE
  8
L-ZISSEN
 10
150.0
 20
29.0
 30
0.0
 11
180.0
 21
29.0
 31
0.0
  0
LINE
  8
L-ZISSEN
 10
180.0
 20
32.2
 30
0.0
 11
180.0
 21
29.0
 31
0.0
  0
LINE
  8
L-ZISSEN
 10
153.2
 20
32.2
 30
0.0
 11
180.0
 21
32.2
 31
0.0
  0
LINE
  8
L-ZISSEN
 10
66.8
 20
32.2
 30
0.0
 11
40.0
 21
32.2
 31
0.0
  0
LINE
  8
L-ZISSEN
 10
150.0
 20
48.8
 30
0.0
 11
70.0
 21
48.8
 31
0.0
  0
LINE
  8
L-ZISSEN
 10
66.8
 20
52.0
 30
0.0
 11
66.8
 21
32.2
 31
0.0
  0
LINE
  8
L-ZISSEN
 10
70.0
 20
48.8
 30
0.0
 11
70.0
 21
29.0
 31
0.0
  0
LINE
  8
L-ZISSEN
 10
40.0
 20
32.2
 30
0.0
 11
40.0
 21
29.0
 31
0.0
  0
LINE
  8
L-ZISSEN
 10
70.0
 20
29.0
 30
0.0
 11
40.0
 21
29.0
 31
0.0
  0
LINE
  8
L-ZISSEN
 10
61.5
 20
62.5
 30
0.0
 11
54.0
 21
62.5
 31
0.0
  0
LINE
  8
L-ZISSEN
 10
61.5
 20
54.0
 30
0.0
 11
61.5
 21
64.0
 31
0.0
  0
LINE
  8
L-ZISSEN
 10
61.5
 20
64.0
 30
0.0
 11
69.0
 21
64.0
 31
0.0
  0
LINE
  8
L-ZISSEN
 10
61.5
 20
54.0
 30
0.0
 11
69.0
 21
54.0
 31
0.0
  0
LINE
  8
L-ZISSEN
 10
61.5
 20
116.0
 30
0.0
 11
69.0
 21
116.0
 31
0.0
  0
LINE
  8
L-ZISSEN
 10
61.5
 20
106.0
 30
0.0
 11
69.0
 21
106.0
 31
0.0
  0
LINE
  8
L-ZISSEN
 10
61.5
 20
116.0
 30
0.0
 11
61.5
 21
106.0
 31
0.0
  0
LINE
  8
L-TYUSIN
  6
CENTER
 62
     1
 10
49.0
 20
85.0
 30
0.0
 11
200.1
 21
85.0
 31
0.0
  0
LINE
  8
L-ZISSEN
 10
61.5
 20
107.5
 30
0.0
 11
54.0
 21
107.5
 31
0.0
  0
LINE
  8
L-ZISSEN
 10
69.0
 20
118.0
 30
0.0
 11
69.0
 21
52.0
 31
0.0
  0
LINE
  8
L-ZISSEN
 10
54.0
 20
107.5
 30
0.0
 11
54.0
 21
62.5
 31
0.0
  0
LINE
  8
L-ZISSEN
 10
151.0
 20
118.0
 30
0.0
 11
151.0
 21
52.0
 31
0.0
  0
LINE
  8
L-ZISSEN
 10
153.2
 20
52.0
 30
0.0
 11
66.8
 21
52.0
 31
0.0
  0
LINE
  8
L-ZISSEN
 10
87.0
 20
118.0
 30
0.0
 11
69.0
 21
118.0
 31
0.0
  0
LINE
  8
L-ZISSEN
 10
151.0
 20
118.0
 30
0.0
 11
125.0
 21
118.0
 31
0.0
  0
LINE
  8
L-ZISSEN
 10
125.0
 20
53.5
 30
0.0
 11
87.0
 21
53.5
 31
0.0
  0
LINE
  8
L-ZISSEN
 10
125.0
 20
116.5
 30
0.0
 11
87.0
 21
116.5
 31
0.0
  0
LINE
  8
L-ZISSEN
  6
CONTINUOUS
 62
     7
 10
158.5
 20
108.136824
 30
0.0
 11
194.1
 21
106.893644
 31
0.0
  0
LINE
  8
L-ZISSEN
  6
CONTINUOUS
 62
     7
 10
194.1
 20
106.893644
 30
0.0
 11
194.1
 21
58.106356
 31
0.0
  0
LINE
  8
L-ZISSEN
  6
CONTINUOUS
 62
     7
 10
195.1
 20
71.5
 30
0.0
 11
194.1
 21
71.5
 31
0.0
  0
LINE
  8
L-ZISSEN
  6
CONTINUOUS
 62
     7
 10
195.1
 20
71.5
 30
0.0
 11
195.1
 21
93.5
 31
0.0
  0
LINE
  8
L-ZISSEN
  6
CONTINUOUS
 62
     7
 10
195.1
 20
93.5
 30
0.0
 11
194.1
 21
93.5
 31
0.0
  0
LINE
  8
L-ZISSEN
  6
CONTINUOUS
 62
     7
 10
158.5
 20
56.863176
 30
0.0
 11
194.1
 21
58.106356
 31
0.0
  0
LINE
  8
L-TYUSIN
  6
CENTER
 62
     1
 10
110.0
 20
121.5
 30
0.0
 11
110.0
 21
43.8
 31
0.0
  0
LINE
  8
L-ZISSEN
 10
141.0
 20
146.0
 30
0.0
 11
79.0
 21
146.0
 31
0.0
  0
LINE
  8
L-ZISSEN
 10
143.0
 20
153.5
 30
0.0
 11
77.0
 21
153.5
 31
0.0
  0
LINE
  8
L-ZISSEN
 10
242.5
 20
146.0
 30
0.0
 11
242.5
 21
153.5
 31
0.0
  0
LINE
  8
L-ZISSEN
 10
297.5
 20
146.0
 30
0.0
 11
297.5
 21
153.5
 31
0.0
  0
LINE
  8
L-ZISSEN
 10
473.0
 20
153.5
 30
0.0
 11
407.0
 21
153.5
 31
0.0
  0
LINE
  8
L-ZISSEN
 10
471.0
 20
146.0
 30
0.0
 11
409.0
 21
146.0
 31
0.0
  0
LINE
  8
L-ZISSEN
 10
471.0
 20
146.0
 30
0.0
 11
471.0
 21
153.5
 31
0.0
  0
LINE
  8
L-ZISSEN
 10
461.0
 20
146.0
 30
0.0
 11
461.0
 21
153.5
 31
0.0
  0
LINE
  8
L-ZISSEN
 10
473.0
 20
161.0
 30
0.0
 11
407.0
 21
161.0
 31
0.0
  0
LINE
  8
L-ZISSEN
 10
409.0
 20
146.0
 30
0.0
 11
409.0
 21
153.5
 31
0.0
  0
LINE
  8
L-ZISSEN
 10
419.0
 20
146.0
 30
0.0
 11
419.0
 21
153.5
 31
0.0
  0
CIRCLE
  8
L-ZISSEN
 10
110.0
 20
85.0
 30
0.0
 40
27.5
  0
CIRCLE
  8
L-ZISSEN
 10
110.0
 20
85.0
 30
0.0
 40
15.1455
  0
LINE
  8
L-ZISSEN
 10
77.0
 20
113.0
 30
0.0
 11
143.0
 21
113.0
 31
0.0
  0
LINE
  8
L-ZISSEN
 10
77.0
 20
52.0
 30
0.0
 11
77.0
 21
118.0
 31
0.0
  0
LINE
  8
L-ZISSEN
 10
77.0
 20
57.0
 30
0.0
 11
143.0
 21
57.0
 31
0.0
  0
LINE
  8
L-ZISSEN
 10
143.0
 20
52.0
 30
0.0
 11
143.0
 21
118.0
 31
0.0
  0
LINE
  8
L-ZISSEN
 10
166.0
 20
107.5
 30
0.0
 11
166.0
 21
62.5
 31
0.0
  0
LINE
  8
L-ZISSEN
 10
158.5
 20
107.5
 30
0.0
 11
166.0
 21
107.5
 31
0.0
  0
LINE
  8
L-ZISSEN
 10
158.5
 20
116.0
 30
0.0
 11
158.5
 21
106.0
 31
0.0
  0
LINE
  8
L-ZISSEN
 10
158.5
 20
106.0
 30
0.0
 11
151.0
 21
106.0
 31
0.0
  0
LINE
  8
L-ZISSEN
 10
158.5
 20
116.0
 30
0.0
 11
151.0
 21
116.0
 31
0.0
  0
LINE
  8
L-ZISSEN
 10
158.5
 20
54.0
 30
0.0
 11
151.0
 21
54.0
 31
0.0
  0
LINE
  8
L-ZISSEN
 10
158.5
 20
64.0
 30
0.0
 11
151.0
 21
64.0
 31
0.0
  0
LINE
  8
L-ZISSEN
 10
158.5
 20
54.0
 30
0.0
 11
158.5
 21
64.0
 31
0.0
  0
LINE
  8
L-ZISSEN
 10
158.5
 20
62.5
 30
0.0
 11
166.0
 21
62.5
 31
0.0
  0
LINE
  8
L-ZISSEN
 10
158.5
 20
376.5
 30
0.0
 11
151.0
 21
376.5
 31
0.0
  0
LINE
  8
L-ZISSEN
 10
158.5
 20
376.5
 30
0.0
 11
158.5
 21
384.363176
 31
0.0
  0
LINE
  8
L-ZISSEN
 10
158.5
 20
438.5
 30
0.0
 11
151.0
 21
438.5
 31
0.0
  0
LINE
  8
L-ZISSEN
 10
158.5
 20
438.5
 30
0.0
 11
158.5
 21
435.636824
 31
0.0
  0
LINE
  8
L-TYUSIN
  6
CENTER
 62
     1
 10
166.5
 20
468.5
 30
0.0
 11
166.5
 21
455.3
 31
0.0
  0
LINE
  8
L-TYUSIN
  6
CENTER
 62
     1
 10
53.5
 20
468.5
 30
0.0
 11
53.5
 21
455.3
 31
0.0
  0
LINE
  8
L-TYUSIN
  6
CENTER
 62
     1
 10
53.5
 20
37.2
 30
0.0
 11
53.5
 21
24.0
 31
0.0
  0
LINE
  8
L-TYUSIN
  6
CENTER
 62
     1
 10
166.5
 20
37.2
 30
0.0
 11
166.5
 21
24.0
 31
0.0
  0
ARC
  8
L-ZISSEN
 10
132.0
 20
385.5
 30
0.0
 40
5.0
 50
197.457603
 51
342.542397
  0
ARC
  8
L-ZISSEN
 10
88.0
 20
385.5
 30
0.0
 40
5.0
 50
-162.542397
 51
-17.457603
  0
LINE
  8
L-ZISSEN
 10
76.6
 20
392.5
 30
0.0
 11
71.0
 21
392.5
 31
0.0
  0
LINE
  8
L-ZISSEN
 10
78.5
 20
422.5
 30
0.0
 11
71.0
 21
422.5
 31
0.0
  0
LINE
  8
L-ZISSEN
 10
71.0
 20
422.5
 30
0.0
 11
71.0
 21
440.5
 31
0.0
  0
ARC
  8
L-ZISSEN
 10
78.5
 20
407.5
 30
0.0
 40
7.5
 50
90.0
 51
270.0
  0
LINE
  8
L-ZISSEN
 10
77.0
 20
394.5
 30
0.0
 11
77.0
 21
400.151531
 31
0.0
  0
LINE
  8
L-ZISSEN
 10
77.0
 20
414.848469
 30
0.0
 11
77.0
 21
422.5
 31
0.0
  0
LINE
  8
L-ZISSEN
 10
87.0
 20
118.0
 30
0.0
 11
87.0
 21
116.5
 31
0.0
  0
LINE
  8
L-ZISSEN
 10
87.0
 20
52.0
 30
0.0
 11
87.0
 21
53.5
 31
0.0
  0
CIRCLE
  8
L-ZISSEN
 10
136.0
 20
107.0
 30
0.0
 40
5.0
  0
CIRCLE
  8
L-ZISSEN
 10
84.0
 20
107.0
 30
0.0
 40
5.0
  0
CIRCLE
  8
L-ZISSEN
 10
84.0
 20
63.0
 30
0.0
 40
5.0
  0
CIRCLE
  8
L-ZISSEN
 10
136.0
 20
63.0
 30
0.0
 40
5.0
  0
LINE
  8
L-ZISSEN
 10
134.0
 20
183.0
 30
0.0
 11
138.0
 21
183.0
 31
0.0
  0
LINE
  8
L-ZISSEN
 10
416.0
 20
183.0
 30
0.0
 11
412.0
 21
183.0
 31
0.0
  0
LINE
  8
L-ZISSEN
 10
125.0
 20
118.0
 30
0.0
 11
125.0
 21
116.5
 31
0.0
  0
LINE
  8
L-ZISSEN
 10
125.0
 20
53.5
 30
0.0
 11
125.0
 21
52.0
 31
0.0
  0
LINE
  8
L-ZISSEN
 10
125.0
 20
374.5
 30
0.0
 11
125.0
 21
376.0
 31
0.0
  0
LINE
  8
L-ZISSEN
 10
125.0
 20
439.0
 30
0.0
 11
125.0
 21
440.5
 31
0.0
  0
ENDSEC
  0
EOF
